  0
SECTION
  2
HEADER
  9
$ACADVER
  1
AC1012
  9
$DWGCODEPAGE
  3
ANSI_1252
  9
$INSBASE
 10
0.0
 20
0.0
 30
0.0
  9
$EXTMIN
 10
-59.08166338682349
 20
-49.96524631583816
 30
-0.0015258207003583
  9
$EXTMAX
 10
38040.16920373283
 20
8773.244713216907
 30
0.0000000349246037
  9
$LIMMIN
 10
0.0
 20
0.0
  9
$LIMMAX
 10
420.0
 20
297.0
  9
$ORTHOMODE
 70
     0
  9
$REGENMODE
 70
     1
  9
$FILLMODE
 70
     1
  9
$QTEXTMODE
 70
     0
  9
$MIRRTEXT
 70
     1
  9
$DRAGMODE
 70
     2
  9
$LTSCALE
 40
1.0
  9
$OSMODE
 70
   511
  9
$ATTMODE
 70
     1
  9
$TEXTSIZE
 40
2.5
  9
$TRACEWID
 40
1.0
  9
$TEXTSTYLE
  7
STANDARD
  9
$CLAYER
  8
HATCH
  9
$CELTYPE
  6
BYLAYER
  9
$CECOLOR
 62
     1
  9
$CELTSCALE
 40
1.0
  9
$DELOBJ
 70
     1
  9
$DISPSILH
 70
     0
  9
$DIMSCALE
 40
1.0
  9
$DIMASZ
 40
2.5
  9
$DIMEXO
 40
0.625
  9
$DIMDLI
 40
3.75
  9
$DIMRND
 40
0.0
  9
$DIMDLE
 40
0.0
  9
$DIMEXE
 40
1.25
  9
$DIMTP
 40
0.0
  9
$DIMTM
 40
0.0
  9
$DIMTXT
 40
2.5
  9
$DIMCEN
 40
2.5
  9
$DIMTSZ
 40
0.0
  9
$DIMTOL
 70
     0
  9
$DIMLIM
 70
     0
  9
$DIMTIH
 70
     0
  9
$DIMTOH
 70
     0
  9
$DIMSE1
 70
     0
  9
$DIMSE2
 70
     0
  9
$DIMTAD
 70
     1
  9
$DIMZIN
 70
     8
  9
$DIMBLK
  1

  9
$DIMASO
 70
     1
  9
$DIMSHO
 70
     1
  9
$DIMPOST
  1

  9
$DIMAPOST
  1

  9
$DIMALT
 70
     0
  9
$DIMALTD
 70
     3
  9
$DIMALTF
 40
0.03937007874016
  9
$DIMLFAC
 40
1.0
  9
$DIMTOFL
 70
     1
  9
$DIMTVP
 40
0.0
  9
$DIMTIX
 70
     0
  9
$DIMSOXD
 70
     0
  9
$DIMSAH
 70
     0
  9
$DIMBLK1
  1

  9
$DIMBLK2
  1

  9
$DIMSTYLE
  2
ISO-25
  9
$DIMCLRD
 70
     0
  9
$DIMCLRE
 70
     0
  9
$DIMCLRT
 70
     0
  9
$DIMTFAC
 40
1.0
  9
$DIMGAP
 40
0.625
  9
$DIMJUST
 70
     0
  9
$DIMSD1
 70
     0
  9
$DIMSD2
 70
     0
  9
$DIMTOLJ
 70
     0
  9
$DIMTZIN
 70
     8
  9
$DIMALTZ
 70
     0
  9
$DIMALTTZ
 70
     0
  9
$DIMFIT
 70
     3
  9
$DIMUPT
 70
     0
  9
$DIMUNIT
 70
     2
  9
$DIMDEC
 70
     2
  9
$DIMTDEC
 70
     2
  9
$DIMALTU
 70
     2
  9
$DIMALTTD
 70
     3
  9
$DIMTXSTY
  7
STANDARD
  9
$DIMAUNIT
 70
     0
  9
$LUNITS
 70
     2
  9
$LUPREC
 70
     4
  9
$SKETCHINC
 40
1.0
  9
$FILLETRAD
 40
10.0
  9
$AUNITS
 70
     0
  9
$AUPREC
 70
     0
  9
$MENU
  1
.
  9
$ELEVATION
 40
0.0
  9
$PELEVATION
 40
0.0
  9
$THICKNESS
 40
0.0
  9
$LIMCHECK
 70
     0
  9
$BLIPMODE
 70
     0
  9
$CHAMFERA
 40
10.0
  9
$CHAMFERB
 40
10.0
  9
$CHAMFERC
 40
20.0
  9
$CHAMFERD
 40
0.0
  9
$SKPOLY
 70
     0
  9
$TDCREATE
 40
2452627.340234143
  9
$TDUPDATE
 40
2452780.617580555
  9
$TDINDWG
 40
0.0118120370
  9
$TDUSRTIMER
 40
0.0118083333
  9
$USRTIMER
 70
     1
  9
$ANGBASE
 50
0.0
  9
$ANGDIR
 70
     0
  9
$PDMODE
 70
     0
  9
$PDSIZE
 40
0.0
  9
$PLINEWID
 40
0.0
  9
$COORDS
 70
     2
  9
$SPLFRAME
 70
     0
  9
$SPLINETYPE
 70
     6
  9
$SPLINESEGS
 70
     8
  9
$ATTDIA
 70
     0
  9
$ATTREQ
 70
     1
  9
$HANDLING
 70
-16383
  9
$HANDSEED
  5
23AE
  9
$SURFTAB1
 70
     6
  9
$SURFTAB2
 70
     6
  9
$SURFTYPE
 70
     6
  9
$SURFU
 70
     6
  9
$SURFV
 70
     6
  9
$UCSNAME
  2

  9
$UCSORG
 10
0.0
 20
0.0
 30
0.0
  9
$UCSXDIR
 10
1.0
 20
0.0
 30
0.0
  9
$UCSYDIR
 10
0.0
 20
1.0
 30
0.0
  9
$PUCSNAME
  2

  9
$PUCSORG
 10
0.0
 20
0.0
 30
0.0
  9
$PUCSXDIR
 10
1.0
 20
0.0
 30
0.0
  9
$PUCSYDIR
 10
0.0
 20
1.0
 30
0.0
  9
$USERI1
 70
     0
  9
$USERI2
 70
     0
  9
$USERI3
 70
     0
  9
$USERI4
 70
     0
  9
$USERI5
 70
     0
  9
$USERR1
 40
0.0
  9
$USERR2
 40
0.0
  9
$USERR3
 40
0.0
  9
$USERR4
 40
0.0
  9
$USERR5
 40
0.0
  9
$WORLDVIEW
 70
     1
  9
$SHADEDGE
 70
     3
  9
$SHADEDIF
 70
    70
  9
$TILEMODE
 70
     1
  9
$MAXACTVP
 70
    64
  9
$PINSBASE
 10
0.0
 20
0.0
 30
0.0
  9
$PLIMCHECK
 70
     0
  9
$PEXTMIN
 10
0.0
 20
0.0
 30
0.0
  9
$PEXTMAX
 10
0.0
 20
0.0
 30
0.0
  9
$PLIMMIN
 10
0.0
 20
0.0
  9
$PLIMMAX
 10
12.0
 20
9.0
  9
$UNITMODE
 70
     0
  9
$VISRETAIN
 70
     1
  9
$PLINEGEN
 70
     0
  9
$PSLTSCALE
 70
     1
  9
$TREEDEPTH
 70
  3020
  9
$PICKSTYLE
 70
     1
  9
$CMLSTYLE
  2
STANDARD
  9
$CMLJUST
 70
     0
  9
$CMLSCALE
 40
20.0
  9
$SAVEIMAGES
 70
     1
  0
ENDSEC
  0
SECTION
  2
CLASSES
  0
CLASS
  1
ACDBDICTIONARYWDFLT
  2
AcDbDictionaryWithDefault
  3
AutoCAD 2000
 90
    32768
280
     0
281
     0
  0
CLASS
  1
ACDBPLACEHOLDER
  2
AcDbPlaceHolder
  3
AutoCAD 2000
 90
    32768
280
     0
281
     0
  0
CLASS
  1
LAYOUT
  2
AcDbLayout
  3
AutoCAD 2000
 90
    32768
280
     0
281
     0
  0
CLASS
  1
LONG_TRANSACTION
  2
AcDbLongTransaction
  3
AutoCAD 2000
 90
    32768
280
     0
281
     0
  0
CLASS
  1
LWPOLYLINE
  2
AcDbPolyline
  3
AutoCAD 2000
 90
    32768
280
     0
281
     1
  0
CLASS
  1
HATCH
  2
AcDbHatch
  3
AutoCAD 2000
 90
    32768
280
     0
281
     1
  0
CLASS
  1
XRECORD
  2
AcDbXrecord
  3
AutoCAD 2000
 90
    32768
280
     0
281
     0
  0
CLASS
  1
LONG_TRANSACTION
  2
AcDbLongTransaction
  3
AutoCAD 2000
 90
    32768
280
     0
281
     0
  0
CLASS
  1
LWPOLYLINE
  2
AcDbPolyline
  3
AutoCAD 2000
 90
    32768
280
     0
281
     1
  0
CLASS
  1
HATCH
  2
AcDbHatch
  3
AutoCAD 2000
 90
    32768
280
     0
281
     1
  0
CLASS
  1
XRECORD
  2
AcDbXrecord
  3
AutoCAD 2000
 90
    32768
280
     0
281
     0
  0
CLASS
  1
LONG_TRANSACTION
  2
AcDbLongTransaction
  3
AutoCAD 2000
 90
    32768
280
     0
281
     0
  0
CLASS
  1
LWPOLYLINE
  2
AcDbPolyline
  3
AutoCAD 2000
 90
    32768
280
     0
281
     1
  0
CLASS
  1
HATCH
  2
AcDbHatch
  3
AutoCAD 2000
 90
    32768
280
     0
281
     1
  0
CLASS
  1
XRECORD
  2
AcDbXrecord
  3
AutoCAD 2000
 90
    32768
280
     0
281
     0
  0
CLASS
  1
DICTIONARYVAR
  2
AcDbDictionaryVar
  3
AutoCAD 2000
 90
    32768
280
     0
281
     0
  0
CLASS
  1
SORTENTSTABLE
  2
AcDbSortentsTable
  3
AutoCAD 2000
 90
    32768
280
     0
281
     0
  0
CLASS
  1
LONG_TRANSACTION
  2
AcDbLongTransaction
  3
AutoCAD 2000
 90
    32768
280
     0
281
     0
  0
CLASS
  1
LWPOLYLINE
  2
AcDbPolyline
  3
AutoCAD 2000
 90
    32768
280
     0
281
     1
  0
CLASS
  1
HATCH
  2
AcDbHatch
  3
AutoCAD 2000
 90
    32768
280
     0
281
     1
  0
CLASS
  1
XRECORD
  2
AcDbXrecord
  3
AutoCAD 2000
 90
    32768
280
     0
281
     0
  0
ENDSEC
  0
SECTION
  2
TABLES
  0
TABLE
  2
VPORT
  5
8
330
0
100
AcDbSymbolTable
 70
     2
  0
VPORT
  5
216E
330
8
100
AcDbSymbolTableRecord
100
AcDbViewportTableRecord
  2
*ACTIVE
 70
     0
 10
0.0
 20
0.0
 11
1.0
 21
1.0
 12
18990.543770173
 22
4361.639733450534
 13
0.0
 23
0.0
 14
10.0
 24
10.0
 15
10.0
 25
10.0
 16
0.0
 26
0.0
 36
1.0
 17
0.0
 27
0.0
 37
0.0
 40
23108.86683682631
 41
1.659090909090909
 42
50.0
 43
0.0
 44
0.0
 50
0.0
 51
0.0
 71
     0
 72
   100
 73
     1
 74
     3
 75
     0
 76
     0
 77
     0
 78
     0
  0
ENDTAB
  0
TABLE
  2
LTYPE
  5
5
330
0
100
AcDbSymbolTable
 70
     1
  0
LTYPE
  5
14
330
5
100
AcDbSymbolTableRecord
100
AcDbLinetypeTableRecord
  2
BYBLOCK
 70
     0
  3

 72
    65
 73
     0
 40
0.0
  0
LTYPE
  5
15
330
5
100
AcDbSymbolTableRecord
100
AcDbLinetypeTableRecord
  2
BYLAYER
 70
     0
  3

 72
    65
 73
     0
 40
0.0
  0
LTYPE
  5
16
330
5
100
AcDbSymbolTableRecord
100
AcDbLinetypeTableRecord
  2
CONTINUOUS
 70
     0
  3
Solid line
 72
    65
 73
     0
 40
0.0
  0
ENDTAB
  0
TABLE
  2
LAYER
  5
2
330
0
100
AcDbSymbolTable
 70
     5
  0
LAYER
  5
10
330
2
100
AcDbSymbolTableRecord
100
AcDbLayerTableRecord
  2
0
 70
     0
 62
     7
  6
CONTINUOUS
  0
LAYER
  5
5D
330
2
100
AcDbSymbolTableRecord
100
AcDbLayerTableRecord
  2
OBJECT
 70
     0
 62
     7
  6
CONTINUOUS
  0
LAYER
  5
40A
330
2
100
AcDbSymbolTableRecord
100
AcDbLayerTableRecord
  2
SAFETY
 70
     0
 62
     7
  6
CONTINUOUS
  0
LAYER
  5
63C
330
2
100
AcDbSymbolTableRecord
100
AcDbLayerTableRecord
  2
TEKST
 70
     0
 62
     7
  6
CONTINUOUS
  0
LAYER
  5
679
330
2
100
AcDbSymbolTableRecord
100
AcDbLayerTableRecord
  2
HATCH
 70
     0
 62
     7
  6
CONTINUOUS
  0
ENDTAB
  0
TABLE
  2
STYLE
  5
3
330
0
100
AcDbSymbolTable
 70
     1
  0
STYLE
  5
11
330
3
100
AcDbSymbolTableRecord
100
AcDbTextStyleTableRecord
  2
STANDARD
 70
     0
 40
0.0
 41
1.0
 50
0.0
 71
     0
 42
2.5
  3
txt
  4

  0
ENDTAB
  0
TABLE
  2
VIEW
  5
6
330
0
100
AcDbSymbolTable
 70
     0
  0
ENDTAB
  0
TABLE
  2
UCS
  5
7
330
0
100
AcDbSymbolTable
 70
     0
  0
ENDTAB
  0
TABLE
  2
APPID
  5
9
330
0
100
AcDbSymbolTable
 70
     2
  0
APPID
  5
12
330
9
100
AcDbSymbolTableRecord
100
AcDbRegAppTableRecord
  2
ACAD
 70
     0
  0
APPID
  5
635
330
9
100
AcDbSymbolTableRecord
100
AcDbRegAppTableRecord
  2
CONTENTBLOCKICON
 70
     0
  0
ENDTAB
  0
TABLE
  2
DIMSTYLE
  5
A
330
0
100
AcDbSymbolTable
 70
     1
  0
DIMSTYLE
105
27
330
A
100
AcDbSymbolTableRecord
100
AcDbDimStyleTableRecord
  2
ISO-25
 70
     0
  3

  4

  5

  6

  7

 40
1.0
 41
2.5
 42
0.625
 43
3.75
 44
1.25
 45
0.0
 46
0.0
 47
0.0
 48
0.0
140
2.5
141
2.5
142
0.0
143
0.03937007874016
144
1.0
145
0.0
146
1.0
147
0.625
 71
     0
 72
     0
 73
     0
 74
     0
 75
     0
 76
     0
 77
     1
 78
     8
170
     0
171
     3
172
     1
173
     0
174
     0
175
     0
176
     0
177
     0
178
     0
270
     2
271
     2
272
     2
273
     2
274
     3
340
11
275
     0
280
     0
281
     0
282
     0
283
     0
284
     8
285
     0
286
     0
287
     3
288
     0
  0
ENDTAB
  0
TABLE
  2
BLOCK_RECORD
  5
1
330
0
100
AcDbSymbolTable
 70
    12
  0
BLOCK_RECORD
  5
1F
102
{ACAD_XDICTIONARY
360
42D
102
}
330
1
100
AcDbSymbolTableRecord
100
AcDbBlockTableRecord
  2
*MODEL_SPACE
  0
BLOCK_RECORD
  5
50
102
{ACAD_XDICTIONARY
360
42F
102
}
330
1
100
AcDbSymbolTableRecord
100
AcDbBlockTableRecord
  2
*PAPER_SPACE
  0
BLOCK_RECORD
  5
439
330
1
100
AcDbSymbolTableRecord
100
AcDbBlockTableRecord
  2
TDKA
1001
ACAD
1000
DesignCenter Data
1002
{
1070
     1
1070
     4
1002
}
1001
CONTENTBLOCKICON
1071
        0
1004
28000000200000002000000001000800000000000004000000000000000000000000000000000000000000004000000080000000FF000000002000004020000080200000FF200000004000004040000080400000FF400000006000004060000080600000FF600000008000004080000080800000FF80000000A0000040A000
1004
0080A00000FFA0000000C0000040C0000080C00000FFC0000000FF000040FF000080FF0000FFFF0000000020004000200080002000FF002000002020004020200080202000FF202000004020004040200080402000FF402000006020004060200080602000FF602000008020004080200080802000FF80200000A0200040A0
1004
200080A02000FFA0200000C0200040C0200080C02000FFC0200000FF200040FF200080FF2000FFFF2000000040004000400080004000FF004000002040004020400080204000FF204000004040004040400080404000FF404000006040004060400080604000FF604000008040004080400080804000FF80400000A0400040
1004
A0400080A04000FFA0400000C0400040C0400080C04000FFC0400000FF400040FF400080FF4000FFFF4000000060004000600080006000FF006000002060004020600080206000FF206000004060004040600080406000FF406000006060004060600080606000FF606000008060004080600080806000FF80600000A06000
1004
40A0600080A06000FFA0600000C0600040C0600080C06000FFC0600000FF600040FF600080FF6000FFFF6000000080004000800080008000FF008000002080004020800080208000FF208000004080004040800080408000FF408000006080004060800080608000FF608000008080004080800080808000FF80800000A080
1004
0040A0800080A08000FFA0800000C0800040C0800080C08000FFC0800000FF800040FF800080FF8000FFFF80000000A0004000A0008000A000FF00A0000020A0004020A0008020A000FF20A0000040A0004040A0008040A000FF40A0000060A0004060A0008060A000FF60A0000080A0004080A0008080A000FF80A00000A0
1004
A00040A0A00080A0A000FFA0A00000C0A00040C0A00080C0A000FFC0A00000FFA00040FFA00080FFA000FFFFA0000000C0004000C0008000C000FF00C0000020C0004020C0008020C000FF20C0000040C0004040C0008040C000FF40C0000060C0004060C0008060C000FF60C0000080C0004080C0008080C000FF80C00000
1004
A0C00040A0C00080A0C000FFA0C00000C0C00040C0C00080C0C000FFC0C00000FFC00040FFC00080FFC000FFFFC0000000FF004000FF008000FF00FF00FF000020FF004020FF008020FF00FF20FF000040FF004040FF008040FF00FF40FF000060FF004060FF008060FF00FF60FF000080FF004080FF008080FF00FF80FF00
1004
00A0FF0040A0FF0080A0FF00FFA0FF0000C0FF0040C0FF0080C0FF00FFC0FF0000FFFF0040FFFF0080FFFF00FFFFFF0000000000000000000000000000000000000000000000000000000000000000000000000000000000000000000000000000000000000000000000000000000000000000000000000000000000000000
1004
00000000000000000000000000000000000000000000000000000000000000000000000000000000000000000000000000000000000000000000000000000000000000000000000000000000000000000000000000000000000000000000000000000000000000000000000000000000000000000000000000000000000000
1004
00000000000000000000000000000000000000000000000000000000000000000000000000000000000000000000000000000000000000000000000000000000000000000000000000000000000000000000000000000000000000000000000000000000000000000000000000000000000000000000000000000000000000
1004
000000000000000000000000000000000000000000000000000000000000000000000000000000000000000000000000000000000000FFFFFFFFFF00000000000000000000000000000000FFFFFFFFFF0000000000FF0000000000FFFFFFFFFFFFFFFFFFFFFFFFFFFFFFFF0000000000FF000000FFFF494949494900000000
1004
0000000000000000000000004949494949FFFF0000FF0049E0E00049FFFFFFFFFFFFFFFFFFFFFFFFFFFFFFFF4949E0E04900FF0000FF0049E0E04949FFFFFF000000FFFFFF000000000000004900E0E04900FF0000FFFF4949494949000000000000FFFF00000000000000004949494949FFFF000000FF0000000000FFFFFF
1004
FFFFFFFFFFFFFFFFFFFFFFFFFF0000000000FF0000000000FFFFFFFFFF00000000000000000000000000000000FFFFFFFFFF0000000000000000000000000000000000000000000000000000000000000000000000000000000000000000000000000000000000000000000000000000000000000000000000000000000000
1004
00000000000000000000000000000000000000000000000000000000000000000000000000000000000000000000000000000000000000000000000000000000000000000000000000000000000000000000000000000000000000000000000000000000000000000000000000000000000000000000000000000000000000
1004
00000000000000000000000000000000000000000000000000000000000000000000000000000000000000000000000000000000000000000000000000000000000000000000000000000000000000000000000000000000000000000000000000000000000000000000000000000000000000000000000000000000000000
1004
0000000000000000000000000000000000000000000000000000000000000000000000000000000000000000000000000000000000000000
  0
BLOCK_RECORD
  5
2172
330
1
100
AcDbSymbolTableRecord
100
AcDbBlockTableRecord
  2
*U1
  0
BLOCK_RECORD
  5
218D
330
1
100
AcDbSymbolTableRecord
100
AcDbBlockTableRecord
  2
*U2
  0
BLOCK_RECORD
  5
21A8
330
1
100
AcDbSymbolTableRecord
100
AcDbBlockTableRecord
  2
*U3
  0
BLOCK_RECORD
  5
227D
330
1
100
AcDbSymbolTableRecord
100
AcDbBlockTableRecord
  2
*U4
  0
BLOCK_RECORD
  5
228C
330
1
100
AcDbSymbolTableRecord
100
AcDbBlockTableRecord
  2
*U5
  0
BLOCK_RECORD
  5
2293
330
1
100
AcDbSymbolTableRecord
100
AcDbBlockTableRecord
  2
*U6
  0
BLOCK_RECORD
  5
2299
330
1
100
AcDbSymbolTableRecord
100
AcDbBlockTableRecord
  2
*U7
  0
BLOCK_RECORD
  5
2360
330
1
100
AcDbSymbolTableRecord
100
AcDbBlockTableRecord
  2
*U8
  0
BLOCK_RECORD
  5
2367
330
1
100
AcDbSymbolTableRecord
100
AcDbBlockTableRecord
  2
*U9
  0
BLOCK_RECORD
  5
236E
330
1
100
AcDbSymbolTableRecord
100
AcDbBlockTableRecord
  2
*U10
  0
BLOCK_RECORD
  5
2381
330
1
100
AcDbSymbolTableRecord
100
AcDbBlockTableRecord
  2
*U11
  0
ENDTAB
  0
ENDSEC
  0
SECTION
  2
BLOCKS
  0
BLOCK
  5
20
330
1F
100
AcDbEntity
  8
0
100
AcDbBlockBegin
  2
*MODEL_SPACE
 70
     0
 10
0.0
 20
0.0
 30
0.0
  3
*MODEL_SPACE
  1

  0
ENDBLK
  5
21
330
1F
100
AcDbEntity
  8
0
100
AcDbBlockEnd
  0
BLOCK
  5
52
330
50
100
AcDbEntity
 67
     1
  8
0
100
AcDbBlockBegin
  2
*PAPER_SPACE
 70
     0
 10
0.0
 20
0.0
 30
0.0
  3
*PAPER_SPACE
  1

  0
ENDBLK
  5
53
330
50
100
AcDbEntity
 67
     1
  8
0
100
AcDbBlockEnd
  0
BLOCK
  5
43A
330
439
100
AcDbEntity
  8
0
100
AcDbBlockBegin
  2
TDKA
 70
     0
 10
0.0
 20
0.0
 30
0.0
  3
TDKA
  1

  0
INSERT
  5
1F8D
330
439
100
AcDbEntity
  8
HATCH
  6
CONTINUOUS
 62
     1
100
AcDbBlockReference
  2
*U1
 10
0.0
 20
0.0
 30
0.0
1001
ACAD
1002
{
1000
R14_HATCH_DATA
1000
1F8D
1011
1.0
1021
0.0
1031
0.0
1011
0.0
1021
1.0
1031
0.0
1011
0.0
1021
0.0
1031
1.0
1040
0.0
1010
0.0
1020
0.0
1030
1.0
1000
SOLID
1070
     1
1070
     0
1071
        4
1071
        7
1070
     0
1070
     1
1071
        8
1040
33619.0017407125
1040
5334.383154230408
1040
33561.35946825352
1040
5390.514825815512
1040
33486.35351550993
1040
5390.514825815518
1040
33437.9213523403
1040
5334.383154230373
1040
33444.43388307428
1040
5255.00098299598
1040
33502.07615553327
1040
5198.869311410835
1040
33577.08210827682
1040
5198.869311410819
1040
33625.51427144648
1040
5255.000982995962
1071
        0
1071
        7
1070
     0
1070
     1
1071
        8
1040
34148.80121670797
1040
5450.987155405535
1040
34155.31374744195
1040
5530.369326639927
1040
34106.88158427234
1040
5586.500998225079
1040
34031.87563152877
1040
5586.500998225086
1040
33974.23335906975
1040
5530.369326639945
1040
33967.72082833578
1040
5450.987155405591
1040
34016.15299150541
1040
5394.855483820425
1040
34091.15894424898
1040
5394.855483820419
1071
        0
1071
        7
1070
     0
1070
     1
1071
        8
1040
34148.80121670796
1040
3272.292270411355
1040
34091.15894424897
1040
3328.423941996504
1040
34016.15299150543
1040
3328.423941996504
1040
33967.72082833579
1040
3272.292270411309
1040
33974.23335906974
1040
3192.910099176925
1040
34031.87563152876
1040
3136.778427591759
1040
34106.88158427232
1040
3136.778427591768
1040
34155.31374744197
1040
3192.910099176943
1071
        0
1071
        7
1070
     0
1070
     1
1071
        8
1040
33577.0821082768
1040
3524.410114406049
1040
33502.07615553328
1040
3524.410114406072
1040
33444.43388307428
1040
3468.278442820908
1040
33437.92135234031
1040
3388.896271586467
1040
33486.35351550997
1040
3332.764600001395
1040
33561.35946825353
1040
3332.764600001373
1040
33619.00174071248
1040
3388.896271586467
1040
33625.51427144651
1040
3468.278442820887
1071
        0
1070
     0
1070
     1
1040
9.752210522358636
1071
        4
1040
33474.05608545694
1040
5264.225000627848
1040
0.0
1040
34079.11258970809
1040
5430.012599830239
1040
0.0
1040
34059.59470833427
1040
3265.021894591904
1040
0.0
1040
33454.53796167616
1040
3469.818317887722
1040
0.0
1002
}
  0
MTEXT
  5
1F8E
330
439
100
AcDbEntity
  8
TEKST
100
AcDbMText
 10
16749.25107430748
 20
6038.789896262979
 30
0.0
 40
200.0
 41
3967.7042
 71
     1
 72
     1
  1
{\FIMPACT.TTF;Hoogte: 300 cm\PMax. valhoogte: 60 cm}
1001
ACAD
1000
MTEXTBEGIN
1070
    73
1070
     1
1070
    44
1040
1.0
1070
    74
1070
     0
1000
MTEXTEND
1000
MTEXTBEGIN
1070
    73
1070
     1
1070
    44
1040
1.0
1070
    74
1070
     0
1000
MTEXTEND
1000
MTEXTBEGIN
1070
    73
1070
     1
1070
    44
1040
1.0
1070
    74
1070
     0
1000
MTEXTEND
  0
INSERT
  5
1F8F
330
439
100
AcDbEntity
  8
HATCH
  6
CONTINUOUS
 62
     1
100
AcDbBlockReference
  2
*U2
 10
0.0
 20
0.0
 30
0.0
1001
ACAD
1002
{
1000
R14_HATCH_DATA
1000
1F8F
1011
1.0
1021
0.0
1031
0.0
1011
0.0
1021
1.0
1031
0.0
1011
0.0
1021
0.0
1031
1.0
1040
0.0
1010
0.0
1020
0.0
1030
1.0
1000
SOLID
1070
     1
1070
     0
1071
        4
1071
        7
1070
     0
1070
     1
1071
        8
1040
4543.166010603167
1040
5334.383154230625
1040
4494.733847433534
1040
5390.514825815769
1040
4419.727894689996
1040
5390.514825815785
1040
4362.085622230959
1040
5334.383154230589
1040
4355.573091496967
1040
5255.000982996231
1040
4404.005254666624
1040
5198.869311411076
1040
4479.011207410219
1040
5198.869311411098
1040
4536.653479869186
1040
5255.00098299627
1071
        0
1071
        7
1070
     0
1070
     1
1071
        8
1040
4006.854003873723
1040
5530.369326640179
1040
3949.211731414754
1040
5586.500998225352
1040
3874.205778671165
1040
5586.500998225366
1040
3825.773615501554
1040
5530.369326640165
1040
3832.286146235503
1040
5450.987155405772
1040
3889.928418694546
1040
5394.855483820661
1040
3964.934371438077
1040
5394.855483820665
1040
4013.366534607722
1040
5450.987155405801
1071
        0
1071
        7
1070
     0
1070
     1
1071
        8
1040
4013.366534607685
1040
3272.292270411587
1040
3964.934371438051
1040
3328.42394199671
1040
3889.928418694504
1040
3328.42394199671
1040
3832.286146235478
1040
3272.292270411595
1040
3825.773615501523
1040
3192.91009917726
1040
3874.20577867114
1040
3136.778427592045
1040
3949.211731414685
1040
3136.778427592046
1040
4006.854003873701
1040
3192.910099177161
1071
        0
1071
        7
1070
     0
1070
     1
1071
        8
1040
4536.653479869154
1040
3468.278442821164
1040
4479.011207410219
1040
3524.410114406263
1040
4404.005254666601
1040
3524.410114406278
1040
4355.573091496945
1040
3468.278442821171
1040
4362.085622230935
1040
3388.896271586748
1040
4419.727894689969
1040
3332.764600001613
1040
4494.733847433502
1040
3332.76460000162
1040
4543.166010603145
1040
3388.896271586757
1071
        0
1070
     0
1070
     1
1040
9.431357692012714
1071
        4
1040
4453.535269163956
1040
5282.323346831152
1040
0.0
1040
3991.078054112527
1040
5461.5191362216
1040
0.0
1040
3906.136957716022
1040
3254.581370064276
1040
0.0
1040
4425.221651167463
1040
3443.208584724649
1040
0.0
1002
}
  0
INSERT
  5
1F90
330
439
100
AcDbEntity
  8
HATCH
  6
CONTINUOUS
 62
   251
100
AcDbBlockReference
  2
*U3
 10
0.0
 20
0.0
 30
0.0
1001
ACAD
1002
{
1000
R14_HATCH_DATA
1000
1F90
1011
1.0
1021
0.0
1031
0.0
1011
0.0
1021
1.0
1031
0.0
1011
0.0
1021
0.0
1031
1.0
1040
0.0
1010
0.0
1020
0.0
1030
1.0
1000
SOLID
1070
     1
1070
     0
1071
       57
1071
        7
1070
     0
1070
     1
1071
        6
1040
5036.526624111443
1040
6237.639712908658
1040
3057.368155704378
1040
6237.639712908688
1040
3001.11795393407
1040
6237.639712908688
1040
3001.117953934098
1040
6227.246901075754
1040
3224.977149659556
1040
6101.839712908707
1040
4794.115648920747
1040
6101.839712908649
1071
        0
1071
       23
1070
     0
1070
     1
1071
        9
1040
5672.451443536092
1040
6312.240860939475
1040
5582.474737917982
1040
6301.010750079456
1040
5539.711232127205
1040
6277.054392155394
1040
5539.711232127225
1040
6237.639712908663
1040
5549.663207707158
1040
6237.639712908666
1040
5549.663207707173
1040
6101.839712908656
1040
5539.711232127181
1040
6101.839712908657
1040
5539.711232127226
1040
5971.639712908657
1040
5672.451443536141
1040
5971.639712908654
1071
        0
1071
       23
1070
     0
1070
     1
1071
        4
1040
5539.711232127206
1040
6277.054392155394
1040
5511.04633591032
1040
6260.996155092523
1040
5511.046335910339
1040
6237.639712908656
1040
5539.711232127224
1040
6237.639712908663
1071
        0
1071
       23
1070
     0
1070
     1
1071
        4
1040
5539.711232127181
1040
6101.839712908657
1040
5511.046335910356
1040
6101.839712908659
1040
5511.04633591034
1040
5971.639712908657
1040
5539.711232127225
1040
5971.639712908654
1071
        0
1071
        7
1070
     0
1070
     1
1071
        7
1040
5467.483230153924
1040
6236.591856743163
1040
5469.353714947323
1040
6237.639712908652
1040
5755.95480641114
1040
6398.195266097535
1040
5818.091772181325
1040
6462.004445649053
1040
4290.543681471783
1040
5606.263361503903
1040
4290.543681471781
1040
5577.263661782783
1040
4994.528093439793
1040
5971.639712908666
1071
        0
1071
        7
1070
     0
1070
     1
1071
        4
1040
5818.091772181325
1040
6462.004445649053
1040
5818.091772181325
1040
6545.034973452136
1040
4290.543681471786
1040
5689.293889306977
1040
4290.543681471783
1040
5606.263361503903
1071
        0
1071
        7
1070
     0
1070
     1
1071
        5
1040
5818.091772181325
1040
6545.034973452134
1040
5755.95480641112
1040
6598.648692410859
1040
4286.835444763118
1040
5775.639712908732
1040
4290.543681471791
1040
5775.639712908732
1040
4290.543681471786
1040
5689.293889306977
1071
        0
1071
        7
1070
     0
1070
     1
1071
        5
1040
5755.954806411119
1040
6598.648692410859
1040
5668.07986669419
1040
6591.439413088377
1040
4211.829492019507
1040
5775.6397129087
1040
4259.4751985867
1040
5775.639712908732
1040
4286.835444763118
1040
5775.639712908732
1071
        0
1071
       23
1070
     0
1070
     1
1071
        5
1040
2800.565135230931
1040
6097.125539487985
1040
2693.024175547513
1040
6157.370593630068
1040
2626.621311006517
1040
6167.584555421727
1040
2626.621311006525
1040
5971.639712908713
1040
2800.565135230931
1040
5971.639712908713
1071
        0
1071
       23
1070
     0
1070
     1
1071
        4
1040
5549.663207707158
1040
6237.639712908665
1040
5469.353714947254
1040
6237.639712908645
1040
5226.942739756623
1040
6101.83971290867
1040
5549.663207707173
1040
6101.839712908656
1071
        0
1071
        7
1070
     0
1070
     1
1071
        4
1040
2700.858624991891
1040
6395.45387618589
1040
2612.983685274953
1040
6402.663155508353
1040
3972.04342291871
1040
5641.310200153461
1040
4009.546399290485
1040
5662.319579729942
1071
        0
1071
        7
1070
     0
1070
     1
1071
        4
1040
2612.983685274953
1040
6402.663155508355
1040
2550.846719504745
1040
6349.049436549646
1040
3893.123121563839
1040
5597.098600758847
1040
3972.043422918707
1040
5641.310200153461
1071
        0
1071
        7
1070
     0
1070
     1
1071
        5
1040
2550.846719504745
1040
6349.049436549646
1040
2550.84671950473
1040
6266.018908746487
1040
3838.23787820055
1040
5544.815096859462
1040
3874.205778671164
1040
5586.500998225365
1040
3893.123121563839
1040
5597.098600758847
1071
        0
1071
        7
1070
     0
1070
     1
1071
        5
1040
2550.846719504732
1040
6266.018908746485
1040
2612.983685274939
1040
6202.209729195026
1040
3826.424696378767
1040
5522.433208440691
1040
3825.773615501555
1040
5530.369326640165
1040
3838.237878200549
1040
5544.815096859461
1071
        0
1071
        7
1070
     0
1070
     1
1071
       26
1040
3826.424696378773
1040
5522.433208440689
1040
3024.564705140476
1040
5971.63971290871
1040
2754.295882780558
1040
5971.639712908712
1040
2754.295882780537
1040
5969.539712908719
1040
2626.621311006525
1040
5969.53971290872
1040
2626.621311006525
1040
5971.639712908713
1040
2150.953769867777
1040
5971.639712908717
1040
2150.953769867768
1040
4361.639712908703
1040
2150.953769867734
1040
2751.639712908739
1040
2626.621311006481
1040
2751.639712908723
1040
2626.621311006511
1040
2753.739712908708
1040
2754.295882780501
1040
2753.739712908708
1040
2754.295882780516
1040
2751.639712908719
1040
3024.564705140447
1040
2751.63971290871
1040
3826.424696378733
1040
3200.846217376685
1040
3832.286146235478
1040
3272.292270411595
1040
3889.928418694504
1040
3328.42394199671
1040
3964.934371438051
1040
3328.42394199671
1040
4009.546399290417
1040
3303.432031553767
1040
4078.394810214429
1040
3342.001300936533
1040
4078.394810214422
1040
4361.639712908695
1040
4078.394810214462
1040
5381.278124880857
1040
4009.546399290484
1040
5419.847394263593
1040
3964.934371438081
1040
5394.855483820665
1040
3889.928418694547
1040
5394.85548382066
1040
3832.286146235503
1040
5450.987155405773
1071
        0
1071
        7
1070
     0
1070
     1
1071
       16
1040
7527.534214126053
1040
5971.639712908622
1040
5672.451443536141
1040
5971.639712908654
1040
5672.451443536107
1040
5969.53971290867
1040
5539.711232127226
1040
5969.539712908691
1040
5539.711232127225
1040
5971.639712908657
1040
4994.528093439793
1040
5971.639712908665
1040
4290.54368147178
1040
5577.263661782782
1040
4290.543681471777
1040
5504.903312210789
1040
4494.733847433534
1040
5390.514825815769
1040
4543.166010603167
1040
5334.383154230626
1040
4536.653479869186
1040
5255.000982996271
1040
4479.011207410218
1040
5198.869311411098
1040
4404.005254666623
1040
5198.869311411074
1040
4290.543681471766
1040
5262.43112674444
1040
4290.543681471723
1040
4361.639712908688
1040
7527.534214126055
1040
4361.6397129086
1071
        0
1071
        7
1070
     0
1070
     1
1071
        8
1040
4078.394810214478
1040
5775.639712908702
1040
4109.463293099572
1040
5775.639712908702
1040
4184.469245843142
1040
5775.639712908681
1040
4211.829492019507
1040
5775.6397129087
1040
4319.290027413314
1040
5835.8397129087
1040
3699.802771167381
1040
5835.839712908729
1040
4009.546399290484
1040
5662.31957972994
1040
4078.394810214476
1040
5700.888849112734
1071
        0
1071
        7
1070
     0
1070
     1
1071
        8
1040
4125.302817919999
1040
5775.639712908697
1040
4109.463293099572
1040
5775.639712908702
1040
4078.394810214478
1040
5775.639712908702
1040
4078.394810214422
1040
4361.639712908695
1040
4078.394810214432
1040
2947.639712908701
1040
4109.463293099525
1040
2947.63971290871
1040
4125.302817919958
1040
2947.639712908708
1040
4125.302817919958
1040
4361.639712908688
1071
        0
1071
        7
1070
     0
1070
     1
1071
        8
1040
4237.625550111217
1040
5775.639712908716
1040
4184.469245843142
1040
5775.639712908681
1040
4125.30281792
1040
5775.639712908697
1040
4125.302817919958
1040
4361.639712908688
1040
4125.302817919958
1040
2947.639712908708
1040
4184.469245843112
1040
2947.639712908701
1040
4237.625550111163
1040
2947.639712908697
1040
4237.625550111163
1040
4361.639712908695
1071
        0
1071
        7
1070
     0
1070
     1
1071
        8
1040
4290.543681471791
1040
5775.639712908732
1040
4259.4751985867
1040
5775.639712908732
1040
4237.625550111217
1040
5775.639712908717
1040
4237.625550111163
1040
4361.639712908695
1040
4237.625550111163
1040
2947.639712908697
1040
4259.475198586641
1040
2947.639712908695
1040
4290.543681471737
1040
2947.639712908695
1040
4290.543681471723
1040
4361.639712908688
1071
        0
1071
        7
1070
     0
1070
     1
1071
        4
1040
4078.394810214475
1040
5658.870089959752
1040
4078.394810214476
1040
5700.888849112736
1040
3874.205778671166
1040
5586.500998225365
1040
3949.211731414754
1040
5586.50099822535
1071
        0
1071
        7
1070
     0
1070
     1
1071
        4
1040
4078.394810214475
1040
5658.870089959753
1040
3949.211731414753
1040
5586.50099822535
1040
4006.854003873723
1040
5530.36932664018
1040
4078.39481021447
1040
5570.446891170591
1071
        0
1071
        7
1070
     0
1070
     1
1071
        4
1040
4078.39481021447
1040
5570.446891170591
1040
4006.854003873723
1040
5530.36932664018
1040
4013.366534607722
1040
5450.987155405801
1040
4078.394810214467
1040
5487.416363367447
1071
        0
1071
        7
1070
     0
1070
     1
1071
        5
1040
4078.394810214465
1040
5458.416663646413
1040
4078.394810214466
1040
5487.416363367446
1040
4013.366534607721
1040
5450.987155405799
1040
3964.934371438076
1040
5394.855483820664
1040
4009.546399290484
1040
5419.847394263594
1071
        0
1071
       23
1070
     0
1070
     1
1071
        4
1040
4290.543681471775
1040
5462.884553057795
1040
4290.543681471771
1040
5374.461354268587
1040
4362.085622230988
1040
5334.383154230616
1040
4419.727894689996
1040
5390.514825815785
1071
        0
1071
       22
1070
     0
1070
     1
1071
        4
1040
4290.543681471777
1040
5504.903312210789
1040
4290.543681471775
1040
5462.884553057795
1040
4419.727894689998
1040
5390.514825815785
1040
4494.733847433536
1040
5390.51482581577
1071
        0
1071
       23
1070
     0
1070
     1
1071
        4
1040
4362.085622230961
1040
5334.383154230632
1040
4290.543681471771
1040
5374.461354268587
1040
4290.543681471769
1040
5291.43082646545
1040
4355.573091496967
1040
5255.000982996232
1071
        0
1071
       23
1070
     0
1070
     1
1071
        4
1040
4290.543681471768
1040
5291.430826465449
1040
4290.543681471766
1040
5262.43112674444
1040
4404.005254666622
1040
5198.869311411077
1040
4355.573091496966
1040
5255.000982996232
1071
        0
1071
        7
1070
     0
1070
     1
1071
       16
1040
7527.534214126045
1040
4361.6397129086
1040
4290.543681471723
1040
4361.639712908687
1040
4290.543681471731
1040
3460.848299072903
1040
4404.005254666579
1040
3524.410114406277
1040
4479.011207410222
1040
3524.410114406263
1040
4536.653479869154
1040
3468.278442821162
1040
4543.166010603145
1040
3388.896271586757
1040
4494.733847433501
1040
3332.76460000162
1040
4290.543681471734
1040
3218.376113606625
1040
4290.543681471734
1040
3146.015764034495
1040
4994.528093439736
1040
2751.63971290868
1040
5539.711232127161
1040
2751.639712908669
1040
5539.711232127153
1040
2753.739712908643
1040
5672.451443536065
1040
2753.739712908664
1040
5672.451443536065
1040
2751.639712908652
1040
7527.534214126013
1040
2751.63971290863
1071
        0
1071
       23
1070
     0
1070
     1
1071
        5
1040
2800.56513523088
1040
2751.639712908717
1040
2626.621311006481
1040
2751.639712908723
1040
2626.621311006466
1040
2555.694870395696
1040
2693.024175547506
1040
2565.908832187376
1040
2800.565135230829
1040
2626.153886329403
1071
        0
1071
        7
1070
     0
1070
     1
1071
        6
1040
3838.237878200558
1040
3178.464328957917
1040
3825.773615501522
1040
3192.91009917726
1040
3826.424696378732
1040
3200.846217376685
1040
3024.564705140448
1040
2751.63971290871
1040
2612.98368527489
1040
2521.069696622401
1040
2550.846719504685
1040
2457.260517070923
1071
        0
1071
        7
1070
     0
1070
     1
1071
        5
1040
3893.12312156378
1040
3126.180825058583
1040
3874.205778671142
1040
3136.778427592044
1040
3838.237878200558
1040
3178.464328957918
1040
2550.846719504686
1040
2457.260517070924
1040
2550.846719504701
1040
2374.229989267735
1071
        0
1071
        7
1070
     0
1070
     1
1071
        4
1040
3972.043422918668
1040
3081.969225663956
1040
3893.12312156378
1040
3126.180825058582
1040
2550.846719504701
1040
2374.229989267735
1040
2612.98368527491
1040
2320.616270309077
1071
        0
1071
        7
1070
     0
1070
     1
1071
        4
1040
4009.546399290416
1040
3060.959846087492
1040
3972.043422918668
1040
3081.969225663956
1040
2612.98368527491
1040
2320.616270309077
1040
2700.858624991782
1040
2327.825549631528
1071
        0
1071
       23
1070
     0
1070
     1
1071
        4
1040
3949.211731414683
1040
3136.778427592045
1040
3874.205778671139
1040
3136.778427592046
1040
4078.394810214432
1040
3022.390576704683
1040
4078.39481021443
1040
3064.409335857609
1071
        0
1071
       23
1070
     0
1070
     1
1071
        4
1040
4006.854003873701
1040
3192.91009917716
1040
3949.211731414684
1040
3136.778427592046
1040
4078.394810214431
1040
3064.409335857609
1040
4078.39481021443
1040
3152.832534646831
1071
        0
1071
       23
1070
     0
1070
     1
1071
        4
1040
4078.394810214429
1040
3235.863062449972
1040
4013.366534607684
1040
3272.292270411587
1040
4006.854003873701
1040
3192.91009917716
1040
4078.39481021443
1040
3152.832534646831
1071
        0
1071
       22
1070
     0
1070
     1
1071
        4
1040
3964.934371438049
1040
3328.42394199671
1040
4013.366534607685
1040
3272.292270411588
1040
4078.394810214429
1040
3235.863062449974
1040
4078.39481021443
1040
3264.862762170993
1071
        0
1071
       23
1070
     0
1070
     1
1071
        4
1040
4078.394810214429
1040
3313.001601215542
1040
4078.39481021443
1040
3342.001300936534
1040
4009.546399290433
1040
3303.432031553777
1040
4035.429482830987
1040
3288.932181693266
1071
        0
1071
       22
1070
     0
1070
     1
1071
        3
1040
4078.394810214429
1040
3313.001601215542
1040
4035.429482830987
1040
3288.932181693265
1040
4078.39481021443
1040
3264.862762170993
1071
        0
1071
       23
1070
     0
1070
     1
1071
        4
1040
4355.573091496945
1040
3468.278442821171
1040
4404.005254666623
1040
3524.410114406302
1040
4290.543681471731
1040
3460.848299072903
1040
4290.543681471732
1040
3431.848599351903
1071
        0
1071
       23
1070
     0
1070
     1
1071
        4
1040
4355.573091496947
1040
3468.278442821171
1040
4290.543681471732
1040
3431.848599351903
1040
4290.543681471733
1040
3348.81807154879
1040
4362.085622230934
1040
3388.896271586772
1071
        0
1071
       23
1070
     0
1070
     1
1071
        4
1040
4419.727894689969
1040
3332.764600001612
1040
4362.08562223092
1040
3388.896271586764
1040
4290.543681471733
1040
3348.81807154879
1040
4290.543681471733
1040
3260.394872759597
1071
        0
1071
       22
1070
     0
1070
     1
1071
        4
1040
4494.733847433502
1040
3332.764600001619
1040
4419.727894689969
1040
3332.764600001613
1040
4290.543681471733
1040
3260.394872759597
1040
4290.543681471732
1040
3218.376113606624
1071
        0
1071
        7
1070
     0
1070
     1
1071
        6
1040
4290.543681471734
1040
3146.015764034495
1040
4290.543681471734
1040
3117.016064313521
1040
5818.091772181284
1040
2261.274980168304
1040
5755.954806411081
1040
2325.084159719768
1040
5469.353714947265
1040
2485.639712908664
1040
5467.483230153867
1040
2486.687569074183
1071
        0
1071
        7
1070
     0
1070
     1
1071
        4
1040
4290.543681471734
1040
3117.016064313521
1040
4290.543681471734
1040
3033.985536510351
1040
5818.09177218128
1040
2178.244452365144
1040
5818.091772181285
1040
2261.274980168304
1071
        0
1071
        7
1070
     0
1070
     1
1071
        5
1040
4290.543681471734
1040
3033.98553651035
1040
4290.543681471736
1040
2947.639712908695
1040
4286.835444763053
1040
2947.639712908694
1040
5755.954806411075
1040
2124.630733406435
1040
5818.09177218128
1040
2178.244452365145
1071
        0
1071
        7
1070
     0
1070
     1
1071
        5
1040
4286.835444763053
1040
2947.639712908694
1040
4259.475198586641
1040
2947.639712908695
1040
4211.829492019467
1040
2947.639712908698
1040
5668.079866694149
1040
2131.840012728975
1040
5755.954806411075
1040
2124.630733406435
1071
        0
1071
        7
1070
     0
1070
     1
1071
        6
1040
4319.290027413258
1040
2887.439712908705
1040
3699.80277116739
1040
2887.439712908748
1040
3465.037146627695
1040
2755.922681605238
1040
3465.037146627706
1040
2751.639712908731
1040
3521.287349027665
1040
2751.639712908717
1040
4561.701002603864
1040
2751.639712908739
1071
        0
1071
        7
1070
     0
1070
     1
1071
        6
1040
4561.701002604045
1040
5971.639712908726
1040
3521.2873490277
1040
5971.639712908697
1040
3465.037146627741
1040
5971.639712908704
1040
3465.03714662775
1040
5967.356744212205
1040
3699.802771167384
1040
5835.839712908729
1040
4319.290027413314
1040
5835.8397129087
1071
        0
1071
        7
1070
     0
1070
     1
1071
        6
1040
4794.115648920855
1040
2621.439712908647
1040
3224.977149659405
1040
2621.439712908683
1040
3001.117953934032
1040
2496.032524741684
1040
3001.117953934048
1040
2485.639712908693
1040
3057.368155704304
1040
2485.639712908707
1040
5036.526624111544
1040
2485.639712908634
1071
        0
1071
       23
1070
     0
1070
     1
1071
        4
1040
5549.663207707129
1040
2621.439712908661
1040
5226.942739756624
1040
2621.439712908647
1040
5469.353714947288
1040
2485.63971290865
1040
5549.663207707144
1040
2485.639712908664
1071
        0
1071
       23
1070
     0
1070
     1
1071
        4
1040
5539.71123212716
1040
2751.639712908653
1040
5511.046335910307
1040
2751.639712908654
1040
5511.046335910301
1040
2621.43971290866
1040
5539.711232127182
1040
2621.439712908661
1071
        0
1071
       23
1070
     0
1070
     1
1071
        9
1040
5672.451443536065
1040
2751.639712908652
1040
5539.711232127161
1040
2751.639712908653
1040
5539.711232127181
1040
2621.439712908661
1040
5549.66320770713
1040
2621.439712908661
1040
5549.663207707144
1040
2485.639712908664
1040
5539.711232127142
1040
2485.639712908662
1040
5539.711232127153
1040
2446.225033661915
1040
5582.474737917878
1040
2422.26867573788
1040
5672.451443536058
1040
2411.038564877888
1071
        0
1071
       23
1070
     0
1070
     1
1071
        3
1040
5672.451443536068
1040
2411.038564877885
1040
5582.474737917878
1040
2422.26867573788
1040
5644.375710806617
1040
2387.591400454939
1071
        0
1071
       23
1070
     0
1070
     1
1071
        4
1040
5539.711232127142
1040
2485.639712908662
1040
5511.046335910268
1040
2485.639712908657
1040
5511.046335910275
1040
2462.283270724785
1040
5539.711232127153
1040
2446.225033661916
1071
        0
1071
        7
1070
     0
1070
     1
1071
        8
1040
4078.394810214431
1040
3022.390576704683
1040
4009.546399290417
1040
3060.959846087492
1040
3699.802771167391
1040
2887.439712908749
1040
4319.290027413258
1040
2887.439712908705
1040
4211.829492019467
1040
2947.639712908699
1040
4184.469245843112
1040
2947.639712908701
1040
4109.463293099525
1040
2947.63971290871
1040
4078.394810214432
1040
2947.639712908701
1071
        0
1070
     0
1070
     1
1040
3.039388328829146
1071
       57
1040
4094.895138246997
1040
6187.733719053344
1040
0.0
1040
5633.272988456301
1040
6065.126094060993
1040
0.0
1040
5518.01187163734
1040
6250.847598502748
1040
0.0
1040
5525.816891005612
1040
6009.056806487657
1040
0.0
1040
5338.494244504691
1040
6168.950765218571
1040
0.0
1040
5256.540571510093
1040
6192.349786686143
1040
0.0
1040
5170.684146424406
1040
6223.548611050079
1040
0.0
1040
5116.048526032653
1040
6258.647272325251
1040
0.0
1040
2710.057373068353
1040
6044.369859406099
1040
0.0
1040
5442.65748578115
1040
6133.901152001446
1040
0.0
1040
3203.980708659423
1040
6088.1722276582
1040
0.0
1040
3185.45742305144
1040
6051.151140654649
1040
0.0
1040
3154.585199569119
1040
5977.109095721403
1040
0.0
1040
3142.236261694808
1040
5927.747646383345
1040
0.0
1040
3099.015100338176
1040
5514.345830861726
1040
0.0
1040
5062.492343843508
1040
4959.030042103943
1040
0.0
1040
3994.311278174079
1040
5767.323065108517
1040
0.0
1040
4093.102538761683
1040
5545.196801234925
1040
0.0
1040
4161.021575866936
1040
5539.026555530742
1040
0.0
1040
4272.161774328852
1040
5520.516076565909
1040
0.0
1040
4000.485625907749
1040
5631.579208502706
1040
0.0
1040
4019.009153922729
1040
5588.3880048688
1040
0.0
1040
4037.532439530711
1040
5508.175714231402
1040
0.0
1040
4043.70702967135
1040
5446.473902558806
1040
0.0
1040
4327.731873559794
1040
5415.623061259437
1040
0.0
1040
4389.476562931405
1040
5434.133540224298
1040
0.0
1040
4315.382935685484
1040
5316.900291657177
1040
0.0
1040
4333.906463700434
1040
5255.19847998461
1040
0.0
1040
5512.952595929703
1040
3962.725615715331
1040
0.0
1040
2661.761179551511
1040
2658.843527771707
1040
0.0
1040
2700.837181854876
1040
2551.459387411057
1040
0.0
1040
2720.374940599606
1040
2512.410679502005
1040
0.0
1040
2749.681942327122
1040
2444.075376124252
1040
0.0
1040
2769.219701071852
1040
2385.502185186836
1040
0.0
1040
3966.680520590017
1040
3091.468826133801
1040
0.0
1040
4003.427234393806
1040
3156.565666941111
1040
0.0
1040
4036.8333378518
1040
3228.338981041321
1040
0.0
1040
4030.152117160178
1040
3278.413305181151
1040
0.0
1040
4041.844374573964
1040
3303.450531787995
1040
0.0
1040
4056.876999926578
1040
3290.097456128336
1040
0.0
1040
4332.4774746584
1040
3463.688730442198
1040
0.0
1040
4322.455643621011
1040
3431.974901468624
1040
0.0
1040
4344.169732072158
1040
3331.826124115119
1040
0.0
1040
4365.883578116365
1040
3281.751670901445
1040
0.0
1040
4345.839916041586
1040
3091.468826133801
1040
0.0
1040
4339.158695349993
1040
3066.431599526957
1040
0.0
1040
4324.126069997379
1040
2976.297661186661
1040
0.0
1040
4300.741797576804
1040
2922.884971326537
1040
0.0
1040
3878.688490167551
1040
2840.552513842471
1040
0.0
1040
4036.048908922181
1040
5863.274877577977
1040
0.0
1040
3913.657391310698
1040
2508.57718654297
1040
0.0
1040
5434.809560380556
1040
2595.939135159758
1040
0.0
1040
5517.028184184834
1040
2690.321280697404
1040
0.0
1040
5609.789329181221
1040
2672.940714101685
1040
0.0
1040
5650.372375568462
1040
2406.437574327501
1040
0.0
1040
5528.623478813737
1040
2475.960098858021
1040
0.0
1040
3946.825208724855
1040
2950.528069628664
1040
0.0
1002
}
  0
INSERT
  5
1F91
330
439
100
AcDbEntity
  8
HATCH
  6
CONTINUOUS
 62
   251
100
AcDbBlockReference
  2
*U4
 10
0.0
 20
0.0
 30
0.0
1001
ACAD
1002
{
1000
R14_HATCH_DATA
1000
1F91
1011
1.0
1021
0.0
1031
0.0
1011
0.0
1021
1.0
1031
0.0
1011
0.0
1021
0.0
1031
1.0
1040
0.0
1010
0.0
1020
0.0
1030
1.0
1000
SOLID
1070
     1
1070
     0
1071
        6
1071
        7
1070
     0
1070
     1
1071
        4
1040
3964.934371438051
1040
3328.42394199671
1040
4013.366534607686
1040
3272.292270411587
1040
4078.39481021443
1040
3235.863062449974
1040
4078.394810214429
1040
3264.862762170992
1071
        0
1071
        7
1070
     0
1070
     1
1071
        4
1040
4078.394810214429
1040
3342.001300936533
1040
4009.546399290433
1040
3303.432031553777
1040
4035.429482830986
1040
3288.932181693265
1040
4078.394810214429
1040
3313.001601215542
1071
        0
1071
       23
1070
     0
1070
     1
1071
        3
1040
4078.394810214429
1040
3313.001601215542
1040
4035.429482830988
1040
3288.932181693265
1040
4078.39481021443
1040
3264.862762170994
1071
        0
1071
        7
1070
     0
1070
     1
1071
        4
1040
4404.005254666622
1040
3524.410114406302
1040
4290.543681471732
1040
3460.848299072903
1040
4290.543681471733
1040
3431.848599351905
1040
4355.573091496945
1040
3468.278442821171
1071
        0
1071
        7
1070
     0
1070
     1
1071
        4
1040
4419.727894689969
1040
3332.764600001613
1040
4362.08562223092
1040
3388.896271586764
1040
4290.543681471733
1040
3348.81807154879
1040
4290.543681471733
1040
3260.394872759597
1071
        0
1071
        7
1070
     0
1070
     1
1071
        4
1040
4494.733847433501
1040
3332.76460000162
1040
4419.727894689969
1040
3332.764600001613
1040
4290.543681471733
1040
3260.394872759597
1040
4290.543681471732
1040
3218.376113606624
1071
        0
1070
     0
1070
     1
1040
3.039388328829146
1071
        6
1040
4016.819249426393
1040
3293.308942266856
1040
0.0
1040
4059.40021399589
1040
3323.702862183214
1040
0.0
1040
4065.483174304826
1040
3293.308942266856
1040
0.0
1040
4324.010441876423
1040
3472.632901977442
1040
0.0
1040
4320.968961721955
1040
3329.781594536965
1040
0.0
1040
4381.798807218292
1040
3281.151477559367
1040
0.0
1002
}
  0
INSERT
  5
1F92
330
439
100
AcDbEntity
  8
HATCH
  6
CONTINUOUS
 62
   251
100
AcDbBlockReference
  2
*U5
 10
0.0
 20
0.0
 30
0.0
1001
ACAD
1002
{
1000
R14_HATCH_DATA
1000
1F92
1011
1.0
1021
0.0
1031
0.0
1011
0.0
1021
1.0
1031
0.0
1011
0.0
1021
0.0
1031
1.0
1040
0.0
1010
0.0
1020
0.0
1030
1.0
1000
SOLID
1070
     1
1070
     0
1071
        1
1071
        7
1070
     0
1070
     1
1071
        4
1040
4078.394810214428
1040
3342.001300936532
1040
4009.546399290433
1040
3303.432031553776
1040
4035.429482830987
1040
3288.932181693265
1040
4078.394810214429
1040
3313.001601215542
1071
        0
1070
     0
1070
     1
1040
3.039388328829146
1071
        1
1040
4056.358491434482
1040
3314.584699115686
1040
0.0
1002
}
  0
INSERT
  5
1F93
330
439
100
AcDbEntity
  8
HATCH
  6
CONTINUOUS
 62
   251
100
AcDbBlockReference
  2
*U6
 10
0.0
 20
0.0
 30
0.0
1001
ACAD
1002
{
1000
R14_HATCH_DATA
1000
1F93
1011
1.0
1021
0.0
1031
0.0
1011
0.0
1021
1.0
1031
0.0
1011
0.0
1021
0.0
1031
1.0
1040
0.0
1010
0.0
1020
0.0
1030
1.0
1000
SOLID
1070
     1
1070
     0
1071
        1
1071
        7
1070
     0
1070
     1
1071
        3
1040
5644.375710806661
1040
6335.688025362362
1040
5582.47473791798
1040
6301.010750079455
1040
5672.451443536094
1040
6312.240860939478
1071
        0
1070
     0
1070
     1
1040
0.682456087916306
1071
        1
1040
5625.544084874185
1040
6313.025821707692
1040
0.0
1002
}
  0
INSERT
  5
1F94
330
439
100
AcDbEntity
  8
HATCH
  6
CONTINUOUS
 62
   251
100
AcDbBlockReference
  2
*U7
 10
0.0
 20
0.0
 30
0.0
1001
ACAD
1002
{
1000
R14_HATCH_DATA
1000
1F94
1011
1.0
1021
0.0
1031
0.0
1011
0.0
1021
1.0
1031
0.0
1011
0.0
1021
0.0
1031
1.0
1040
0.0
1010
0.0
1020
0.0
1030
1.0
1000
SOLID
1070
     1
1070
     0
1071
       55
1071
        7
1070
     0
1070
     1
1071
        5
1040
32313.00749624928
1040
6591.439413088123
1040
32225.1325565324
1040
6598.648692410605
1040
33694.25191818042
1040
5775.639712908439
1040
33721.6121643568
1040
5775.639712908446
1040
33769.25787092396
1040
5775.639712908437
1071
        0
1071
        7
1070
     0
1070
     1
1071
        4
1040
32225.1325565324
1040
6598.648692410603
1040
32162.99559076218
1040
6545.034973451944
1040
33690.54368147172
1040
5689.293889306732
1040
33690.54368147171
1040
5777.717088095958
1071
        0
1071
        7
1070
     0
1070
     1
1071
        4
1040
32162.99559076218
1040
6545.034973451947
1040
32162.99559076214
1040
6462.004445648762
1040
33690.54368147172
1040
5606.263361503601
1040
33690.54368147172
1040
5689.293889306725
1071
        0
1071
        7
1070
     0
1070
     1
1071
        5
1040
32162.99559076213
1040
6462.004445648765
1040
32225.13255653233
1040
6398.195266097307
1040
32511.73364799618
1040
6237.639712908483
1040
33690.54368147172
1040
5577.263661782671
1040
33690.54368147172
1040
5606.263361503598
1071
        0
1071
       23
1070
     0
1070
     1
1071
        3
1040
32336.71165213682
1040
6335.68802536216
1040
32308.63591940738
1040
6312.240860939254
1040
32398.61262502546
1040
6301.010750079291
1071
        0
1071
       23
1070
     0
1070
     1
1071
        9
1040
32431.42415523634
1040
6237.639712908467
1040
32441.37613081628
1040
6237.639712908465
1040
32441.37613081626
1040
6277.054392155221
1040
32398.61262502545
1040
6301.010750079292
1040
32308.63591940736
1040
6312.240860939255
1040
32308.63591940738
1040
5971.639712908435
1040
32441.37613081631
1040
5971.639712908436
1040
32441.37613081626
1040
6101.839712908478
1040
32431.42415523632
1040
6101.839712908478
1071
        0
1071
       23
1070
     0
1070
     1
1071
        4
1040
32511.73364799621
1040
6237.639712908453
1040
32431.42415523635
1040
6237.639712908467
1040
32431.42415523631
1040
6101.839712908478
1040
32754.1446231869
1040
6101.839712908449
1071
        0
1071
        7
1070
     0
1070
     1
1071
        6
1040
34979.96940900937
1040
6227.246901075432
1040
34979.96940900939
1040
6237.639712908453
1040
34923.71920723916
1040
6237.639712908467
1040
32944.56073883194
1040
6237.639712908453
1040
33186.97171402262
1040
6101.839712908449
1040
34756.11021328404
1040
6101.839712908456
1071
        0
1071
        7
1070
     0
1070
     1
1071
        4
1040
35368.10367766852
1040
6402.663155508061
1040
35280.22873795166
1040
6395.453876185612
1040
33971.54096365304
1040
5662.319579729647
1040
34009.04394002477
1040
5641.310200153191
1071
        0
1071
        7
1070
     0
1070
     1
1071
        4
1040
35430.24064343873
1040
6349.04943654941
1040
35368.10367766852
1040
6402.66315550806
1040
34009.04394002477
1040
5641.310200153192
1040
34087.96424137959
1040
5597.098600758598
1071
        0
1071
        7
1070
     0
1070
     1
1071
        5
1040
35430.24064343872
1040
6266.018908746211
1040
35430.24064343872
1040
6349.04943654941
1040
34087.96424137959
1040
5597.098600758598
1040
34106.88158427234
1040
5586.50099822508
1040
34142.84948474294
1040
5544.815096859246
1071
        0
1071
        7
1070
     0
1070
     1
1071
        6
1040
35368.10367766856
1040
6202.209729194734
1040
35430.24064343873
1040
6266.018908746222
1040
34142.84948474293
1040
5544.815096859247
1040
34155.31374744196
1040
5530.369326639927
1040
34154.66266656475
1040
5522.433208440507
1040
34956.52265780301
1040
5971.639712908424
1071
        0
1071
       23
1070
     0
1070
     1
1071
        5
1040
35354.46605193699
1040
6167.58455542147
1040
35288.06318739594
1040
6157.370593629763
1040
35180.52222771262
1040
6097.125539487736
1040
35180.52222771258
1040
5971.63971290843
1040
35354.46605193698
1040
5971.639712908434
1071
        0
1071
       23
1070
     0
1070
     1
1071
        4
1040
32470.04102703315
1040
6101.839712908475
1040
32441.37613081627
1040
6101.839712908477
1040
32441.37613081631
1040
5971.639712908436
1040
32470.04102703315
1040
5971.639712908437
1071
        0
1071
       23
1070
     0
1070
     1
1071
        4
1040
33902.69255272901
1040
5700.888849112466
1040
33902.69255272901
1040
5658.870089959485
1040
34031.87563152877
1040
5586.500998225087
1040
34106.88158427234
1040
5586.50099822508
1071
        0
1071
       23
1070
     0
1070
     1
1071
        4
1040
33902.69255272901
1040
5658.870089959486
1040
33902.69255272902
1040
5570.446891170321
1040
33974.23335906974
1040
5530.369326639936
1040
34031.87563152877
1040
5586.500998225086
1071
        0
1071
       23
1070
     0
1070
     1
1071
        4
1040
33974.23335906974
1040
5530.369326639937
1040
33902.69255272902
1040
5570.446891170323
1040
33902.69255272902
1040
5487.416363367157
1040
33967.72082833578
1040
5450.987155405583
1071
        0
1071
       23
1070
     0
1070
     1
1071
        4
1040
33967.72082833579
1040
5450.987155405583
1040
33902.69255272902
1040
5487.416363367163
1040
33902.69255272903
1040
5458.416663646167
1040
34016.15299150543
1040
5394.855483820421
1071
        0
1071
        7
1070
     0
1070
     1
1071
        8
1040
33902.69255272901
1040
5775.639712908432
1040
33871.62406984392
1040
5775.639712908424
1040
33855.78454502351
1040
5775.639712908425
1040
33855.78454502353
1040
4361.639712908439
1040
33855.78454502353
1040
2947.639712908427
1040
33871.62406984392
1040
2947.639712908424
1040
33902.69255272901
1040
2947.639712908424
1040
33902.69255272903
1040
4361.639712908452
1071
        0
1071
        7
1070
     0
1070
     1
1071
        8
1040
33855.7845450235
1040
5775.639712908426
1040
33796.61811710033
1040
5775.639712908432
1040
33743.46181283232
1040
5775.639712908442
1040
33743.46181283232
1040
4361.639712908474
1040
33743.46181283232
1040
2947.639712908433
1040
33796.61811710033
1040
2947.639712908438
1040
33855.78454502353
1040
2947.639712908427
1040
33855.78454502353
1040
4361.639712908439
1071
        0
1071
        7
1070
     0
1070
     1
1071
        8
1040
33743.46181283232
1040
5775.639712908443
1040
33721.6121643568
1040
5775.639712908446
1040
33690.54368147172
1040
5775.639712908439
1040
33690.54368147176
1040
4361.639712908432
1040
33690.54368147172
1040
2947.639712908424
1040
33721.61216435682
1040
2947.639712908431
1040
33743.46181283232
1040
2947.639712908433
1040
33743.46181283232
1040
4361.639712908474
1071
        0
1071
       23
1070
     0
1070
     1
1071
        4
1040
33690.54368147172
1040
5462.884553057525
1040
33690.54368147172
1040
5504.903312210519
1040
33486.35351550993
1040
5390.514825815518
1040
33561.35946825352
1040
5390.514825815511
1071
        0
1071
       23
1070
     0
1070
     1
1071
        4
1040
33690.54368147173
1040
5462.884553057534
1040
33561.35946825353
1040
5390.514825815512
1040
33619.00174071252
1040
5334.383154230385
1040
33690.54368147172
1040
5374.461354268317
1071
        0
1071
       23
1070
     0
1070
     1
1071
        4
1040
33690.54368147172
1040
5374.46135426832
1040
33619.00174071251
1040
5334.383154230376
1040
33625.51427144649
1040
5255.000982995962
1040
33690.54368147172
1040
5291.430826465168
1071
        0
1071
       22
1070
     0
1070
     1
1071
        4
1040
33690.54368147172
1040
5262.431126744253
1040
33690.54368147172
1040
5291.430826465168
1040
33625.51427144649
1040
5255.000982995959
1040
33577.08210827681
1040
5198.869311410801
1071
        0
1071
       22
1070
     0
1070
     1
1071
        4
1040
33577.08210827674
1040
3524.410114406107
1040
33625.51427144651
1040
3468.27844282089
1040
33690.54368147173
1040
3431.848599351687
1040
33690.54368147173
1040
3460.848299072684
1071
        0
1071
       23
1070
     0
1070
     1
1071
        4
1040
33690.54368147173
1040
3431.848599351688
1040
33625.5142714465
1040
3468.278442820887
1040
33619.00174071248
1040
3388.896271586507
1040
33690.54368147173
1040
3348.818071548537
1071
        0
1071
       23
1070
     0
1070
     1
1071
        4
1040
33690.54368147173
1040
3348.818071548535
1040
33619.00174071251
1040
3388.896271586495
1040
33561.35946825353
1040
3332.764600001373
1040
33690.54368147172
1040
3260.394872759374
1071
        0
1071
       23
1070
     0
1070
     1
1071
        4
1040
33561.35946825352
1040
3332.764600001373
1040
33486.35351550997
1040
3332.764600001395
1040
33690.54368147172
1040
3218.376113606379
1040
33690.54368147172
1040
3260.394872759379
1071
        0
1071
        7
1070
     0
1070
     1
1071
        4
1040
33902.69255272901
1040
3342.001300936279
1040
33902.69255272901
1040
3313.001601215312
1040
33945.65788011245
1040
3288.932181692997
1040
33971.54096365306
1040
3303.432031553551
1071
        0
1071
        6
1070
     0
1070
     1
1071
        3
1040
33945.65788011245
1040
3288.932181692997
1040
33902.69255272902
1040
3313.001601215306
1040
33902.69255272903
1040
3264.862762170707
1071
        0
1071
       22
1070
     0
1070
     1
1071
        5
1040
34016.15299150543
1040
3328.423941996506
1040
33971.54096365301
1040
3303.432031553576
1040
33902.69255272901
1040
3264.862762170703
1040
33902.69255272901
1040
3235.863062449684
1040
33967.72082833577
1040
3272.292270411309
1071
        0
1071
       23
1070
     0
1070
     1
1071
        4
1040
33967.72082833577
1040
3272.292270411309
1040
33902.69255272902
1040
3235.863062449687
1040
33902.69255272901
1040
3152.832534646535
1040
33974.23335906975
1040
3192.910099176915
1071
        0
1071
       23
1070
     0
1070
     1
1071
        4
1040
33974.23335906975
1040
3192.910099176918
1040
33902.69255272901
1040
3152.832534646535
1040
33902.69255272901
1040
3064.409335857367
1040
34031.87563152877
1040
3136.77842759176
1071
        0
1071
       23
1070
     0
1070
     1
1071
        4
1040
34106.8815842723
1040
3136.778427591767
1040
34031.87563152876
1040
3136.778427591759
1040
33902.69255272901
1040
3064.40933585737
1040
33902.69255272901
1040
3022.39057670439
1071
        0
1071
        7
1070
     0
1070
     1
1071
        5
1040
34154.66266656475
1040
3200.846217376438
1040
34155.31374744197
1040
3192.910099176948
1040
34142.84948474294
1040
3178.464328957636
1040
35430.24064343871
1040
2457.260517070659
1040
35368.10367766855
1040
2521.069696622099
1071
        0
1071
        7
1070
     0
1070
     1
1071
        5
1040
34142.84948474294
1040
3178.464328957634
1040
34106.88158427231
1040
3136.778427591762
1040
34087.96424137968
1040
3126.1808250583
1040
35430.24064343873
1040
2374.229989267494
1040
35430.24064343871
1040
2457.260517070655
1071
        0
1071
        7
1070
     0
1070
     1
1071
        4
1040
34087.96424137967
1040
3126.180825058304
1040
34009.04394002481
1040
3081.969225663693
1040
35368.10367766851
1040
2320.616270308785
1040
35430.24064343872
1040
2374.229989267495
1071
        0
1071
        7
1070
     0
1070
     1
1071
        4
1040
34009.04394002481
1040
3081.969225663693
1040
33971.54096365304
1040
3060.959846087213
1040
35280.22873795161
1040
2327.825549631266
1040
35368.10367766852
1040
2320.616270308784
1071
        0
1071
        7
1070
     0
1070
     1
1071
        6
1040
34281.2845917761
1040
2887.439712908449
1040
33661.79733553019
1040
2887.43971290842
1040
33419.38636033954
1040
2751.639712908446
1040
34459.80001391575
1040
2751.639712908446
1040
34516.05021631575
1040
2751.639712908461
1040
34516.05021631578
1040
2755.922681604946
1071
        0
1071
        7
1070
     0
1070
     1
1071
        5
1040
33769.25787092404
1040
2947.639712908435
1040
33721.61216435682
1040
2947.639712908431
1040
33694.25191818046
1040
2947.639712908425
1040
32225.13255653236
1040
2124.630733406312
1040
32313.00749624926
1040
2131.840012728755
1071
        0
1071
        7
1070
     0
1070
     1
1071
        5
1040
33690.54368147172
1040
3033.985536510126
1040
32162.99559076216
1040
2178.244452364964
1040
32225.13255653236
1040
2124.630733406311
1040
33694.25191818045
1040
2947.639712908424
1040
33690.54368147171
1040
2947.639712908424
1071
        0
1071
        7
1070
     0
1070
     1
1071
        4
1040
33690.54368147172
1040
3033.985536510127
1040
33690.54368147172
1040
3117.016064313276
1040
32162.99559076218
1040
2261.274980168107
1040
32162.99559076216
1040
2178.244452364964
1071
        0
1071
        7
1070
     0
1070
     1
1071
        6
1040
33690.54368147172
1040
3117.01606431328
1040
33690.54368147172
1040
3146.015764034277
1040
32513.60413278955
1040
2486.687569073934
1040
32511.73364799621
1040
2485.639712908482
1040
32225.13255653233
1040
2325.08415971964
1040
32162.99559076219
1040
2261.274980168118
1071
        0
1071
       23
1070
     0
1070
     1
1071
        5
1040
35354.46605193698
1040
2751.639712908445
1040
35180.52222771256
1040
2751.639712908438
1040
35180.52222771262
1040
2626.153886329114
1040
35288.06318739587
1040
2565.908832187118
1040
35354.46605193698
1040
2555.694870395445
1071
        0
1071
       23
1070
     0
1070
     1
1071
        3
1040
35354.46605193704
1040
2555.694870395432
1040
35288.06318739586
1040
2565.908832187119
1040
35328.13111985859
1040
2543.462549694531
1071
        0
1071
        7
1070
     0
1070
     1
1071
        6
1040
34756.11021328394
1040
2621.439712908456
1040
33186.97171402266
1040
2621.439712908435
1040
32944.56073883201
1040
2485.639712908461
1040
34923.71920723916
1040
2485.639712908468
1040
34979.96940900937
1040
2485.639712908468
1040
34979.96940900937
1040
2496.032524741422
1071
        0
1071
       23
1070
     0
1070
     1
1071
        9
1040
32431.42415523631
1040
2621.439712908469
1040
32441.37613081629
1040
2621.439712908469
1040
32441.37613081631
1040
2751.639712908438
1040
32308.63591940736
1040
2751.639712908438
1040
32308.63591940738
1040
2411.038564877639
1040
32398.61262502524
1040
2422.268675737534
1040
32441.37613081631
1040
2446.225033661747
1040
32441.37613081631
1040
2485.639712908478
1040
32431.42415523632
1040
2485.639712908482
1071
        0
1071
       23
1070
     0
1070
     1
1071
        4
1040
32754.14462318689
1040
2621.439712908456
1040
32431.42415523631
1040
2621.43971290847
1040
32431.42415523631
1040
2485.639712908481
1040
32511.73364799622
1040
2485.639712908453
1071
        0
1071
       23
1070
     0
1070
     1
1071
        4
1040
32470.04102703315
1040
2751.639712908438
1040
32441.37613081631
1040
2751.639712908437
1040
32441.37613081628
1040
2621.439712908469
1040
32470.04102703315
1040
2621.439712908468
1071
        0
1071
       23
1070
     0
1070
     1
1071
        4
1040
32470.04102703317
1040
2485.639712908468
1040
32441.37613081631
1040
2485.639712908479
1040
32441.37613081631
1040
2446.225033661749
1040
32470.04102703313
1040
2462.283270724578
1071
        0
1071
       23
1070
     0
1070
     1
1071
        3
1040
32398.61262502524
1040
2422.268675737533
1040
32308.63591940739
1040
2411.038564877641
1040
32336.71165213676
1040
2387.591400454753
1071
        0
1071
        7
1070
     0
1070
     1
1071
       17
1040
33690.54368147172
1040
3146.015764034276
1040
33690.54368147172
1040
3218.37611360638
1040
33486.35351550996
1040
3332.764600001396
1040
33437.92135234031
1040
3388.896271586455
1040
33444.43388307428
1040
3468.278442820911
1040
33502.07615553328
1040
3524.410114406072
1040
33577.08210827686
1040
3524.410114406049
1040
33690.54368147172
1040
3460.848299072686
1040
33690.54368147176
1040
4361.639712908432
1040
30453.55314881741
1040
4361.63971290844
1040
30453.55314881741
1040
2751.639712908438
1040
32308.63591940736
1040
2751.639712908438
1040
32308.63591940735
1040
2753.739712908458
1040
32441.37613081627
1040
2753.739712908436
1040
32441.37613081631
1040
2751.639712908438
1040
32895.70496251575
1040
2751.639712908438
1040
32986.55926950372
1040
2751.639712908461
1071
        0
1071
        7
1070
     0
1070
     1
1071
       16
1040
33690.54368147173
1040
5262.431126744256
1040
33577.08210827685
1040
5198.86931141082
1040
33502.07615553327
1040
5198.869311410835
1040
33444.43388307429
1040
5255.000982995978
1040
33437.92135234029
1040
5334.383154230375
1040
33486.35351550993
1040
5390.514825815522
1040
33690.54368147172
1040
5504.903312210519
1040
33690.54368147172
1040
5577.263661782668
1040
32986.55926950374
1040
5971.639712908455
1040
32441.37613081631
1040
5971.639712908448
1040
32441.37613081627
1040
5969.539712908454
1040
32308.63591940738
1040
5969.539712908431
1040
32308.63591940738
1040
5971.639712908435
1040
30453.5531488174
1040
5971.639712908424
1040
30453.55314881741
1040
4361.63971290844
1040
33690.54368147176
1040
4361.639712908432
1071
        0
1071
        7
1070
     0
1070
     1
1071
       26
1040
35830.13359307571
1040
5971.639712908446
1040
35354.46605193698
1040
5971.639712908434
1040
35354.46605193699
1040
5969.539712908478
1040
35226.79148016293
1040
5969.539712908431
1040
35226.79148016294
1040
5971.63971290843
1040
34956.52265780301
1040
5971.639712908426
1040
34154.66266656475
1040
5522.433208440507
1040
34148.80121670798
1040
5450.987155405543
1040
34091.15894424898
1040
5394.855483820419
1040
34016.15299150542
1040
5394.855483820425
1040
33971.54096365301
1040
5419.847394263368
1040
33902.69255272902
1040
5381.278124880604
1040
33902.69255272903
1040
4361.639712908452
1040
33902.69255272901
1040
3342.001300936281
1040
33971.54096365301
1040
3303.432031553575
1040
34016.15299150543
1040
3328.423941996504
1040
34091.15894424897
1040
3328.423941996504
1040
34148.80121670797
1040
3272.292270411358
1040
34154.66266656475
1040
3200.846217376435
1040
34956.52265780305
1040
2751.63971290843
1040
35226.79148016293
1040
2751.63971290844
1040
35226.7914801629
1040
2753.739712908437
1040
35354.46605193698
1040
2753.739712908444
1040
35354.46605193699
1040
2751.639712908445
1040
35830.13359307569
1040
2751.639712908461
1040
35830.13359307573
1040
4361.639712908468
1071
        0
1070
     0
1070
     1
1040
10.68651831181533
1071
       56
1040
32323.92764937397
1040
6562.956397105809
1040
0.0
1040
32299.70755774781
1040
6498.414444723792
1040
0.0
1040
32283.56082999703
1040
6433.872492341776
1040
0.0
1040
32291.63419387242
1040
6377.398300141722
1040
0.0
1040
32340.07413471784
1040
6312.856347759705
1040
0.0
1040
32356.22086246861
1040
6224.111114831743
1040
0.0
1040
32485.39444206791
1040
6151.501402267736
1040
0.0
1040
33373.46204429163
1040
6167.63692263169
1040
0.0
1040
35222.25703880368
1040
6337.059499231822
1040
0.0
1040
35246.4771304299
1040
6280.585307031768
1040
0.0
1040
35262.62385818068
1040
6216.043354649752
1040
0.0
1040
35278.77058593146
1040
6167.63692263169
1040
0.0
1040
35286.84394980684
1040
6111.162730431664
1040
0.0
1040
32461.17435044175
1040
6038.553017867656
1040
0.0
1040
34035.47594281824
1040
5610.962631739429
1040
0.0
1040
33987.03600197288
1040
5586.759351193482
1040
0.0
1040
33938.59581872049
1040
5522.217398811466
1040
0.0
1040
33930.5224548451
1040
5449.607686247458
1040
0.0
1040
33882.08251399968
1040
5481.878726975395
1040
0.0
1040
33793.27575377732
1040
5481.878726975395
1040
0.0
1040
33720.61572130574
1040
5465.743206611413
1040
0.0
1040
33639.88232495877
1040
5449.607686247458
1040
0.0
1040
33639.88232495877
1040
5385.065733865442
1040
0.0
1040
33672.17553805335
1040
5328.591541665388
1040
0.0
1040
33656.02881030258
1040
5247.914068919417
1040
0.0
1040
33656.02881030258
1040
3464.942682768699
1040
0.0
1040
33656.02881030258
1040
3400.400730386682
1040
0.0
1040
33639.88232495877
1040
3335.858778004651
1040
0.0
1040
33599.51550558177
1040
3279.384585804612
1040
0.0
1040
33922.44909096972
1040
3311.655626532549
1040
0.0
1040
33914.37572709433
1040
3287.452345986603
1040
0.0
1040
34027.40257894285
1040
3247.113674150517
1040
0.0
1040
33945.69422179399
1040
3277.637571420753
1040
0.0
1040
33942.35603551785
1040
3207.581584721891
1040
0.0
1040
33955.70926543648
1040
3140.861511340408
1040
0.0
1040
33992.43076891618
1040
3094.157563232438
1040
0.0
1040
34206.08269002122
1040
3154.205551831473
1040
0.0
1040
34186.05284514327
1040
3117.509601823345
1040
0.0
1040
34142.6547267042
1040
3047.453615124483
1040
0.0
1040
34102.59503694836
1040
3000.749537942684
1040
0.0
1040
34019.13722875344
1040
2803.925618337147
1040
0.0
1040
33645.24606381091
1040
2897.333643626902
1040
0.0
1040
33581.81810049395
1040
2954.045589834713
1040
0.0
1040
33548.43502569737
1040
2994.077582234066
1040
0.0
1040
33525.0667521363
1040
3050.789528441862
1040
0.0
1040
35302.53228599214
1040
2638.832049156321
1040
0.0
1040
35323.89270268552
1040
2553.449835051506
1040
0.0
1040
34725.80273212047
1040
2523.566144012816
1040
0.0
1040
32352.64851106694
1040
2603.713123288718
1040
0.0
1040
32548.80155838615
1040
2571.043631625958
1040
0.0
1040
32456.84278043455
1040
2655.833913114256
1040
0.0
1040
32459.6377327085
1040
2471.500339641832
1040
0.0
1040
32345.04808317477
1040
2407.263001515151
1040
0.0
1040
32532.30431016805
1040
2896.026125658056
1040
0.0
1040
32576.82840894643
1040
4743.248789909833
1040
0.0
1040
35068.51454395961
1040
4529.518520985744
1040
0.0
1002
}
  0
INSERT
  5
1F95
330
439
100
AcDbEntity
  8
HATCH
  6
CONTINUOUS
 62
   251
100
AcDbBlockReference
  2
*U8
 10
0.0
 20
0.0
 30
0.0
1001
ACAD
1002
{
1000
R14_HATCH_DATA
1000
1F95
1011
1.0
1021
0.0
1031
0.0
1011
0.0
1021
1.0
1031
0.0
1011
0.0
1021
0.0
1031
1.0
1040
0.0
1010
0.0
1020
0.0
1030
1.0
1000
SOLID
1070
     1
1070
     0
1071
        2
1071
        7
1070
     0
1070
     1
1071
        4
1040
33561.35946825354
1040
3332.764600001373
1040
33486.35351550997
1040
3332.764600001395
1040
33690.54368147172
1040
3218.376113606379
1040
33690.54368147173
1040
3260.394872759373
1071
        0
1071
        7
1070
     0
1070
     1
1071
        4
1040
33902.69255272902
1040
3342.00130093628
1040
33902.69255272902
1040
3313.001601215302
1040
33945.65788011246
1040
3288.932181692998
1040
33971.54096365306
1040
3303.43203155355
1071
        0
1070
     0
1070
     1
1040
1.17495352888765
1071
        2
1040
33626.03313039554
1040
3269.656677931081
1040
0.0
1040
33914.09647427385
1040
3321.354621866587
1040
0.0
1002
}
  0
INSERT
  5
1F96
330
439
100
AcDbEntity
  8
HATCH
  6
CONTINUOUS
 62
   251
100
AcDbBlockReference
  2
*U9
 10
0.0
 20
0.0
 30
0.0
1001
ACAD
1002
{
1000
R14_HATCH_DATA
1000
1F96
1011
1.0
1021
0.0
1031
0.0
1011
0.0
1021
1.0
1031
0.0
1011
0.0
1021
0.0
1031
1.0
1040
0.0
1010
0.0
1020
0.0
1030
1.0
1000
SOLID
1070
     1
1070
     0
1071
        1
1071
        7
1070
     0
1070
     1
1071
        4
1040
32470.04102703315
1040
2751.639712908438
1040
32441.37613081631
1040
2751.639712908437
1040
32441.37613081628
1040
2621.439712908469
1040
32470.04102703315
1040
2621.439712908468
1071
        0
1070
     0
1070
     1
1040
1.387689772265088
1071
        1
1040
32454.49312975016
1040
2670.72490354182
1040
0.0
1002
}
  0
INSERT
  5
1F97
330
439
100
AcDbEntity
  8
HATCH
  6
CONTINUOUS
 62
   251
100
AcDbBlockReference
  2
*U10
 10
0.0
 20
0.0
 30
0.0
1001
ACAD
1002
{
1000
R14_HATCH_DATA
1000
1F97
1011
1.0
1021
0.0
1031
0.0
1011
0.0
1021
1.0
1031
0.0
1011
0.0
1021
0.0
1031
1.0
1040
0.0
1010
0.0
1020
0.0
1030
1.0
1000
SOLID
1070
     1
1070
     0
1071
        3
1071
        7
1070
     0
1070
     1
1071
        8
1040
33971.54096365304
1040
3060.959846087212
1040
33902.69255272901
1040
3022.390576704387
1040
33902.69255272901
1040
2947.639712908423
1040
33871.62406984392
1040
2947.639712908424
1040
33796.61811710033
1040
2947.639712908438
1040
33769.25787092402
1040
2947.639712908435
1040
33661.79733553019
1040
2887.43971290842
1040
34281.28459177611
1040
2887.439712908449
1071
        0
1071
        7
1070
     0
1070
     1
1071
        6
1040
34516.05021631575
1040
5967.356744211904
1040
34516.05021631579
1040
5971.639712908439
1040
34459.80001391578
1040
5971.639712908424
1040
33419.38636033947
1040
5971.639712908438
1040
33661.79733553018
1040
5835.839712908422
1040
34281.28459177614
1040
5835.839712908436
1071
        0
1071
        7
1070
     0
1070
     1
1071
        8
1040
34281.28459177615
1040
5835.839712908438
1040
33661.79733553019
1040
5835.839712908422
1040
33769.25787092396
1040
5775.639712908436
1040
33796.61811710033
1040
5775.639712908432
1040
33871.62406984392
1040
5775.639712908424
1040
33902.69255272901
1040
5775.639712908432
1040
33902.69255272901
1040
5700.888849112465
1040
33971.54096365304
1040
5662.319579729649
1071
        0
1070
     0
1070
     1
1040
5.402000434516021
1071
        3
1040
33983.26414964135
1040
2957.352590612616
1040
0.0
1040
33976.89805800057
1040
5894.821297784961
1040
0.0
1040
33966.08670748738
1040
5743.565218374061
1040
0.0
1002
}
  0
INSERT
  5
1F98
330
439
100
AcDbEntity
  8
HATCH
  6
CONTINUOUS
 62
   251
100
AcDbBlockReference
  2
*U11
 10
0.0
 20
0.0
 30
0.0
1001
ACAD
1002
{
1000
R14_HATCH_DATA
1000
1F98
1011
1.0
1021
0.0
1031
0.0
1011
0.0
1021
1.0
1031
0.0
1011
0.0
1021
0.0
1031
1.0
1040
0.0
1010
0.0
1020
0.0
1030
1.0
1000
SOLID
1070
     1
1070
     0
1071
        2
1071
        7
1070
     0
1070
     1
1071
        4
1040
33945.65788011248
1040
5434.347244123873
1040
33902.69255272902
1040
5410.277824601593
1040
33902.69255272903
1040
5381.278124880609
1040
33971.54096365301
1040
5419.847394263372
1071
        0
1071
        7
1070
     0
1070
     1
1071
        3
1040
33945.65788011248
1040
5434.347244123876
1040
33902.69255272902
1040
5458.416663646168
1040
33902.69255272903
1040
5410.277824601597
1071
        0
1070
     0
1070
     1
1040
1.151817673869031
1071
        2
1040
33923.23109582971
1040
5419.965492357806
1040
0.0
1040
33916.31546760569
1040
5429.180073581563
1040
0.0
1002
}
  0
LINE
  5
1F99
330
439
100
AcDbEntity
  8
OBJECT
100
AcDbLine
 10
33690.54368147176
 20
4361.639712908432
 30
0.0
 11
18990.54368147174
 21
4361.639712908469
 31
0.0
  0
POLYLINE
  5
1F9A
330
439
100
AcDbEntity
  8
SAFETY
100
AcDb2dPolyline
 66
     1
 10
0.0
 20
0.0
 30
0.0
 70
     1
  0
VERTEX
  5
2387
330
1F9A
100
AcDbEntity
  8
SAFETY
100
AcDbVertex
100
AcDb2dVertex
 10
18990.54368147169
 20
7161.639712917558
 30
0.0
  0
VERTEX
  5
2388
330
1F9A
100
AcDbEntity
  8
SAFETY
100
AcDbVertex
100
AcDb2dVertex
 10
28683.46916756218
 20
7161.639712911547
 30
0.0
 42
-0.1564944784905086
  0
VERTEX
  5
2389
330
1F9A
100
AcDbEntity
  8
SAFETY
100
AcDbVertex
100
AcDb2dVertex
 10
29666.57493555689
 20
7986.037538427972
 30
0.0
  0
VERTEX
  5
238A
330
1F9A
100
AcDbEntity
  8
SAFETY
100
AcDbVertex
100
AcDb2dVertex
 10
31099.07565853361
 20
8570.483669616393
 30
0.0
 42
-0.1102119220436614
  0
VERTEX
  5
238B
330
1F9A
100
AcDbEntity
  8
SAFETY
100
AcDbVertex
100
AcDb2dVertex
 10
32000.90250302841
 20
8723.279411167794
 30
0.0
  0
VERTEX
  5
238C
330
1F9A
100
AcDbEntity
  8
SAFETY
100
AcDbVertex
100
AcDb2dVertex
 10
35788.5439098947
 20
8527.265374804112
 30
0.0
 42
-0.2664070256672031
  0
VERTEX
  5
238D
330
1F9A
100
AcDbEntity
  8
SAFETY
100
AcDbVertex
100
AcDb2dVertex
 10
37544.95152086656
 20
7395.473876549274
 30
0.0
  0
VERTEX
  5
238E
330
1F9A
100
AcDbEntity
  8
SAFETY
100
AcDbVertex
100
AcDb2dVertex
 10
37746.02676997933
 20
7007.041781703731
 30
0.0
 42
-0.1199895645921339
  0
VERTEX
  5
238F
330
1F9A
100
AcDbEntity
  8
SAFETY
100
AcDbVertex
100
AcDb2dVertex
 10
37981.08740218042
 20
6041.639712902501
 30
0.0
  0
VERTEX
  5
2390
330
1F9A
100
AcDbEntity
  8
SAFETY
100
AcDbVertex
100
AcDb2dVertex
 10
37981.08740218046
 20
4361.639712908739
 30
0.0
  0
VERTEX
  5
2391
330
1F9A
100
AcDbEntity
  8
SAFETY
100
AcDbVertex
100
AcDb2dVertex
 10
37981.08740218047
 20
2681.639712914976
 30
0.0
 42
-0.1199895645921339
  0
VERTEX
  5
2392
330
1F9A
100
AcDbEntity
  8
SAFETY
100
AcDbVertex
100
AcDb2dVertex
 10
37746.02676997942
 20
1716.23764411374
 30
0.0
  0
VERTEX
  5
2393
330
1F9A
100
AcDbEntity
  8
SAFETY
100
AcDbVertex
100
AcDb2dVertex
 10
37544.95152086663
 20
1327.805549268192
 30
0.0
 42
-0.2664070256672031
  0
VERTEX
  5
2394
330
1F9A
100
AcDbEntity
  8
SAFETY
100
AcDbVertex
100
AcDb2dVertex
 10
35788.54390989481
 20
196.0140510133023
 30
0.0
  0
VERTEX
  5
2395
330
1F9A
100
AcDbEntity
  8
SAFETY
100
AcDbVertex
100
AcDb2dVertex
 10
32000.90250302852
 20
0.0000146495131048
 30
0.0
 42
-0.1102119220436614
  0
VERTEX
  5
2396
330
1F9A
100
AcDbEntity
  8
SAFETY
100
AcDbVertex
100
AcDb2dVertex
 10
31099.07565853373
 20
152.7957562008887
 30
0.0
  0
VERTEX
  5
2397
330
1F9A
100
AcDbEntity
  8
SAFETY
100
AcDbVertex
100
AcDb2dVertex
 10
29666.57493555698
 20
737.2418873892692
 30
0.0
 42
-0.1564944784905086
  0
VERTEX
  5
2398
330
1F9A
100
AcDbEntity
  8
SAFETY
100
AcDbVertex
100
AcDb2dVertex
 10
28683.46916756226
 20
1561.639712905666
 30
0.0
  0
VERTEX
  5
2399
330
1F9A
100
AcDbEntity
  8
SAFETY
100
AcDbVertex
100
AcDb2dVertex
 10
18990.54368147749
 20
1561.639712899381
 30
0.0
  0
VERTEX
  5
239A
330
1F9A
100
AcDbEntity
  8
SAFETY
100
AcDbVertex
100
AcDb2dVertex
 10
18990.54368147168
 20
1561.639712899381
 30
0.0
  0
VERTEX
  5
239B
330
1F9A
100
AcDbEntity
  8
SAFETY
100
AcDbVertex
100
AcDb2dVertex
 10
18990.54368146583
 20
1561.639712899381
 30
0.0
  0
VERTEX
  5
239C
330
1F9A
100
AcDbEntity
  8
SAFETY
100
AcDbVertex
100
AcDb2dVertex
 10
9297.618195381099
 20
1561.639712905666
 30
0.0
 42
-0.1564944784905086
  0
VERTEX
  5
239D
330
1F9A
100
AcDbEntity
  8
SAFETY
100
AcDbVertex
100
AcDb2dVertex
 10
8314.512427386366
 20
737.2418873892692
 30
0.0
  0
VERTEX
  5
239E
330
1F9A
100
AcDbEntity
  8
SAFETY
100
AcDbVertex
100
AcDb2dVertex
 10
6882.011704409629
 20
152.7957562008887
 30
0.0
 42
-0.1102119220436614
  0
VERTEX
  5
239F
330
1F9A
100
AcDbEntity
  8
SAFETY
100
AcDbVertex
100
AcDb2dVertex
 10
5980.184859914817
 20
0.0000146495131048
 30
0.0
  0
VERTEX
  5
23A0
330
1F9A
100
AcDbEntity
  8
SAFETY
100
AcDbVertex
100
AcDb2dVertex
 10
2192.543453048541
 20
196.0140510133023
 30
0.0
 42
-0.2664070256672031
  0
VERTEX
  5
23A1
330
1F9A
100
AcDbEntity
  8
SAFETY
100
AcDbVertex
100
AcDb2dVertex
 10
436.1358420767126
 20
1327.805549268192
 30
0.0
  0
VERTEX
  5
23A2
330
1F9A
100
AcDbEntity
  8
SAFETY
100
AcDbVertex
100
AcDb2dVertex
 10
235.0605929639399
 20
1716.23764411374
 30
0.0
 42
-0.1199895645921339
  0
VERTEX
  5
23A3
330
1F9A
100
AcDbEntity
  8
SAFETY
100
AcDbVertex
100
AcDb2dVertex
 10
-0.000039237108922
 20
2681.639712914976
 30
0.0
  0
VERTEX
  5
23A4
330
1F9A
100
AcDbEntity
  8
SAFETY
100
AcDbVertex
100
AcDb2dVertex
 10
-0.0000392370966438
 20
4361.639712908739
 30
0.0
  0
VERTEX
  5
23A5
330
1F9A
100
AcDbEntity
  8
SAFETY
100
AcDbVertex
100
AcDb2dVertex
 10
-0.0000392370625377
 20
6041.639712902501
 30
0.0
 42
-0.1199895645921339
  0
VERTEX
  5
23A6
330
1F9A
100
AcDbEntity
  8
SAFETY
100
AcDbVertex
100
AcDb2dVertex
 10
235.0605929640138
 20
7007.041781703731
 30
0.0
  0
VERTEX
  5
23A7
330
1F9A
100
AcDbEntity
  8
SAFETY
100
AcDbVertex
100
AcDb2dVertex
 10
436.1358420767974
 20
7395.473876549274
 30
0.0
 42
-0.2664070256672031
  0
VERTEX
  5
23A8
330
1F9A
100
AcDbEntity
  8
SAFETY
100
AcDbVertex
100
AcDb2dVertex
 10
2192.543453048659
 20
8527.265374804112
 30
0.0
  0
VERTEX
  5
23A9
330
1F9A
100
AcDbEntity
  8
SAFETY
100
AcDbVertex
100
AcDb2dVertex
 10
5980.184859914942
 20
8723.279411167794
 30
0.0
 42
-0.1102119220436614
  0
VERTEX
  5
23AA
330
1F9A
100
AcDbEntity
  8
SAFETY
100
AcDbVertex
100
AcDb2dVertex
 10
6882.011704409748
 20
8570.483669616393
 30
0.0
  0
VERTEX
  5
23AB
330
1F9A
100
AcDbEntity
  8
SAFETY
100
AcDbVertex
100
AcDb2dVertex
 10
8314.512427386468
 20
7986.037538427972
 30
0.0
 42
-0.1564944784905086
  0
VERTEX
  5
23AC
330
1F9A
100
AcDbEntity
  8
SAFETY
100
AcDbVertex
100
AcDb2dVertex
 10
9297.618195381176
 20
7161.639712911547
 30
0.0
  0
SEQEND
  5
23AD
330
1F9A
100
AcDbEntity
  8
SAFETY
  0
LINE
  5
1F9B
330
439
100
AcDbEntity
  8
OBJECT
100
AcDbLine
 10
29490.54368147173
 20
4361.639712908452
 30
0.0
 11
8490.543681471736
 21
4361.639712908477
 31
0.0
  0
LINE
  5
1F9C
330
439
100
AcDbEntity
  8
OBJECT
100
AcDbLine
 10
7527.534214126055
 20
5971.639712908622
 30
0.0
 11
7527.534214126053
 21
4361.6397129086
 31
0.0
  0
LINE
  5
1F9D
330
439
100
AcDbEntity
  8
OBJECT
100
AcDbLine
 10
2150.953769867768
 20
4361.639712908703
 30
0.0
 11
2150.953769867777
 21
5971.639712908717
 31
0.0
  0
LINE
  5
1F9E
330
439
100
AcDbEntity
  8
OBJECT
100
AcDbLine
 10
4237.625550111163
 20
4361.639712908695
 30
0.0
 11
4237.625550111217
 21
5775.639712908702
 31
0.0
  0
LINE
  5
1F9F
330
439
100
AcDbEntity
  8
OBJECT
100
AcDbLine
 10
4290.543681471723
 20
4361.639712908688
 30
0.0
 11
4290.543681471791
 21
5775.639712908732
 31
0.0
  0
LINE
  5
1FA0
330
439
100
AcDbEntity
  8
OBJECT
100
AcDbLine
 10
4078.394810214422
 20
4361.639712908695
 30
0.0
 11
4078.394810214478
 21
5775.639712908702
 31
0.0
  0
LINE
  5
1FA1
330
439
100
AcDbEntity
  8
OBJECT
100
AcDbLine
 10
4125.30281792
 20
5775.639712908695
 30
0.0
 11
4125.302817919958
 21
4361.639712908688
 31
0.0
  0
LINE
  5
1FA2
330
439
100
AcDbEntity
  8
OBJECT
100
AcDbLine
 10
4078.394810214438
 20
5381.278124880872
 30
0.0
 11
4078.394810214422
 21
4361.639712908695
 31
0.0
  0
LINE
  5
1FA3
330
439
100
AcDbEntity
  8
OBJECT
100
AcDbLine
 10
4290.543681471723
 20
4361.639712908688
 30
0.0
 11
4290.543681471779
 21
5262.431126744433
 31
0.0
  0
LINE
  5
1FA4
330
439
100
AcDbEntity
  8
OBJECT
100
AcDbLine
 10
2150.953769867777
 20
5971.639712908717
 30
0.0
 11
2150.953769867768
 21
4361.639712908703
 31
0.0
  0
LINE
  5
1FA5
330
439
100
AcDbEntity
  8
OBJECT
100
AcDbLine
 10
2150.953769867768
 20
4361.639712908703
 30
0.0
 11
2150.953769867777
 21
5971.639712908717
 31
0.0
  0
LINE
  5
1FA6
330
439
100
AcDbEntity
  8
OBJECT
100
AcDbLine
 10
7527.534214126053
 20
4361.6397129086
 30
0.0
 11
4290.543681471723
 21
4361.639712908688
 31
0.0
  0
LINE
  5
1FA7
330
439
100
AcDbEntity
  8
OBJECT
100
AcDbLine
 10
7527.534214126053
 20
4361.6397129086
 30
0.0
 11
4290.543681471723
 21
4361.639712908688
 31
0.0
  0
LINE
  5
1FA8
330
439
100
AcDbEntity
  8
OBJECT
100
AcDbLine
 10
5085.382400427686
 20
2751.639712908659
 30
0.0
 11
7527.534214126013
 21
2751.63971290863
 31
0.0
  0
LINE
  5
1FA9
330
439
100
AcDbEntity
  8
OBJECT
100
AcDbLine
 10
4994.528093439772
 20
2751.63971290868
 30
0.0
 11
7527.534214126013
 21
2751.63971290863
 31
0.0
  0
LINE
  5
1FAA
330
439
100
AcDbEntity
  8
OBJECT
100
AcDbLine
 10
4290.543681471723
 20
4361.639712908688
 30
0.0
 11
18990.54368147174
 21
4361.639712908469
 31
0.0
  0
LINE
  5
1FAB
330
439
100
AcDbEntity
  8
OBJECT
100
AcDbLine
 10
5818.091772181284
 20
2261.274980168304
 30
0.0
 11
4290.543681471749
 21
3117.016064313514
 31
0.0
  0
LINE
  5
1FAC
330
439
100
AcDbEntity
  8
OBJECT
100
AcDbLine
 10
5818.091772181279
 20
2178.244452365145
 30
0.0
 11
4290.543681471727
 21
3033.985536510355
 31
0.0
  0
LINE
  5
1FAD
330
439
100
AcDbEntity
  8
OBJECT
100
AcDbLine
 10
5467.483230153867
 20
2486.687569074183
 30
0.0
 11
4290.543681471783
 21
3146.015764034467
 31
0.0
  0
LINE
  5
1FAE
330
439
100
AcDbEntity
  8
OBJECT
100
AcDbLine
 10
3024.564705140448
 20
2751.63971290871
 30
0.0
 11
3826.424696378719
 21
3200.846217376678
 31
0.0
  0
LINE
  5
1FAF
330
439
100
AcDbEntity
  8
OBJECT
100
AcDbLine
 10
4290.543681471727
 20
3146.015764034481
 30
0.0
 11
4994.528093439772
 21
2751.63971290868
 31
0.0
  0
LINE
  5
1FB0
330
439
100
AcDbEntity
  8
OBJECT
100
AcDbLine
 10
2550.846719504701
 20
2374.229989267735
 30
0.0
 11
3893.123121563785
 21
3126.180825058586
 31
0.0
  0
LINE
  5
1FB1
330
439
100
AcDbEntity
  8
OBJECT
100
AcDbLine
 10
2700.858624991782
 20
2327.825549631528
 30
0.0
 11
4009.546399290382
 21
3060.959846087473
 31
0.0
  0
LINE
  5
1FB2
330
439
100
AcDbEntity
  8
OBJECT
100
AcDbLine
 10
2612.98368527491
 20
2320.616270309077
 30
0.0
 11
3972.043422918607
 21
3081.969225663922
 31
0.0
  0
LINE
  5
1FB3
330
439
100
AcDbEntity
  8
OBJECT
100
AcDbLine
 10
2550.846719504686
 20
2457.260517070924
 30
0.0
 11
3838.237878200514
 21
3178.464328957893
 31
0.0
  0
LINE
  5
1FB4
330
439
100
AcDbEntity
  8
OBJECT
100
AcDbLine
 10
2612.983685274889
 20
2521.069696622401
 30
0.0
 11
3826.424696378719
 21
3200.846217376678
 31
0.0
  0
LINE
  5
1FB5
330
439
100
AcDbEntity
  8
OBJECT
100
AcDbLine
 10
4237.625550111163
 20
4361.639712908695
 30
0.0
 11
4237.625550111163
 21
2947.639712908681
 31
0.0
  0
LINE
  5
1FB6
330
439
100
AcDbEntity
  8
OBJECT
100
AcDbLine
 10
4290.543681471723
 20
4361.639712908688
 30
0.0
 11
4290.543681471736
 21
2947.639712908695
 31
0.0
  0
LINE
  5
1FB7
330
439
100
AcDbEntity
  8
OBJECT
100
AcDbLine
 10
4078.394810214422
 20
4361.639712908695
 30
0.0
 11
4078.394810214431
 21
2947.639712908701
 31
0.0
  0
LINE
  5
1FB8
330
439
100
AcDbEntity
  8
OBJECT
100
AcDbLine
 10
4125.302817919958
 20
2947.639712908717
 30
0.0
 11
4125.302817919958
 21
4361.639712908688
 31
0.0
  0
LINE
  5
1FB9
330
439
100
AcDbEntity
  8
OBJECT
100
AcDbLine
 10
2150.953769867734
 20
2751.639712908739
 30
0.0
 11
2150.953769867768
 21
4361.639712908703
 31
0.0
  0
LINE
  5
1FBA
330
439
100
AcDbEntity
  8
OBJECT
100
AcDbLine
 10
2150.953769867768
 20
4361.639712908703
 30
0.0
 11
2150.953769867734
 21
2751.639712908739
 31
0.0
  0
LINE
  5
1FBB
330
439
100
AcDbEntity
  8
OBJECT
100
AcDbLine
 10
2150.953769867768
 20
4361.639712908703
 30
0.0
 11
2150.953769867734
 21
2751.639712908739
 31
0.0
  0
LINE
  5
1FBC
330
439
100
AcDbEntity
  8
OBJECT
100
AcDbLine
 10
4109.463293099525
 20
2947.63971290871
 30
0.0
 11
4078.394810214431
 21
2947.639712908701
 31
0.0
  0
LINE
  5
1FBD
330
439
100
AcDbEntity
  8
OBJECT
100
AcDbLine
 10
3699.80277116733
 20
2887.439712908749
 30
0.0
 11
4319.290027413284
 21
2887.439712908705
 31
0.0
  0
LINE
  5
1FBE
330
439
100
AcDbEntity
  8
OBJECT
100
AcDbLine
 10
4561.70100260395
 20
2751.639712908739
 30
0.0
 11
3521.287349027665
 21
2751.639712908717
 31
0.0
  0
LINE
  5
1FBF
330
439
100
AcDbEntity
  8
OBJECT
100
AcDbLine
 10
3224.977149659476
 20
2621.439712908683
 30
0.0
 11
4794.115648920781
 21
2621.439712908647
 31
0.0
  0
LINE
  5
1FC0
330
439
100
AcDbEntity
  8
OBJECT
100
AcDbLine
 10
5036.526624111423
 20
2485.639712908635
 30
0.0
 11
3057.368155704304
 21
2485.639712908707
 31
0.0
  0
LINE
  5
1FC1
330
439
100
AcDbEntity
  8
OBJECT
100
AcDbLine
 10
2700.858624991782
 20
2327.825549631528
 30
0.0
 11
2612.98368527491
 21
2320.616270309077
 31
0.0
  0
LINE
  5
1FC2
330
439
100
AcDbEntity
  8
OBJECT
100
AcDbLine
 10
2150.953769867734
 20
2751.639712908739
 30
0.0
 11
3024.564705140448
 21
2751.63971290871
 31
0.0
  0
LINE
  5
1FC3
330
439
100
AcDbEntity
  8
OBJECT
100
AcDbLine
 10
2150.953769867734
 20
2751.639712908739
 30
0.0
 11
3024.564705140448
 21
2751.63971290871
 31
0.0
  0
LINE
  5
1FC4
330
439
100
AcDbEntity
  8
OBJECT
100
AcDbLine
 10
2550.846719504686
 20
2457.260517070924
 30
0.0
 11
2612.983685274889
 21
2521.069696622401
 31
0.0
  0
LINE
  5
1FC5
330
439
100
AcDbEntity
  8
OBJECT
100
AcDbLine
 10
2612.98368527491
 20
2320.616270309077
 30
0.0
 11
2550.846719504701
 21
2374.229989267735
 31
0.0
  0
LINE
  5
1FC6
330
439
100
AcDbEntity
  8
OBJECT
100
AcDbLine
 10
2550.846719504701
 20
2374.229989267735
 30
0.0
 11
2550.846719504701
 21
2374.229989267735
 31
0.0
  0
LINE
  5
1FC7
330
439
100
AcDbEntity
  8
OBJECT
100
AcDbLine
 10
2550.846719504701
 20
2374.229989267735
 30
0.0
 11
2550.846719504686
 21
2457.260517070924
 31
0.0
  0
LINE
  5
1FC8
330
439
100
AcDbEntity
  8
OBJECT
100
AcDbLine
 10
2626.621311006481
 20
2751.639712908724
 30
0.0
 11
2626.621311006466
 21
2555.694870395697
 31
0.0
  0
LINE
  5
1FC9
330
439
100
AcDbEntity
  8
OBJECT
100
AcDbLine
 10
2800.56513523088
 20
2751.639712908695
 30
0.0
 11
2800.56513523083
 21
2626.15388632938
 31
0.0
  0
LINE
  5
1FCA
330
439
100
AcDbEntity
  8
OBJECT
100
AcDbLine
 10
2626.621311006466
 20
2555.694870395697
 30
0.0
 11
2693.024175547583
 21
2565.908832187389
 31
0.0
  0
LINE
  5
1FCB
330
439
100
AcDbEntity
  8
OBJECT
100
AcDbLine
 10
2652.956243084791
 20
2543.462549694808
 30
0.0
 11
2626.621311006466
 21
2555.694870395697
 31
0.0
  0
LINE
  5
1FCC
330
439
100
AcDbEntity
  8
OBJECT
100
AcDbLine
 10
3057.368155704304
 20
2485.639712908707
 30
0.0
 11
3001.117953934048
 21
2485.639712908693
 31
0.0
  0
LINE
  5
1FCD
330
439
100
AcDbEntity
  8
OBJECT
100
AcDbLine
 10
3001.117953934033
 20
2496.032524741672
 30
0.0
 11
3001.117953934048
 21
2485.639712908693
 31
0.0
  0
LINE
  5
1FCE
330
439
100
AcDbEntity
  8
OBJECT
100
AcDbLine
 10
2626.621311006466
 20
2753.739712908708
 30
0.0
 11
2754.295882780501
 21
2753.739712908708
 31
0.0
  0
LINE
  5
1FCF
330
439
100
AcDbEntity
  8
OBJECT
100
AcDbLine
 10
2626.621311006511
 20
2753.739712908701
 30
0.0
 11
2626.621311006481
 21
2751.639712908724
 31
0.0
  0
LINE
  5
1FD0
330
439
100
AcDbEntity
  8
OBJECT
100
AcDbLine
 10
2800.56513523086
 20
2753.739712908694
 30
0.0
 11
2800.56513523088
 21
2751.639712908695
 31
0.0
  0
LINE
  5
1FD1
330
439
100
AcDbEntity
  8
OBJECT
100
AcDbLine
 10
2754.295882780501
 20
2753.739712908708
 30
0.0
 11
2754.295882780516
 21
2751.63971290871
 31
0.0
  0
LINE
  5
1FD2
330
439
100
AcDbEntity
  8
OBJECT
100
AcDbLine
 10
3521.287349027665
 20
2751.639712908717
 30
0.0
 11
3465.037146627706
 21
2751.639712908731
 31
0.0
  0
LINE
  5
1FD3
330
439
100
AcDbEntity
  8
OBJECT
100
AcDbLine
 10
3465.037146627695
 20
2755.922681605207
 30
0.0
 11
3465.037146627706
 21
2751.639712908731
 31
0.0
  0
LINE
  5
1FD4
330
439
100
AcDbEntity
  8
OBJECT
100
AcDbLine
 10
3457.391795976473
 20
2751.639712908731
 30
0.0
 11
3465.03714662765
 21
2751.639712908695
 31
0.0
  0
LINE
  5
1FD5
330
439
100
AcDbEntity
  8
OBJECT
100
AcDbLine
 10
5818.091772181284
 20
2261.274980168304
 30
0.0
 11
5755.954806411081
 21
2325.084159719768
 31
0.0
  0
LINE
  5
1FD6
330
439
100
AcDbEntity
  8
OBJECT
100
AcDbLine
 10
5668.079866694148
 20
2131.840012728974
 30
0.0
 11
4211.829492019424
 21
2947.639712908723
 31
0.0
  0
LINE
  5
1FD7
330
439
100
AcDbEntity
  8
OBJECT
100
AcDbLine
 10
5755.954806411075
 20
2124.630733406435
 30
0.0
 11
4286.835444763012
 21
2947.639712908717
 31
0.0
  0
LINE
  5
1FD8
330
439
100
AcDbEntity
  8
OBJECT
100
AcDbLine
 10
5668.079866694148
 20
2131.840012728974
 30
0.0
 11
5755.954806411075
 21
2124.630733406435
 31
0.0
  0
LINE
  5
1FD9
330
439
100
AcDbEntity
  8
OBJECT
100
AcDbLine
 10
5755.954806411075
 20
2124.630733406435
 30
0.0
 11
5818.091772181279
 21
2178.244452365145
 31
0.0
  0
LINE
  5
1FDA
330
439
100
AcDbEntity
  8
OBJECT
100
AcDbLine
 10
5818.091772181279
 20
2178.244452365145
 30
0.0
 11
5818.091772181284
 21
2261.274980168304
 31
0.0
  0
LINE
  5
1FDB
330
439
100
AcDbEntity
  8
OBJECT
100
AcDbLine
 10
5539.711232127153
 20
2753.739712908643
 30
0.0
 11
5672.451443536079
 21
2753.739712908664
 31
0.0
  0
LINE
  5
1FDC
330
439
100
AcDbEntity
  8
OBJECT
100
AcDbLine
 10
5755.954806411081
 20
2325.084159719768
 30
0.0
 11
5469.353714947265
 21
2485.639712908664
 31
0.0
  0
LINE
  5
1FDD
330
439
100
AcDbEntity
  8
OBJECT
100
AcDbLine
 10
5672.451443536014
 20
2411.038564877893
 30
0.0
 11
5582.474737918008
 21
2422.268675737864
 31
0.0
  0
LINE
  5
1FDE
330
439
100
AcDbEntity
  8
OBJECT
100
AcDbLine
 10
5511.046335910301
 20
2621.439712908676
 30
0.0
 11
5511.046335910306
 21
2751.639712908703
 31
0.0
  0
LINE
  5
1FDF
330
439
100
AcDbEntity
  8
OBJECT
100
AcDbLine
 10
5539.711232127181
 20
2621.439712908662
 30
0.0
 11
5539.71123212716
 21
2751.639712908695
 31
0.0
  0
LINE
  5
1FE0
330
439
100
AcDbEntity
  8
OBJECT
100
AcDbLine
 10
5511.046335910275
 20
2462.283270724761
 30
0.0
 11
5511.046335910268
 21
2485.639712908685
 31
0.0
  0
LINE
  5
1FE1
330
439
100
AcDbEntity
  8
OBJECT
100
AcDbLine
 10
5539.711232127153
 20
2446.225033661928
 30
0.0
 11
5539.711232127142
 21
2485.639712908643
 31
0.0
  0
LINE
  5
1FE2
330
439
100
AcDbEntity
  8
OBJECT
100
AcDbLine
 10
5226.94273975656
 20
2621.439712908647
 30
0.0
 11
5549.66320770713
 21
2621.439712908662
 31
0.0
  0
LINE
  5
1FE3
330
439
100
AcDbEntity
  8
OBJECT
100
AcDbLine
 10
5549.663207707144
 20
2485.639712908664
 30
0.0
 11
5468.503625701139
 21
2485.63971290865
 31
0.0
  0
LINE
  5
1FE4
330
439
100
AcDbEntity
  8
OBJECT
100
AcDbLine
 10
5469.353714947265
 20
2485.639712908664
 30
0.0
 11
5467.483230153867
 21
2486.687569074183
 31
0.0
  0
LINE
  5
1FE5
330
439
100
AcDbEntity
  8
OBJECT
100
AcDbLine
 10
5549.66320770713
 20
2621.439712908662
 30
0.0
 11
5549.663207707144
 21
2485.639712908664
 31
0.0
  0
LINE
  5
1FE6
330
439
100
AcDbEntity
  8
OBJECT
100
AcDbLine
 10
4184.469245843112
 20
2947.639712908701
 30
0.0
 11
4109.463293099525
 21
2947.63971290871
 31
0.0
  0
LINE
  5
1FE7
330
439
100
AcDbEntity
  8
OBJECT
100
AcDbLine
 10
4290.543681471736
 20
2947.639712908695
 30
0.0
 11
4259.475198586641
 21
2947.639712908695
 31
0.0
  0
LINE
  5
1FE8
330
439
100
AcDbEntity
  8
OBJECT
100
AcDbLine
 10
4259.475198586641
 20
2947.639712908695
 30
0.0
 11
4184.469245843112
 21
2947.639712908701
 31
0.0
  0
LINE
  5
1FE9
330
439
100
AcDbEntity
  8
OBJECT
100
AcDbLine
 10
5085.382400427686
 20
2751.639712908659
 30
0.0
 11
4994.528093439772
 21
2751.63971290868
 31
0.0
  0
LINE
  5
1FEA
330
439
100
AcDbEntity
  8
OBJECT
100
AcDbLine
 10
5511.046335910306
 20
2751.639712908703
 30
0.0
 11
5511.046335910279
 21
2753.739712908679
 31
0.0
  0
LINE
  5
1FEB
330
439
100
AcDbEntity
  8
OBJECT
100
AcDbLine
 10
5539.71123212716
 20
2751.639712908695
 30
0.0
 11
5539.711232127153
 21
2753.739712908643
 31
0.0
  0
LINE
  5
1FEC
330
439
100
AcDbEntity
  8
OBJECT
100
AcDbLine
 10
5672.451443536058
 20
2411.038564877878
 30
0.0
 11
5672.451443536065
 21
2751.639712908687
 31
0.0
  0
LINE
  5
1FED
330
439
100
AcDbEntity
  8
OBJECT
100
AcDbLine
 10
5644.37571080662
 20
2387.591400454943
 30
0.0
 11
5672.451443536058
 21
2411.038564877878
 31
0.0
  0
LINE
  5
1FEE
330
439
100
AcDbEntity
  8
OBJECT
100
AcDbLine
 10
5643.786547319169
 20
2387.099366523189
 30
0.0
 11
5644.37571080662
 21
2387.591400454943
 31
0.0
  0
LINE
  5
1FEF
330
439
100
AcDbEntity
  8
OBJECT
100
AcDbLine
 10
5672.451443536065
 20
2751.639712908687
 30
0.0
 11
5672.451443536079
 21
2753.739712908664
 31
0.0
  0
LINE
  5
1FF0
330
439
100
AcDbEntity
  8
OBJECT
100
AcDbLine
 10
4078.394810214438
 20
3342.001300936539
 30
0.0
 11
4078.394810214422
 21
4361.639712908695
 31
0.0
  0
LINE
  5
1FF1
330
439
100
AcDbEntity
  8
OBJECT
100
AcDbLine
 10
3964.934371438051
 20
3328.42394199671
 30
0.0
 11
4009.546399290417
 21
3303.432031553767
 31
0.0
  0
LINE
  5
1FF2
330
439
100
AcDbEntity
  8
OBJECT
100
AcDbLine
 10
4009.546399290417
 20
3303.432031553767
 30
0.0
 11
4078.394810214438
 21
3342.001300936539
 31
0.0
  0
LINE
  5
1FF3
330
439
100
AcDbEntity
  8
OBJECT
100
AcDbLine
 10
4009.546399290417
 20
3303.432031553767
 30
0.0
 11
4078.394810214438
 21
3342.001300936539
 31
0.0
  0
LINE
  5
1FF4
330
439
100
AcDbEntity
  8
OBJECT
100
AcDbLine
 10
3889.928418694504
 20
3328.42394199671
 30
0.0
 11
3832.286146235478
 21
3272.292270411596
 31
0.0
  0
LINE
  5
1FF5
330
439
100
AcDbEntity
  8
OBJECT
100
AcDbLine
 10
4078.394810214446
 20
3264.862762170984
 30
0.0
 11
3964.934371438051
 21
3328.42394199671
 31
0.0
  0
LINE
  5
1FF6
330
439
100
AcDbEntity
  8
OBJECT
100
AcDbLine
 10
4013.366534607685
 20
3272.292270411588
 30
0.0
 11
3964.934371438051
 21
3328.42394199671
 31
0.0
  0
LINE
  5
1FF7
330
439
100
AcDbEntity
  8
OBJECT
100
AcDbLine
 10
3832.286146235478
 20
3272.292270411596
 30
0.0
 11
3889.928418694504
 21
3328.42394199671
 31
0.0
  0
LINE
  5
1FF8
330
439
100
AcDbEntity
  8
OBJECT
100
AcDbLine
 10
3825.773615501529
 20
3192.910099177254
 30
0.0
 11
3874.20577867114
 21
3136.778427592046
 31
0.0
  0
LINE
  5
1FF9
330
439
100
AcDbEntity
  8
OBJECT
100
AcDbLine
 10
3949.211731414685
 20
3136.778427592046
 30
0.0
 11
4006.854003873701
 21
3192.91009917716
 31
0.0
  0
LINE
  5
1FFA
330
439
100
AcDbEntity
  8
OBJECT
100
AcDbLine
 10
4078.394810214431
 20
3152.832534646831
 30
0.0
 11
4006.854003873701
 21
3192.91009917716
 31
0.0
  0
LINE
  5
1FFB
330
439
100
AcDbEntity
  8
OBJECT
100
AcDbLine
 10
3874.20577867114
 20
3136.778427592046
 30
0.0
 11
3949.211731414685
 21
3136.778427592046
 31
0.0
  0
LINE
  5
1FFC
330
439
100
AcDbEntity
  8
OBJECT
100
AcDbLine
 10
4078.394810214454
 20
3022.390576704671
 30
0.0
 11
3874.20577867114
 21
3136.778427592046
 31
0.0
  0
LINE
  5
1FFD
330
439
100
AcDbEntity
  8
OBJECT
100
AcDbLine
 10
4078.394810214428
 20
3064.409335857611
 30
0.0
 11
3949.211731414685
 21
3136.778427592046
 31
0.0
  0
LINE
  5
1FFE
330
439
100
AcDbEntity
  8
OBJECT
100
AcDbLine
 10
4035.42948283098
 20
3288.932181693261
 30
0.0
 11
4078.394810214431
 21
3313.001601215543
 31
0.0
  0
LINE
  5
1FFF
330
439
100
AcDbEntity
  8
OBJECT
100
AcDbLine
 10
3832.286146235478
 20
3272.292270411596
 30
0.0
 11
3825.773615501519
 21
3192.910099177211
 31
0.0
  0
LINE
  5
2000
330
439
100
AcDbEntity
  8
OBJECT
100
AcDbLine
 10
4006.854003873701
 20
3192.91009917716
 30
0.0
 11
4013.366534607685
 21
3272.292270411588
 31
0.0
  0
LINE
  5
2001
330
439
100
AcDbEntity
  8
OBJECT
100
AcDbLine
 10
3826.424696378719
 20
3200.846217376678
 30
0.0
 11
3832.286146235478
 21
3272.292270411596
 31
0.0
  0
LINE
  5
2002
330
439
100
AcDbEntity
  8
OBJECT
100
AcDbLine
 10
4078.394810214401
 20
3235.863062449989
 30
0.0
 11
4013.366534607685
 21
3272.292270411588
 31
0.0
  0
LINE
  5
2003
330
439
100
AcDbEntity
  8
OBJECT
100
AcDbLine
 10
3964.934371438051
 20
3328.42394199671
 30
0.0
 11
3889.928418694504
 21
3328.42394199671
 31
0.0
  0
LINE
  5
2004
330
439
100
AcDbEntity
  8
OBJECT
100
AcDbLine
 10
3889.928418694504
 20
3328.42394199671
 30
0.0
 11
3964.934371438051
 21
3328.42394199671
 31
0.0
  0
LINE
  5
2005
330
439
100
AcDbEntity
  8
OBJECT
100
AcDbLine
 10
4290.543681471723
 20
4361.639712908688
 30
0.0
 11
4290.543681471749
 21
3460.848299072914
 31
0.0
  0
LINE
  5
2006
330
439
100
AcDbEntity
  8
OBJECT
100
AcDbLine
 10
4290.543681471732
 20
3260.394872759597
 30
0.0
 11
4419.727894689969
 21
3332.764600001613
 31
0.0
  0
LINE
  5
2007
330
439
100
AcDbEntity
  8
OBJECT
100
AcDbLine
 10
4290.543681471714
 20
3218.376113606614
 30
0.0
 11
4494.733847433501
 21
3332.76460000162
 31
0.0
  0
LINE
  5
2008
330
439
100
AcDbEntity
  8
OBJECT
100
AcDbLine
 10
4494.733847433501
 20
3332.76460000162
 30
0.0
 11
4290.543681471714
 21
3218.376113606614
 31
0.0
  0
LINE
  5
2009
330
439
100
AcDbEntity
  8
OBJECT
100
AcDbLine
 10
4290.543681471714
 20
3218.376113606614
 30
0.0
 11
4290.543681471727
 21
3146.015764034481
 31
0.0
  0
LINE
  5
200A
330
439
100
AcDbEntity
  8
OBJECT
100
AcDbLine
 10
4536.653479869154
 20
3468.278442821164
 30
0.0
 11
4479.011207410176
 21
3524.410114406306
 31
0.0
  0
LINE
  5
200B
330
439
100
AcDbEntity
  8
OBJECT
100
AcDbLine
 10
4479.011207410176
 20
3524.410114406306
 30
0.0
 11
4536.653479869154
 21
3468.278442821164
 31
0.0
  0
LINE
  5
200C
330
439
100
AcDbEntity
  8
OBJECT
100
AcDbLine
 10
4404.005254666564
 20
3524.410114406234
 30
0.0
 11
4355.573091496945
 21
3468.278442821171
 31
0.0
  0
LINE
  5
200D
330
439
100
AcDbEntity
  8
OBJECT
100
AcDbLine
 10
4290.543681471749
 20
3460.848299072914
 30
0.0
 11
4404.005254666579
 21
3524.410114406278
 31
0.0
  0
LINE
  5
200E
330
439
100
AcDbEntity
  8
OBJECT
100
AcDbLine
 10
4290.543681471749
 20
3460.848299072914
 30
0.0
 11
4404.005254666579
 21
3524.410114406278
 31
0.0
  0
LINE
  5
200F
330
439
100
AcDbEntity
  8
OBJECT
100
AcDbLine
 10
4419.727894689969
 20
3332.764600001613
 30
0.0
 11
4494.733847433501
 21
3332.76460000162
 31
0.0
  0
LINE
  5
2010
330
439
100
AcDbEntity
  8
OBJECT
100
AcDbLine
 10
4362.085622230905
 20
3388.896271586779
 30
0.0
 11
4419.727894689969
 21
3332.764600001613
 31
0.0
  0
LINE
  5
2011
330
439
100
AcDbEntity
  8
OBJECT
100
AcDbLine
 10
4355.573091496945
 20
3468.278442821171
 30
0.0
 11
4362.085622230934
 21
3388.896271586772
 31
0.0
  0
LINE
  5
2012
330
439
100
AcDbEntity
  8
OBJECT
100
AcDbLine
 10
4290.543681471755
 20
3348.818071548802
 30
0.0
 11
4362.085622230934
 21
3388.896271586772
 31
0.0
  0
LINE
  5
2013
330
439
100
AcDbEntity
  8
OBJECT
100
AcDbLine
 10
4290.543681471754
 20
3431.848599351916
 30
0.0
 11
4355.573091496945
 21
3468.278442821171
 31
0.0
  0
LINE
  5
2014
330
439
100
AcDbEntity
  8
OBJECT
100
AcDbLine
 10
4543.166010603145
 20
3388.896271586757
 30
0.0
 11
4536.653479869154
 21
3468.278442821164
 31
0.0
  0
LINE
  5
2015
330
439
100
AcDbEntity
  8
OBJECT
100
AcDbLine
 10
4494.733847433501
 20
3332.76460000162
 30
0.0
 11
4543.166010603145
 21
3388.896271586757
 31
0.0
  0
LINE
  5
2016
330
439
100
AcDbEntity
  8
OBJECT
100
AcDbLine
 10
4536.653479869154
 20
3468.278442821164
 30
0.0
 11
4543.166010603145
 21
3388.896271586757
 31
0.0
  0
LINE
  5
2017
330
439
100
AcDbEntity
  8
OBJECT
100
AcDbLine
 10
4543.166010603145
 20
3388.896271586757
 30
0.0
 11
4494.733847433501
 21
3332.76460000162
 31
0.0
  0
LINE
  5
2018
330
439
100
AcDbEntity
  8
OBJECT
100
AcDbLine
 10
4479.01120741016
 20
3524.410114406263
 30
0.0
 11
4404.005254666579
 21
3524.410114406278
 31
0.0
  0
LINE
  5
2019
330
439
100
AcDbEntity
  8
OBJECT
100
AcDbLine
 10
4404.005254666579
 20
3524.410114406278
 30
0.0
 11
4479.011207410176
 21
3524.410114406306
 31
0.0
  0
LINE
  5
201A
330
439
100
AcDbEntity
  8
OBJECT
100
AcDbLine
 10
7527.534214126013
 20
2751.63971290863
 30
0.0
 11
7527.534214126045
 21
4353.239712908614
 31
0.0
  0
LINE
  5
201B
330
439
100
AcDbEntity
  8
OBJECT
100
AcDbLine
 10
7527.534214126013
 20
2751.63971290863
 30
0.0
 11
7527.534214126053
 21
4361.6397129086
 31
0.0
  0
LINE
  5
201C
330
439
100
AcDbEntity
  8
OBJECT
100
AcDbLine
 10
4994.528093439793
 20
5971.639712908666
 30
0.0
 11
7527.534214126055
 21
5971.639712908622
 31
0.0
  0
LINE
  5
201D
330
439
100
AcDbEntity
  8
OBJECT
100
AcDbLine
 10
5085.382400427747
 20
5971.639712908681
 30
0.0
 11
7527.534214126055
 21
5971.639712908622
 31
0.0
  0
LINE
  5
201E
330
439
100
AcDbEntity
  8
OBJECT
100
AcDbLine
 10
3024.564705140477
 20
5971.63971290871
 30
0.0
 11
3826.424696378773
 21
5522.433208440689
 31
0.0
  0
LINE
  5
201F
330
439
100
AcDbEntity
  8
OBJECT
100
AcDbLine
 10
4290.543681471786
 20
5577.263661782786
 30
0.0
 11
4994.528093439793
 21
5971.639712908666
 31
0.0
  0
LINE
  5
2020
330
439
100
AcDbEntity
  8
OBJECT
100
AcDbLine
 10
5818.091772181325
 20
6462.004445649054
 30
0.0
 11
4290.543681471802
 21
5606.263361503914
 31
0.0
  0
LINE
  5
2021
330
439
100
AcDbEntity
  8
OBJECT
100
AcDbLine
 10
5818.091772181325
 20
6545.034973452134
 30
0.0
 11
4290.543681471802
 21
5689.293889306985
 31
0.0
  0
LINE
  5
2022
330
439
100
AcDbEntity
  8
OBJECT
100
AcDbLine
 10
5467.483230153924
 20
6236.591856743163
 30
0.0
 11
4290.543681471809
 21
5577.263661782874
 31
0.0
  0
LINE
  5
2023
330
439
100
AcDbEntity
  8
OBJECT
100
AcDbLine
 10
2550.846719504745
 20
6349.049436549646
 30
0.0
 11
3893.123121563842
 21
5597.098600758847
 31
0.0
  0
LINE
  5
2024
330
439
100
AcDbEntity
  8
OBJECT
100
AcDbLine
 10
2700.858624991891
 20
6395.45387618589
 30
0.0
 11
4009.546399290448
 21
5662.319579729961
 31
0.0
  0
LINE
  5
2025
330
439
100
AcDbEntity
  8
OBJECT
100
AcDbLine
 10
2612.983685274954
 20
6402.663155508354
 30
0.0
 11
3972.043422918682
 21
5641.310200153476
 31
0.0
  0
LINE
  5
2026
330
439
100
AcDbEntity
  8
OBJECT
100
AcDbLine
 10
2550.84671950473
 20
6266.018908746487
 30
0.0
 11
3838.23787820058
 21
5544.815096859444
 31
0.0
  0
LINE
  5
2027
330
439
100
AcDbEntity
  8
OBJECT
100
AcDbLine
 10
2612.983685274939
 20
6202.209729195024
 30
0.0
 11
3826.424696378773
 21
5522.433208440689
 31
0.0
  0
LINE
  5
2028
330
439
100
AcDbEntity
  8
OBJECT
100
AcDbLine
 10
3964.934371438078
 20
5394.855483820665
 30
0.0
 11
4009.546399290484
 21
5419.847394263594
 31
0.0
  0
LINE
  5
2029
330
439
100
AcDbEntity
  8
OBJECT
100
AcDbLine
 10
4009.546399290484
 20
5419.847394263594
 30
0.0
 11
4078.394810214438
 21
5381.278124880872
 31
0.0
  0
LINE
  5
202A
330
439
100
AcDbEntity
  8
OBJECT
100
AcDbLine
 10
4009.546399290484
 20
5419.847394263594
 30
0.0
 11
4078.394810214457
 21
5381.278124880822
 31
0.0
  0
LINE
  5
202B
330
439
100
AcDbEntity
  8
OBJECT
100
AcDbLine
 10
3832.286146235503
 20
5450.987155405773
 30
0.0
 11
3889.928418694548
 21
5394.855483820659
 31
0.0
  0
LINE
  5
202C
330
439
100
AcDbEntity
  8
OBJECT
100
AcDbLine
 10
3889.928418694548
 20
5394.855483820659
 30
0.0
 11
3832.286146235503
 21
5450.987155405773
 31
0.0
  0
LINE
  5
202D
330
439
100
AcDbEntity
  8
OBJECT
100
AcDbLine
 10
4078.394810214461
 20
5458.416663646412
 30
0.0
 11
3964.934371438078
 21
5394.855483820665
 31
0.0
  0
LINE
  5
202E
330
439
100
AcDbEntity
  8
OBJECT
100
AcDbLine
 10
4013.366534607722
 20
5450.987155405801
 30
0.0
 11
3964.934371438078
 21
5394.855483820665
 31
0.0
  0
LINE
  5
202F
330
439
100
AcDbEntity
  8
OBJECT
100
AcDbLine
 10
3889.928418694548
 20
5394.855483820659
 30
0.0
 11
3964.934371438078
 21
5394.855483820665
 31
0.0
  0
LINE
  5
2030
330
439
100
AcDbEntity
  8
OBJECT
100
AcDbLine
 10
3964.934371438078
 20
5394.855483820665
 30
0.0
 11
3889.928418694548
 21
5394.855483820659
 31
0.0
  0
LINE
  5
2031
330
439
100
AcDbEntity
  8
OBJECT
100
AcDbLine
 10
3825.773615501555
 20
5530.369326640165
 30
0.0
 11
3874.205778671165
 21
5586.500998225366
 31
0.0
  0
LINE
  5
2032
330
439
100
AcDbEntity
  8
OBJECT
100
AcDbLine
 10
3949.211731414754
 20
5586.500998225352
 30
0.0
 11
4006.854003873723
 21
5530.36932664018
 31
0.0
  0
LINE
  5
2033
330
439
100
AcDbEntity
  8
OBJECT
100
AcDbLine
 10
4078.394810214415
 20
5570.44689117056
 30
0.0
 11
4006.854003873723
 21
5530.36932664018
 31
0.0
  0
LINE
  5
2034
330
439
100
AcDbEntity
  8
OBJECT
100
AcDbLine
 10
3826.424696378773
 20
5522.433208440689
 30
0.0
 11
3832.286146235503
 21
5450.987155405773
 31
0.0
  0
LINE
  5
2035
330
439
100
AcDbEntity
  8
OBJECT
100
AcDbLine
 10
3832.286146235503
 20
5450.987155405773
 30
0.0
 11
3825.773615501555
 21
5530.369326640165
 31
0.0
  0
LINE
  5
2036
330
439
100
AcDbEntity
  8
OBJECT
100
AcDbLine
 10
4006.854003873723
 20
5530.36932664018
 30
0.0
 11
4013.366534607722
 21
5450.987155405801
 31
0.0
  0
LINE
  5
2037
330
439
100
AcDbEntity
  8
OBJECT
100
AcDbLine
 10
4078.39481021445
 20
5487.416363367437
 30
0.0
 11
4013.366534607722
 21
5450.987155405801
 31
0.0
  0
LINE
  5
2038
330
439
100
AcDbEntity
  8
OBJECT
100
AcDbLine
 10
4035.429482831041
 20
5434.347244124143
 30
0.0
 11
4078.394810214468
 21
5410.277824601818
 31
0.0
  0
LINE
  5
2039
330
439
100
AcDbEntity
  8
OBJECT
100
AcDbLine
 10
3874.205778671165
 20
5586.500998225366
 30
0.0
 11
3949.211731414754
 21
5586.500998225352
 31
0.0
  0
LINE
  5
203A
330
439
100
AcDbEntity
  8
OBJECT
100
AcDbLine
 10
4078.394810214457
 20
5700.888849112724
 30
0.0
 11
3874.205778671165
 21
5586.500998225366
 31
0.0
  0
LINE
  5
203B
330
439
100
AcDbEntity
  8
OBJECT
100
AcDbLine
 10
4078.394810214471
 20
5658.870089959751
 30
0.0
 11
3949.211731414754
 21
5586.500998225352
 31
0.0
  0
LINE
  5
203C
330
439
100
AcDbEntity
  8
OBJECT
100
AcDbLine
 10
4290.543681471754
 20
5462.884553057808
 30
0.0
 11
4419.727894689997
 21
5390.514825815785
 31
0.0
  0
LINE
  5
203D
330
439
100
AcDbEntity
  8
OBJECT
100
AcDbLine
 10
4494.733847433534
 20
5390.514825815769
 30
0.0
 11
4290.543681471786
 21
5504.903312210784
 31
0.0
  0
LINE
  5
203E
330
439
100
AcDbEntity
  8
OBJECT
100
AcDbLine
 10
4290.543681471786
 20
5504.903312210784
 30
0.0
 11
4494.733847433534
 21
5390.514825815769
 31
0.0
  0
LINE
  5
203F
330
439
100
AcDbEntity
  8
OBJECT
100
AcDbLine
 10
4290.543681471779
 20
5262.431126744433
 30
0.0
 11
4404.005254666623
 21
5198.869311411076
 31
0.0
  0
LINE
  5
2040
330
439
100
AcDbEntity
  8
OBJECT
100
AcDbLine
 10
4479.011207410218
 20
5198.869311411098
 30
0.0
 11
4536.653479869186
 21
5255.00098299627
 31
0.0
  0
LINE
  5
2041
330
439
100
AcDbEntity
  8
OBJECT
100
AcDbLine
 10
4404.005254666623
 20
5198.869311411076
 30
0.0
 11
4355.573091496967
 21
5255.000982996232
 31
0.0
  0
LINE
  5
2042
330
439
100
AcDbEntity
  8
OBJECT
100
AcDbLine
 10
4536.653479869186
 20
5255.00098299627
 30
0.0
 11
4479.011207410218
 21
5198.869311411098
 31
0.0
  0
LINE
  5
2043
330
439
100
AcDbEntity
  8
OBJECT
100
AcDbLine
 10
4290.543681471779
 20
5262.431126744433
 30
0.0
 11
4404.005254666623
 21
5198.869311411076
 31
0.0
  0
LINE
  5
2044
330
439
100
AcDbEntity
  8
OBJECT
100
AcDbLine
 10
4404.005254666623
 20
5198.869311411076
 30
0.0
 11
4479.011207410218
 21
5198.869311411098
 31
0.0
  0
LINE
  5
2045
330
439
100
AcDbEntity
  8
OBJECT
100
AcDbLine
 10
4479.011207410174
 20
5198.869311411113
 30
0.0
 11
4404.005254666623
 21
5198.869311411076
 31
0.0
  0
LINE
  5
2046
330
439
100
AcDbEntity
  8
OBJECT
100
AcDbLine
 10
4419.727894689997
 20
5390.514825815785
 30
0.0
 11
4494.733847433534
 21
5390.514825815769
 31
0.0
  0
LINE
  5
2047
330
439
100
AcDbEntity
  8
OBJECT
100
AcDbLine
 10
4362.085622230958
 20
5334.383154230589
 30
0.0
 11
4419.727894689997
 21
5390.514825815785
 31
0.0
  0
LINE
  5
2048
330
439
100
AcDbEntity
  8
OBJECT
100
AcDbLine
 10
4355.573091496967
 20
5255.000982996232
 30
0.0
 11
4362.085622230958
 21
5334.383154230589
 31
0.0
  0
LINE
  5
2049
330
439
100
AcDbEntity
  8
OBJECT
100
AcDbLine
 10
4290.543681471754
 20
5374.461354268595
 30
0.0
 11
4362.08562223097
 21
5334.383154230626
 31
0.0
  0
LINE
  5
204A
330
439
100
AcDbEntity
  8
OBJECT
100
AcDbLine
 10
4290.543681471779
 20
5291.430826465443
 30
0.0
 11
4355.573091496967
 21
5255.000982996232
 31
0.0
  0
LINE
  5
204B
330
439
100
AcDbEntity
  8
OBJECT
100
AcDbLine
 10
4536.653479869186
 20
5255.00098299627
 30
0.0
 11
4543.166010603167
 21
5334.383154230626
 31
0.0
  0
LINE
  5
204C
330
439
100
AcDbEntity
  8
OBJECT
100
AcDbLine
 10
4543.166010603167
 20
5334.383154230626
 30
0.0
 11
4494.733847433534
 21
5390.514825815769
 31
0.0
  0
LINE
  5
204D
330
439
100
AcDbEntity
  8
OBJECT
100
AcDbLine
 10
4543.166010603167
 20
5334.383154230626
 30
0.0
 11
4536.653479869186
 21
5255.00098299627
 31
0.0
  0
LINE
  5
204E
330
439
100
AcDbEntity
  8
OBJECT
100
AcDbLine
 10
4494.733847433534
 20
5390.514825815769
 30
0.0
 11
4543.166010603167
 21
5334.383154230626
 31
0.0
  0
LINE
  5
204F
330
439
100
AcDbEntity
  8
OBJECT
100
AcDbLine
 10
4290.543681471786
 20
5504.903312210784
 30
0.0
 11
4290.543681471786
 21
5577.263661782786
 31
0.0
  0
LINE
  5
2050
330
439
100
AcDbEntity
  8
OBJECT
100
AcDbLine
 10
3224.977149659542
 20
6101.839712908707
 30
0.0
 11
4794.115648920826
 21
6101.839712908649
 31
0.0
  0
LINE
  5
2051
330
439
100
AcDbEntity
  8
OBJECT
100
AcDbLine
 10
5036.526624111505
 20
6237.639712908658
 30
0.0
 11
3057.368155704378
 21
6237.639712908688
 31
0.0
  0
LINE
  5
2052
330
439
100
AcDbEntity
  8
OBJECT
100
AcDbLine
 10
4109.463293099572
 20
5775.639712908702
 30
0.0
 11
4078.394810214478
 21
5775.639712908702
 31
0.0
  0
LINE
  5
2053
330
439
100
AcDbEntity
  8
OBJECT
100
AcDbLine
 10
3699.802771167377
 20
5835.839712908729
 30
0.0
 11
4319.29002741335
 21
5835.8397129087
 31
0.0
  0
LINE
  5
2054
330
439
100
AcDbEntity
  8
OBJECT
100
AcDbLine
 10
4561.701002603983
 20
5971.639712908725
 30
0.0
 11
3521.2873490277
 21
5971.639712908697
 31
0.0
  0
LINE
  5
2055
330
439
100
AcDbEntity
  8
OBJECT
100
AcDbLine
 10
2700.858624991891
 20
6395.45387618589
 30
0.0
 11
2612.983685274954
 21
6402.663155508354
 31
0.0
  0
LINE
  5
2056
330
439
100
AcDbEntity
  8
OBJECT
100
AcDbLine
 10
2150.953769867777
 20
5971.639712908717
 30
0.0
 11
3024.564705140477
 21
5971.63971290871
 31
0.0
  0
LINE
  5
2057
330
439
100
AcDbEntity
  8
OBJECT
100
AcDbLine
 10
2150.953769867777
 20
5971.639712908717
 30
0.0
 11
3024.564705140477
 21
5971.63971290871
 31
0.0
  0
LINE
  5
2058
330
439
100
AcDbEntity
  8
OBJECT
100
AcDbLine
 10
2550.84671950473
 20
6266.018908746487
 30
0.0
 11
2612.983685274939
 21
6202.209729195024
 31
0.0
  0
LINE
  5
2059
330
439
100
AcDbEntity
  8
OBJECT
100
AcDbLine
 10
2612.983685274954
 20
6402.663155508354
 30
0.0
 11
2550.846719504745
 21
6349.049436549646
 31
0.0
  0
LINE
  5
205A
330
439
100
AcDbEntity
  8
OBJECT
100
AcDbLine
 10
2550.846719504745
 20
6349.049436549646
 30
0.0
 11
2550.846719504745
 21
6349.049436549646
 31
0.0
  0
LINE
  5
205B
330
439
100
AcDbEntity
  8
OBJECT
100
AcDbLine
 10
2550.846719504745
 20
6349.049436549646
 30
0.0
 11
2550.84671950473
 21
6266.018908746487
 31
0.0
  0
LINE
  5
205C
330
439
100
AcDbEntity
  8
OBJECT
100
AcDbLine
 10
2626.621311006525
 20
5971.63971290871
 30
0.0
 11
2626.621311006517
 21
6167.584555421727
 31
0.0
  0
LINE
  5
205D
330
439
100
AcDbEntity
  8
OBJECT
100
AcDbLine
 10
2800.565135230931
 20
5971.639712908717
 30
0.0
 11
2800.565135230931
 21
6097.125539488017
 31
0.0
  0
LINE
  5
205E
330
439
100
AcDbEntity
  8
OBJECT
100
AcDbLine
 10
2626.621311006504
 20
5969.539712908719
 30
0.0
 11
2754.295882780537
 21
5969.539712908719
 31
0.0
  0
LINE
  5
205F
330
439
100
AcDbEntity
  8
OBJECT
100
AcDbLine
 10
2626.62131100654
 20
5969.539712908709
 30
0.0
 11
2626.621311006525
 21
5971.63971290871
 31
0.0
  0
LINE
  5
2060
330
439
100
AcDbEntity
  8
OBJECT
100
AcDbLine
 10
2800.56513523091
 20
5969.539712908733
 30
0.0
 11
2800.565135230931
 21
5971.639712908717
 31
0.0
  0
LINE
  5
2061
330
439
100
AcDbEntity
  8
OBJECT
100
AcDbLine
 10
2754.295882780537
 20
5969.539712908719
 30
0.0
 11
2754.295882780559
 21
5971.63971290869
 31
0.0
  0
LINE
  5
2062
330
439
100
AcDbEntity
  8
OBJECT
100
AcDbLine
 10
3521.2873490277
 20
5971.639712908697
 30
0.0
 11
3465.037146627741
 21
5971.639712908703
 31
0.0
  0
LINE
  5
2063
330
439
100
AcDbEntity
  8
OBJECT
100
AcDbLine
 10
3465.03714662775
 20
5967.356744212205
 30
0.0
 11
3465.037146627741
 21
5971.639712908703
 31
0.0
  0
LINE
  5
2064
330
439
100
AcDbEntity
  8
OBJECT
100
AcDbLine
 10
3457.391795976547
 20
5971.639712908703
 30
0.0
 11
3465.037146627699
 21
5971.639712908717
 31
0.0
  0
LINE
  5
2065
330
439
100
AcDbEntity
  8
OBJECT
100
AcDbLine
 10
2626.621311006517
 20
6167.584555421727
 30
0.0
 11
2693.024175547671
 21
6157.370593630044
 31
0.0
  0
LINE
  5
2066
330
439
100
AcDbEntity
  8
OBJECT
100
AcDbLine
 10
2652.956243084849
 20
6179.816876122607
 30
0.0
 11
2626.621311006517
 21
6167.584555421727
 31
0.0
  0
LINE
  5
2067
330
439
100
AcDbEntity
  8
OBJECT
100
AcDbLine
 10
3057.368155704378
 20
6237.639712908688
 30
0.0
 11
3001.11795393407
 21
6237.639712908688
 31
0.0
  0
LINE
  5
2068
330
439
100
AcDbEntity
  8
OBJECT
100
AcDbLine
 10
3001.117953934099
 20
6227.246901075739
 30
0.0
 11
3001.11795393407
 21
6237.639712908688
 31
0.0
  0
LINE
  5
2069
330
439
100
AcDbEntity
  8
OBJECT
100
AcDbLine
 10
5818.091772181325
 20
6462.004445649054
 30
0.0
 11
5755.95480641114
 21
6398.195266097534
 31
0.0
  0
LINE
  5
206A
330
439
100
AcDbEntity
  8
OBJECT
100
AcDbLine
 10
5668.079866694188
 20
6591.439413088377
 30
0.0
 11
4211.829492019513
 21
5775.639712908702
 31
0.0
  0
LINE
  5
206B
330
439
100
AcDbEntity
  8
OBJECT
100
AcDbLine
 10
5755.954806411121
 20
6598.648692410859
 30
0.0
 11
4286.835444763054
 21
5775.639712908695
 31
0.0
  0
LINE
  5
206C
330
439
100
AcDbEntity
  8
OBJECT
100
AcDbLine
 10
5672.451443536091
 20
6312.240860939475
 30
0.0
 11
5582.474737918122
 21
6301.010750079473
 31
0.0
  0
LINE
  5
206D
330
439
100
AcDbEntity
  8
OBJECT
100
AcDbLine
 10
5755.95480641114
 20
6398.195266097534
 30
0.0
 11
5469.353714947323
 21
6237.639712908652
 31
0.0
  0
LINE
  5
206E
330
439
100
AcDbEntity
  8
OBJECT
100
AcDbLine
 10
5539.711232127211
 20
5969.539712908691
 30
0.0
 11
5672.451443536107
 21
5969.53971290867
 31
0.0
  0
LINE
  5
206F
330
439
100
AcDbEntity
  8
OBJECT
100
AcDbLine
 10
5511.046335910356
 20
6101.839712908663
 30
0.0
 11
5511.046335910339
 21
5971.639712908681
 31
0.0
  0
LINE
  5
2070
330
439
100
AcDbEntity
  8
OBJECT
100
AcDbLine
 10
5539.711232127181
 20
6101.839712908677
 30
0.0
 11
5539.711232127225
 21
5971.639712908681
 31
0.0
  0
LINE
  5
2071
330
439
100
AcDbEntity
  8
OBJECT
100
AcDbLine
 10
4184.469245843142
 20
5775.639712908681
 30
0.0
 11
4109.463293099572
 21
5775.639712908702
 31
0.0
  0
LINE
  5
2072
330
439
100
AcDbEntity
  8
OBJECT
100
AcDbLine
 10
4290.543681471791
 20
5775.639712908732
 30
0.0
 11
4259.4751985867
 21
5775.639712908732
 31
0.0
  0
LINE
  5
2073
330
439
100
AcDbEntity
  8
OBJECT
100
AcDbLine
 10
4259.4751985867
 20
5775.639712908732
 30
0.0
 11
4184.469245843142
 21
5775.639712908681
 31
0.0
  0
LINE
  5
2074
330
439
100
AcDbEntity
  8
OBJECT
100
AcDbLine
 10
5085.382400427747
 20
5971.639712908681
 30
0.0
 11
4994.528093439793
 21
5971.639712908666
 31
0.0
  0
LINE
  5
2075
330
439
100
AcDbEntity
  8
OBJECT
100
AcDbLine
 10
5511.046335910339
 20
5971.639712908681
 30
0.0
 11
5511.046335910356
 21
5969.53971290868
 31
0.0
  0
LINE
  5
2076
330
439
100
AcDbEntity
  8
OBJECT
100
AcDbLine
 10
5539.711232127225
 20
5971.639712908681
 30
0.0
 11
5539.711232127211
 21
5969.539712908691
 31
0.0
  0
LINE
  5
2077
330
439
100
AcDbEntity
  8
OBJECT
100
AcDbLine
 10
5511.04633591032
 20
6260.996155092584
 30
0.0
 11
5511.046335910339
 21
6237.639712908658
 31
0.0
  0
LINE
  5
2078
330
439
100
AcDbEntity
  8
OBJECT
100
AcDbLine
 10
5539.711232127206
 20
6277.05439215541
 30
0.0
 11
5539.711232127225
 21
6237.639712908658
 31
0.0
  0
LINE
  5
2079
330
439
100
AcDbEntity
  8
OBJECT
100
AcDbLine
 10
5469.353714947323
 20
6237.639712908652
 30
0.0
 11
5467.483230153924
 21
6236.591856743163
 31
0.0
  0
LINE
  5
207A
330
439
100
AcDbEntity
  8
OBJECT
100
AcDbLine
 10
5226.942739756625
 20
6101.83971290867
 30
0.0
 11
5549.663207707173
 21
6101.839712908656
 31
0.0
  0
LINE
  5
207B
330
439
100
AcDbEntity
  8
OBJECT
100
AcDbLine
 10
5549.663207707158
 20
6237.639712908666
 30
0.0
 11
5468.503625701167
 21
6237.639712908645
 31
0.0
  0
LINE
  5
207C
330
439
100
AcDbEntity
  8
OBJECT
100
AcDbLine
 10
5549.663207707173
 20
6101.839712908656
 30
0.0
 11
5549.663207707158
 21
6237.639712908666
 31
0.0
  0
LINE
  5
207D
330
439
100
AcDbEntity
  8
OBJECT
100
AcDbLine
 10
5672.451443536091
 20
6312.240860939475
 30
0.0
 11
5672.451443536141
 21
5971.639712908658
 31
0.0
  0
LINE
  5
207E
330
439
100
AcDbEntity
  8
OBJECT
100
AcDbLine
 10
5672.451443536141
 20
5971.639712908658
 30
0.0
 11
5672.451443536107
 21
5969.53971290867
 31
0.0
  0
LINE
  5
207F
330
439
100
AcDbEntity
  8
OBJECT
100
AcDbLine
 10
5643.786547319225
 20
6336.180059294163
 30
0.0
 11
5644.375710806684
 21
6335.688025362342
 31
0.0
  0
LINE
  5
2080
330
439
100
AcDbEntity
  8
OBJECT
100
AcDbLine
 10
5644.375710806684
 20
6335.688025362342
 30
0.0
 11
5672.451443536091
 21
6312.240860939475
 31
0.0
  0
LINE
  5
2081
330
439
100
AcDbEntity
  8
OBJECT
100
AcDbLine
 10
5668.079866694188
 20
6591.439413088377
 30
0.0
 11
5755.954806411121
 21
6598.648692410859
 31
0.0
  0
LINE
  5
2082
330
439
100
AcDbEntity
  8
OBJECT
100
AcDbLine
 10
5755.954806411121
 20
6598.648692410859
 30
0.0
 11
5818.091772181325
 21
6545.034973452134
 31
0.0
  0
LINE
  5
2083
330
439
100
AcDbEntity
  8
OBJECT
100
AcDbLine
 10
5818.091772181325
 20
6545.034973452134
 30
0.0
 11
5818.091772181325
 21
6462.004445649054
 31
0.0
  0
LINE
  5
2084
330
439
100
AcDbEntity
  8
OBJECT
100
AcDbLine
 10
7527.534214126055
 20
5971.639712908622
 30
0.0
 11
7527.534214126038
 21
4370.039712908631
 31
0.0
  0
LINE
  5
2085
330
439
100
AcDbEntity
  8
OBJECT
100
AcDbLine
 10
33743.46181283232
 20
4361.639712908474
 30
0.0
 11
33743.46181283232
 21
5775.639712908446
 31
0.0
  0
LINE
  5
2086
330
439
100
AcDbEntity
  8
OBJECT
100
AcDbLine
 10
33690.54368147176
 20
4361.639712908432
 30
0.0
 11
33690.54368147171
 21
5775.639712908439
 31
0.0
  0
LINE
  5
2087
330
439
100
AcDbEntity
  8
OBJECT
100
AcDbLine
 10
33902.69255272903
 20
4361.639712908452
 30
0.0
 11
33902.69255272901
 21
5775.639712908432
 31
0.0
  0
LINE
  5
2088
330
439
100
AcDbEntity
  8
OBJECT
100
AcDbLine
 10
33855.78454502351
 20
5775.639712908417
 30
0.0
 11
33855.78454502353
 21
4361.639712908439
 31
0.0
  0
LINE
  5
2089
330
439
100
AcDbEntity
  8
OBJECT
100
AcDbLine
 10
33902.69255272901
 20
5381.278124880601
 30
0.0
 11
33902.69255272903
 21
4361.639712908452
 31
0.0
  0
LINE
  5
208A
330
439
100
AcDbEntity
  8
OBJECT
100
AcDbLine
 10
33690.54368147176
 20
4361.639712908432
 30
0.0
 11
33690.54368147168
 21
5262.431126744227
 31
0.0
  0
LINE
  5
208B
330
439
100
AcDbEntity
  8
OBJECT
100
AcDbLine
 10
35830.13359307571
 20
5971.639712908446
 30
0.0
 11
35830.13359307573
 21
4361.639712908468
 31
0.0
  0
LINE
  5
208C
330
439
100
AcDbEntity
  8
OBJECT
100
AcDbLine
 10
35830.13359307573
 20
4361.639712908468
 30
0.0
 11
35830.13359307571
 21
5971.639712908446
 31
0.0
  0
LINE
  5
208D
330
439
100
AcDbEntity
  8
OBJECT
100
AcDbLine
 10
35830.13359307573
 20
4361.639712908468
 30
0.0
 11
35830.13359307571
 21
5971.639712908446
 31
0.0
  0
LINE
  5
208E
330
439
100
AcDbEntity
  8
OBJECT
100
AcDbLine
 10
30453.5531488174
 20
5971.639712908424
 30
0.0
 11
30453.55314881741
 21
4361.639712908452
 31
0.0
  0
LINE
  5
208F
330
439
100
AcDbEntity
  8
OBJECT
100
AcDbLine
 10
30453.55314881741
 20
4361.639712908452
 30
0.0
 11
33690.54368147176
 21
4361.639712908432
 31
0.0
  0
LINE
  5
2090
330
439
100
AcDbEntity
  8
OBJECT
100
AcDbLine
 10
30453.55314881741
 20
4361.639712908452
 30
0.0
 11
33690.54368147176
 21
4361.639712908432
 31
0.0
  0
LINE
  5
2091
330
439
100
AcDbEntity
  8
OBJECT
100
AcDbLine
 10
32895.70496251575
 20
2751.639712908438
 30
0.0
 11
30453.55314881741
 21
2751.639712908438
 31
0.0
  0
LINE
  5
2092
330
439
100
AcDbEntity
  8
OBJECT
100
AcDbLine
 10
32986.55926950368
 20
2751.639712908461
 30
0.0
 11
30453.55314881741
 21
2751.639712908438
 31
0.0
  0
LINE
  5
2093
330
439
100
AcDbEntity
  8
OBJECT
100
AcDbLine
 10
30453.55314881741
 20
2751.639712908438
 30
0.0
 11
30453.5531488174
 21
4353.239712908417
 31
0.0
  0
LINE
  5
2094
330
439
100
AcDbEntity
  8
OBJECT
100
AcDbLine
 10
30453.55314881741
 20
2751.639712908438
 30
0.0
 11
30453.55314881741
 21
4361.639712908452
 31
0.0
  0
LINE
  5
2095
330
439
100
AcDbEntity
  8
OBJECT
100
AcDbLine
 10
35430.24064343873
 20
2374.229989267495
 30
0.0
 11
34087.96424137964
 21
3126.180825058322
 31
0.0
  0
LINE
  5
2096
330
439
100
AcDbEntity
  8
OBJECT
100
AcDbLine
 10
35280.22873795161
 20
2327.825549631266
 30
0.0
 11
33971.54096365305
 21
3060.95984608721
 31
0.0
  0
LINE
  5
2097
330
439
100
AcDbEntity
  8
OBJECT
100
AcDbLine
 10
35368.10367766852
 20
2320.616270308785
 30
0.0
 11
34009.04394002483
 21
3081.969225663687
 31
0.0
  0
LINE
  5
2098
330
439
100
AcDbEntity
  8
OBJECT
100
AcDbLine
 10
35430.24064343871
 20
2457.260517070654
 30
0.0
 11
34142.84948474294
 21
3178.464328957636
 31
0.0
  0
LINE
  5
2099
330
439
100
AcDbEntity
  8
OBJECT
100
AcDbLine
 10
35368.10367766855
 20
2521.069696622103
 30
0.0
 11
34154.66266656476
 21
3200.84621737643
 31
0.0
  0
LINE
  5
209A
330
439
100
AcDbEntity
  8
OBJECT
100
AcDbLine
 10
34956.52265780301
 20
2751.63971290843
 30
0.0
 11
34154.66266656476
 21
3200.84621737643
 31
0.0
  0
LINE
  5
209B
330
439
100
AcDbEntity
  8
OBJECT
100
AcDbLine
 10
32162.99559076218
 20
2261.274980168108
 30
0.0
 11
33690.54368147168
 21
3117.016064313256
 31
0.0
  0
LINE
  5
209C
330
439
100
AcDbEntity
  8
OBJECT
100
AcDbLine
 10
32162.99559076216
 20
2178.244452364964
 30
0.0
 11
33690.54368147172
 21
3033.985536510127
 31
0.0
  0
LINE
  5
209D
330
439
100
AcDbEntity
  8
OBJECT
100
AcDbLine
 10
32513.60413278955
 20
2486.687569073934
 30
0.0
 11
33690.54368147168
 21
3146.015764034254
 31
0.0
  0
LINE
  5
209E
330
439
100
AcDbEntity
  8
OBJECT
100
AcDbLine
 10
33690.54368147174
 20
3146.015764034283
 30
0.0
 11
32986.55926950368
 21
2751.639712908461
 31
0.0
  0
LINE
  5
209F
330
439
100
AcDbEntity
  8
OBJECT
100
AcDbLine
 10
33743.46181283232
 20
4361.639712908474
 30
0.0
 11
33743.46181283232
 21
2947.639712908452
 31
0.0
  0
LINE
  5
20A0
330
439
100
AcDbEntity
  8
OBJECT
100
AcDbLine
 10
33690.54368147176
 20
4361.639712908432
 30
0.0
 11
33690.54368147172
 21
2947.639712908424
 31
0.0
  0
LINE
  5
20A1
330
439
100
AcDbEntity
  8
OBJECT
100
AcDbLine
 10
33902.69255272903
 20
4361.639712908452
 30
0.0
 11
33902.69255272901
 21
2947.639712908424
 31
0.0
  0
LINE
  5
20A2
330
439
100
AcDbEntity
  8
OBJECT
100
AcDbLine
 10
33855.78454502353
 20
2947.639712908416
 30
0.0
 11
33855.78454502353
 21
4361.639712908439
 31
0.0
  0
LINE
  5
20A3
330
439
100
AcDbEntity
  8
OBJECT
100
AcDbLine
 10
35830.13359307569
 20
2751.639712908461
 30
0.0
 11
35830.13359307573
 21
4361.639712908468
 31
0.0
  0
LINE
  5
20A4
330
439
100
AcDbEntity
  8
OBJECT
100
AcDbLine
 10
35830.13359307573
 20
4361.639712908468
 30
0.0
 11
35830.13359307569
 21
2751.639712908461
 31
0.0
  0
LINE
  5
20A5
330
439
100
AcDbEntity
  8
OBJECT
100
AcDbLine
 10
35830.13359307573
 20
4361.639712908468
 30
0.0
 11
35830.13359307569
 21
2751.639712908461
 31
0.0
  0
LINE
  5
20A6
330
439
100
AcDbEntity
  8
OBJECT
100
AcDbLine
 10
33871.62406984392
 20
2947.639712908424
 30
0.0
 11
33902.69255272901
 21
2947.639712908424
 31
0.0
  0
LINE
  5
20A7
330
439
100
AcDbEntity
  8
OBJECT
100
AcDbLine
 10
34281.2845917761
 20
2887.439712908449
 30
0.0
 11
33661.79733553018
 21
2887.43971290842
 31
0.0
  0
LINE
  5
20A8
330
439
100
AcDbEntity
  8
OBJECT
100
AcDbLine
 10
33419.38636033951
 20
2751.639712908446
 30
0.0
 11
34459.80001391575
 21
2751.639712908446
 31
0.0
  0
LINE
  5
20A9
330
439
100
AcDbEntity
  8
OBJECT
100
AcDbLine
 10
34756.11021328396
 20
2621.439712908456
 30
0.0
 11
33186.9717140227
 21
2621.439712908435
 31
0.0
  0
LINE
  5
20AA
330
439
100
AcDbEntity
  8
OBJECT
100
AcDbLine
 10
32944.56073883198
 20
2485.639712908461
 30
0.0
 11
34923.71920723916
 21
2485.639712908468
 31
0.0
  0
LINE
  5
20AB
330
439
100
AcDbEntity
  8
OBJECT
100
AcDbLine
 10
32162.99559076218
 20
2261.274980168108
 30
0.0
 11
32225.13255653235
 21
2325.084159719644
 31
0.0
  0
LINE
  5
20AC
330
439
100
AcDbEntity
  8
OBJECT
100
AcDbLine
 10
32313.00749624927
 20
2131.840012728756
 30
0.0
 11
33769.25787092401
 21
2947.639712908424
 31
0.0
  0
LINE
  5
20AD
330
439
100
AcDbEntity
  8
OBJECT
100
AcDbLine
 10
32225.13255653236
 20
2124.630733406312
 30
0.0
 11
33694.25191818045
 21
2947.639712908424
 31
0.0
  0
LINE
  5
20AE
330
439
100
AcDbEntity
  8
OBJECT
100
AcDbLine
 10
32313.00749624927
 20
2131.840012728756
 30
0.0
 11
32225.13255653236
 21
2124.630733406312
 31
0.0
  0
LINE
  5
20AF
330
439
100
AcDbEntity
  8
OBJECT
100
AcDbLine
 10
32225.13255653236
 20
2124.630733406312
 30
0.0
 11
32162.99559076216
 21
2178.244452364964
 31
0.0
  0
LINE
  5
20B0
330
439
100
AcDbEntity
  8
OBJECT
100
AcDbLine
 10
32162.99559076216
 20
2178.244452364964
 30
0.0
 11
32162.99559076218
 21
2261.274980168108
 31
0.0
  0
LINE
  5
20B1
330
439
100
AcDbEntity
  8
OBJECT
100
AcDbLine
 10
32441.37613081627
 20
2753.739712908437
 30
0.0
 11
32308.63591940736
 21
2753.739712908458
 31
0.0
  0
LINE
  5
20B2
330
439
100
AcDbEntity
  8
OBJECT
100
AcDbLine
 10
32225.13255653235
 20
2325.084159719644
 30
0.0
 11
32511.73364799621
 21
2485.639712908482
 31
0.0
  0
LINE
  5
20B3
330
439
100
AcDbEntity
  8
OBJECT
100
AcDbLine
 10
32308.63591940743
 20
2411.038564877646
 30
0.0
 11
32398.61262502538
 21
2422.268675737551
 31
0.0
  0
LINE
  5
20B4
330
439
100
AcDbEntity
  8
OBJECT
100
AcDbLine
 10
32308.63591940738
 20
2411.038564877653
 30
0.0
 11
32308.63591940736
 21
2751.639712908424
 31
0.0
  0
LINE
  5
20B5
330
439
100
AcDbEntity
  8
OBJECT
100
AcDbLine
 10
32336.71165213678
 20
2387.59140045474
 30
0.0
 11
32308.63591940738
 21
2411.038564877653
 31
0.0
  0
LINE
  5
20B6
330
439
100
AcDbEntity
  8
OBJECT
100
AcDbLine
 10
32337.3008156243
 20
2387.099366522948
 30
0.0
 11
32336.71165213678
 21
2387.59140045474
 31
0.0
  0
LINE
  5
20B7
330
439
100
AcDbEntity
  8
OBJECT
100
AcDbLine
 10
32308.63591940736
 20
2751.639712908424
 30
0.0
 11
32308.63591940736
 21
2753.739712908458
 31
0.0
  0
LINE
  5
20B8
330
439
100
AcDbEntity
  8
OBJECT
100
AcDbLine
 10
32470.04102703315
 20
2621.439712908463
 30
0.0
 11
32470.04102703315
 21
2751.639712908446
 31
0.0
  0
LINE
  5
20B9
330
439
100
AcDbEntity
  8
OBJECT
100
AcDbLine
 10
32441.37613081629
 20
2621.439712908456
 30
0.0
 11
32441.37613081631
 21
2751.639712908446
 31
0.0
  0
LINE
  5
20BA
330
439
100
AcDbEntity
  8
OBJECT
100
AcDbLine
 10
32470.04102703313
 20
2462.283270724601
 30
0.0
 11
32470.04102703316
 21
2485.639712908461
 31
0.0
  0
LINE
  5
20BB
330
439
100
AcDbEntity
  8
OBJECT
100
AcDbLine
 10
32441.37613081631
 20
2446.225033661709
 30
0.0
 11
32441.37613081631
 21
2485.639712908468
 31
0.0
  0
LINE
  5
20BC
330
439
100
AcDbEntity
  8
OBJECT
100
AcDbLine
 10
32754.14462318686
 20
2621.439712908456
 30
0.0
 11
32431.42415523631
 21
2621.43971290847
 31
0.0
  0
LINE
  5
20BD
330
439
100
AcDbEntity
  8
OBJECT
100
AcDbLine
 10
32431.42415523632
 20
2485.639712908482
 30
0.0
 11
32512.58373724231
 21
2485.639712908453
 31
0.0
  0
LINE
  5
20BE
330
439
100
AcDbEntity
  8
OBJECT
100
AcDbLine
 10
32511.73364799621
 20
2485.639712908482
 30
0.0
 11
32513.60413278955
 21
2486.687569073934
 31
0.0
  0
LINE
  5
20BF
330
439
100
AcDbEntity
  8
OBJECT
100
AcDbLine
 10
32431.42415523631
 20
2621.43971290847
 30
0.0
 11
32431.42415523632
 21
2485.639712908482
 31
0.0
  0
LINE
  5
20C0
330
439
100
AcDbEntity
  8
OBJECT
100
AcDbLine
 10
32470.04102703315
 20
2751.639712908446
 30
0.0
 11
32470.04102703316
 21
2753.739712908437
 31
0.0
  0
LINE
  5
20C1
330
439
100
AcDbEntity
  8
OBJECT
100
AcDbLine
 10
32441.37613081631
 20
2751.639712908446
 30
0.0
 11
32441.37613081627
 21
2753.739712908437
 31
0.0
  0
LINE
  5
20C2
330
439
100
AcDbEntity
  8
OBJECT
100
AcDbLine
 10
32895.70496251575
 20
2751.639712908438
 30
0.0
 11
32986.55926950368
 21
2751.639712908461
 31
0.0
  0
LINE
  5
20C3
330
439
100
AcDbEntity
  8
OBJECT
100
AcDbLine
 10
33796.61811710033
 20
2947.639712908438
 30
0.0
 11
33871.62406984392
 21
2947.639712908424
 31
0.0
  0
LINE
  5
20C4
330
439
100
AcDbEntity
  8
OBJECT
100
AcDbLine
 10
33690.54368147172
 20
2947.639712908424
 30
0.0
 11
33721.61216435682
 21
2947.639712908431
 31
0.0
  0
LINE
  5
20C5
330
439
100
AcDbEntity
  8
OBJECT
100
AcDbLine
 10
33721.61216435682
 20
2947.639712908431
 30
0.0
 11
33796.61811710033
 21
2947.639712908438
 31
0.0
  0
LINE
  5
20C6
330
439
100
AcDbEntity
  8
OBJECT
100
AcDbLine
 10
35280.22873795161
 20
2327.825549631266
 30
0.0
 11
35368.10367766852
 21
2320.616270308785
 31
0.0
  0
LINE
  5
20C7
330
439
100
AcDbEntity
  8
OBJECT
100
AcDbLine
 10
35830.13359307569
 20
2751.639712908461
 30
0.0
 11
34956.52265780301
 21
2751.63971290843
 31
0.0
  0
LINE
  5
20C8
330
439
100
AcDbEntity
  8
OBJECT
100
AcDbLine
 10
35830.13359307569
 20
2751.639712908461
 30
0.0
 11
34956.52265780301
 21
2751.63971290843
 31
0.0
  0
LINE
  5
20C9
330
439
100
AcDbEntity
  8
OBJECT
100
AcDbLine
 10
35354.46605193698
 20
2751.639712908461
 30
0.0
 11
35354.46605193698
 21
2555.694870395399
 31
0.0
  0
LINE
  5
20CA
330
439
100
AcDbEntity
  8
OBJECT
100
AcDbLine
 10
35180.52222771256
 20
2751.639712908446
 30
0.0
 11
35180.52222771261
 21
2626.153886329145
 31
0.0
  0
LINE
  5
20CB
330
439
100
AcDbEntity
  8
OBJECT
100
AcDbLine
 10
34923.71920723916
 20
2485.639712908468
 30
0.0
 11
34979.96940900937
 21
2485.639712908468
 31
0.0
  0
LINE
  5
20CC
330
439
100
AcDbEntity
  8
OBJECT
100
AcDbLine
 10
34979.96940900937
 20
2496.032524741388
 30
0.0
 11
34979.96940900937
 21
2485.639712908468
 31
0.0
  0
LINE
  5
20CD
330
439
100
AcDbEntity
  8
OBJECT
100
AcDbLine
 10
35354.46605193699
 20
2555.694870395443
 30
0.0
 11
35288.06318739582
 21
2565.908832187127
 31
0.0
  0
LINE
  5
20CE
330
439
100
AcDbEntity
  8
OBJECT
100
AcDbLine
 10
35328.13111985865
 20
2543.462549694561
 30
0.0
 11
35354.46605193698
 21
2555.694870395399
 31
0.0
  0
LINE
  5
20CF
330
439
100
AcDbEntity
  8
OBJECT
100
AcDbLine
 10
34459.80001391575
 20
2751.639712908446
 30
0.0
 11
34516.05021631575
 21
2751.639712908461
 31
0.0
  0
LINE
  5
20D0
330
439
100
AcDbEntity
  8
OBJECT
100
AcDbLine
 10
34516.05021631578
 20
2755.922681604921
 30
0.0
 11
34516.05021631575
 21
2751.639712908461
 31
0.0
  0
LINE
  5
20D1
330
439
100
AcDbEntity
  8
OBJECT
100
AcDbLine
 10
34523.69556696698
 20
2751.639712908453
 30
0.0
 11
34516.05021631579
 21
2751.639712908446
 31
0.0
  0
LINE
  5
20D2
330
439
100
AcDbEntity
  8
OBJECT
100
AcDbLine
 10
35354.46605193699
 20
2753.739712908444
 30
0.0
 11
35226.7914801629
 21
2753.739712908437
 31
0.0
  0
LINE
  5
20D3
330
439
100
AcDbEntity
  8
OBJECT
100
AcDbLine
 10
35354.46605193699
 20
2753.739712908408
 30
0.0
 11
35354.46605193698
 21
2751.639712908461
 31
0.0
  0
LINE
  5
20D4
330
439
100
AcDbEntity
  8
OBJECT
100
AcDbLine
 10
35226.7914801629
 20
2753.739712908437
 30
0.0
 11
35226.79148016294
 21
2751.639712908438
 31
0.0
  0
LINE
  5
20D5
330
439
100
AcDbEntity
  8
OBJECT
100
AcDbLine
 10
35180.52222771258
 20
2753.739712908437
 30
0.0
 11
35180.52222771256
 21
2751.639712908446
 31
0.0
  0
LINE
  5
20D6
330
439
100
AcDbEntity
  8
OBJECT
100
AcDbLine
 10
35430.24064343871
 20
2457.260517070654
 30
0.0
 11
35368.10367766855
 21
2521.069696622103
 31
0.0
  0
LINE
  5
20D7
330
439
100
AcDbEntity
  8
OBJECT
100
AcDbLine
 10
35368.10367766852
 20
2320.616270308785
 30
0.0
 11
35430.24064343873
 21
2374.229989267495
 31
0.0
  0
LINE
  5
20D8
330
439
100
AcDbEntity
  8
OBJECT
100
AcDbLine
 10
35430.24064343873
 20
2374.229989267495
 30
0.0
 11
35430.24064343873
 21
2374.229989267495
 31
0.0
  0
LINE
  5
20D9
330
439
100
AcDbEntity
  8
OBJECT
100
AcDbLine
 10
35430.24064343873
 20
2374.229989267495
 30
0.0
 11
35430.24064343871
 21
2457.260517070654
 31
0.0
  0
LINE
  5
20DA
330
439
100
AcDbEntity
  8
OBJECT
100
AcDbLine
 10
33690.54368147176
 20
4361.639712908432
 30
0.0
 11
33690.54368147171
 21
3460.848299072694
 31
0.0
  0
LINE
  5
20DB
330
439
100
AcDbEntity
  8
OBJECT
100
AcDbLine
 10
33690.54368147174
 20
3260.394872759369
 30
0.0
 11
33561.35946825353
 21
3332.764600001373
 31
0.0
  0
LINE
  5
20DC
330
439
100
AcDbEntity
  8
OBJECT
100
AcDbLine
 10
33690.54368147171
 20
3218.376113606386
 30
0.0
 11
33486.35351550997
 21
3332.764600001395
 31
0.0
  0
LINE
  5
20DD
330
439
100
AcDbEntity
  8
OBJECT
100
AcDbLine
 10
33486.35351550997
 20
3332.764600001395
 30
0.0
 11
33690.54368147171
 21
3218.376113606386
 31
0.0
  0
LINE
  5
20DE
330
439
100
AcDbEntity
  8
OBJECT
100
AcDbLine
 10
33690.54368147171
 20
3218.376113606386
 30
0.0
 11
33690.54368147174
 21
3146.015764034283
 31
0.0
  0
LINE
  5
20DF
330
439
100
AcDbEntity
  8
OBJECT
100
AcDbLine
 10
33577.08210827683
 20
3524.410114406006
 30
0.0
 11
33625.51427144651
 21
3468.278442820886
 31
0.0
  0
LINE
  5
20E0
330
439
100
AcDbEntity
  8
OBJECT
100
AcDbLine
 10
33444.43388307428
 20
3468.278442820908
 30
0.0
 11
33502.07615553328
 21
3524.410114406072
 31
0.0
  0
LINE
  5
20E1
330
439
100
AcDbEntity
  8
OBJECT
100
AcDbLine
 10
33502.07615553328
 20
3524.410114406072
 30
0.0
 11
33444.43388307428
 21
3468.278442820908
 31
0.0
  0
LINE
  5
20E2
330
439
100
AcDbEntity
  8
OBJECT
100
AcDbLine
 10
33690.54368147171
 20
3460.848299072694
 30
0.0
 11
33577.08210827685
 21
3524.410114406049
 31
0.0
  0
LINE
  5
20E3
330
439
100
AcDbEntity
  8
OBJECT
100
AcDbLine
 10
33690.54368147171
 20
3460.848299072694
 30
0.0
 11
33577.08210827685
 21
3524.410114406049
 31
0.0
  0
LINE
  5
20E4
330
439
100
AcDbEntity
  8
OBJECT
100
AcDbLine
 10
33561.35946825353
 20
3332.764600001373
 30
0.0
 11
33486.35351550997
 21
3332.764600001395
 31
0.0
  0
LINE
  5
20E5
330
439
100
AcDbEntity
  8
OBJECT
100
AcDbLine
 10
33437.92135234031
 20
3388.896271586456
 30
0.0
 11
33444.43388307428
 21
3468.278442820908
 31
0.0
  0
LINE
  5
20E6
330
439
100
AcDbEntity
  8
OBJECT
100
AcDbLine
 10
33486.35351550997
 20
3332.764600001395
 30
0.0
 11
33437.92135234031
 21
3388.896271586456
 31
0.0
  0
LINE
  5
20E7
330
439
100
AcDbEntity
  8
OBJECT
100
AcDbLine
 10
33444.43388307428
 20
3468.278442820908
 30
0.0
 11
33437.92135234031
 21
3388.896271586456
 31
0.0
  0
LINE
  5
20E8
330
439
100
AcDbEntity
  8
OBJECT
100
AcDbLine
 10
33437.92135234031
 20
3388.896271586456
 30
0.0
 11
33486.35351550997
 21
3332.764600001395
 31
0.0
  0
LINE
  5
20E9
330
439
100
AcDbEntity
  8
OBJECT
100
AcDbLine
 10
33619.00174071254
 20
3388.89627158653
 30
0.0
 11
33561.35946825353
 21
3332.764600001373
 31
0.0
  0
LINE
  5
20EA
330
439
100
AcDbEntity
  8
OBJECT
100
AcDbLine
 10
33625.51427144651
 20
3468.278442820886
 30
0.0
 11
33619.00174071248
 21
3388.896271586508
 31
0.0
  0
LINE
  5
20EB
330
439
100
AcDbEntity
  8
OBJECT
100
AcDbLine
 10
33690.54368147174
 20
3348.818071548531
 30
0.0
 11
33619.00174071251
 21
3388.896271586492
 31
0.0
  0
LINE
  5
20EC
330
439
100
AcDbEntity
  8
OBJECT
100
AcDbLine
 10
33690.54368147171
 20
3431.848599351698
 30
0.0
 11
33625.51427144651
 21
3468.278442820886
 31
0.0
  0
LINE
  5
20ED
330
439
100
AcDbEntity
  8
OBJECT
100
AcDbLine
 10
33502.07615553328
 20
3524.410114406072
 30
0.0
 11
33577.08210827685
 21
3524.410114406049
 31
0.0
  0
LINE
  5
20EE
330
439
100
AcDbEntity
  8
OBJECT
100
AcDbLine
 10
33577.08210827685
 20
3524.410114406049
 30
0.0
 11
33502.07615553328
 21
3524.410114406072
 31
0.0
  0
LINE
  5
20EF
330
439
100
AcDbEntity
  8
OBJECT
100
AcDbLine
 10
33902.69255272901
 20
3342.001300936284
 30
0.0
 11
33902.69255272903
 21
4361.639712908452
 31
0.0
  0
LINE
  5
20F0
330
439
100
AcDbEntity
  8
OBJECT
100
AcDbLine
 10
33971.54096365301
 20
3303.432031553576
 30
0.0
 11
33902.69255272901
 21
3342.001300936284
 31
0.0
  0
LINE
  5
20F1
330
439
100
AcDbEntity
  8
OBJECT
100
AcDbLine
 10
34016.15299150543
 20
3328.423941996504
 30
0.0
 11
33971.54096365301
 21
3303.432031553576
 31
0.0
  0
LINE
  5
20F2
330
439
100
AcDbEntity
  8
OBJECT
100
AcDbLine
 10
33971.54096365301
 20
3303.432031553576
 30
0.0
 11
33902.69255272901
 21
3342.001300936284
 31
0.0
  0
LINE
  5
20F3
330
439
100
AcDbEntity
  8
OBJECT
100
AcDbLine
 10
34091.15894424898
 20
3328.423941996504
 30
0.0
 11
34148.80121670797
 21
3272.292270411354
 31
0.0
  0
LINE
  5
20F4
330
439
100
AcDbEntity
  8
OBJECT
100
AcDbLine
 10
33902.69255272903
 20
3264.862762170714
 30
0.0
 11
34016.15299150543
 21
3328.423941996504
 31
0.0
  0
LINE
  5
20F5
330
439
100
AcDbEntity
  8
OBJECT
100
AcDbLine
 10
33967.72082833578
 20
3272.292270411311
 30
0.0
 11
34016.15299150543
 21
3328.423941996504
 31
0.0
  0
LINE
  5
20F6
330
439
100
AcDbEntity
  8
OBJECT
100
AcDbLine
 10
34148.80121670797
 20
3272.292270411354
 30
0.0
 11
34091.15894424898
 21
3328.423941996504
 31
0.0
  0
LINE
  5
20F7
330
439
100
AcDbEntity
  8
OBJECT
100
AcDbLine
 10
34155.31374744197
 20
3192.910099176947
 30
0.0
 11
34106.88158427231
 21
3136.778427591768
 31
0.0
  0
LINE
  5
20F8
330
439
100
AcDbEntity
  8
OBJECT
100
AcDbLine
 10
33902.69255272903
 20
3152.832534646545
 30
0.0
 11
33974.23335906975
 21
3192.910099176918
 31
0.0
  0
LINE
  5
20F9
330
439
100
AcDbEntity
  8
OBJECT
100
AcDbLine
 10
34031.87563152877
 20
3136.77842759176
 30
0.0
 11
33974.23335906975
 21
3192.910099176918
 31
0.0
  0
LINE
  5
20FA
330
439
100
AcDbEntity
  8
OBJECT
100
AcDbLine
 10
34106.88158427231
 20
3136.778427591768
 30
0.0
 11
34031.87563152877
 21
3136.77842759176
 31
0.0
  0
LINE
  5
20FB
330
439
100
AcDbEntity
  8
OBJECT
100
AcDbLine
 10
33902.69255272903
 20
3022.390576704401
 30
0.0
 11
34106.88158427231
 21
3136.778427591768
 31
0.0
  0
LINE
  5
20FC
330
439
100
AcDbEntity
  8
OBJECT
100
AcDbLine
 10
33902.69255272901
 20
3064.409335857368
 30
0.0
 11
34031.87563152877
 21
3136.77842759176
 31
0.0
  0
LINE
  5
20FD
330
439
100
AcDbEntity
  8
OBJECT
100
AcDbLine
 10
33945.65788011247
 20
3288.93218169299
 30
0.0
 11
33902.692552729
 21
3313.001601215316
 31
0.0
  0
LINE
  5
20FE
330
439
100
AcDbEntity
  8
OBJECT
100
AcDbLine
 10
34148.80121670797
 20
3272.292270411354
 30
0.0
 11
34155.31374744197
 21
3192.910099176947
 31
0.0
  0
LINE
  5
20FF
330
439
100
AcDbEntity
  8
OBJECT
100
AcDbLine
 10
34154.66266656476
 20
3200.84621737643
 30
0.0
 11
34148.80121670797
 21
3272.292270411354
 31
0.0
  0
LINE
  5
2100
330
439
100
AcDbEntity
  8
OBJECT
100
AcDbLine
 10
33902.69255272903
 20
3235.863062449697
 30
0.0
 11
33967.72082833578
 21
3272.292270411311
 31
0.0
  0
LINE
  5
2101
330
439
100
AcDbEntity
  8
OBJECT
100
AcDbLine
 10
33974.23335906975
 20
3192.910099176918
 30
0.0
 11
33967.72082833578
 21
3272.292270411311
 31
0.0
  0
LINE
  5
2102
330
439
100
AcDbEntity
  8
OBJECT
100
AcDbLine
 10
34016.15299150543
 20
3328.423941996504
 30
0.0
 11
34091.15894424898
 21
3328.423941996504
 31
0.0
  0
LINE
  5
2103
330
439
100
AcDbEntity
  8
OBJECT
100
AcDbLine
 10
34091.15894424898
 20
3328.423941996504
 30
0.0
 11
34016.15299150543
 21
3328.423941996504
 31
0.0
  0
LINE
  5
2104
330
439
100
AcDbEntity
  8
OBJECT
100
AcDbLine
 10
32895.70496251578
 20
5971.639712908439
 30
0.0
 11
30453.5531488174
 21
5971.639712908424
 31
0.0
  0
LINE
  5
2105
330
439
100
AcDbEntity
  8
OBJECT
100
AcDbLine
 10
32986.55926950368
 20
5971.639712908453
 30
0.0
 11
30453.5531488174
 21
5971.639712908424
 31
0.0
  0
LINE
  5
2106
330
439
100
AcDbEntity
  8
OBJECT
100
AcDbLine
 10
30453.5531488174
 20
5971.639712908424
 30
0.0
 11
30453.55314881741
 21
4370.039712908448
 31
0.0
  0
LINE
  5
2107
330
439
100
AcDbEntity
  8
OBJECT
100
AcDbLine
 10
34956.52265780301
 20
5971.639712908424
 30
0.0
 11
34154.66266656473
 21
5522.433208440499
 31
0.0
  0
LINE
  5
2108
330
439
100
AcDbEntity
  8
OBJECT
100
AcDbLine
 10
35430.24064343872
 20
6349.04943654941
 30
0.0
 11
34087.96424137961
 21
5597.098600758606
 31
0.0
  0
LINE
  5
2109
330
439
100
AcDbEntity
  8
OBJECT
100
AcDbLine
 10
35280.22873795166
 20
6395.453876185612
 30
0.0
 11
33971.54096365306
 21
5662.31957972966
 31
0.0
  0
LINE
  5
210A
330
439
100
AcDbEntity
  8
OBJECT
100
AcDbLine
 10
35368.10367766852
 20
6402.663155508061
 30
0.0
 11
34009.04394002483
 21
5641.31020015322
 31
0.0
  0
LINE
  5
210B
330
439
100
AcDbEntity
  8
OBJECT
100
AcDbLine
 10
35430.24064343873
 20
6266.018908746215
 30
0.0
 11
34142.84948474294
 21
5544.815096859248
 31
0.0
  0
LINE
  5
210C
330
439
100
AcDbEntity
  8
OBJECT
100
AcDbLine
 10
35368.10367766855
 20
6202.209729194731
 30
0.0
 11
34154.66266656473
 21
5522.433208440499
 31
0.0
  0
LINE
  5
210D
330
439
100
AcDbEntity
  8
OBJECT
100
AcDbLine
 10
32162.99559076214
 20
6462.004445648762
 30
0.0
 11
33690.54368147168
 21
5606.263361503621
 31
0.0
  0
LINE
  5
210E
330
439
100
AcDbEntity
  8
OBJECT
100
AcDbLine
 10
32162.99559076218
 20
6545.034973451945
 30
0.0
 11
33690.54368147171
 21
5689.293889306735
 31
0.0
  0
LINE
  5
210F
330
439
100
AcDbEntity
  8
OBJECT
100
AcDbLine
 10
32513.60413278958
 20
6236.591856742951
 30
0.0
 11
33690.54368147172
 21
5577.263661782668
 31
0.0
  0
LINE
  5
2110
330
439
100
AcDbEntity
  8
OBJECT
100
AcDbLine
 10
33690.54368147174
 20
5577.263661782616
 30
0.0
 11
32986.55926950368
 21
5971.639712908453
 31
0.0
  0
LINE
  5
2111
330
439
100
AcDbEntity
  8
OBJECT
100
AcDbLine
 10
33690.54368147174
 20
5462.884553057538
 30
0.0
 11
33561.35946825353
 21
5390.514825815512
 31
0.0
  0
LINE
  5
2112
330
439
100
AcDbEntity
  8
OBJECT
100
AcDbLine
 10
33690.54368147172
 20
5504.90331221052
 30
0.0
 11
33486.35351550993
 21
5390.514825815518
 31
0.0
  0
LINE
  5
2113
330
439
100
AcDbEntity
  8
OBJECT
100
AcDbLine
 10
33486.35351550993
 20
5390.514825815518
 30
0.0
 11
33690.54368147172
 21
5504.90331221052
 31
0.0
  0
LINE
  5
2114
330
439
100
AcDbEntity
  8
OBJECT
100
AcDbLine
 10
33577.08210827687
 20
5198.869311410863
 30
0.0
 11
33625.51427144649
 21
5255.000982995962
 31
0.0
  0
LINE
  5
2115
330
439
100
AcDbEntity
  8
OBJECT
100
AcDbLine
 10
33444.43388307428
 20
5255.000982995977
 30
0.0
 11
33502.07615553326
 21
5198.869311410842
 31
0.0
  0
LINE
  5
2116
330
439
100
AcDbEntity
  8
OBJECT
100
AcDbLine
 10
33690.54368147168
 20
5262.431126744227
 30
0.0
 11
33577.08210827685
 21
5198.86931141082
 31
0.0
  0
LINE
  5
2117
330
439
100
AcDbEntity
  8
OBJECT
100
AcDbLine
 10
33690.54368147168
 20
5262.431126744227
 30
0.0
 11
33577.08210827685
 21
5198.86931141082
 31
0.0
  0
LINE
  5
2118
330
439
100
AcDbEntity
  8
OBJECT
100
AcDbLine
 10
33502.07615553326
 20
5198.869311410842
 30
0.0
 11
33444.43388307428
 21
5255.000982995977
 31
0.0
  0
LINE
  5
2119
330
439
100
AcDbEntity
  8
OBJECT
100
AcDbLine
 10
33502.07615553331
 20
5198.869311410835
 30
0.0
 11
33577.08210827685
 21
5198.86931141082
 31
0.0
  0
LINE
  5
211A
330
439
100
AcDbEntity
  8
OBJECT
100
AcDbLine
 10
33577.08210827685
 20
5198.86931141082
 30
0.0
 11
33502.07615553326
 21
5198.869311410842
 31
0.0
  0
LINE
  5
211B
330
439
100
AcDbEntity
  8
OBJECT
100
AcDbLine
 10
33561.35946825353
 20
5390.514825815512
 30
0.0
 11
33486.35351550993
 21
5390.514825815518
 31
0.0
  0
LINE
  5
211C
330
439
100
AcDbEntity
  8
OBJECT
100
AcDbLine
 10
33437.9213523403
 20
5334.383154230376
 30
0.0
 11
33444.43388307428
 21
5255.000982995977
 31
0.0
  0
LINE
  5
211D
330
439
100
AcDbEntity
  8
OBJECT
100
AcDbLine
 10
33486.35351550993
 20
5390.514825815518
 30
0.0
 11
33437.9213523403
 21
5334.383154230376
 31
0.0
  0
LINE
  5
211E
330
439
100
AcDbEntity
  8
OBJECT
100
AcDbLine
 10
33444.43388307428
 20
5255.000982995977
 30
0.0
 11
33437.9213523403
 21
5334.383154230376
 31
0.0
  0
LINE
  5
211F
330
439
100
AcDbEntity
  8
OBJECT
100
AcDbLine
 10
33437.9213523403
 20
5334.383154230376
 30
0.0
 11
33486.35351550993
 21
5390.514825815518
 31
0.0
  0
LINE
  5
2120
330
439
100
AcDbEntity
  8
OBJECT
100
AcDbLine
 10
33619.00174071254
 20
5334.383154230369
 30
0.0
 11
33561.35946825353
 21
5390.514825815512
 31
0.0
  0
LINE
  5
2121
330
439
100
AcDbEntity
  8
OBJECT
100
AcDbLine
 10
33625.51427144649
 20
5255.000982995962
 30
0.0
 11
33619.00174071251
 21
5334.383154230376
 31
0.0
  0
LINE
  5
2122
330
439
100
AcDbEntity
  8
OBJECT
100
AcDbLine
 10
33690.54368147174
 20
5374.461354268325
 30
0.0
 11
33619.00174071251
 21
5334.383154230376
 31
0.0
  0
LINE
  5
2123
330
439
100
AcDbEntity
  8
OBJECT
100
AcDbLine
 10
33690.54368147172
 20
5291.430826465164
 30
0.0
 11
33625.51427144649
 21
5255.000982995962
 31
0.0
  0
LINE
  5
2124
330
439
100
AcDbEntity
  8
OBJECT
100
AcDbLine
 10
33690.54368147172
 20
5504.90331221052
 30
0.0
 11
33690.54368147174
 21
5577.263661782616
 31
0.0
  0
LINE
  5
2125
330
439
100
AcDbEntity
  8
OBJECT
100
AcDbLine
 10
33971.54096365301
 20
5419.847394263366
 30
0.0
 11
33902.69255272901
 21
5381.278124880601
 31
0.0
  0
LINE
  5
2126
330
439
100
AcDbEntity
  8
OBJECT
100
AcDbLine
 10
34016.15299150541
 20
5394.855483820425
 30
0.0
 11
33971.54096365301
 21
5419.847394263366
 31
0.0
  0
LINE
  5
2127
330
439
100
AcDbEntity
  8
OBJECT
100
AcDbLine
 10
33971.54096365301
 20
5419.847394263366
 30
0.0
 11
33902.69255272901
 21
5381.278124880601
 31
0.0
  0
LINE
  5
2128
330
439
100
AcDbEntity
  8
OBJECT
100
AcDbLine
 10
34091.15894424898
 20
5394.855483820418
 30
0.0
 11
34148.80121670797
 21
5450.987155405538
 31
0.0
  0
LINE
  5
2129
330
439
100
AcDbEntity
  8
OBJECT
100
AcDbLine
 10
33902.69255272903
 20
5458.416663646155
 30
0.0
 11
34016.15299150541
 21
5394.855483820425
 31
0.0
  0
LINE
  5
212A
330
439
100
AcDbEntity
  8
OBJECT
100
AcDbLine
 10
33967.72082833578
 20
5450.987155405589
 30
0.0
 11
34016.15299150541
 21
5394.855483820425
 31
0.0
  0
LINE
  5
212B
330
439
100
AcDbEntity
  8
OBJECT
100
AcDbLine
 10
34148.80121670797
 20
5450.987155405538
 30
0.0
 11
34091.15894424898
 21
5394.855483820418
 31
0.0
  0
LINE
  5
212C
330
439
100
AcDbEntity
  8
OBJECT
100
AcDbLine
 10
34016.15299150541
 20
5394.855483820425
 30
0.0
 11
34091.15894424898
 21
5394.855483820418
 31
0.0
  0
LINE
  5
212D
330
439
100
AcDbEntity
  8
OBJECT
100
AcDbLine
 10
34091.15894424898
 20
5394.855483820418
 30
0.0
 11
34016.15299150541
 21
5394.855483820425
 31
0.0
  0
LINE
  5
212E
330
439
100
AcDbEntity
  8
OBJECT
100
AcDbLine
 10
34155.31374744196
 20
5530.369326639924
 30
0.0
 11
34106.88158427234
 21
5586.50099822508
 31
0.0
  0
LINE
  5
212F
330
439
100
AcDbEntity
  8
OBJECT
100
AcDbLine
 10
33902.69255272903
 20
5570.446891170313
 30
0.0
 11
33974.23335906974
 21
5530.369326639938
 31
0.0
  0
LINE
  5
2130
330
439
100
AcDbEntity
  8
OBJECT
100
AcDbLine
 10
34031.87563152877
 20
5586.500998225087
 30
0.0
 11
33974.23335906974
 21
5530.369326639938
 31
0.0
  0
LINE
  5
2131
330
439
100
AcDbEntity
  8
OBJECT
100
AcDbLine
 10
34148.80121670797
 20
5450.987155405538
 30
0.0
 11
34155.31374744196
 21
5530.369326639924
 31
0.0
  0
LINE
  5
2132
330
439
100
AcDbEntity
  8
OBJECT
100
AcDbLine
 10
34154.66266656473
 20
5522.433208440499
 30
0.0
 11
34148.80121670797
 21
5450.987155405538
 31
0.0
  0
LINE
  5
2133
330
439
100
AcDbEntity
  8
OBJECT
100
AcDbLine
 10
33902.69255272903
 20
5487.416363367151
 30
0.0
 11
33967.72082833578
 21
5450.987155405589
 31
0.0
  0
LINE
  5
2134
330
439
100
AcDbEntity
  8
OBJECT
100
AcDbLine
 10
33974.23335906974
 20
5530.369326639938
 30
0.0
 11
33967.72082833578
 21
5450.987155405589
 31
0.0
  0
LINE
  5
2135
330
439
100
AcDbEntity
  8
OBJECT
100
AcDbLine
 10
33945.65788011247
 20
5434.347244123864
 30
0.0
 11
33902.69255272901
 21
5410.277824601592
 31
0.0
  0
LINE
  5
2136
330
439
100
AcDbEntity
  8
OBJECT
100
AcDbLine
 10
34106.88158427234
 20
5586.50099822508
 30
0.0
 11
34031.87563152877
 21
5586.500998225087
 31
0.0
  0
LINE
  5
2137
330
439
100
AcDbEntity
  8
OBJECT
100
AcDbLine
 10
33902.692552729
 20
5700.88884911247
 30
0.0
 11
34106.88158427234
 21
5586.50099822508
 31
0.0
  0
LINE
  5
2138
330
439
100
AcDbEntity
  8
OBJECT
100
AcDbLine
 10
33902.69255272901
 20
5658.870089959487
 30
0.0
 11
34031.87563152877
 21
5586.500998225087
 31
0.0
  0
LINE
  5
2139
330
439
100
AcDbEntity
  8
OBJECT
100
AcDbLine
 10
33871.62406984392
 20
5775.639712908424
 30
0.0
 11
33902.69255272901
 21
5775.639712908432
 31
0.0
  0
LINE
  5
213A
330
439
100
AcDbEntity
  8
OBJECT
100
AcDbLine
 10
34281.28459177613
 20
5835.839712908436
 30
0.0
 11
33661.79733553021
 21
5835.839712908422
 31
0.0
  0
LINE
  5
213B
330
439
100
AcDbEntity
  8
OBJECT
100
AcDbLine
 10
33419.38636033951
 20
5971.639712908439
 30
0.0
 11
34459.80001391578
 21
5971.639712908424
 31
0.0
  0
LINE
  5
213C
330
439
100
AcDbEntity
  8
OBJECT
100
AcDbLine
 10
34756.11021328397
 20
6101.839712908457
 30
0.0
 11
33186.97171402267
 21
6101.83971290845
 31
0.0
  0
LINE
  5
213D
330
439
100
AcDbEntity
  8
OBJECT
100
AcDbLine
 10
32944.56073883198
 20
6237.639712908453
 30
0.0
 11
34923.71920723916
 21
6237.639712908467
 31
0.0
  0
LINE
  5
213E
330
439
100
AcDbEntity
  8
OBJECT
100
AcDbLine
 10
32162.99559076214
 20
6462.004445648762
 30
0.0
 11
32225.13255653235
 21
6398.1952660973
 31
0.0
  0
LINE
  5
213F
330
439
100
AcDbEntity
  8
OBJECT
100
AcDbLine
 10
32313.00749624928
 20
6591.439413088123
 30
0.0
 11
33769.25787092401
 21
5775.639712908411
 31
0.0
  0
LINE
  5
2140
330
439
100
AcDbEntity
  8
OBJECT
100
AcDbLine
 10
32225.1325565324
 20
6598.648692410602
 30
0.0
 11
33694.25191818043
 21
5775.639712908439
 31
0.0
  0
LINE
  5
2141
330
439
100
AcDbEntity
  8
OBJECT
100
AcDbLine
 10
32308.63591940743
 20
6312.240860939247
 30
0.0
 11
32398.6126250254
 21
6301.010750079298
 31
0.0
  0
LINE
  5
2142
330
439
100
AcDbEntity
  8
OBJECT
100
AcDbLine
 10
32225.13255653235
 20
6398.1952660973
 30
0.0
 11
32511.73364799618
 21
6237.639712908483
 31
0.0
  0
LINE
  5
2143
330
439
100
AcDbEntity
  8
OBJECT
100
AcDbLine
 10
32441.37613081627
 20
5969.539712908455
 30
0.0
 11
32308.6359194074
 21
5969.539712908431
 31
0.0
  0
LINE
  5
2144
330
439
100
AcDbEntity
  8
OBJECT
100
AcDbLine
 10
32308.63591940736
 20
6312.240860939232
 30
0.0
 11
32308.63591940738
 21
5971.639712908453
 31
0.0
  0
LINE
  5
2145
330
439
100
AcDbEntity
  8
OBJECT
100
AcDbLine
 10
32308.63591940738
 20
5971.639712908453
 30
0.0
 11
32308.6359194074
 21
5969.539712908431
 31
0.0
  0
LINE
  5
2146
330
439
100
AcDbEntity
  8
OBJECT
100
AcDbLine
 10
32336.71165213681
 20
6335.688025362152
 30
0.0
 11
32308.63591940736
 21
6312.240860939232
 31
0.0
  0
LINE
  5
2147
330
439
100
AcDbEntity
  8
OBJECT
100
AcDbLine
 10
32337.30081562428
 20
6336.180059293941
 30
0.0
 11
32336.71165213681
 21
6335.688025362152
 31
0.0
  0
LINE
  5
2148
330
439
100
AcDbEntity
  8
OBJECT
100
AcDbLine
 10
32470.04102703315
 20
6101.839712908478
 30
0.0
 11
32470.04102703315
 21
5971.639712908453
 31
0.0
  0
LINE
  5
2149
330
439
100
AcDbEntity
  8
OBJECT
100
AcDbLine
 10
32441.37613081626
 20
6101.839712908478
 30
0.0
 11
32441.37613081631
 21
5971.639712908439
 31
0.0
  0
LINE
  5
214A
330
439
100
AcDbEntity
  8
OBJECT
100
AcDbLine
 10
32470.04102703315
 20
5971.639712908453
 30
0.0
 11
32470.04102703316
 21
5969.539712908455
 31
0.0
  0
LINE
  5
214B
330
439
100
AcDbEntity
  8
OBJECT
100
AcDbLine
 10
32441.37613081631
 20
5971.639712908439
 30
0.0
 11
32441.37613081627
 21
5969.539712908455
 31
0.0
  0
LINE
  5
214C
330
439
100
AcDbEntity
  8
OBJECT
100
AcDbLine
 10
32895.70496251578
 20
5971.639712908439
 30
0.0
 11
32986.55926950368
 21
5971.639712908453
 31
0.0
  0
LINE
  5
214D
330
439
100
AcDbEntity
  8
OBJECT
100
AcDbLine
 10
33796.61811710033
 20
5775.639712908432
 30
0.0
 11
33871.62406984392
 21
5775.639712908424
 31
0.0
  0
LINE
  5
214E
330
439
100
AcDbEntity
  8
OBJECT
100
AcDbLine
 10
33690.54368147171
 20
5775.639712908439
 30
0.0
 11
33721.6121643568
 21
5775.639712908446
 31
0.0
  0
LINE
  5
214F
330
439
100
AcDbEntity
  8
OBJECT
100
AcDbLine
 10
33721.6121643568
 20
5775.639712908446
 30
0.0
 11
33796.61811710033
 21
5775.639712908432
 31
0.0
  0
LINE
  5
2150
330
439
100
AcDbEntity
  8
OBJECT
100
AcDbLine
 10
32470.04102703315
 20
6260.996155092299
 30
0.0
 11
32470.04102703317
 21
6237.639712908453
 31
0.0
  0
LINE
  5
2151
330
439
100
AcDbEntity
  8
OBJECT
100
AcDbLine
 10
32441.37613081627
 20
6277.054392155169
 30
0.0
 11
32441.37613081629
 21
6237.639712908467
 31
0.0
  0
LINE
  5
2152
330
439
100
AcDbEntity
  8
OBJECT
100
AcDbLine
 10
32431.42415523635
 20
6237.639712908467
 30
0.0
 11
32512.58373724231
 21
6237.639712908453
 31
0.0
  0
LINE
  5
2153
330
439
100
AcDbEntity
  8
OBJECT
100
AcDbLine
 10
32431.42415523631
 20
6101.839712908478
 30
0.0
 11
32431.42415523635
 21
6237.639712908467
 31
0.0
  0
LINE
  5
2154
330
439
100
AcDbEntity
  8
OBJECT
100
AcDbLine
 10
32511.73364799618
 20
6237.639712908483
 30
0.0
 11
32513.60413278958
 21
6236.591856742951
 31
0.0
  0
LINE
  5
2155
330
439
100
AcDbEntity
  8
OBJECT
100
AcDbLine
 10
32754.14462318686
 20
6101.83971290845
 30
0.0
 11
32431.42415523631
 21
6101.839712908478
 31
0.0
  0
LINE
  5
2156
330
439
100
AcDbEntity
  8
OBJECT
100
AcDbLine
 10
32313.00749624928
 20
6591.439413088123
 30
0.0
 11
32225.1325565324
 21
6598.648692410602
 31
0.0
  0
LINE
  5
2157
330
439
100
AcDbEntity
  8
OBJECT
100
AcDbLine
 10
32225.1325565324
 20
6598.648692410602
 30
0.0
 11
32162.99559076218
 21
6545.034973451945
 31
0.0
  0
LINE
  5
2158
330
439
100
AcDbEntity
  8
OBJECT
100
AcDbLine
 10
32162.99559076218
 20
6545.034973451945
 30
0.0
 11
32162.99559076214
 21
6462.004445648762
 31
0.0
  0
LINE
  5
2159
330
439
100
AcDbEntity
  8
OBJECT
100
AcDbLine
 10
35280.22873795166
 20
6395.453876185612
 30
0.0
 11
35368.10367766852
 21
6402.663155508061
 31
0.0
  0
LINE
  5
215A
330
439
100
AcDbEntity
  8
OBJECT
100
AcDbLine
 10
35830.13359307571
 20
5971.639712908446
 30
0.0
 11
34956.52265780301
 21
5971.639712908424
 31
0.0
  0
LINE
  5
215B
330
439
100
AcDbEntity
  8
OBJECT
100
AcDbLine
 10
35830.13359307571
 20
5971.639712908446
 30
0.0
 11
34956.52265780301
 21
5971.639712908424
 31
0.0
  0
LINE
  5
215C
330
439
100
AcDbEntity
  8
OBJECT
100
AcDbLine
 10
35354.46605193698
 20
5971.639712908424
 30
0.0
 11
35354.466051937
 21
6167.584555421471
 31
0.0
  0
LINE
  5
215D
330
439
100
AcDbEntity
  8
OBJECT
100
AcDbLine
 10
35180.52222771258
 20
5971.639712908432
 30
0.0
 11
35180.52222771261
 21
6097.125539487763
 31
0.0
  0
LINE
  5
215E
330
439
100
AcDbEntity
  8
OBJECT
100
AcDbLine
 10
34459.80001391578
 20
5971.639712908424
 30
0.0
 11
34516.05021631579
 21
5971.639712908439
 31
0.0
  0
LINE
  5
215F
330
439
100
AcDbEntity
  8
OBJECT
100
AcDbLine
 10
34516.05021631576
 20
5967.356744211977
 30
0.0
 11
34516.05021631579
 21
5971.639712908439
 31
0.0
  0
LINE
  5
2160
330
439
100
AcDbEntity
  8
OBJECT
100
AcDbLine
 10
34523.69556696697
 20
5971.639712908411
 30
0.0
 11
34516.05021631579
 21
5971.639712908439
 31
0.0
  0
LINE
  5
2161
330
439
100
AcDbEntity
  8
OBJECT
100
AcDbLine
 10
35354.46605193699
 20
5969.539712908477
 30
0.0
 11
35226.79148016294
 21
5969.539712908431
 31
0.0
  0
LINE
  5
2162
330
439
100
AcDbEntity
  8
OBJECT
100
AcDbLine
 10
35354.46605193699
 20
5969.539712908477
 30
0.0
 11
35354.46605193698
 21
5971.639712908424
 31
0.0
  0
LINE
  5
2163
330
439
100
AcDbEntity
  8
OBJECT
100
AcDbLine
 10
35226.79148016294
 20
5969.539712908431
 30
0.0
 11
35226.79148016294
 21
5971.639712908424
 31
0.0
  0
LINE
  5
2164
330
439
100
AcDbEntity
  8
OBJECT
100
AcDbLine
 10
35180.52222771258
 20
5969.539712908447
 30
0.0
 11
35180.52222771258
 21
5971.639712908432
 31
0.0
  0
LINE
  5
2165
330
439
100
AcDbEntity
  8
OBJECT
100
AcDbLine
 10
34923.71920723916
 20
6237.639712908467
 30
0.0
 11
34979.96940900939
 21
6237.639712908453
 31
0.0
  0
LINE
  5
2166
330
439
100
AcDbEntity
  8
OBJECT
100
AcDbLine
 10
34979.96940900937
 20
6227.246901075489
 30
0.0
 11
34979.96940900939
 21
6237.639712908453
 31
0.0
  0
LINE
  5
2167
330
439
100
AcDbEntity
  8
OBJECT
100
AcDbLine
 10
35354.466051937
 20
6167.584555421471
 30
0.0
 11
35288.06318739586
 21
6157.370593629751
 31
0.0
  0
LINE
  5
2168
330
439
100
AcDbEntity
  8
OBJECT
100
AcDbLine
 10
35328.13111985866
 20
6179.816876122374
 30
0.0
 11
35354.466051937
 21
6167.584555421471
 31
0.0
  0
LINE
  5
2169
330
439
100
AcDbEntity
  8
OBJECT
100
AcDbLine
 10
35430.24064343873
 20
6266.018908746215
 30
0.0
 11
35368.10367766855
 21
6202.209729194731
 31
0.0
  0
LINE
  5
216A
330
439
100
AcDbEntity
  8
OBJECT
100
AcDbLine
 10
35368.10367766852
 20
6402.663155508061
 30
0.0
 11
35430.24064343872
 21
6349.04943654941
 31
0.0
  0
LINE
  5
216B
330
439
100
AcDbEntity
  8
OBJECT
100
AcDbLine
 10
35430.24064343872
 20
6349.04943654941
 30
0.0
 11
35430.24064343872
 21
6349.04943654941
 31
0.0
  0
LINE
  5
216C
330
439
100
AcDbEntity
  8
OBJECT
100
AcDbLine
 10
35430.24064343872
 20
6349.04943654941
 30
0.0
 11
35430.24064343873
 21
6266.018908746215
 31
0.0
  0
ENDBLK
  5
43B
330
439
100
AcDbEntity
  8
0
100
AcDbBlockEnd
  0
BLOCK
  5
218B
330
2172
100
AcDbEntity
  8
0
 62
     1
100
AcDbBlockBegin
  2
*U1
 70
     1
 10
0.0
 20
0.0
 30
0.0
  3
*U1
  1

  0
SOLID
  5
2173
330
2172
100
AcDbEntity
  8
HATCH
  6
CONTINUOUS
 62
     1
100
AcDbTrace
 10
33974.23335906974
 20
3192.910099176925
 30
0.0
 11
34031.87563152876
 21
3136.778427591759
 31
0.0
 12
34106.88158427232
 22
3136.778427591768
 32
0.0
 13
34106.88158427232
 23
3136.778427591768
 33
0.0
210
0.0
220
0.0
230
1.0
  0
SOLID
  5
2174
330
2172
100
AcDbEntity
  8
HATCH
  6
CONTINUOUS
 62
     1
100
AcDbTrace
 10
34155.31374744197
 20
3192.910099176943
 30
0.0
 11
33974.23335906974
 21
3192.910099176925
 31
0.0
 12
34106.88158427232
 22
3136.778427591768
 32
0.0
 13
34106.88158427232
 23
3136.778427591768
 33
0.0
210
0.0
220
0.0
230
1.0
  0
SOLID
  5
2175
330
2172
100
AcDbEntity
  8
HATCH
  6
CONTINUOUS
 62
     1
100
AcDbTrace
 10
33967.72082833579
 20
3272.292270411309
 30
0.0
 11
33974.23335906974
 21
3192.910099176925
 31
0.0
 12
34155.31374744197
 22
3192.910099176943
 32
0.0
 13
34155.31374744197
 23
3192.910099176943
 33
0.0
  0
SOLID
  5
2176
330
2172
100
AcDbEntity
  8
HATCH
  6
CONTINUOUS
 62
     1
100
AcDbTrace
 10
34148.80121670796
 20
3272.292270411355
 30
0.0
 11
33967.72082833579
 21
3272.292270411309
 31
0.0
 12
34155.31374744197
 22
3192.910099176943
 32
0.0
 13
34155.31374744197
 23
3192.910099176943
 33
0.0
210
0.0
220
0.0
230
1.0
  0
SOLID
  5
2177
330
2172
100
AcDbEntity
  8
HATCH
  6
CONTINUOUS
 62
     1
100
AcDbTrace
 10
34148.80121670796
 20
3272.292270411355
 30
0.0
 11
34091.15894424897
 21
3328.423941996504
 31
0.0
 12
34016.15299150543
 22
3328.423941996504
 32
0.0
 13
34016.15299150543
 23
3328.423941996504
 33
0.0
210
0.0
220
0.0
230
1.0
  0
SOLID
  5
2178
330
2172
100
AcDbEntity
  8
HATCH
  6
CONTINUOUS
 62
     1
100
AcDbTrace
 10
34016.15299150543
 20
3328.423941996504
 30
0.0
 11
33967.72082833579
 21
3272.292270411309
 31
0.0
 12
34148.80121670796
 22
3272.292270411355
 32
0.0
 13
34148.80121670796
 23
3272.292270411355
 33
0.0
210
0.0
220
0.0
230
1.0
  0
SOLID
  5
2179
330
2172
100
AcDbEntity
  8
HATCH
  6
CONTINUOUS
 62
     1
100
AcDbTrace
 10
33619.00174071248
 20
3388.896271586467
 30
0.0
 11
33486.35351550997
 21
3332.764600001395
 31
0.0
 12
33561.35946825353
 22
3332.764600001373
 32
0.0
 13
33561.35946825353
 23
3332.764600001373
 33
0.0
  0
SOLID
  5
217A
330
2172
100
AcDbEntity
  8
HATCH
  6
CONTINUOUS
 62
     1
100
AcDbTrace
 10
33437.92135234031
 20
3388.896271586467
 30
0.0
 11
33486.35351550997
 21
3332.764600001395
 31
0.0
 12
33619.00174071248
 22
3388.896271586467
 32
0.0
 13
33619.00174071248
 23
3388.896271586467
 33
0.0
210
0.0
220
0.0
230
1.0
  0
SOLID
  5
217B
330
2172
100
AcDbEntity
  8
HATCH
  6
CONTINUOUS
 62
     1
100
AcDbTrace
 10
33625.51427144651
 20
3468.278442820887
 30
0.0
 11
33437.92135234031
 21
3388.896271586467
 31
0.0
 12
33619.00174071248
 22
3388.896271586467
 32
0.0
 13
33619.00174071248
 23
3388.896271586467
 33
0.0
210
0.0
220
0.0
230
1.0
  0
SOLID
  5
217C
330
2172
100
AcDbEntity
  8
HATCH
  6
CONTINUOUS
 62
     1
100
AcDbTrace
 10
33444.43388307428
 20
3468.278442820908
 30
0.0
 11
33437.92135234031
 21
3388.896271586467
 31
0.0
 12
33625.51427144651
 22
3468.278442820887
 32
0.0
 13
33625.51427144651
 23
3468.278442820887
 33
0.0
210
0.0
220
0.0
230
1.0
  0
SOLID
  5
217D
330
2172
100
AcDbEntity
  8
HATCH
  6
CONTINUOUS
 62
     1
100
AcDbTrace
 10
33577.0821082768
 20
3524.410114406049
 30
0.0
 11
33444.43388307428
 21
3468.278442820908
 31
0.0
 12
33625.51427144651
 22
3468.278442820887
 32
0.0
 13
33625.51427144651
 23
3468.278442820887
 33
0.0
210
0.0
220
0.0
230
1.0
  0
SOLID
  5
217E
330
2172
100
AcDbEntity
  8
HATCH
  6
CONTINUOUS
 62
     1
100
AcDbTrace
 10
33502.07615553328
 20
3524.410114406072
 30
0.0
 11
33444.43388307428
 21
3468.278442820908
 31
0.0
 12
33577.0821082768
 22
3524.410114406049
 32
0.0
 13
33577.0821082768
 23
3524.410114406049
 33
0.0
210
0.0
220
0.0
230
1.0
  0
SOLID
  5
217F
330
2172
100
AcDbEntity
  8
HATCH
  6
CONTINUOUS
 62
     1
100
AcDbTrace
 10
33625.51427144648
 20
5255.000982995962
 30
0.0
 11
33502.07615553327
 21
5198.869311410835
 31
0.0
 12
33577.08210827682
 22
5198.869311410819
 32
0.0
 13
33577.08210827682
 23
5198.869311410819
 33
0.0
210
0.0
220
0.0
230
1.0
  0
SOLID
  5
2180
330
2172
100
AcDbEntity
  8
HATCH
  6
CONTINUOUS
 62
     1
100
AcDbTrace
 10
33444.43388307428
 20
5255.00098299598
 30
0.0
 11
33502.07615553327
 21
5198.869311410835
 31
0.0
 12
33625.51427144648
 22
5255.000982995962
 32
0.0
 13
33625.51427144648
 23
5255.000982995962
 33
0.0
210
0.0
220
0.0
230
1.0
  0
SOLID
  5
2181
330
2172
100
AcDbEntity
  8
HATCH
  6
CONTINUOUS
 62
     1
100
AcDbTrace
 10
33437.9213523403
 20
5334.383154230373
 30
0.0
 11
33444.43388307428
 21
5255.00098299598
 31
0.0
 12
33625.51427144648
 22
5255.000982995962
 32
0.0
 13
33625.51427144648
 23
5255.000982995962
 33
0.0
210
0.0
220
0.0
230
1.0
  0
SOLID
  5
2182
330
2172
100
AcDbEntity
  8
HATCH
  6
CONTINUOUS
 62
     1
100
AcDbTrace
 10
33619.0017407125
 20
5334.383154230408
 30
0.0
 11
33437.9213523403
 21
5334.383154230373
 31
0.0
 12
33625.51427144648
 22
5255.000982995962
 32
0.0
 13
33625.51427144648
 23
5255.000982995962
 33
0.0
  0
SOLID
  5
2183
330
2172
100
AcDbEntity
  8
HATCH
  6
CONTINUOUS
 62
     1
100
AcDbTrace
 10
33561.35946825352
 20
5390.514825815512
 30
0.0
 11
33437.9213523403
 21
5334.383154230373
 31
0.0
 12
33619.0017407125
 22
5334.383154230408
 32
0.0
 13
33619.0017407125
 23
5334.383154230408
 33
0.0
210
0.0
220
0.0
230
1.0
  0
SOLID
  5
2184
330
2172
100
AcDbEntity
  8
HATCH
  6
CONTINUOUS
 62
     1
100
AcDbTrace
 10
33486.35351550993
 20
5390.514825815518
 30
0.0
 11
33437.9213523403
 21
5334.383154230373
 31
0.0
 12
33561.35946825352
 22
5390.514825815512
 32
0.0
 13
33561.35946825352
 23
5390.514825815512
 33
0.0
210
0.0
220
0.0
230
1.0
  0
SOLID
  5
2185
330
2172
100
AcDbEntity
  8
HATCH
  6
CONTINUOUS
 62
     1
100
AcDbTrace
 10
34148.80121670797
 20
5450.987155405535
 30
0.0
 11
34016.15299150541
 21
5394.855483820425
 31
0.0
 12
34091.15894424898
 22
5394.855483820419
 32
0.0
 13
34091.15894424898
 23
5394.855483820419
 33
0.0
210
0.0
220
0.0
230
1.0
  0
SOLID
  5
2186
330
2172
100
AcDbEntity
  8
HATCH
  6
CONTINUOUS
 62
     1
100
AcDbTrace
 10
33967.72082833578
 20
5450.987155405591
 30
0.0
 11
34016.15299150541
 21
5394.855483820425
 31
0.0
 12
34148.80121670797
 22
5450.987155405535
 32
0.0
 13
34148.80121670797
 23
5450.987155405535
 33
0.0
210
0.0
220
0.0
230
1.0
  0
SOLID
  5
2187
330
2172
100
AcDbEntity
  8
HATCH
  6
CONTINUOUS
 62
     1
100
AcDbTrace
 10
34155.31374744195
 20
5530.369326639927
 30
0.0
 11
33967.72082833578
 21
5450.987155405591
 31
0.0
 12
34148.80121670797
 22
5450.987155405535
 32
0.0
 13
34148.80121670797
 23
5450.987155405535
 33
0.0
210
0.0
220
0.0
230
1.0
  0
SOLID
  5
2188
330
2172
100
AcDbEntity
  8
HATCH
  6
CONTINUOUS
 62
     1
100
AcDbTrace
 10
33974.23335906975
 20
5530.369326639945
 30
0.0
 11
33967.72082833578
 21
5450.987155405591
 31
0.0
 12
34155.31374744195
 22
5530.369326639927
 32
0.0
 13
34155.31374744195
 23
5530.369326639927
 33
0.0
210
0.0
220
0.0
230
1.0
  0
SOLID
  5
2189
330
2172
100
AcDbEntity
  8
HATCH
  6
CONTINUOUS
 62
     1
100
AcDbTrace
 10
34106.88158427234
 20
5586.500998225079
 30
0.0
 11
33974.23335906975
 21
5530.369326639945
 31
0.0
 12
34155.31374744195
 22
5530.369326639927
 32
0.0
 13
34155.31374744195
 23
5530.369326639927
 33
0.0
210
0.0
220
0.0
230
1.0
  0
SOLID
  5
218A
330
2172
100
AcDbEntity
  8
HATCH
  6
CONTINUOUS
 62
     1
100
AcDbTrace
 10
34031.87563152877
 20
5586.500998225086
 30
0.0
 11
33974.23335906975
 21
5530.369326639945
 31
0.0
 12
34106.88158427234
 22
5586.500998225079
 32
0.0
 13
34106.88158427234
 23
5586.500998225079
 33
0.0
210
0.0
220
0.0
230
1.0
  0
ENDBLK
  5
218C
330
2172
100
AcDbEntity
  8
0
 62
     1
100
AcDbBlockEnd
  0
BLOCK
  5
21A6
330
218D
100
AcDbEntity
  8
0
 62
     1
100
AcDbBlockBegin
  2
*U2
 70
     1
 10
0.0
 20
0.0
 30
0.0
  3
*U2
  1

  0
SOLID
  5
218E
330
218D
100
AcDbEntity
  8
HATCH
  6
CONTINUOUS
 62
     1
100
AcDbTrace
 10
4006.854003873701
 20
3192.910099177161
 30
0.0
 11
3874.20577867114
 21
3136.778427592045
 31
0.0
 12
3949.211731414685
 22
3136.778427592046
 32
0.0
 13
3949.211731414685
 23
3136.778427592046
 33
0.0
210
0.0
220
0.0
230
1.0
  0
SOLID
  5
218F
330
218D
100
AcDbEntity
  8
HATCH
  6
CONTINUOUS
 62
     1
100
AcDbTrace
 10
3825.773615501523
 20
3192.91009917726
 30
0.0
 11
3874.20577867114
 21
3136.778427592045
 31
0.0
 12
4006.854003873701
 22
3192.910099177161
 32
0.0
 13
4006.854003873701
 23
3192.910099177161
 33
0.0
210
0.0
220
0.0
230
1.0
  0
SOLID
  5
2190
330
218D
100
AcDbEntity
  8
HATCH
  6
CONTINUOUS
 62
     1
100
AcDbTrace
 10
4013.366534607685
 20
3272.292270411587
 30
0.0
 11
3825.773615501523
 21
3192.91009917726
 31
0.0
 12
4006.854003873701
 22
3192.910099177161
 32
0.0
 13
4006.854003873701
 23
3192.910099177161
 33
0.0
  0
SOLID
  5
2191
330
218D
100
AcDbEntity
  8
HATCH
  6
CONTINUOUS
 62
     1
100
AcDbTrace
 10
3832.286146235478
 20
3272.292270411595
 30
0.0
 11
3825.773615501523
 21
3192.91009917726
 31
0.0
 12
4013.366534607685
 22
3272.292270411587
 32
0.0
 13
4013.366534607685
 23
3272.292270411587
 33
0.0
210
0.0
220
0.0
230
1.0
  0
SOLID
  5
2192
330
218D
100
AcDbEntity
  8
HATCH
  6
CONTINUOUS
 62
     1
100
AcDbTrace
 10
3964.934371438051
 20
3328.42394199671
 30
0.0
 11
3832.286146235478
 21
3272.292270411595
 31
0.0
 12
4013.366534607685
 22
3272.292270411587
 32
0.0
 13
4013.366534607685
 23
3272.292270411587
 33
0.0
210
0.0
220
0.0
230
1.0
  0
SOLID
  5
2193
330
218D
100
AcDbEntity
  8
HATCH
  6
CONTINUOUS
 62
     1
100
AcDbTrace
 10
3889.928418694504
 20
3328.42394199671
 30
0.0
 11
3832.286146235478
 21
3272.292270411595
 31
0.0
 12
3964.934371438051
 22
3328.42394199671
 32
0.0
 13
3964.934371438051
 23
3328.42394199671
 33
0.0
210
0.0
220
0.0
230
1.0
  0
SOLID
  5
2194
330
218D
100
AcDbEntity
  8
HATCH
  6
CONTINUOUS
 62
     1
100
AcDbTrace
 10
4362.085622230935
 20
3388.896271586748
 30
0.0
 11
4419.727894689969
 21
3332.764600001613
 31
0.0
 12
4494.733847433502
 22
3332.76460000162
 32
0.0
 13
4494.733847433502
 23
3332.76460000162
 33
0.0
210
0.0
220
0.0
230
1.0
  0
SOLID
  5
2195
330
218D
100
AcDbEntity
  8
HATCH
  6
CONTINUOUS
 62
     1
100
AcDbTrace
 10
4543.166010603145
 20
3388.896271586757
 30
0.0
 11
4362.085622230935
 21
3388.896271586748
 31
0.0
 12
4494.733847433502
 22
3332.76460000162
 32
0.0
 13
4494.733847433502
 23
3332.76460000162
 33
0.0
210
0.0
220
0.0
230
1.0
  0
SOLID
  5
2196
330
218D
100
AcDbEntity
  8
HATCH
  6
CONTINUOUS
 62
     1
100
AcDbTrace
 10
4536.653479869154
 20
3468.278442821164
 30
0.0
 11
4362.085622230935
 21
3388.896271586748
 31
0.0
 12
4543.166010603145
 22
3388.896271586757
 32
0.0
 13
4543.166010603145
 23
3388.896271586757
 33
0.0
210
0.0
220
0.0
230
1.0
  0
SOLID
  5
2197
330
218D
100
AcDbEntity
  8
HATCH
  6
CONTINUOUS
 62
     1
100
AcDbTrace
 10
4355.573091496945
 20
3468.278442821171
 30
0.0
 11
4362.085622230935
 21
3388.896271586748
 31
0.0
 12
4536.653479869154
 22
3468.278442821164
 32
0.0
 13
4536.653479869154
 23
3468.278442821164
 33
0.0
210
0.0
220
0.0
230
1.0
  0
SOLID
  5
2198
330
218D
100
AcDbEntity
  8
HATCH
  6
CONTINUOUS
 62
     1
100
AcDbTrace
 10
4479.011207410219
 20
3524.410114406263
 30
0.0
 11
4355.573091496945
 21
3468.278442821171
 31
0.0
 12
4536.653479869154
 22
3468.278442821164
 32
0.0
 13
4536.653479869154
 23
3468.278442821164
 33
0.0
210
0.0
220
0.0
230
1.0
  0
SOLID
  5
2199
330
218D
100
AcDbEntity
  8
HATCH
  6
CONTINUOUS
 62
     1
100
AcDbTrace
 10
4404.005254666601
 20
3524.410114406278
 30
0.0
 11
4355.573091496945
 21
3468.278442821171
 31
0.0
 12
4479.011207410219
 22
3524.410114406263
 32
0.0
 13
4479.011207410219
 23
3524.410114406263
 33
0.0
210
0.0
220
0.0
230
1.0
  0
SOLID
  5
219A
330
218D
100
AcDbEntity
  8
HATCH
  6
CONTINUOUS
 62
     1
100
AcDbTrace
 10
4355.573091496967
 20
5255.000982996231
 30
0.0
 11
4404.005254666624
 21
5198.869311411076
 31
0.0
 12
4479.011207410219
 22
5198.869311411098
 32
0.0
 13
4479.011207410219
 23
5198.869311411098
 33
0.0
210
0.0
220
0.0
230
1.0
  0
SOLID
  5
219B
330
218D
100
AcDbEntity
  8
HATCH
  6
CONTINUOUS
 62
     1
100
AcDbTrace
 10
4536.653479869186
 20
5255.00098299627
 30
0.0
 11
4355.573091496967
 21
5255.000982996231
 31
0.0
 12
4479.011207410219
 22
5198.869311411098
 32
0.0
 13
4479.011207410219
 23
5198.869311411098
 33
0.0
210
0.0
220
0.0
230
1.0
  0
SOLID
  5
219C
330
218D
100
AcDbEntity
  8
HATCH
  6
CONTINUOUS
 62
     1
100
AcDbTrace
 10
4362.085622230959
 20
5334.383154230589
 30
0.0
 11
4355.573091496967
 21
5255.000982996231
 31
0.0
 12
4536.653479869186
 22
5255.00098299627
 32
0.0
 13
4536.653479869186
 23
5255.00098299627
 33
0.0
210
0.0
220
0.0
230
1.0
  0
SOLID
  5
219D
330
218D
100
AcDbEntity
  8
HATCH
  6
CONTINUOUS
 62
     1
100
AcDbTrace
 10
4543.166010603167
 20
5334.383154230625
 30
0.0
 11
4362.085622230959
 21
5334.383154230589
 31
0.0
 12
4536.653479869186
 22
5255.00098299627
 32
0.0
 13
4536.653479869186
 23
5255.00098299627
 33
0.0
  0
SOLID
  5
219E
330
218D
100
AcDbEntity
  8
HATCH
  6
CONTINUOUS
 62
     1
100
AcDbTrace
 10
4494.733847433534
 20
5390.514825815769
 30
0.0
 11
4362.085622230959
 21
5334.383154230589
 31
0.0
 12
4543.166010603167
 22
5334.383154230625
 32
0.0
 13
4543.166010603167
 23
5334.383154230625
 33
0.0
210
0.0
220
0.0
230
1.0
  0
SOLID
  5
219F
330
218D
100
AcDbEntity
  8
HATCH
  6
CONTINUOUS
 62
     1
100
AcDbTrace
 10
4419.727894689996
 20
5390.514825815785
 30
0.0
 11
4362.085622230959
 21
5334.383154230589
 31
0.0
 12
4494.733847433534
 22
5390.514825815769
 32
0.0
 13
4494.733847433534
 23
5390.514825815769
 33
0.0
210
0.0
220
0.0
230
1.0
  0
SOLID
  5
21A0
330
218D
100
AcDbEntity
  8
HATCH
  6
CONTINUOUS
 62
     1
100
AcDbTrace
 10
3832.286146235503
 20
5450.987155405772
 30
0.0
 11
3889.928418694546
 21
5394.855483820661
 31
0.0
 12
3964.934371438077
 22
5394.855483820665
 32
0.0
 13
3964.934371438077
 23
5394.855483820665
 33
0.0
210
0.0
220
0.0
230
1.0
  0
SOLID
  5
21A1
330
218D
100
AcDbEntity
  8
HATCH
  6
CONTINUOUS
 62
     1
100
AcDbTrace
 10
4013.366534607722
 20
5450.987155405801
 30
0.0
 11
3832.286146235503
 21
5450.987155405772
 31
0.0
 12
3964.934371438077
 22
5394.855483820665
 32
0.0
 13
3964.934371438077
 23
5394.855483820665
 33
0.0
  0
SOLID
  5
21A2
330
218D
100
AcDbEntity
  8
HATCH
  6
CONTINUOUS
 62
     1
100
AcDbTrace
 10
3825.773615501554
 20
5530.369326640165
 30
0.0
 11
3832.286146235503
 21
5450.987155405772
 31
0.0
 12
4013.366534607722
 22
5450.987155405801
 32
0.0
 13
4013.366534607722
 23
5450.987155405801
 33
0.0
  0
SOLID
  5
21A3
330
218D
100
AcDbEntity
  8
HATCH
  6
CONTINUOUS
 62
     1
100
AcDbTrace
 10
4006.854003873723
 20
5530.369326640179
 30
0.0
 11
3825.773615501554
 21
5530.369326640165
 31
0.0
 12
4013.366534607722
 22
5450.987155405801
 32
0.0
 13
4013.366534607722
 23
5450.987155405801
 33
0.0
210
0.0
220
0.0
230
1.0
  0
SOLID
  5
21A4
330
218D
100
AcDbEntity
  8
HATCH
  6
CONTINUOUS
 62
     1
100
AcDbTrace
 10
3949.211731414754
 20
5586.500998225352
 30
0.0
 11
3825.773615501554
 21
5530.369326640165
 31
0.0
 12
4006.854003873723
 22
5530.369326640179
 32
0.0
 13
4006.854003873723
 23
5530.369326640179
 33
0.0
210
0.0
220
0.0
230
1.0
  0
SOLID
  5
21A5
330
218D
100
AcDbEntity
  8
HATCH
  6
CONTINUOUS
 62
     1
100
AcDbTrace
 10
3874.205778671165
 20
5586.500998225366
 30
0.0
 11
3825.773615501554
 21
5530.369326640165
 31
0.0
 12
3949.211731414754
 22
5586.500998225352
 32
0.0
 13
3949.211731414754
 23
5586.500998225352
 33
0.0
210
0.0
220
0.0
230
1.0
  0
ENDBLK
  5
21A7
330
218D
100
AcDbEntity
  8
0
 62
     1
100
AcDbBlockEnd
  0
BLOCK
  5
227B
330
21A8
100
AcDbEntity
  8
0
 62
     1
100
AcDbBlockBegin
  2
*U3
 70
     1
 10
0.0
 20
0.0
 30
0.0
  3
*U3
  1

  0
SOLID
  5
21A9
330
21A8
100
AcDbEntity
  8
HATCH
  6
CONTINUOUS
 62
   251
100
AcDbTrace
 10
5549.663207707173
 20
6101.839712908656
 30
0.0
 11
5539.711232127226
 21
5971.639712908657
 31
0.0
 12
5672.451443536141
 22
5971.639712908654
 32
0.0
 13
5672.451443536141
 23
5971.639712908654
 33
0.0
210
0.0
220
0.0
230
1.0
  0
SOLID
  5
21AA
330
21A8
100
AcDbEntity
  8
HATCH
  6
CONTINUOUS
 62
   251
100
AcDbTrace
 10
5539.711232127181
 20
6101.839712908657
 30
0.0
 11
5539.711232127226
 21
5971.639712908657
 31
0.0
 12
5549.663207707173
 22
6101.839712908656
 32
0.0
 13
5549.663207707173
 23
6101.839712908656
 33
0.0
210
0.0
220
0.0
230
1.0
  0
SOLID
  5
21AB
330
21A8
100
AcDbEntity
  8
HATCH
  6
CONTINUOUS
 62
   251
100
AcDbTrace
 10
3001.117953934098
 20
6227.246901075754
 30
0.0
 11
3224.977149659556
 21
6101.839712908707
 31
0.0
 12
4794.115648920747
 22
6101.839712908649
 32
0.0
 13
4794.115648920747
 23
6101.839712908649
 33
0.0
210
0.0
220
0.0
230
1.0
  0
SOLID
  5
21AC
330
21A8
100
AcDbEntity
  8
HATCH
  6
CONTINUOUS
 62
   251
100
AcDbTrace
 10
5036.526624111443
 20
6237.639712908658
 30
0.0
 11
3001.117953934098
 21
6227.246901075754
 31
0.0
 12
4794.115648920747
 22
6101.839712908649
 32
0.0
 13
4794.115648920747
 23
6101.839712908649
 33
0.0
210
0.0
220
0.0
230
1.0
  0
SOLID
  5
21AD
330
21A8
100
AcDbEntity
  8
HATCH
  6
CONTINUOUS
 62
   251
100
AcDbTrace
 10
5549.663207707158
 20
6237.639712908666
 30
0.0
 11
5549.663207707173
 21
6101.839712908656
 31
0.0
 12
5672.451443536141
 22
5971.639712908654
 32
0.0
 13
5672.451443536141
 23
5971.639712908654
 33
0.0
210
0.0
220
0.0
230
1.0
  0
SOLID
  5
21AE
330
21A8
100
AcDbEntity
  8
HATCH
  6
CONTINUOUS
 62
   251
100
AcDbTrace
 10
5036.526624111443
 20
6237.639712908658
 30
0.0
 11
3057.368155704378
 21
6237.639712908688
 31
0.0
 12
3001.11795393407
 22
6237.639712908688
 32
0.0
 13
3001.11795393407
 23
6237.639712908688
 33
0.0
210
0.0
220
0.0
230
1.0
  0
SOLID
  5
21AF
330
21A8
100
AcDbEntity
  8
HATCH
  6
CONTINUOUS
 62
   251
100
AcDbTrace
 10
3001.11795393407
 20
6237.639712908688
 30
0.0
 11
3001.117953934098
 21
6227.246901075754
 31
0.0
 12
5036.526624111443
 22
6237.639712908658
 32
0.0
 13
5036.526624111443
 23
6237.639712908658
 33
0.0
210
0.0
220
0.0
230
1.0
  0
SOLID
  5
21B0
330
21A8
100
AcDbEntity
  8
HATCH
  6
CONTINUOUS
 62
   251
100
AcDbTrace
 10
5539.711232127205
 20
6277.054392155394
 30
0.0
 11
5539.711232127225
 21
6237.639712908663
 31
0.0
 12
5549.663207707158
 22
6237.639712908666
 32
0.0
 13
5549.663207707158
 23
6237.639712908666
 33
0.0
210
0.0
220
0.0
230
1.0
  0
SOLID
  5
21B1
330
21A8
100
AcDbEntity
  8
HATCH
  6
CONTINUOUS
 62
   251
100
AcDbTrace
 10
5582.474737917982
 20
6301.010750079456
 30
0.0
 11
5539.711232127205
 21
6277.054392155394
 31
0.0
 12
5549.663207707158
 22
6237.639712908666
 32
0.0
 13
5549.663207707158
 23
6237.639712908666
 33
0.0
  0
SOLID
  5
21B2
330
21A8
100
AcDbEntity
  8
HATCH
  6
CONTINUOUS
 62
   251
100
AcDbTrace
 10
5582.474737917982
 20
6301.010750079456
 30
0.0
 11
5549.663207707158
 21
6237.639712908666
 31
0.0
 12
5672.451443536141
 22
5971.639712908654
 32
0.0
 13
5672.451443536141
 23
5971.639712908654
 33
0.0
  0
SOLID
  5
21B3
330
21A8
100
AcDbEntity
  8
HATCH
  6
CONTINUOUS
 62
   251
100
AcDbTrace
 10
5672.451443536092
 20
6312.240860939475
 30
0.0
 11
5582.474737917982
 21
6301.010750079456
 31
0.0
 12
5672.451443536141
 22
5971.639712908654
 32
0.0
 13
5672.451443536141
 23
5971.639712908654
 33
0.0
210
0.0
220
0.0
230
1.0
  0
SOLID
  5
21B4
330
21A8
100
AcDbEntity
  8
HATCH
  6
CONTINUOUS
 62
   251
100
AcDbTrace
 10
4994.528093439793
 20
5971.639712908666
 30
0.0
 11
4290.543681471783
 21
5606.263361503903
 31
0.0
 12
4290.543681471781
 22
5577.263661782783
 32
0.0
 13
4290.543681471781
 23
5577.263661782783
 33
0.0
210
0.0
220
0.0
230
1.0
  0
SOLID
  5
21B5
330
21A8
100
AcDbEntity
  8
HATCH
  6
CONTINUOUS
 62
   251
100
AcDbTrace
 10
5539.711232127181
 20
6101.839712908657
 30
0.0
 11
5511.04633591034
 21
5971.639712908657
 31
0.0
 12
5539.711232127225
 22
5971.639712908654
 32
0.0
 13
5539.711232127225
 23
5971.639712908654
 33
0.0
210
0.0
220
0.0
230
1.0
  0
SOLID
  5
21B6
330
21A8
100
AcDbEntity
  8
HATCH
  6
CONTINUOUS
 62
   251
100
AcDbTrace
 10
5511.046335910356
 20
6101.839712908659
 30
0.0
 11
5511.04633591034
 21
5971.639712908657
 31
0.0
 12
5539.711232127181
 22
6101.839712908657
 32
0.0
 13
5539.711232127181
 23
6101.839712908657
 33
0.0
210
0.0
220
0.0
230
1.0
  0
SOLID
  5
21B7
330
21A8
100
AcDbEntity
  8
HATCH
  6
CONTINUOUS
 62
   251
100
AcDbTrace
 10
5467.483230153924
 20
6236.591856743163
 30
0.0
 11
4290.543681471783
 21
5606.263361503903
 31
0.0
 12
4994.528093439793
 22
5971.639712908666
 32
0.0
 13
4994.528093439793
 23
5971.639712908666
 33
0.0
210
0.0
220
0.0
230
1.0
  0
SOLID
  5
21B8
330
21A8
100
AcDbEntity
  8
HATCH
  6
CONTINUOUS
 62
   251
100
AcDbTrace
 10
5469.353714947323
 20
6237.639712908652
 30
0.0
 11
4290.543681471783
 21
5606.263361503903
 31
0.0
 12
5467.483230153924
 22
6236.591856743163
 32
0.0
 13
5467.483230153924
 23
6236.591856743163
 33
0.0
210
0.0
220
0.0
230
1.0
  0
SOLID
  5
21B9
330
21A8
100
AcDbEntity
  8
HATCH
  6
CONTINUOUS
 62
   251
100
AcDbTrace
 10
5511.04633591032
 20
6260.996155092523
 30
0.0
 11
5511.046335910339
 21
6237.639712908656
 31
0.0
 12
5539.711232127224
 22
6237.639712908663
 32
0.0
 13
5539.711232127224
 23
6237.639712908663
 33
0.0
210
0.0
220
0.0
230
1.0
  0
SOLID
  5
21BA
330
21A8
100
AcDbEntity
  8
HATCH
  6
CONTINUOUS
 62
   251
100
AcDbTrace
 10
5539.711232127206
 20
6277.054392155394
 30
0.0
 11
5511.04633591032
 21
6260.996155092523
 31
0.0
 12
5539.711232127224
 22
6237.639712908663
 32
0.0
 13
5539.711232127224
 23
6237.639712908663
 33
0.0
  0
SOLID
  5
21BB
330
21A8
100
AcDbEntity
  8
HATCH
  6
CONTINUOUS
 62
   251
100
AcDbTrace
 10
5755.95480641114
 20
6398.195266097535
 30
0.0
 11
4290.543681471783
 21
5606.263361503903
 31
0.0
 12
5469.353714947323
 22
6237.639712908652
 32
0.0
 13
5469.353714947323
 23
6237.639712908652
 33
0.0
210
0.0
220
0.0
230
1.0
  0
SOLID
  5
21BC
330
21A8
100
AcDbEntity
  8
HATCH
  6
CONTINUOUS
 62
   251
100
AcDbTrace
 10
5818.091772181325
 20
6462.004445649053
 30
0.0
 11
4290.543681471783
 21
5606.263361503903
 31
0.0
 12
5755.95480641114
 22
6398.195266097535
 32
0.0
 13
5755.95480641114
 23
6398.195266097535
 33
0.0
  0
SOLID
  5
21BD
330
21A8
100
AcDbEntity
  8
HATCH
  6
CONTINUOUS
 62
   251
100
AcDbTrace
 10
5818.091772181325
 20
6462.004445649053
 30
0.0
 11
5818.091772181325
 21
6545.034973452136
 31
0.0
 12
4290.543681471783
 22
5606.263361503903
 32
0.0
 13
4290.543681471783
 23
5606.263361503903
 33
0.0
210
0.0
220
0.0
230
1.0
  0
SOLID
  5
21BE
330
21A8
100
AcDbEntity
  8
HATCH
  6
CONTINUOUS
 62
   251
100
AcDbTrace
 10
4290.543681471786
 20
5689.293889306977
 30
0.0
 11
4290.543681471783
 21
5606.263361503903
 31
0.0
 12
5818.091772181325
 22
6545.034973452136
 32
0.0
 13
5818.091772181325
 23
6545.034973452136
 33
0.0
  0
SOLID
  5
21BF
330
21A8
100
AcDbEntity
  8
HATCH
  6
CONTINUOUS
 62
   251
100
AcDbTrace
 10
5818.091772181325
 20
6545.034973452134
 30
0.0
 11
4286.835444763118
 21
5775.639712908732
 31
0.0
 12
4290.543681471791
 22
5775.639712908732
 32
0.0
 13
4290.543681471791
 23
5775.639712908732
 33
0.0
210
0.0
220
0.0
230
1.0
  0
SOLID
  5
21C0
330
21A8
100
AcDbEntity
  8
HATCH
  6
CONTINUOUS
 62
   251
100
AcDbTrace
 10
5818.091772181325
 20
6545.034973452134
 30
0.0
 11
4290.543681471791
 21
5775.639712908732
 31
0.0
 12
4290.543681471786
 22
5689.293889306977
 32
0.0
 13
4290.543681471786
 23
5689.293889306977
 33
0.0
210
0.0
220
0.0
230
1.0
  0
SOLID
  5
21C1
330
21A8
100
AcDbEntity
  8
HATCH
  6
CONTINUOUS
 62
   251
100
AcDbTrace
 10
5755.95480641112
 20
6598.648692410859
 30
0.0
 11
4286.835444763118
 21
5775.639712908732
 31
0.0
 12
5818.091772181325
 22
6545.034973452134
 32
0.0
 13
5818.091772181325
 23
6545.034973452134
 33
0.0
  0
SOLID
  5
21C2
330
21A8
100
AcDbEntity
  8
HATCH
  6
CONTINUOUS
 62
   251
100
AcDbTrace
 10
2800.565135230931
 20
6097.125539487985
 30
0.0
 11
2626.621311006525
 21
5971.639712908713
 31
0.0
 12
2800.565135230931
 22
5971.639712908713
 32
0.0
 13
2800.565135230931
 23
5971.639712908713
 33
0.0
210
0.0
220
0.0
230
1.0
  0
SOLID
  5
21C3
330
21A8
100
AcDbEntity
  8
HATCH
  6
CONTINUOUS
 62
   251
100
AcDbTrace
 10
2693.024175547513
 20
6157.370593630068
 30
0.0
 11
2626.621311006525
 21
5971.639712908713
 31
0.0
 12
2800.565135230931
 22
6097.125539487985
 32
0.0
 13
2800.565135230931
 23
6097.125539487985
 33
0.0
210
0.0
220
0.0
230
1.0
  0
SOLID
  5
21C4
330
21A8
100
AcDbEntity
  8
HATCH
  6
CONTINUOUS
 62
   251
100
AcDbTrace
 10
2626.621311006517
 20
6167.584555421727
 30
0.0
 11
2626.621311006525
 21
5971.639712908713
 31
0.0
 12
2693.024175547513
 22
6157.370593630068
 32
0.0
 13
2693.024175547513
 23
6157.370593630068
 33
0.0
210
0.0
220
0.0
230
1.0
  0
SOLID
  5
21C5
330
21A8
100
AcDbEntity
  8
HATCH
  6
CONTINUOUS
 62
   251
100
AcDbTrace
 10
5469.353714947254
 20
6237.639712908645
 30
0.0
 11
5226.942739756623
 21
6101.83971290867
 31
0.0
 12
5549.663207707173
 22
6101.839712908656
 32
0.0
 13
5549.663207707173
 23
6101.839712908656
 33
0.0
  0
SOLID
  5
21C6
330
21A8
100
AcDbEntity
  8
HATCH
  6
CONTINUOUS
 62
   251
100
AcDbTrace
 10
5549.663207707158
 20
6237.639712908665
 30
0.0
 11
5469.353714947254
 21
6237.639712908645
 31
0.0
 12
5549.663207707173
 22
6101.839712908656
 32
0.0
 13
5549.663207707173
 23
6101.839712908656
 33
0.0
210
0.0
220
0.0
230
1.0
  0
SOLID
  5
21C7
330
21A8
100
AcDbEntity
  8
HATCH
  6
CONTINUOUS
 62
   251
100
AcDbTrace
 10
2700.858624991891
 20
6395.45387618589
 30
0.0
 11
3972.04342291871
 21
5641.310200153461
 31
0.0
 12
4009.546399290485
 22
5662.319579729942
 32
0.0
 13
4009.546399290485
 23
5662.319579729942
 33
0.0
210
0.0
220
0.0
230
1.0
  0
SOLID
  5
21C8
330
21A8
100
AcDbEntity
  8
HATCH
  6
CONTINUOUS
 62
   251
100
AcDbTrace
 10
2612.983685274953
 20
6402.663155508353
 30
0.0
 11
3972.04342291871
 21
5641.310200153461
 31
0.0
 12
2700.858624991891
 22
6395.45387618589
 32
0.0
 13
2700.858624991891
 23
6395.45387618589
 33
0.0
210
0.0
220
0.0
230
1.0
  0
SOLID
  5
21C9
330
21A8
100
AcDbEntity
  8
HATCH
  6
CONTINUOUS
 62
   251
100
AcDbTrace
 10
5668.07986669419
 20
6591.439413088377
 30
0.0
 11
4259.4751985867
 21
5775.639712908732
 31
0.0
 12
4286.835444763118
 22
5775.639712908732
 32
0.0
 13
4286.835444763118
 23
5775.639712908732
 33
0.0
210
0.0
220
0.0
230
1.0
  0
SOLID
  5
21CA
330
21A8
100
AcDbEntity
  8
HATCH
  6
CONTINUOUS
 62
   251
100
AcDbTrace
 10
5668.07986669419
 20
6591.439413088377
 30
0.0
 11
4211.829492019507
 21
5775.6397129087
 31
0.0
 12
4259.4751985867
 22
5775.639712908732
 32
0.0
 13
4259.4751985867
 23
5775.639712908732
 33
0.0
210
0.0
220
0.0
230
1.0
  0
SOLID
  5
21CB
330
21A8
100
AcDbEntity
  8
HATCH
  6
CONTINUOUS
 62
   251
100
AcDbTrace
 10
5755.954806411119
 20
6598.648692410859
 30
0.0
 11
5668.07986669419
 21
6591.439413088377
 31
0.0
 12
4286.835444763118
 22
5775.639712908732
 32
0.0
 13
4286.835444763118
 23
5775.639712908732
 33
0.0
  0
SOLID
  5
21CC
330
21A8
100
AcDbEntity
  8
HATCH
  6
CONTINUOUS
 62
   251
100
AcDbTrace
 10
2612.983685274953
 20
6402.663155508355
 30
0.0
 11
2550.846719504745
 21
6349.049436549646
 31
0.0
 12
3972.043422918707
 22
5641.310200153461
 32
0.0
 13
3972.043422918707
 23
5641.310200153461
 33
0.0
  0
SOLID
  5
21CD
330
21A8
100
AcDbEntity
  8
HATCH
  6
CONTINUOUS
 62
   251
100
AcDbTrace
 10
3893.123121563839
 20
5597.098600758847
 30
0.0
 11
3972.043422918707
 21
5641.310200153461
 31
0.0
 12
2550.846719504745
 22
6349.049436549646
 32
0.0
 13
2550.846719504745
 23
6349.049436549646
 33
0.0
210
0.0
220
0.0
230
1.0
  0
SOLID
  5
21CE
330
21A8
100
AcDbEntity
  8
HATCH
  6
CONTINUOUS
 62
   251
100
AcDbTrace
 10
2550.84671950473
 20
6266.018908746487
 30
0.0
 11
3874.205778671164
 21
5586.500998225365
 31
0.0
 12
3893.123121563839
 22
5597.098600758847
 32
0.0
 13
3893.123121563839
 23
5597.098600758847
 33
0.0
210
0.0
220
0.0
230
1.0
  0
SOLID
  5
21CF
330
21A8
100
AcDbEntity
  8
HATCH
  6
CONTINUOUS
 62
   251
100
AcDbTrace
 10
2550.84671950473
 20
6266.018908746487
 30
0.0
 11
3838.23787820055
 21
5544.815096859462
 31
0.0
 12
3874.205778671164
 22
5586.500998225365
 32
0.0
 13
3874.205778671164
 23
5586.500998225365
 33
0.0
210
0.0
220
0.0
230
1.0
  0
SOLID
  5
21D0
330
21A8
100
AcDbEntity
  8
HATCH
  6
CONTINUOUS
 62
   251
100
AcDbTrace
 10
2550.846719504745
 20
6349.049436549646
 30
0.0
 11
2550.84671950473
 21
6266.018908746487
 31
0.0
 12
3893.123121563839
 22
5597.098600758847
 32
0.0
 13
3893.123121563839
 23
5597.098600758847
 33
0.0
210
0.0
220
0.0
230
1.0
  0
SOLID
  5
21D1
330
21A8
100
AcDbEntity
  8
HATCH
  6
CONTINUOUS
 62
   251
100
AcDbTrace
 10
2612.983685274939
 20
6202.209729195026
 30
0.0
 11
3825.773615501555
 21
5530.369326640165
 31
0.0
 12
3838.237878200549
 22
5544.815096859461
 32
0.0
 13
3838.237878200549
 23
5544.815096859461
 33
0.0
210
0.0
220
0.0
230
1.0
  0
SOLID
  5
21D2
330
21A8
100
AcDbEntity
  8
HATCH
  6
CONTINUOUS
 62
   251
100
AcDbTrace
 10
2612.983685274939
 20
6202.209729195026
 30
0.0
 11
3826.424696378767
 21
5522.433208440691
 31
0.0
 12
3825.773615501555
 22
5530.369326640165
 32
0.0
 13
3825.773615501555
 23
5530.369326640165
 33
0.0
210
0.0
220
0.0
230
1.0
  0
SOLID
  5
21D3
330
21A8
100
AcDbEntity
  8
HATCH
  6
CONTINUOUS
 62
   251
100
AcDbTrace
 10
2550.846719504732
 20
6266.018908746485
 30
0.0
 11
2612.983685274939
 21
6202.209729195026
 31
0.0
 12
3838.237878200549
 22
5544.815096859461
 32
0.0
 13
3838.237878200549
 23
5544.815096859461
 33
0.0
210
0.0
220
0.0
230
1.0
  0
SOLID
  5
21D4
330
21A8
100
AcDbEntity
  8
HATCH
  6
CONTINUOUS
 62
   251
100
AcDbTrace
 10
2626.621311006511
 20
2753.739712908708
 30
0.0
 11
2150.953769867734
 21
2751.639712908739
 31
0.0
 12
2626.621311006481
 22
2751.639712908723
 32
0.0
 13
2626.621311006481
 23
2751.639712908723
 33
0.0
210
0.0
220
0.0
230
1.0
  0
SOLID
  5
21D5
330
21A8
100
AcDbEntity
  8
HATCH
  6
CONTINUOUS
 62
   251
100
AcDbTrace
 10
2754.295882780501
 20
2753.739712908708
 30
0.0
 11
2754.295882780516
 21
2751.639712908719
 31
0.0
 12
3024.564705140447
 22
2751.63971290871
 32
0.0
 13
3024.564705140447
 23
2751.63971290871
 33
0.0
210
0.0
220
0.0
230
1.0
  0
SOLID
  5
21D6
330
21A8
100
AcDbEntity
  8
HATCH
  6
CONTINUOUS
 62
   251
100
AcDbTrace
 10
3826.424696378733
 20
3200.846217376685
 30
0.0
 11
2626.621311006511
 21
2753.739712908708
 31
0.0
 12
2754.295882780501
 22
2753.739712908708
 32
0.0
 13
2754.295882780501
 23
2753.739712908708
 33
0.0
  0
SOLID
  5
21D7
330
21A8
100
AcDbEntity
  8
HATCH
  6
CONTINUOUS
 62
   251
100
AcDbTrace
 10
3826.424696378733
 20
3200.846217376685
 30
0.0
 11
2754.295882780501
 21
2753.739712908708
 31
0.0
 12
3024.564705140447
 22
2751.63971290871
 32
0.0
 13
3024.564705140447
 23
2751.63971290871
 33
0.0
210
0.0
220
0.0
230
1.0
  0
SOLID
  5
21D8
330
21A8
100
AcDbEntity
  8
HATCH
  6
CONTINUOUS
 62
   251
100
AcDbTrace
 10
3832.286146235478
 20
3272.292270411595
 30
0.0
 11
2626.621311006511
 21
2753.739712908708
 31
0.0
 12
3826.424696378733
 22
3200.846217376685
 32
0.0
 13
3826.424696378733
 23
3200.846217376685
 33
0.0
210
0.0
220
0.0
230
1.0
  0
SOLID
  5
21D9
330
21A8
100
AcDbEntity
  8
HATCH
  6
CONTINUOUS
 62
   251
100
AcDbTrace
 10
3832.286146235478
 20
3272.292270411595
 30
0.0
 11
2150.953769867734
 21
2751.639712908739
 31
0.0
 12
2626.621311006511
 22
2753.739712908708
 32
0.0
 13
2626.621311006511
 23
2753.739712908708
 33
0.0
210
0.0
220
0.0
230
1.0
  0
SOLID
  5
21DA
330
21A8
100
AcDbEntity
  8
HATCH
  6
CONTINUOUS
 62
   251
100
AcDbTrace
 10
3889.928418694504
 20
3328.42394199671
 30
0.0
 11
2150.953769867734
 21
2751.639712908739
 31
0.0
 12
3832.286146235478
 22
3272.292270411595
 32
0.0
 13
3832.286146235478
 23
3272.292270411595
 33
0.0
210
0.0
220
0.0
230
1.0
  0
SOLID
  5
21DB
330
21A8
100
AcDbEntity
  8
HATCH
  6
CONTINUOUS
 62
   251
100
AcDbTrace
 10
4078.394810214429
 20
3342.001300936533
 30
0.0
 11
3889.928418694504
 21
3328.42394199671
 31
0.0
 12
3964.934371438051
 22
3328.42394199671
 32
0.0
 13
3964.934371438051
 23
3328.42394199671
 33
0.0
210
0.0
220
0.0
230
1.0
  0
SOLID
  5
21DC
330
21A8
100
AcDbEntity
  8
HATCH
  6
CONTINUOUS
 62
   251
100
AcDbTrace
 10
4078.394810214429
 20
3342.001300936533
 30
0.0
 11
3964.934371438051
 21
3328.42394199671
 31
0.0
 12
4009.546399290417
 22
3303.432031553767
 32
0.0
 13
4009.546399290417
 23
3303.432031553767
 33
0.0
210
0.0
220
0.0
230
1.0
  0
SOLID
  5
21DD
330
21A8
100
AcDbEntity
  8
HATCH
  6
CONTINUOUS
 62
   251
100
AcDbTrace
 10
4078.394810214422
 20
4361.639712908695
 30
0.0
 11
3889.928418694504
 21
3328.42394199671
 31
0.0
 12
4078.394810214429
 22
3342.001300936533
 32
0.0
 13
4078.394810214429
 23
3342.001300936533
 33
0.0
210
0.0
220
0.0
230
1.0
  0
SOLID
  5
21DE
330
21A8
100
AcDbEntity
  8
HATCH
  6
CONTINUOUS
 62
   251
100
AcDbTrace
 10
4078.394810214422
 20
4361.639712908695
 30
0.0
 11
2150.953769867734
 21
2751.639712908739
 31
0.0
 12
3889.928418694504
 22
3328.42394199671
 32
0.0
 13
3889.928418694504
 23
3328.42394199671
 33
0.0
210
0.0
220
0.0
230
1.0
  0
SOLID
  5
21DF
330
21A8
100
AcDbEntity
  8
HATCH
  6
CONTINUOUS
 62
   251
100
AcDbTrace
 10
2150.953769867768
 20
4361.639712908703
 30
0.0
 11
2150.953769867734
 21
2751.639712908739
 31
0.0
 12
4078.394810214422
 22
4361.639712908695
 32
0.0
 13
4078.394810214422
 23
4361.639712908695
 33
0.0
210
0.0
220
0.0
230
1.0
  0
SOLID
  5
21E0
330
21A8
100
AcDbEntity
  8
HATCH
  6
CONTINUOUS
 62
   251
100
AcDbTrace
 10
4404.005254666623
 20
5198.869311411074
 30
0.0
 11
4290.543681471723
 21
4361.639712908688
 31
0.0
 12
7527.534214126055
 22
4361.6397129086
 32
0.0
 13
7527.534214126055
 23
4361.6397129086
 33
0.0
210
0.0
220
0.0
230
1.0
  0
SOLID
  5
21E1
330
21A8
100
AcDbEntity
  8
HATCH
  6
CONTINUOUS
 62
   251
100
AcDbTrace
 10
4479.011207410218
 20
5198.869311411098
 30
0.0
 11
4404.005254666623
 21
5198.869311411074
 31
0.0
 12
7527.534214126055
 22
4361.6397129086
 32
0.0
 13
7527.534214126055
 23
4361.6397129086
 33
0.0
210
0.0
220
0.0
230
1.0
  0
SOLID
  5
21E2
330
21A8
100
AcDbEntity
  8
HATCH
  6
CONTINUOUS
 62
   251
100
AcDbTrace
 10
4536.653479869186
 20
5255.000982996271
 30
0.0
 11
4479.011207410218
 21
5198.869311411098
 31
0.0
 12
7527.534214126055
 22
4361.6397129086
 32
0.0
 13
7527.534214126055
 23
4361.6397129086
 33
0.0
210
0.0
220
0.0
230
1.0
  0
SOLID
  5
21E3
330
21A8
100
AcDbEntity
  8
HATCH
  6
CONTINUOUS
 62
   251
100
AcDbTrace
 10
4290.543681471766
 20
5262.43112674444
 30
0.0
 11
4290.543681471723
 21
4361.639712908688
 31
0.0
 12
4404.005254666623
 22
5198.869311411074
 32
0.0
 13
4404.005254666623
 23
5198.869311411074
 33
0.0
210
0.0
220
0.0
230
1.0
  0
SOLID
  5
21E4
330
21A8
100
AcDbEntity
  8
HATCH
  6
CONTINUOUS
 62
   251
100
AcDbTrace
 10
4543.166010603167
 20
5334.383154230626
 30
0.0
 11
4536.653479869186
 21
5255.000982996271
 31
0.0
 12
7527.534214126055
 22
4361.6397129086
 32
0.0
 13
7527.534214126055
 23
4361.6397129086
 33
0.0
210
0.0
220
0.0
230
1.0
  0
SOLID
  5
21E5
330
21A8
100
AcDbEntity
  8
HATCH
  6
CONTINUOUS
 62
   251
100
AcDbTrace
 10
4078.394810214462
 20
5381.278124880857
 30
0.0
 11
2150.953769867768
 21
4361.639712908703
 31
0.0
 12
4078.394810214422
 22
4361.639712908695
 32
0.0
 13
4078.394810214422
 23
4361.639712908695
 33
0.0
210
0.0
220
0.0
230
1.0
  0
SOLID
  5
21E6
330
21A8
100
AcDbEntity
  8
HATCH
  6
CONTINUOUS
 62
   251
100
AcDbTrace
 10
4494.733847433534
 20
5390.514825815769
 30
0.0
 11
4543.166010603167
 21
5334.383154230626
 31
0.0
 12
7527.534214126055
 22
4361.6397129086
 32
0.0
 13
7527.534214126055
 23
4361.6397129086
 33
0.0
210
0.0
220
0.0
230
1.0
  0
SOLID
  5
21E7
330
21A8
100
AcDbEntity
  8
HATCH
  6
CONTINUOUS
 62
   251
100
AcDbTrace
 10
3889.928418694547
 20
5394.85548382066
 30
0.0
 11
2150.953769867768
 21
4361.639712908703
 31
0.0
 12
4078.394810214462
 22
5381.278124880857
 32
0.0
 13
4078.394810214462
 23
5381.278124880857
 33
0.0
210
0.0
220
0.0
230
1.0
  0
SOLID
  5
21E8
330
21A8
100
AcDbEntity
  8
HATCH
  6
CONTINUOUS
 62
   251
100
AcDbTrace
 10
3964.934371438081
 20
5394.855483820665
 30
0.0
 11
3889.928418694547
 21
5394.85548382066
 31
0.0
 12
4078.394810214462
 22
5381.278124880857
 32
0.0
 13
4078.394810214462
 23
5381.278124880857
 33
0.0
210
0.0
220
0.0
230
1.0
  0
SOLID
  5
21E9
330
21A8
100
AcDbEntity
  8
HATCH
  6
CONTINUOUS
 62
   251
100
AcDbTrace
 10
4009.546399290484
 20
5419.847394263593
 30
0.0
 11
3964.934371438081
 21
5394.855483820665
 31
0.0
 12
4078.394810214462
 22
5381.278124880857
 32
0.0
 13
4078.394810214462
 23
5381.278124880857
 33
0.0
210
0.0
220
0.0
230
1.0
  0
SOLID
  5
21EA
330
21A8
100
AcDbEntity
  8
HATCH
  6
CONTINUOUS
 62
   251
100
AcDbTrace
 10
3832.286146235503
 20
5450.987155405773
 30
0.0
 11
2150.953769867768
 21
4361.639712908703
 31
0.0
 12
3889.928418694547
 22
5394.85548382066
 32
0.0
 13
3889.928418694547
 23
5394.85548382066
 33
0.0
210
0.0
220
0.0
230
1.0
  0
SOLID
  5
21EB
330
21A8
100
AcDbEntity
  8
HATCH
  6
CONTINUOUS
 62
   251
100
AcDbTrace
 10
4290.543681471777
 20
5504.903312210789
 30
0.0
 11
4494.733847433534
 21
5390.514825815769
 31
0.0
 12
7527.534214126055
 22
4361.6397129086
 32
0.0
 13
7527.534214126055
 23
4361.6397129086
 33
0.0
210
0.0
220
0.0
230
1.0
  0
SOLID
  5
21EC
330
21A8
100
AcDbEntity
  8
HATCH
  6
CONTINUOUS
 62
   251
100
AcDbTrace
 10
3826.424696378773
 20
5522.433208440689
 30
0.0
 11
2150.953769867768
 21
4361.639712908703
 31
0.0
 12
3832.286146235503
 22
5450.987155405773
 32
0.0
 13
3832.286146235503
 23
5450.987155405773
 33
0.0
210
0.0
220
0.0
230
1.0
  0
SOLID
  5
21ED
330
21A8
100
AcDbEntity
  8
HATCH
  6
CONTINUOUS
 62
   251
100
AcDbTrace
 10
4290.54368147178
 20
5577.263661782782
 30
0.0
 11
4290.543681471777
 21
5504.903312210789
 31
0.0
 12
7527.534214126055
 22
4361.6397129086
 32
0.0
 13
7527.534214126055
 23
4361.6397129086
 33
0.0
  0
SOLID
  5
21EE
330
21A8
100
AcDbEntity
  8
HATCH
  6
CONTINUOUS
 62
   251
100
AcDbTrace
 10
4078.394810214478
 20
5775.639712908702
 30
0.0
 11
4009.546399290484
 21
5662.31957972994
 31
0.0
 12
4078.394810214476
 22
5700.888849112734
 32
0.0
 13
4078.394810214476
 23
5700.888849112734
 33
0.0
210
0.0
220
0.0
230
1.0
  0
SOLID
  5
21EF
330
21A8
100
AcDbEntity
  8
HATCH
  6
CONTINUOUS
 62
   251
100
AcDbTrace
 10
4109.463293099572
 20
5775.639712908702
 30
0.0
 11
4184.469245843142
 21
5775.639712908681
 31
0.0
 12
4211.829492019507
 22
5775.6397129087
 32
0.0
 13
4211.829492019507
 23
5775.6397129087
 33
0.0
210
0.0
220
0.0
230
1.0
  0
SOLID
  5
21F0
330
21A8
100
AcDbEntity
  8
HATCH
  6
CONTINUOUS
 62
   251
100
AcDbTrace
 10
4319.290027413314
 20
5835.8397129087
 30
0.0
 11
4078.394810214478
 21
5775.639712908702
 31
0.0
 12
4109.463293099572
 22
5775.639712908702
 32
0.0
 13
4109.463293099572
 23
5775.639712908702
 33
0.0
210
0.0
220
0.0
230
1.0
  0
SOLID
  5
21F1
330
21A8
100
AcDbEntity
  8
HATCH
  6
CONTINUOUS
 62
   251
100
AcDbTrace
 10
4319.290027413314
 20
5835.8397129087
 30
0.0
 11
4109.463293099572
 21
5775.639712908702
 31
0.0
 12
4211.829492019507
 22
5775.6397129087
 32
0.0
 13
4211.829492019507
 23
5775.6397129087
 33
0.0
210
0.0
220
0.0
230
1.0
  0
SOLID
  5
21F2
330
21A8
100
AcDbEntity
  8
HATCH
  6
CONTINUOUS
 62
   251
100
AcDbTrace
 10
3699.802771167381
 20
5835.839712908729
 30
0.0
 11
4078.394810214478
 21
5775.639712908702
 31
0.0
 12
4319.290027413314
 22
5835.8397129087
 32
0.0
 13
4319.290027413314
 23
5835.8397129087
 33
0.0
210
0.0
220
0.0
230
1.0
  0
SOLID
  5
21F3
330
21A8
100
AcDbEntity
  8
HATCH
  6
CONTINUOUS
 62
   251
100
AcDbTrace
 10
3699.802771167381
 20
5835.839712908729
 30
0.0
 11
4009.546399290484
 21
5662.31957972994
 31
0.0
 12
4078.394810214478
 22
5775.639712908702
 32
0.0
 13
4078.394810214478
 23
5775.639712908702
 33
0.0
210
0.0
220
0.0
230
1.0
  0
SOLID
  5
21F4
330
21A8
100
AcDbEntity
  8
HATCH
  6
CONTINUOUS
 62
   251
100
AcDbTrace
 10
5672.451443536107
 20
5969.53971290867
 30
0.0
 11
4290.54368147178
 21
5577.263661782782
 31
0.0
 12
7527.534214126055
 22
4361.6397129086
 32
0.0
 13
7527.534214126055
 23
4361.6397129086
 33
0.0
210
0.0
220
0.0
230
1.0
  0
SOLID
  5
21F5
330
21A8
100
AcDbEntity
  8
HATCH
  6
CONTINUOUS
 62
   251
100
AcDbTrace
 10
5539.711232127226
 20
5969.539712908691
 30
0.0
 11
4290.54368147178
 21
5577.263661782782
 31
0.0
 12
5672.451443536107
 22
5969.53971290867
 32
0.0
 13
5672.451443536107
 23
5969.53971290867
 33
0.0
210
0.0
220
0.0
230
1.0
  0
SOLID
  5
21F6
330
21A8
100
AcDbEntity
  8
HATCH
  6
CONTINUOUS
 62
   251
100
AcDbTrace
 10
2754.295882780537
 20
5969.539712908719
 30
0.0
 11
2150.953769867768
 21
4361.639712908703
 31
0.0
 12
3826.424696378773
 22
5522.433208440689
 32
0.0
 13
3826.424696378773
 23
5522.433208440689
 33
0.0
210
0.0
220
0.0
230
1.0
  0
SOLID
  5
21F7
330
21A8
100
AcDbEntity
  8
HATCH
  6
CONTINUOUS
 62
   251
100
AcDbTrace
 10
2626.621311006525
 20
5969.53971290872
 30
0.0
 11
2150.953769867768
 21
4361.639712908703
 31
0.0
 12
2754.295882780537
 22
5969.539712908719
 32
0.0
 13
2754.295882780537
 23
5969.539712908719
 33
0.0
210
0.0
220
0.0
230
1.0
  0
SOLID
  5
21F8
330
21A8
100
AcDbEntity
  8
HATCH
  6
CONTINUOUS
 62
   251
100
AcDbTrace
 10
7527.534214126053
 20
5971.639712908622
 30
0.0
 11
5672.451443536107
 21
5969.53971290867
 31
0.0
 12
7527.534214126055
 22
4361.6397129086
 32
0.0
 13
7527.534214126055
 23
4361.6397129086
 33
0.0
210
0.0
220
0.0
230
1.0
  0
SOLID
  5
21F9
330
21A8
100
AcDbEntity
  8
HATCH
  6
CONTINUOUS
 62
   251
100
AcDbTrace
 10
5672.451443536141
 20
5971.639712908654
 30
0.0
 11
5672.451443536107
 21
5969.53971290867
 31
0.0
 12
7527.534214126053
 22
5971.639712908622
 32
0.0
 13
7527.534214126053
 23
5971.639712908622
 33
0.0
  0
SOLID
  5
21FA
330
21A8
100
AcDbEntity
  8
HATCH
  6
CONTINUOUS
 62
   251
100
AcDbTrace
 10
5539.711232127225
 20
5971.639712908657
 30
0.0
 11
4290.54368147178
 21
5577.263661782782
 31
0.0
 12
5539.711232127226
 22
5969.539712908691
 32
0.0
 13
5539.711232127226
 23
5969.539712908691
 33
0.0
210
0.0
220
0.0
230
1.0
  0
SOLID
  5
21FB
330
21A8
100
AcDbEntity
  8
HATCH
  6
CONTINUOUS
 62
   251
100
AcDbTrace
 10
4994.528093439793
 20
5971.639712908665
 30
0.0
 11
4290.54368147178
 21
5577.263661782782
 31
0.0
 12
5539.711232127225
 22
5971.639712908657
 32
0.0
 13
5539.711232127225
 23
5971.639712908657
 33
0.0
210
0.0
220
0.0
230
1.0
  0
SOLID
  5
21FC
330
21A8
100
AcDbEntity
  8
HATCH
  6
CONTINUOUS
 62
   251
100
AcDbTrace
 10
3024.564705140476
 20
5971.63971290871
 30
0.0
 11
2754.295882780537
 21
5969.539712908719
 31
0.0
 12
3826.424696378773
 22
5522.433208440689
 32
0.0
 13
3826.424696378773
 23
5522.433208440689
 33
0.0
210
0.0
220
0.0
230
1.0
  0
SOLID
  5
21FD
330
21A8
100
AcDbEntity
  8
HATCH
  6
CONTINUOUS
 62
   251
100
AcDbTrace
 10
2754.295882780558
 20
5971.639712908712
 30
0.0
 11
2754.295882780537
 21
5969.539712908719
 31
0.0
 12
3024.564705140476
 22
5971.63971290871
 32
0.0
 13
3024.564705140476
 23
5971.63971290871
 33
0.0
210
0.0
220
0.0
230
1.0
  0
SOLID
  5
21FE
330
21A8
100
AcDbEntity
  8
HATCH
  6
CONTINUOUS
 62
   251
100
AcDbTrace
 10
2626.621311006525
 20
5971.639712908713
 30
0.0
 11
2150.953769867768
 21
4361.639712908703
 31
0.0
 12
2626.621311006525
 22
5969.53971290872
 32
0.0
 13
2626.621311006525
 23
5969.53971290872
 33
0.0
210
0.0
220
0.0
230
1.0
  0
SOLID
  5
21FF
330
21A8
100
AcDbEntity
  8
HATCH
  6
CONTINUOUS
 62
   251
100
AcDbTrace
 10
2150.953769867777
 20
5971.639712908717
 30
0.0
 11
2150.953769867768
 21
4361.639712908703
 31
0.0
 12
2626.621311006525
 22
5971.639712908713
 32
0.0
 13
2626.621311006525
 23
5971.639712908713
 33
0.0
210
0.0
220
0.0
230
1.0
  0
SOLID
  5
2200
330
21A8
100
AcDbEntity
  8
HATCH
  6
CONTINUOUS
 62
   251
100
AcDbTrace
 10
4125.302817919958
 20
4361.639712908688
 30
0.0
 11
4109.463293099525
 21
2947.63971290871
 31
0.0
 12
4125.302817919958
 22
2947.639712908708
 32
0.0
 13
4125.302817919958
 23
2947.639712908708
 33
0.0
210
0.0
220
0.0
230
1.0
  0
SOLID
  5
2201
330
21A8
100
AcDbEntity
  8
HATCH
  6
CONTINUOUS
 62
   251
100
AcDbTrace
 10
4078.394810214422
 20
4361.639712908695
 30
0.0
 11
4109.463293099525
 21
2947.63971290871
 31
0.0
 12
4125.302817919958
 22
4361.639712908688
 32
0.0
 13
4125.302817919958
 23
4361.639712908688
 33
0.0
210
0.0
220
0.0
230
1.0
  0
SOLID
  5
2202
330
21A8
100
AcDbEntity
  8
HATCH
  6
CONTINUOUS
 62
   251
100
AcDbTrace
 10
4078.394810214422
 20
4361.639712908695
 30
0.0
 11
4078.394810214432
 21
2947.639712908701
 31
0.0
 12
4109.463293099525
 22
2947.63971290871
 32
0.0
 13
4109.463293099525
 23
2947.63971290871
 33
0.0
210
0.0
220
0.0
230
1.0
  0
SOLID
  5
2203
330
21A8
100
AcDbEntity
  8
HATCH
  6
CONTINUOUS
 62
   251
100
AcDbTrace
 10
4125.302817919999
 20
5775.639712908697
 30
0.0
 11
4078.394810214422
 21
4361.639712908695
 31
0.0
 12
4125.302817919958
 22
4361.639712908688
 32
0.0
 13
4125.302817919958
 23
4361.639712908688
 33
0.0
210
0.0
220
0.0
230
1.0
  0
SOLID
  5
2204
330
21A8
100
AcDbEntity
  8
HATCH
  6
CONTINUOUS
 62
   251
100
AcDbTrace
 10
4125.302817919999
 20
5775.639712908697
 30
0.0
 11
4109.463293099572
 21
5775.639712908702
 31
0.0
 12
4078.394810214478
 22
5775.639712908702
 32
0.0
 13
4078.394810214478
 23
5775.639712908702
 33
0.0
210
0.0
220
0.0
230
1.0
  0
SOLID
  5
2205
330
21A8
100
AcDbEntity
  8
HATCH
  6
CONTINUOUS
 62
   251
100
AcDbTrace
 10
4078.394810214478
 20
5775.639712908702
 30
0.0
 11
4078.394810214422
 21
4361.639712908695
 31
0.0
 12
4125.302817919999
 22
5775.639712908697
 32
0.0
 13
4125.302817919999
 23
5775.639712908697
 33
0.0
210
0.0
220
0.0
230
1.0
  0
SOLID
  5
2206
330
21A8
100
AcDbEntity
  8
HATCH
  6
CONTINUOUS
 62
   251
100
AcDbTrace
 10
4125.302817919958
 20
2947.639712908708
 30
0.0
 11
4184.469245843112
 21
2947.639712908701
 31
0.0
 12
4237.625550111163
 22
2947.639712908697
 32
0.0
 13
4237.625550111163
 23
2947.639712908697
 33
0.0
210
0.0
220
0.0
230
1.0
  0
SOLID
  5
2207
330
21A8
100
AcDbEntity
  8
HATCH
  6
CONTINUOUS
 62
   251
100
AcDbTrace
 10
4125.302817919958
 20
4361.639712908688
 30
0.0
 11
4125.302817919958
 21
2947.639712908708
 31
0.0
 12
4237.625550111163
 22
2947.639712908697
 32
0.0
 13
4237.625550111163
 23
2947.639712908697
 33
0.0
210
0.0
220
0.0
230
1.0
  0
SOLID
  5
2208
330
21A8
100
AcDbEntity
  8
HATCH
  6
CONTINUOUS
 62
   251
100
AcDbTrace
 10
4237.625550111163
 20
4361.639712908695
 30
0.0
 11
4125.302817919958
 21
4361.639712908688
 31
0.0
 12
4237.625550111163
 22
2947.639712908697
 32
0.0
 13
4237.625550111163
 23
2947.639712908697
 33
0.0
  0
SOLID
  5
2209
330
21A8
100
AcDbEntity
  8
HATCH
  6
CONTINUOUS
 62
   251
100
AcDbTrace
 10
4184.469245843142
 20
5775.639712908681
 30
0.0
 11
4125.302817919958
 21
4361.639712908688
 31
0.0
 12
4237.625550111163
 22
4361.639712908695
 32
0.0
 13
4237.625550111163
 23
4361.639712908695
 33
0.0
210
0.0
220
0.0
230
1.0
  0
SOLID
  5
220A
330
21A8
100
AcDbEntity
  8
HATCH
  6
CONTINUOUS
 62
   251
100
AcDbTrace
 10
4125.30281792
 20
5775.639712908697
 30
0.0
 11
4125.302817919958
 21
4361.639712908688
 31
0.0
 12
4184.469245843142
 22
5775.639712908681
 32
0.0
 13
4184.469245843142
 23
5775.639712908681
 33
0.0
210
0.0
220
0.0
230
1.0
  0
SOLID
  5
220B
330
21A8
100
AcDbEntity
  8
HATCH
  6
CONTINUOUS
 62
   251
100
AcDbTrace
 10
4237.625550111217
 20
5775.639712908716
 30
0.0
 11
4184.469245843142
 21
5775.639712908681
 31
0.0
 12
4237.625550111163
 22
4361.639712908695
 32
0.0
 13
4237.625550111163
 23
4361.639712908695
 33
0.0
210
0.0
220
0.0
230
1.0
  0
SOLID
  5
220C
330
21A8
100
AcDbEntity
  8
HATCH
  6
CONTINUOUS
 62
   251
100
AcDbTrace
 10
4237.625550111163
 20
2947.639712908697
 30
0.0
 11
4259.475198586641
 21
2947.639712908695
 31
0.0
 12
4290.543681471737
 22
2947.639712908695
 32
0.0
 13
4290.543681471737
 23
2947.639712908695
 33
0.0
210
0.0
220
0.0
230
1.0
  0
SOLID
  5
220D
330
21A8
100
AcDbEntity
  8
HATCH
  6
CONTINUOUS
 62
   251
100
AcDbTrace
 10
4290.543681471723
 20
4361.639712908688
 30
0.0
 11
4237.625550111163
 21
2947.639712908697
 31
0.0
 12
4290.543681471737
 22
2947.639712908695
 32
0.0
 13
4290.543681471737
 23
2947.639712908695
 33
0.0
210
0.0
220
0.0
230
1.0
  0
SOLID
  5
220E
330
21A8
100
AcDbEntity
  8
HATCH
  6
CONTINUOUS
 62
   251
100
AcDbTrace
 10
4237.625550111163
 20
4361.639712908695
 30
0.0
 11
4237.625550111163
 21
2947.639712908697
 31
0.0
 12
4290.543681471723
 22
4361.639712908688
 32
0.0
 13
4290.543681471723
 23
4361.639712908688
 33
0.0
210
0.0
220
0.0
230
1.0
  0
SOLID
  5
220F
330
21A8
100
AcDbEntity
  8
HATCH
  6
CONTINUOUS
 62
   251
100
AcDbTrace
 10
4078.394810214475
 20
5658.870089959752
 30
0.0
 11
3874.205778671166
 21
5586.500998225365
 31
0.0
 12
3949.211731414754
 22
5586.50099822535
 32
0.0
 13
3949.211731414754
 23
5586.50099822535
 33
0.0
210
0.0
220
0.0
230
1.0
  0
SOLID
  5
2210
330
21A8
100
AcDbEntity
  8
HATCH
  6
CONTINUOUS
 62
   251
100
AcDbTrace
 10
4078.394810214476
 20
5700.888849112736
 30
0.0
 11
3874.205778671166
 21
5586.500998225365
 31
0.0
 12
4078.394810214475
 22
5658.870089959752
 32
0.0
 13
4078.394810214475
 23
5658.870089959752
 33
0.0
210
0.0
220
0.0
230
1.0
  0
SOLID
  5
2211
330
21A8
100
AcDbEntity
  8
HATCH
  6
CONTINUOUS
 62
   251
100
AcDbTrace
 10
4237.625550111217
 20
5775.639712908717
 30
0.0
 11
4237.625550111163
 21
4361.639712908695
 31
0.0
 12
4290.543681471723
 22
4361.639712908688
 32
0.0
 13
4290.543681471723
 23
4361.639712908688
 33
0.0
210
0.0
220
0.0
230
1.0
  0
SOLID
  5
2212
330
21A8
100
AcDbEntity
  8
HATCH
  6
CONTINUOUS
 62
   251
100
AcDbTrace
 10
4237.625550111217
 20
5775.639712908717
 30
0.0
 11
4290.543681471791
 21
5775.639712908732
 31
0.0
 12
4259.4751985867
 22
5775.639712908732
 32
0.0
 13
4259.4751985867
 23
5775.639712908732
 33
0.0
210
0.0
220
0.0
230
1.0
  0
SOLID
  5
2213
330
21A8
100
AcDbEntity
  8
HATCH
  6
CONTINUOUS
 62
   251
100
AcDbTrace
 10
4290.543681471791
 20
5775.639712908732
 30
0.0
 11
4237.625550111217
 21
5775.639712908717
 31
0.0
 12
4290.543681471723
 22
4361.639712908688
 32
0.0
 13
4290.543681471723
 23
4361.639712908688
 33
0.0
210
0.0
220
0.0
230
1.0
  0
SOLID
  5
2214
330
21A8
100
AcDbEntity
  8
HATCH
  6
CONTINUOUS
 62
   251
100
AcDbTrace
 10
4078.394810214475
 20
5658.870089959753
 30
0.0
 11
3949.211731414753
 21
5586.50099822535
 31
0.0
 12
4078.39481021447
 22
5570.446891170591
 32
0.0
 13
4078.39481021447
 23
5570.446891170591
 33
0.0
210
0.0
220
0.0
230
1.0
  0
SOLID
  5
2215
330
21A8
100
AcDbEntity
  8
HATCH
  6
CONTINUOUS
 62
   251
100
AcDbTrace
 10
4006.854003873723
 20
5530.36932664018
 30
0.0
 11
4078.39481021447
 21
5570.446891170591
 31
0.0
 12
3949.211731414753
 22
5586.50099822535
 32
0.0
 13
3949.211731414753
 23
5586.50099822535
 33
0.0
210
0.0
220
0.0
230
1.0
  0
SOLID
  5
2216
330
21A8
100
AcDbEntity
  8
HATCH
  6
CONTINUOUS
 62
   251
100
AcDbTrace
 10
4078.39481021447
 20
5570.446891170591
 30
0.0
 11
4006.854003873723
 21
5530.36932664018
 31
0.0
 12
4078.394810214467
 22
5487.416363367447
 32
0.0
 13
4078.394810214467
 23
5487.416363367447
 33
0.0
210
0.0
220
0.0
230
1.0
  0
SOLID
  5
2217
330
21A8
100
AcDbEntity
  8
HATCH
  6
CONTINUOUS
 62
   251
100
AcDbTrace
 10
4013.366534607722
 20
5450.987155405801
 30
0.0
 11
4078.394810214467
 21
5487.416363367447
 31
0.0
 12
4006.854003873723
 22
5530.36932664018
 32
0.0
 13
4006.854003873723
 23
5530.36932664018
 33
0.0
210
0.0
220
0.0
230
1.0
  0
SOLID
  5
2218
330
21A8
100
AcDbEntity
  8
HATCH
  6
CONTINUOUS
 62
   251
100
AcDbTrace
 10
4419.727894689996
 20
5390.514825815785
 30
0.0
 11
4290.543681471771
 21
5374.461354268587
 31
0.0
 12
4362.085622230988
 22
5334.383154230616
 32
0.0
 13
4362.085622230988
 23
5334.383154230616
 33
0.0
210
0.0
220
0.0
230
1.0
  0
SOLID
  5
2219
330
21A8
100
AcDbEntity
  8
HATCH
  6
CONTINUOUS
 62
   251
100
AcDbTrace
 10
4013.366534607721
 20
5450.987155405799
 30
0.0
 11
3964.934371438076
 21
5394.855483820664
 31
0.0
 12
4009.546399290484
 22
5419.847394263594
 32
0.0
 13
4009.546399290484
 23
5419.847394263594
 33
0.0
210
0.0
220
0.0
230
1.0
  0
SOLID
  5
221A
330
21A8
100
AcDbEntity
  8
HATCH
  6
CONTINUOUS
 62
   251
100
AcDbTrace
 10
4078.394810214465
 20
5458.416663646413
 30
0.0
 11
4013.366534607721
 21
5450.987155405799
 31
0.0
 12
4009.546399290484
 22
5419.847394263594
 32
0.0
 13
4009.546399290484
 23
5419.847394263594
 33
0.0
210
0.0
220
0.0
230
1.0
  0
SOLID
  5
221B
330
21A8
100
AcDbEntity
  8
HATCH
  6
CONTINUOUS
 62
   251
100
AcDbTrace
 10
4290.543681471775
 20
5462.884553057795
 30
0.0
 11
4290.543681471771
 21
5374.461354268587
 31
0.0
 12
4419.727894689996
 22
5390.514825815785
 32
0.0
 13
4419.727894689996
 23
5390.514825815785
 33
0.0
210
0.0
220
0.0
230
1.0
  0
SOLID
  5
221C
330
21A8
100
AcDbEntity
  8
HATCH
  6
CONTINUOUS
 62
   251
100
AcDbTrace
 10
4290.543681471775
 20
5462.884553057795
 30
0.0
 11
4419.727894689998
 21
5390.514825815785
 31
0.0
 12
4494.733847433536
 22
5390.51482581577
 32
0.0
 13
4494.733847433536
 23
5390.51482581577
 33
0.0
210
0.0
220
0.0
230
1.0
  0
SOLID
  5
221D
330
21A8
100
AcDbEntity
  8
HATCH
  6
CONTINUOUS
 62
   251
100
AcDbTrace
 10
4078.394810214466
 20
5487.416363367446
 30
0.0
 11
4013.366534607721
 21
5450.987155405799
 31
0.0
 12
4078.394810214465
 22
5458.416663646413
 32
0.0
 13
4078.394810214465
 23
5458.416663646413
 33
0.0
210
0.0
220
0.0
230
1.0
  0
SOLID
  5
221E
330
21A8
100
AcDbEntity
  8
HATCH
  6
CONTINUOUS
 62
   251
100
AcDbTrace
 10
4290.543681471777
 20
5504.903312210789
 30
0.0
 11
4290.543681471775
 21
5462.884553057795
 31
0.0
 12
4494.733847433536
 22
5390.51482581577
 32
0.0
 13
4494.733847433536
 23
5390.51482581577
 33
0.0
210
0.0
220
0.0
230
1.0
  0
SOLID
  5
221F
330
21A8
100
AcDbEntity
  8
HATCH
  6
CONTINUOUS
 62
   251
100
AcDbTrace
 10
4362.085622230961
 20
5334.383154230632
 30
0.0
 11
4290.543681471771
 21
5374.461354268587
 31
0.0
 12
4355.573091496967
 22
5255.000982996232
 32
0.0
 13
4355.573091496967
 23
5255.000982996232
 33
0.0
210
0.0
220
0.0
230
1.0
  0
SOLID
  5
2220
330
21A8
100
AcDbEntity
  8
HATCH
  6
CONTINUOUS
 62
   251
100
AcDbTrace
 10
4290.543681471769
 20
5291.43082646545
 30
0.0
 11
4355.573091496967
 21
5255.000982996232
 31
0.0
 12
4290.543681471771
 22
5374.461354268587
 32
0.0
 13
4290.543681471771
 23
5374.461354268587
 33
0.0
210
0.0
220
0.0
230
1.0
  0
SOLID
  5
2221
330
21A8
100
AcDbEntity
  8
HATCH
  6
CONTINUOUS
 62
   251
100
AcDbTrace
 10
2800.565135230829
 20
2626.153886329403
 30
0.0
 11
2626.621311006466
 21
2555.694870395696
 31
0.0
 12
2693.024175547506
 22
2565.908832187376
 32
0.0
 13
2693.024175547506
 23
2565.908832187376
 33
0.0
210
0.0
220
0.0
230
1.0
  0
SOLID
  5
2222
330
21A8
100
AcDbEntity
  8
HATCH
  6
CONTINUOUS
 62
   251
100
AcDbTrace
 10
3024.564705140448
 20
2751.63971290871
 30
0.0
 11
2612.98368527489
 21
2521.069696622401
 31
0.0
 12
2550.846719504685
 22
2457.260517070923
 32
0.0
 13
2550.846719504685
 23
2457.260517070923
 33
0.0
210
0.0
220
0.0
230
1.0
  0
SOLID
  5
2223
330
21A8
100
AcDbEntity
  8
HATCH
  6
CONTINUOUS
 62
   251
100
AcDbTrace
 10
2800.56513523088
 20
2751.639712908717
 30
0.0
 11
2626.621311006466
 21
2555.694870395696
 31
0.0
 12
2800.565135230829
 22
2626.153886329403
 32
0.0
 13
2800.565135230829
 23
2626.153886329403
 33
0.0
210
0.0
220
0.0
230
1.0
  0
SOLID
  5
2224
330
21A8
100
AcDbEntity
  8
HATCH
  6
CONTINUOUS
 62
   251
100
AcDbTrace
 10
2626.621311006481
 20
2751.639712908723
 30
0.0
 11
2626.621311006466
 21
2555.694870395696
 31
0.0
 12
2800.56513523088
 22
2751.639712908717
 32
0.0
 13
2800.56513523088
 23
2751.639712908717
 33
0.0
210
0.0
220
0.0
230
1.0
  0
SOLID
  5
2225
330
21A8
100
AcDbEntity
  8
HATCH
  6
CONTINUOUS
 62
   251
100
AcDbTrace
 10
5539.711232127153
 20
2753.739712908643
 30
0.0
 11
4994.528093439736
 21
2751.63971290868
 31
0.0
 12
5539.711232127161
 22
2751.639712908669
 32
0.0
 13
5539.711232127161
 23
2751.639712908669
 33
0.0
  0
SOLID
  5
2226
330
21A8
100
AcDbEntity
  8
HATCH
  6
CONTINUOUS
 62
   251
100
AcDbTrace
 10
5672.451443536065
 20
2753.739712908664
 30
0.0
 11
5672.451443536065
 21
2751.639712908652
 31
0.0
 12
7527.534214126013
 22
2751.63971290863
 32
0.0
 13
7527.534214126013
 23
2751.63971290863
 33
0.0
210
0.0
220
0.0
230
1.0
  0
SOLID
  5
2227
330
21A8
100
AcDbEntity
  8
HATCH
  6
CONTINUOUS
 62
   251
100
AcDbTrace
 10
4290.543681471734
 20
3146.015764034495
 30
0.0
 11
5539.711232127153
 21
2753.739712908643
 31
0.0
 12
5672.451443536065
 22
2753.739712908664
 32
0.0
 13
5672.451443536065
 23
2753.739712908664
 33
0.0
210
0.0
220
0.0
230
1.0
  0
SOLID
  5
2228
330
21A8
100
AcDbEntity
  8
HATCH
  6
CONTINUOUS
 62
   251
100
AcDbTrace
 10
4290.543681471734
 20
3146.015764034495
 30
0.0
 11
4994.528093439736
 21
2751.63971290868
 31
0.0
 12
5539.711232127153
 22
2753.739712908643
 32
0.0
 13
5539.711232127153
 23
2753.739712908643
 33
0.0
210
0.0
220
0.0
230
1.0
  0
SOLID
  5
2229
330
21A8
100
AcDbEntity
  8
HATCH
  6
CONTINUOUS
 62
   251
100
AcDbTrace
 10
3838.237878200558
 20
3178.464328957917
 30
0.0
 11
3024.564705140448
 21
2751.63971290871
 31
0.0
 12
2550.846719504685
 22
2457.260517070923
 32
0.0
 13
2550.846719504685
 23
2457.260517070923
 33
0.0
210
0.0
220
0.0
230
1.0
  0
SOLID
  5
222A
330
21A8
100
AcDbEntity
  8
HATCH
  6
CONTINUOUS
 62
   251
100
AcDbTrace
 10
3825.773615501522
 20
3192.91009917726
 30
0.0
 11
3024.564705140448
 21
2751.63971290871
 31
0.0
 12
3838.237878200558
 22
3178.464328957917
 32
0.0
 13
3838.237878200558
 23
3178.464328957917
 33
0.0
210
0.0
220
0.0
230
1.0
  0
SOLID
  5
222B
330
21A8
100
AcDbEntity
  8
HATCH
  6
CONTINUOUS
 62
   251
100
AcDbTrace
 10
3826.424696378732
 20
3200.846217376685
 30
0.0
 11
3024.564705140448
 21
2751.63971290871
 31
0.0
 12
3825.773615501522
 22
3192.91009917726
 32
0.0
 13
3825.773615501522
 23
3192.91009917726
 33
0.0
  0
SOLID
  5
222C
330
21A8
100
AcDbEntity
  8
HATCH
  6
CONTINUOUS
 62
   251
100
AcDbTrace
 10
4290.543681471734
 20
3218.376113606625
 30
0.0
 11
4290.543681471734
 21
3146.015764034495
 31
0.0
 12
5672.451443536065
 22
2753.739712908664
 32
0.0
 13
5672.451443536065
 23
2753.739712908664
 33
0.0
210
0.0
220
0.0
230
1.0
  0
SOLID
  5
222D
330
21A8
100
AcDbEntity
  8
HATCH
  6
CONTINUOUS
 62
   251
100
AcDbTrace
 10
4290.543681471734
 20
3218.376113606625
 30
0.0
 11
5672.451443536065
 21
2753.739712908664
 31
0.0
 12
7527.534214126013
 22
2751.63971290863
 32
0.0
 13
7527.534214126013
 23
2751.63971290863
 33
0.0
210
0.0
220
0.0
230
1.0
  0
SOLID
  5
222E
330
21A8
100
AcDbEntity
  8
HATCH
  6
CONTINUOUS
 62
   251
100
AcDbTrace
 10
4494.733847433501
 20
3332.76460000162
 30
0.0
 11
4290.543681471734
 21
3218.376113606625
 31
0.0
 12
7527.534214126013
 22
2751.63971290863
 32
0.0
 13
7527.534214126013
 23
2751.63971290863
 33
0.0
210
0.0
220
0.0
230
1.0
  0
SOLID
  5
222F
330
21A8
100
AcDbEntity
  8
HATCH
  6
CONTINUOUS
 62
   251
100
AcDbTrace
 10
4543.166010603145
 20
3388.896271586757
 30
0.0
 11
4494.733847433501
 21
3332.76460000162
 31
0.0
 12
7527.534214126013
 22
2751.63971290863
 32
0.0
 13
7527.534214126013
 23
2751.63971290863
 33
0.0
210
0.0
220
0.0
230
1.0
  0
SOLID
  5
2230
330
21A8
100
AcDbEntity
  8
HATCH
  6
CONTINUOUS
 62
   251
100
AcDbTrace
 10
4536.653479869154
 20
3468.278442821162
 30
0.0
 11
4543.166010603145
 21
3388.896271586757
 31
0.0
 12
7527.534214126013
 22
2751.63971290863
 32
0.0
 13
7527.534214126013
 23
2751.63971290863
 33
0.0
210
0.0
220
0.0
230
1.0
  0
SOLID
  5
2231
330
21A8
100
AcDbEntity
  8
HATCH
  6
CONTINUOUS
 62
   251
100
AcDbTrace
 10
4479.011207410222
 20
3524.410114406263
 30
0.0
 11
4536.653479869154
 21
3468.278442821162
 31
0.0
 12
7527.534214126013
 22
2751.63971290863
 32
0.0
 13
7527.534214126013
 23
2751.63971290863
 33
0.0
210
0.0
220
0.0
230
1.0
  0
SOLID
  5
2232
330
21A8
100
AcDbEntity
  8
HATCH
  6
CONTINUOUS
 62
   251
100
AcDbTrace
 10
7527.534214126045
 20
4361.6397129086
 30
0.0
 11
4404.005254666579
 21
3524.410114406277
 31
0.0
 12
4479.011207410222
 22
3524.410114406263
 32
0.0
 13
4479.011207410222
 23
3524.410114406263
 33
0.0
210
0.0
220
0.0
230
1.0
  0
SOLID
  5
2233
330
21A8
100
AcDbEntity
  8
HATCH
  6
CONTINUOUS
 62
   251
100
AcDbTrace
 10
7527.534214126045
 20
4361.6397129086
 30
0.0
 11
4479.011207410222
 21
3524.410114406263
 31
0.0
 12
7527.534214126013
 22
2751.63971290863
 32
0.0
 13
7527.534214126013
 23
2751.63971290863
 33
0.0
210
0.0
220
0.0
230
1.0
  0
SOLID
  5
2234
330
21A8
100
AcDbEntity
  8
HATCH
  6
CONTINUOUS
 62
   251
100
AcDbTrace
 10
4290.543681471723
 20
4361.639712908687
 30
0.0
 11
4404.005254666579
 21
3524.410114406277
 31
0.0
 12
7527.534214126045
 22
4361.6397129086
 32
0.0
 13
7527.534214126045
 23
4361.6397129086
 33
0.0
210
0.0
220
0.0
230
1.0
  0
SOLID
  5
2235
330
21A8
100
AcDbEntity
  8
HATCH
  6
CONTINUOUS
 62
   251
100
AcDbTrace
 10
4290.543681471723
 20
4361.639712908687
 30
0.0
 11
4290.543681471731
 21
3460.848299072903
 31
0.0
 12
4404.005254666579
 22
3524.410114406277
 32
0.0
 13
4404.005254666579
 23
3524.410114406277
 33
0.0
  0
SOLID
  5
2236
330
21A8
100
AcDbEntity
  8
HATCH
  6
CONTINUOUS
 62
   251
100
AcDbTrace
 10
4290.543681471766
 20
5262.43112674444
 30
0.0
 11
4404.005254666622
 21
5198.869311411077
 31
0.0
 12
4355.573091496966
 22
5255.000982996232
 32
0.0
 13
4355.573091496966
 23
5255.000982996232
 33
0.0
210
0.0
220
0.0
230
1.0
  0
SOLID
  5
2237
330
21A8
100
AcDbEntity
  8
HATCH
  6
CONTINUOUS
 62
   251
100
AcDbTrace
 10
4290.543681471768
 20
5291.430826465449
 30
0.0
 11
4290.543681471766
 21
5262.43112674444
 31
0.0
 12
4355.573091496966
 22
5255.000982996232
 32
0.0
 13
4355.573091496966
 23
5255.000982996232
 33
0.0
210
0.0
220
0.0
230
1.0
  0
SOLID
  5
2238
330
21A8
100
AcDbEntity
  8
HATCH
  6
CONTINUOUS
 62
   251
100
AcDbTrace
 10
3893.12312156378
 20
3126.180825058583
 30
0.0
 11
2550.846719504686
 21
2457.260517070924
 31
0.0
 12
2550.846719504701
 22
2374.229989267735
 32
0.0
 13
2550.846719504701
 23
2374.229989267735
 33
0.0
210
0.0
220
0.0
230
1.0
  0
SOLID
  5
2239
330
21A8
100
AcDbEntity
  8
HATCH
  6
CONTINUOUS
 62
   251
100
AcDbTrace
 10
3874.205778671142
 20
3136.778427592044
 30
0.0
 11
2550.846719504686
 21
2457.260517070924
 31
0.0
 12
3893.12312156378
 22
3126.180825058583
 32
0.0
 13
3893.12312156378
 23
3126.180825058583
 33
0.0
210
0.0
220
0.0
230
1.0
  0
SOLID
  5
223A
330
21A8
100
AcDbEntity
  8
HATCH
  6
CONTINUOUS
 62
   251
100
AcDbTrace
 10
3838.237878200558
 20
3178.464328957918
 30
0.0
 11
2550.846719504686
 21
2457.260517070924
 31
0.0
 12
3874.205778671142
 22
3136.778427592044
 32
0.0
 13
3874.205778671142
 23
3136.778427592044
 33
0.0
210
0.0
220
0.0
230
1.0
  0
SOLID
  5
223B
330
21A8
100
AcDbEntity
  8
HATCH
  6
CONTINUOUS
 62
   251
100
AcDbTrace
 10
3972.043422918668
 20
3081.969225663956
 30
0.0
 11
3893.12312156378
 21
3126.180825058582
 31
0.0
 12
2612.98368527491
 22
2320.616270309077
 32
0.0
 13
2612.98368527491
 23
2320.616270309077
 33
0.0
  0
SOLID
  5
223C
330
21A8
100
AcDbEntity
  8
HATCH
  6
CONTINUOUS
 62
   251
100
AcDbTrace
 10
2550.846719504701
 20
2374.229989267735
 30
0.0
 11
2612.98368527491
 21
2320.616270309077
 31
0.0
 12
3893.12312156378
 22
3126.180825058582
 32
0.0
 13
3893.12312156378
 23
3126.180825058582
 33
0.0
210
0.0
220
0.0
230
1.0
  0
SOLID
  5
223D
330
21A8
100
AcDbEntity
  8
HATCH
  6
CONTINUOUS
 62
   251
100
AcDbTrace
 10
4009.546399290416
 20
3060.959846087492
 30
0.0
 11
2612.98368527491
 21
2320.616270309077
 31
0.0
 12
2700.858624991782
 22
2327.825549631528
 32
0.0
 13
2700.858624991782
 23
2327.825549631528
 33
0.0
210
0.0
220
0.0
230
1.0
  0
SOLID
  5
223E
330
21A8
100
AcDbEntity
  8
HATCH
  6
CONTINUOUS
 62
   251
100
AcDbTrace
 10
3972.043422918668
 20
3081.969225663956
 30
0.0
 11
2612.98368527491
 21
2320.616270309077
 31
0.0
 12
4009.546399290416
 22
3060.959846087492
 32
0.0
 13
4009.546399290416
 23
3060.959846087492
 33
0.0
210
0.0
220
0.0
230
1.0
  0
SOLID
  5
223F
330
21A8
100
AcDbEntity
  8
HATCH
  6
CONTINUOUS
 62
   251
100
AcDbTrace
 10
3949.211731414683
 20
3136.778427592045
 30
0.0
 11
4078.394810214432
 21
3022.390576704683
 31
0.0
 12
4078.39481021443
 22
3064.409335857609
 32
0.0
 13
4078.39481021443
 23
3064.409335857609
 33
0.0
  0
SOLID
  5
2240
330
21A8
100
AcDbEntity
  8
HATCH
  6
CONTINUOUS
 62
   251
100
AcDbTrace
 10
3874.205778671139
 20
3136.778427592046
 30
0.0
 11
4078.394810214432
 21
3022.390576704683
 31
0.0
 12
3949.211731414683
 22
3136.778427592045
 32
0.0
 13
3949.211731414683
 23
3136.778427592045
 33
0.0
210
0.0
220
0.0
230
1.0
  0
SOLID
  5
2241
330
21A8
100
AcDbEntity
  8
HATCH
  6
CONTINUOUS
 62
   251
100
AcDbTrace
 10
4006.854003873701
 20
3192.91009917716
 30
0.0
 11
3949.211731414684
 21
3136.778427592046
 31
0.0
 12
4078.39481021443
 22
3152.832534646831
 32
0.0
 13
4078.39481021443
 23
3152.832534646831
 33
0.0
210
0.0
220
0.0
230
1.0
  0
SOLID
  5
2242
330
21A8
100
AcDbEntity
  8
HATCH
  6
CONTINUOUS
 62
   251
100
AcDbTrace
 10
4078.394810214431
 20
3064.409335857609
 30
0.0
 11
4078.39481021443
 21
3152.832534646831
 31
0.0
 12
3949.211731414684
 22
3136.778427592046
 32
0.0
 13
3949.211731414684
 23
3136.778427592046
 33
0.0
210
0.0
220
0.0
230
1.0
  0
SOLID
  5
2243
330
21A8
100
AcDbEntity
  8
HATCH
  6
CONTINUOUS
 62
   251
100
AcDbTrace
 10
4078.394810214429
 20
3235.863062449972
 30
0.0
 11
4006.854003873701
 21
3192.91009917716
 31
0.0
 12
4078.39481021443
 22
3152.832534646831
 32
0.0
 13
4078.39481021443
 23
3152.832534646831
 33
0.0
210
0.0
220
0.0
230
1.0
  0
SOLID
  5
2244
330
21A8
100
AcDbEntity
  8
HATCH
  6
CONTINUOUS
 62
   251
100
AcDbTrace
 10
4013.366534607684
 20
3272.292270411587
 30
0.0
 11
4006.854003873701
 21
3192.91009917716
 31
0.0
 12
4078.394810214429
 22
3235.863062449972
 32
0.0
 13
4078.394810214429
 23
3235.863062449972
 33
0.0
210
0.0
220
0.0
230
1.0
  0
SOLID
  5
2245
330
21A8
100
AcDbEntity
  8
HATCH
  6
CONTINUOUS
 62
   251
100
AcDbTrace
 10
4013.366534607685
 20
3272.292270411588
 30
0.0
 11
4078.394810214429
 21
3235.863062449974
 31
0.0
 12
4078.39481021443
 22
3264.862762170993
 32
0.0
 13
4078.39481021443
 23
3264.862762170993
 33
0.0
210
0.0
220
0.0
230
1.0
  0
SOLID
  5
2246
330
21A8
100
AcDbEntity
  8
HATCH
  6
CONTINUOUS
 62
   251
100
AcDbTrace
 10
4035.429482830987
 20
3288.932181693266
 30
0.0
 11
4035.429482830987
 21
3288.932181693265
 31
0.0
 12
4078.39481021443
 22
3264.862762170993
 32
0.0
 13
4078.39481021443
 23
3264.862762170993
 33
0.0
210
0.0
220
0.0
230
1.0
  0
SOLID
  5
2247
330
21A8
100
AcDbEntity
  8
HATCH
  6
CONTINUOUS
 62
   251
100
AcDbTrace
 10
4009.546399290433
 20
3303.432031553777
 30
0.0
 11
4035.429482830987
 21
3288.932181693265
 31
0.0
 12
4035.429482830987
 22
3288.932181693266
 32
0.0
 13
4035.429482830987
 23
3288.932181693266
 33
0.0
210
0.0
220
0.0
230
1.0
  0
SOLID
  5
2248
330
21A8
100
AcDbEntity
  8
HATCH
  6
CONTINUOUS
 62
   251
100
AcDbTrace
 10
-4078.394810214429
 20
3313.001601215542
 30
0.0
 11
-4035.429482830987
 21
3288.932181693265
 31
0.0
 12
-4009.546399290433
 22
3303.432031553777
 32
0.0
 13
-4009.546399290433
 23
3303.432031553777
 33
0.0
210
0.0
220
0.0
230
-1.0
  0
SOLID
  5
2249
330
21A8
100
AcDbEntity
  8
HATCH
  6
CONTINUOUS
 62
   251
100
AcDbTrace
 10
4355.573091496947
 20
3468.278442821171
 30
0.0
 11
4290.543681471732
 21
3431.848599351903
 31
0.0
 12
4362.085622230934
 22
3388.896271586772
 32
0.0
 13
4362.085622230934
 23
3388.896271586772
 33
0.0
210
0.0
220
0.0
230
1.0
  0
SOLID
  5
224A
330
21A8
100
AcDbEntity
  8
HATCH
  6
CONTINUOUS
 62
   251
100
AcDbTrace
 10
4290.543681471733
 20
3348.81807154879
 30
0.0
 11
4362.085622230934
 21
3388.896271586772
 31
0.0
 12
4290.543681471732
 22
3431.848599351903
 32
0.0
 13
4290.543681471732
 23
3431.848599351903
 33
0.0
  0
SOLID
  5
224B
330
21A8
100
AcDbEntity
  8
HATCH
  6
CONTINUOUS
 62
   251
100
AcDbTrace
 10
5469.353714947265
 20
2485.639712908664
 30
0.0
 11
5818.091772181284
 21
2261.274980168304
 31
0.0
 12
5755.954806411081
 22
2325.084159719768
 32
0.0
 13
5755.954806411081
 23
2325.084159719768
 33
0.0
210
0.0
220
0.0
230
1.0
  0
SOLID
  5
224C
330
21A8
100
AcDbEntity
  8
HATCH
  6
CONTINUOUS
 62
   251
100
AcDbTrace
 10
5467.483230153867
 20
2486.687569074183
 30
0.0
 11
5818.091772181284
 21
2261.274980168304
 31
0.0
 12
5469.353714947265
 22
2485.639712908664
 32
0.0
 13
5469.353714947265
 23
2485.639712908664
 33
0.0
210
0.0
220
0.0
230
1.0
  0
SOLID
  5
224D
330
21A8
100
AcDbEntity
  8
HATCH
  6
CONTINUOUS
 62
   251
100
AcDbTrace
 10
4290.543681471734
 20
3117.016064313521
 30
0.0
 11
5818.091772181284
 21
2261.274980168304
 31
0.0
 12
5467.483230153867
 22
2486.687569074183
 32
0.0
 13
5467.483230153867
 23
2486.687569074183
 33
0.0
210
0.0
220
0.0
230
1.0
  0
SOLID
  5
224E
330
21A8
100
AcDbEntity
  8
HATCH
  6
CONTINUOUS
 62
   251
100
AcDbTrace
 10
4290.543681471734
 20
3146.015764034495
 30
0.0
 11
4290.543681471734
 21
3117.016064313521
 31
0.0
 12
5467.483230153867
 22
2486.687569074183
 32
0.0
 13
5467.483230153867
 23
2486.687569074183
 33
0.0
210
0.0
220
0.0
230
1.0
  0
SOLID
  5
224F
330
21A8
100
AcDbEntity
  8
HATCH
  6
CONTINUOUS
 62
   251
100
AcDbTrace
 10
4290.543681471733
 20
3260.394872759597
 30
0.0
 11
4290.543681471732
 21
3218.376113606624
 31
0.0
 12
4290.543681471733
 22
3260.394872759597
 32
0.0
 13
4290.543681471733
 23
3260.394872759597
 33
0.0
210
0.0
220
0.0
230
1.0
  0
SOLID
  5
2250
330
21A8
100
AcDbEntity
  8
HATCH
  6
CONTINUOUS
 62
   251
100
AcDbTrace
 10
4419.727894689969
 20
3332.764600001612
 30
0.0
 11
4290.543681471733
 21
3260.394872759597
 31
0.0
 12
4290.543681471732
 22
3218.376113606624
 32
0.0
 13
4290.543681471732
 23
3218.376113606624
 33
0.0
210
0.0
220
0.0
230
1.0
  0
SOLID
  5
2251
330
21A8
100
AcDbEntity
  8
HATCH
  6
CONTINUOUS
 62
   251
100
AcDbTrace
 10
4419.727894689969
 20
3332.764600001613
 30
0.0
 11
4290.543681471733
 21
3260.394872759597
 31
0.0
 12
4290.543681471733
 22
3260.394872759597
 32
0.0
 13
4290.543681471733
 23
3260.394872759597
 33
0.0
210
0.0
220
0.0
230
1.0
  0
SOLID
  5
2252
330
21A8
100
AcDbEntity
  8
HATCH
  6
CONTINUOUS
 62
   251
100
AcDbTrace
 10
4494.733847433502
 20
3332.764600001619
 30
0.0
 11
4419.727894689969
 21
3332.764600001613
 31
0.0
 12
4290.543681471733
 22
3260.394872759597
 32
0.0
 13
4290.543681471733
 23
3260.394872759597
 33
0.0
210
0.0
220
0.0
230
1.0
  0
SOLID
  5
2253
330
21A8
100
AcDbEntity
  8
HATCH
  6
CONTINUOUS
 62
   251
100
AcDbTrace
 10
4290.543681471734
 20
3117.016064313521
 30
0.0
 11
4290.543681471734
 21
3033.985536510351
 31
0.0
 12
5818.091772181285
 22
2261.274980168304
 32
0.0
 13
5818.091772181285
 23
2261.274980168304
 33
0.0
210
0.0
220
0.0
230
1.0
  0
SOLID
  5
2254
330
21A8
100
AcDbEntity
  8
HATCH
  6
CONTINUOUS
 62
   251
100
AcDbTrace
 10
5818.09177218128
 20
2178.244452365144
 30
0.0
 11
5818.091772181285
 21
2261.274980168304
 31
0.0
 12
4290.543681471734
 22
3033.985536510351
 32
0.0
 13
4290.543681471734
 23
3033.985536510351
 33
0.0
210
0.0
220
0.0
230
1.0
  0
SOLID
  5
2255
330
21A8
100
AcDbEntity
  8
HATCH
  6
CONTINUOUS
 62
   251
100
AcDbTrace
 10
4286.835444763053
 20
2947.639712908694
 30
0.0
 11
5755.954806411075
 21
2124.630733406435
 31
0.0
 12
5818.09177218128
 22
2178.244452365145
 32
0.0
 13
5818.09177218128
 23
2178.244452365145
 33
0.0
  0
SOLID
  5
2256
330
21A8
100
AcDbEntity
  8
HATCH
  6
CONTINUOUS
 62
   251
100
AcDbTrace
 10
4290.543681471736
 20
2947.639712908695
 30
0.0
 11
4286.835444763053
 21
2947.639712908694
 31
0.0
 12
5818.09177218128
 22
2178.244452365145
 32
0.0
 13
5818.09177218128
 23
2178.244452365145
 33
0.0
210
0.0
220
0.0
230
1.0
  0
SOLID
  5
2257
330
21A8
100
AcDbEntity
  8
HATCH
  6
CONTINUOUS
 62
   251
100
AcDbTrace
 10
4290.543681471734
 20
3033.98553651035
 30
0.0
 11
4290.543681471736
 21
2947.639712908695
 31
0.0
 12
5818.09177218128
 22
2178.244452365145
 32
0.0
 13
5818.09177218128
 23
2178.244452365145
 33
0.0
210
0.0
220
0.0
230
1.0
  0
SOLID
  5
2258
330
21A8
100
AcDbEntity
  8
HATCH
  6
CONTINUOUS
 62
   251
100
AcDbTrace
 10
3001.117953934032
 20
2496.032524741684
 30
0.0
 11
3001.117953934048
 21
2485.639712908693
 31
0.0
 12
3057.368155704304
 22
2485.639712908707
 32
0.0
 13
3057.368155704304
 23
2485.639712908707
 33
0.0
210
0.0
220
0.0
230
1.0
  0
SOLID
  5
2259
330
21A8
100
AcDbEntity
  8
HATCH
  6
CONTINUOUS
 62
   251
100
AcDbTrace
 10
4794.115648920855
 20
2621.439712908647
 30
0.0
 11
3001.117953934032
 21
2496.032524741684
 31
0.0
 12
3057.368155704304
 22
2485.639712908707
 32
0.0
 13
3057.368155704304
 23
2485.639712908707
 33
0.0
210
0.0
220
0.0
230
1.0
  0
SOLID
  5
225A
330
21A8
100
AcDbEntity
  8
HATCH
  6
CONTINUOUS
 62
   251
100
AcDbTrace
 10
4794.115648920855
 20
2621.439712908647
 30
0.0
 11
3057.368155704304
 21
2485.639712908707
 31
0.0
 12
5036.526624111544
 22
2485.639712908634
 32
0.0
 13
5036.526624111544
 23
2485.639712908634
 33
0.0
210
0.0
220
0.0
230
1.0
  0
SOLID
  5
225B
330
21A8
100
AcDbEntity
  8
HATCH
  6
CONTINUOUS
 62
   251
100
AcDbTrace
 10
5226.942739756624
 20
2621.439712908647
 30
0.0
 11
5469.353714947288
 21
2485.63971290865
 31
0.0
 12
5549.663207707144
 22
2485.639712908664
 32
0.0
 13
5549.663207707144
 23
2485.639712908664
 33
0.0
210
0.0
220
0.0
230
1.0
  0
SOLID
  5
225C
330
21A8
100
AcDbEntity
  8
HATCH
  6
CONTINUOUS
 62
   251
100
AcDbTrace
 10
5549.663207707129
 20
2621.439712908661
 30
0.0
 11
5226.942739756624
 21
2621.439712908647
 31
0.0
 12
5549.663207707144
 22
2485.639712908664
 32
0.0
 13
5549.663207707144
 23
2485.639712908664
 33
0.0
210
0.0
220
0.0
230
1.0
  0
SOLID
  5
225D
330
21A8
100
AcDbEntity
  8
HATCH
  6
CONTINUOUS
 62
   251
100
AcDbTrace
 10
3224.977149659405
 20
2621.439712908683
 30
0.0
 11
3001.117953934032
 21
2496.032524741684
 31
0.0
 12
4794.115648920855
 22
2621.439712908647
 32
0.0
 13
4794.115648920855
 23
2621.439712908647
 33
0.0
210
0.0
220
0.0
230
1.0
  0
SOLID
  5
225E
330
21A8
100
AcDbEntity
  8
HATCH
  6
CONTINUOUS
 62
   251
100
AcDbTrace
 10
5539.71123212716
 20
2751.639712908653
 30
0.0
 11
5511.046335910301
 21
2621.43971290866
 31
0.0
 12
5539.711232127182
 22
2621.439712908661
 32
0.0
 13
5539.711232127182
 23
2621.439712908661
 33
0.0
210
0.0
220
0.0
230
1.0
  0
SOLID
  5
225F
330
21A8
100
AcDbEntity
  8
HATCH
  6
CONTINUOUS
 62
   251
100
AcDbTrace
 10
5511.046335910307
 20
2751.639712908654
 30
0.0
 11
5511.046335910301
 21
2621.43971290866
 31
0.0
 12
5539.71123212716
 22
2751.639712908653
 32
0.0
 13
5539.71123212716
 23
2751.639712908653
 33
0.0
210
0.0
220
0.0
230
1.0
  0
SOLID
  5
2260
330
21A8
100
AcDbEntity
  8
HATCH
  6
CONTINUOUS
 62
   251
100
AcDbTrace
 10
4561.701002603864
 20
2751.639712908739
 30
0.0
 11
3465.037146627706
 21
2751.639712908731
 31
0.0
 12
3521.287349027665
 22
2751.639712908717
 32
0.0
 13
3521.287349027665
 23
2751.639712908717
 33
0.0
210
0.0
220
0.0
230
1.0
  0
SOLID
  5
2261
330
21A8
100
AcDbEntity
  8
HATCH
  6
CONTINUOUS
 62
   251
100
AcDbTrace
 10
3465.037146627695
 20
2755.922681605238
 30
0.0
 11
3465.037146627706
 21
2751.639712908731
 31
0.0
 12
4561.701002603864
 22
2751.639712908739
 32
0.0
 13
4561.701002603864
 23
2751.639712908739
 33
0.0
210
0.0
220
0.0
230
1.0
  0
SOLID
  5
2262
330
21A8
100
AcDbEntity
  8
HATCH
  6
CONTINUOUS
 62
   251
100
AcDbTrace
 10
4319.290027413258
 20
2887.439712908705
 30
0.0
 11
3465.037146627695
 21
2755.922681605238
 31
0.0
 12
4561.701002603864
 22
2751.639712908739
 32
0.0
 13
4561.701002603864
 23
2751.639712908739
 33
0.0
210
0.0
220
0.0
230
1.0
  0
SOLID
  5
2263
330
21A8
100
AcDbEntity
  8
HATCH
  6
CONTINUOUS
 62
   251
100
AcDbTrace
 10
3699.80277116739
 20
2887.439712908748
 30
0.0
 11
3465.037146627695
 21
2755.922681605238
 31
0.0
 12
4319.290027413258
 22
2887.439712908705
 32
0.0
 13
4319.290027413258
 23
2887.439712908705
 33
0.0
210
0.0
220
0.0
230
1.0
  0
SOLID
  5
2264
330
21A8
100
AcDbEntity
  8
HATCH
  6
CONTINUOUS
 62
   251
100
AcDbTrace
 10
4286.835444763053
 20
2947.639712908694
 30
0.0
 11
5668.079866694149
 21
2131.840012728975
 31
0.0
 12
5755.954806411075
 22
2124.630733406435
 32
0.0
 13
5755.954806411075
 23
2124.630733406435
 33
0.0
210
0.0
220
0.0
230
1.0
  0
SOLID
  5
2265
330
21A8
100
AcDbEntity
  8
HATCH
  6
CONTINUOUS
 62
   251
100
AcDbTrace
 10
4259.475198586641
 20
2947.639712908695
 30
0.0
 11
5668.079866694149
 21
2131.840012728975
 31
0.0
 12
4286.835444763053
 22
2947.639712908694
 32
0.0
 13
4286.835444763053
 23
2947.639712908694
 33
0.0
210
0.0
220
0.0
230
1.0
  0
SOLID
  5
2266
330
21A8
100
AcDbEntity
  8
HATCH
  6
CONTINUOUS
 62
   251
100
AcDbTrace
 10
4211.829492019467
 20
2947.639712908698
 30
0.0
 11
5668.079866694149
 21
2131.840012728975
 31
0.0
 12
4259.475198586641
 22
2947.639712908695
 32
0.0
 13
4259.475198586641
 23
2947.639712908695
 33
0.0
  0
SOLID
  5
2267
330
21A8
100
AcDbEntity
  8
HATCH
  6
CONTINUOUS
 62
   251
100
AcDbTrace
 10
3465.03714662775
 20
5967.356744212205
 30
0.0
 11
3699.802771167384
 21
5835.839712908729
 31
0.0
 12
4319.290027413314
 22
5835.8397129087
 32
0.0
 13
4319.290027413314
 23
5835.8397129087
 33
0.0
210
0.0
220
0.0
230
1.0
  0
SOLID
  5
2268
330
21A8
100
AcDbEntity
  8
HATCH
  6
CONTINUOUS
 62
   251
100
AcDbTrace
 10
3521.2873490277
 20
5971.639712908697
 30
0.0
 11
3465.03714662775
 21
5967.356744212205
 31
0.0
 12
4319.290027413314
 22
5835.8397129087
 32
0.0
 13
4319.290027413314
 23
5835.8397129087
 33
0.0
210
0.0
220
0.0
230
1.0
  0
SOLID
  5
2269
330
21A8
100
AcDbEntity
  8
HATCH
  6
CONTINUOUS
 62
   251
100
AcDbTrace
 10
3465.037146627741
 20
5971.639712908704
 30
0.0
 11
3465.03714662775
 21
5967.356744212205
 31
0.0
 12
3521.2873490277
 22
5971.639712908697
 32
0.0
 13
3521.2873490277
 23
5971.639712908697
 33
0.0
  0
SOLID
  5
226A
330
21A8
100
AcDbEntity
  8
HATCH
  6
CONTINUOUS
 62
   251
100
AcDbTrace
 10
4561.701002604045
 20
5971.639712908726
 30
0.0
 11
3521.2873490277
 21
5971.639712908697
 31
0.0
 12
4319.290027413314
 22
5835.8397129087
 32
0.0
 13
4319.290027413314
 23
5835.8397129087
 33
0.0
210
0.0
220
0.0
230
1.0
  0
SOLID
  5
226B
330
21A8
100
AcDbEntity
  8
HATCH
  6
CONTINUOUS
 62
   251
100
AcDbTrace
 10
5539.711232127153
 20
2446.225033661915
 30
0.0
 11
5582.474737917878
 21
2422.26867573788
 31
0.0
 12
5672.451443536058
 22
2411.038564877888
 32
0.0
 13
5672.451443536058
 23
2411.038564877888
 33
0.0
210
0.0
220
0.0
230
1.0
  0
SOLID
  5
226C
330
21A8
100
AcDbEntity
  8
HATCH
  6
CONTINUOUS
 62
   251
100
AcDbTrace
 10
5539.711232127142
 20
2485.639712908662
 30
0.0
 11
5539.711232127153
 21
2446.225033661915
 31
0.0
 12
5672.451443536058
 22
2411.038564877888
 32
0.0
 13
5672.451443536058
 23
2411.038564877888
 33
0.0
210
0.0
220
0.0
230
1.0
  0
SOLID
  5
226D
330
21A8
100
AcDbEntity
  8
HATCH
  6
CONTINUOUS
 62
   251
100
AcDbTrace
 10
5549.663207707144
 20
2485.639712908664
 30
0.0
 11
5539.711232127142
 21
2485.639712908662
 31
0.0
 12
5672.451443536058
 22
2411.038564877888
 32
0.0
 13
5672.451443536058
 23
2411.038564877888
 33
0.0
  0
SOLID
  5
226E
330
21A8
100
AcDbEntity
  8
HATCH
  6
CONTINUOUS
 62
   251
100
AcDbTrace
 10
5549.66320770713
 20
2621.439712908661
 30
0.0
 11
5549.663207707144
 21
2485.639712908664
 31
0.0
 12
5672.451443536058
 22
2411.038564877888
 32
0.0
 13
5672.451443536058
 23
2411.038564877888
 33
0.0
210
0.0
220
0.0
230
1.0
  0
SOLID
  5
226F
330
21A8
100
AcDbEntity
  8
HATCH
  6
CONTINUOUS
 62
   251
100
AcDbTrace
 10
5672.451443536065
 20
2751.639712908652
 30
0.0
 11
5549.66320770713
 21
2621.439712908661
 31
0.0
 12
5672.451443536058
 22
2411.038564877888
 32
0.0
 13
5672.451443536058
 23
2411.038564877888
 33
0.0
210
0.0
220
0.0
230
1.0
  0
SOLID
  5
2270
330
21A8
100
AcDbEntity
  8
HATCH
  6
CONTINUOUS
 62
   251
100
AcDbTrace
 10
5539.711232127161
 20
2751.639712908653
 30
0.0
 11
5549.66320770713
 21
2621.439712908661
 31
0.0
 12
5672.451443536065
 22
2751.639712908652
 32
0.0
 13
5672.451443536065
 23
2751.639712908652
 33
0.0
210
0.0
220
0.0
230
1.0
  0
SOLID
  5
2271
330
21A8
100
AcDbEntity
  8
HATCH
  6
CONTINUOUS
 62
   251
100
AcDbTrace
 10
5539.711232127161
 20
2751.639712908653
 30
0.0
 11
5539.711232127181
 21
2621.439712908661
 31
0.0
 12
5549.66320770713
 22
2621.439712908661
 32
0.0
 13
5549.66320770713
 23
2621.439712908661
 33
0.0
210
0.0
220
0.0
230
1.0
  0
SOLID
  5
2272
330
21A8
100
AcDbEntity
  8
HATCH
  6
CONTINUOUS
 62
   251
100
AcDbTrace
 10
5582.474737917878
 20
2422.26867573788
 30
0.0
 11
5644.375710806617
 21
2387.591400454939
 31
0.0
 12
5672.451443536068
 22
2411.038564877885
 32
0.0
 13
5672.451443536068
 23
2411.038564877885
 33
0.0
210
0.0
220
0.0
230
1.0
  0
SOLID
  5
2273
330
21A8
100
AcDbEntity
  8
HATCH
  6
CONTINUOUS
 62
   251
100
AcDbTrace
 10
5511.046335910268
 20
2485.639712908657
 30
0.0
 11
5511.046335910275
 21
2462.283270724785
 31
0.0
 12
5539.711232127153
 22
2446.225033661916
 32
0.0
 13
5539.711232127153
 23
2446.225033661916
 33
0.0
  0
SOLID
  5
2274
330
21A8
100
AcDbEntity
  8
HATCH
  6
CONTINUOUS
 62
   251
100
AcDbTrace
 10
5539.711232127142
 20
2485.639712908662
 30
0.0
 11
5511.046335910268
 21
2485.639712908657
 31
0.0
 12
5539.711232127153
 22
2446.225033661916
 32
0.0
 13
5539.711232127153
 23
2446.225033661916
 33
0.0
210
0.0
220
0.0
230
1.0
  0
SOLID
  5
2275
330
21A8
100
AcDbEntity
  8
HATCH
  6
CONTINUOUS
 62
   251
100
AcDbTrace
 10
4211.829492019467
 20
2947.639712908699
 30
0.0
 11
3699.802771167391
 21
2887.439712908749
 31
0.0
 12
4319.290027413258
 22
2887.439712908705
 32
0.0
 13
4319.290027413258
 23
2887.439712908705
 33
0.0
  0
SOLID
  5
2276
330
21A8
100
AcDbEntity
  8
HATCH
  6
CONTINUOUS
 62
   251
100
AcDbTrace
 10
4184.469245843112
 20
2947.639712908701
 30
0.0
 11
3699.802771167391
 21
2887.439712908749
 31
0.0
 12
4211.829492019467
 22
2947.639712908699
 32
0.0
 13
4211.829492019467
 23
2947.639712908699
 33
0.0
210
0.0
220
0.0
230
1.0
  0
SOLID
  5
2277
330
21A8
100
AcDbEntity
  8
HATCH
  6
CONTINUOUS
 62
   251
100
AcDbTrace
 10
4078.394810214432
 20
2947.639712908701
 30
0.0
 11
3699.802771167391
 21
2887.439712908749
 31
0.0
 12
4184.469245843112
 22
2947.639712908701
 32
0.0
 13
4184.469245843112
 23
2947.639712908701
 33
0.0
210
0.0
220
0.0
230
1.0
  0
SOLID
  5
2278
330
21A8
100
AcDbEntity
  8
HATCH
  6
CONTINUOUS
 62
   251
100
AcDbTrace
 10
4109.463293099525
 20
2947.63971290871
 30
0.0
 11
4078.394810214432
 21
2947.639712908701
 31
0.0
 12
4184.469245843112
 22
2947.639712908701
 32
0.0
 13
4184.469245843112
 23
2947.639712908701
 33
0.0
210
0.0
220
0.0
230
1.0
  0
SOLID
  5
2279
330
21A8
100
AcDbEntity
  8
HATCH
  6
CONTINUOUS
 62
   251
100
AcDbTrace
 10
4078.394810214431
 20
3022.390576704683
 30
0.0
 11
3699.802771167391
 21
2887.439712908749
 31
0.0
 12
4078.394810214432
 22
2947.639712908701
 32
0.0
 13
4078.394810214432
 23
2947.639712908701
 33
0.0
210
0.0
220
0.0
230
1.0
  0
SOLID
  5
227A
330
21A8
100
AcDbEntity
  8
HATCH
  6
CONTINUOUS
 62
   251
100
AcDbTrace
 10
4009.546399290417
 20
3060.959846087492
 30
0.0
 11
3699.802771167391
 21
2887.439712908749
 31
0.0
 12
4078.394810214431
 22
3022.390576704683
 32
0.0
 13
4078.394810214431
 23
3022.390576704683
 33
0.0
210
0.0
220
0.0
230
1.0
  0
ENDBLK
  5
227C
330
21A8
100
AcDbEntity
  8
0
 62
     1
100
AcDbBlockEnd
  0
BLOCK
  5
228A
330
227D
100
AcDbEntity
  8
0
 62
     1
100
AcDbBlockBegin
  2
*U4
 70
     1
 10
0.0
 20
0.0
 30
0.0
  3
*U4
  1

  0
SOLID
  5
227E
330
227D
100
AcDbEntity
  8
HATCH
  6
CONTINUOUS
 62
   251
100
AcDbTrace
 10
4013.366534607686
 20
3272.292270411587
 30
0.0
 11
4078.39481021443
 21
3235.863062449974
 31
0.0
 12
4078.394810214429
 22
3264.862762170992
 32
0.0
 13
4078.394810214429
 23
3264.862762170992
 33
0.0
210
0.0
220
0.0
230
1.0
  0
SOLID
  5
227F
330
227D
100
AcDbEntity
  8
HATCH
  6
CONTINUOUS
 62
   251
100
AcDbTrace
 10
4035.429482830986
 20
3288.932181693265
 30
0.0
 11
4013.366534607686
 21
3272.292270411587
 31
0.0
 12
4078.394810214429
 22
3264.862762170992
 32
0.0
 13
4078.394810214429
 23
3264.862762170992
 33
0.0
210
0.0
220
0.0
230
1.0
  0
SOLID
  5
2280
330
227D
100
AcDbEntity
  8
HATCH
  6
CONTINUOUS
 62
   251
100
AcDbTrace
 10
4009.546399290433
 20
3303.432031553777
 30
0.0
 11
4013.366534607686
 21
3272.292270411587
 31
0.0
 12
4035.429482830986
 22
3288.932181693265
 32
0.0
 13
4035.429482830986
 23
3288.932181693265
 33
0.0
210
0.0
220
0.0
230
1.0
  0
SOLID
  5
2281
330
227D
100
AcDbEntity
  8
HATCH
  6
CONTINUOUS
 62
   251
100
AcDbTrace
 10
4078.394810214429
 20
3313.001601215542
 30
0.0
 11
4035.429482830986
 21
3288.932181693265
 31
0.0
 12
4078.394810214429
 22
3264.862762170992
 32
0.0
 13
4078.394810214429
 23
3264.862762170992
 33
0.0
210
0.0
220
0.0
230
1.0
  0
SOLID
  5
2282
330
227D
100
AcDbEntity
  8
HATCH
  6
CONTINUOUS
 62
   251
100
AcDbTrace
 10
3964.934371438051
 20
3328.42394199671
 30
0.0
 11
4013.366534607686
 21
3272.292270411587
 31
0.0
 12
4009.546399290433
 22
3303.432031553777
 32
0.0
 13
4009.546399290433
 23
3303.432031553777
 33
0.0
210
0.0
220
0.0
230
1.0
  0
SOLID
  5
2283
330
227D
100
AcDbEntity
  8
HATCH
  6
CONTINUOUS
 62
   251
100
AcDbTrace
 10
4078.394810214429
 20
3313.001601215542
 30
0.0
 11
4035.429482830988
 21
3288.932181693265
 31
0.0
 12
4078.39481021443
 22
3264.862762170994
 32
0.0
 13
4078.39481021443
 23
3264.862762170994
 33
0.0
210
0.0
220
0.0
230
1.0
  0
SOLID
  5
2284
330
227D
100
AcDbEntity
  8
HATCH
  6
CONTINUOUS
 62
   251
100
AcDbTrace
 10
4290.543681471733
 20
3348.81807154879
 30
0.0
 11
4290.543681471733
 21
3260.394872759597
 31
0.0
 12
4419.727894689969
 22
3332.764600001613
 32
0.0
 13
4419.727894689969
 23
3332.764600001613
 33
0.0
210
0.0
220
0.0
230
1.0
  0
SOLID
  5
2285
330
227D
100
AcDbEntity
  8
HATCH
  6
CONTINUOUS
 62
   251
100
AcDbTrace
 10
4362.08562223092
 20
3388.896271586764
 30
0.0
 11
4290.543681471733
 21
3348.81807154879
 31
0.0
 12
4419.727894689969
 22
3332.764600001613
 32
0.0
 13
4419.727894689969
 23
3332.764600001613
 33
0.0
210
0.0
220
0.0
230
1.0
  0
SOLID
  5
2286
330
227D
100
AcDbEntity
  8
HATCH
  6
CONTINUOUS
 62
   251
100
AcDbTrace
 10
4355.573091496945
 20
3468.278442821171
 30
0.0
 11
4290.543681471732
 21
3460.848299072903
 31
0.0
 12
4290.543681471733
 22
3431.848599351905
 32
0.0
 13
4290.543681471733
 23
3431.848599351905
 33
0.0
210
0.0
220
0.0
230
1.0
  0
SOLID
  5
2287
330
227D
100
AcDbEntity
  8
HATCH
  6
CONTINUOUS
 62
   251
100
AcDbTrace
 10
4404.005254666622
 20
3524.410114406302
 30
0.0
 11
4290.543681471732
 21
3460.848299072903
 31
0.0
 12
4355.573091496945
 22
3468.278442821171
 32
0.0
 13
4355.573091496945
 23
3468.278442821171
 33
0.0
210
0.0
220
0.0
230
1.0
  0
SOLID
  5
2288
330
227D
100
AcDbEntity
  8
HATCH
  6
CONTINUOUS
 62
   251
100
AcDbTrace
 10
4494.733847433501
 20
3332.76460000162
 30
0.0
 11
4419.727894689969
 21
3332.764600001613
 31
0.0
 12
4290.543681471732
 22
3218.376113606624
 32
0.0
 13
4290.543681471732
 23
3218.376113606624
 33
0.0
210
0.0
220
0.0
230
1.0
  0
SOLID
  5
2289
330
227D
100
AcDbEntity
  8
HATCH
  6
CONTINUOUS
 62
   251
100
AcDbTrace
 10
4290.543681471733
 20
3260.394872759597
 30
0.0
 11
4290.543681471732
 21
3218.376113606624
 31
0.0
 12
4419.727894689969
 22
3332.764600001613
 32
0.0
 13
4419.727894689969
 23
3332.764600001613
 33
0.0
210
0.0
220
0.0
230
1.0
  0
ENDBLK
  5
228B
330
227D
100
AcDbEntity
  8
0
 62
     1
100
AcDbBlockEnd
  0
BLOCK
  5
2291
330
228C
100
AcDbEntity
  8
0
 62
     1
100
AcDbBlockBegin
  2
*U5
 70
     1
 10
0.0
 20
0.0
 30
0.0
  3
*U5
  1

  0
SOLID
  5
228D
330
228C
100
AcDbEntity
  8
HATCH
  6
CONTINUOUS
 62
   251
100
AcDbTrace
 10
4056.912146522708
 20
3315.466741314899
 30
0.0
 11
4078.394810214428
 21
3342.001300936532
 31
0.0
 12
4009.546399290433
 22
3303.432031553776
 32
0.0
 13
4009.546399290433
 23
3303.432031553776
 33
0.0
210
0.0
220
0.0
230
1.0
  0
SOLID
  5
228E
330
228C
100
AcDbEntity
  8
HATCH
  6
CONTINUOUS
 62
   251
100
AcDbTrace
 10
4056.912146522708
 20
3315.466741314899
 30
0.0
 11
4009.546399290433
 21
3303.432031553776
 31
0.0
 12
4035.429482830987
 22
3288.932181693265
 32
0.0
 13
4035.429482830987
 23
3288.932181693265
 33
0.0
210
0.0
220
0.0
230
1.0
  0
SOLID
  5
228F
330
228C
100
AcDbEntity
  8
HATCH
  6
CONTINUOUS
 62
   251
100
AcDbTrace
 10
4056.912146522708
 20
3315.466741314899
 30
0.0
 11
4035.429482830987
 21
3288.932181693265
 31
0.0
 12
4078.394810214429
 22
3313.001601215542
 32
0.0
 13
4078.394810214429
 23
3313.001601215542
 33
0.0
210
0.0
220
0.0
230
1.0
  0
SOLID
  5
2290
330
228C
100
AcDbEntity
  8
HATCH
  6
CONTINUOUS
 62
   251
100
AcDbTrace
 10
4056.912146522708
 20
3315.466741314899
 30
0.0
 11
4078.394810214429
 21
3313.001601215542
 31
0.0
 12
4078.394810214428
 22
3342.001300936532
 32
0.0
 13
4078.394810214428
 23
3342.001300936532
 33
0.0
210
0.0
220
0.0
230
1.0
  0
ENDBLK
  5
2292
330
228C
100
AcDbEntity
  8
0
 62
     1
100
AcDbBlockEnd
  0
BLOCK
  5
2297
330
2293
100
AcDbEntity
  8
0
 62
     1
100
AcDbBlockBegin
  2
*U6
 70
     1
 10
0.0
 20
0.0
 30
0.0
  3
*U6
  1

  0
SOLID
  5
2294
330
2293
100
AcDbEntity
  8
HATCH
  6
CONTINUOUS
 62
   251
100
AcDbTrace
 10
5633.100630753578
 20
6316.313212127098
 30
0.0
 11
5644.375710806661
 21
6335.688025362362
 31
0.0
 12
5582.47473791798
 22
6301.010750079455
 32
0.0
 13
5582.47473791798
 23
6301.010750079455
 33
0.0
210
0.0
220
0.0
230
1.0
  0
SOLID
  5
2295
330
2293
100
AcDbEntity
  8
HATCH
  6
CONTINUOUS
 62
   251
100
AcDbTrace
 10
5633.100630753578
 20
6316.313212127098
 30
0.0
 11
5582.47473791798
 21
6301.010750079455
 31
0.0
 12
5672.451443536094
 22
6312.240860939478
 32
0.0
 13
5672.451443536094
 23
6312.240860939478
 33
0.0
210
0.0
220
0.0
230
1.0
  0
SOLID
  5
2296
330
2293
100
AcDbEntity
  8
HATCH
  6
CONTINUOUS
 62
   251
100
AcDbTrace
 10
5633.100630753578
 20
6316.313212127098
 30
0.0
 11
5672.451443536094
 21
6312.240860939478
 31
0.0
 12
5644.375710806661
 22
6335.688025362362
 32
0.0
 13
5644.375710806661
 23
6335.688025362362
 33
0.0
210
0.0
220
0.0
230
1.0
  0
ENDBLK
  5
2298
330
2293
100
AcDbEntity
  8
0
 62
     1
100
AcDbBlockEnd
  0
BLOCK
  5
235E
330
2299
100
AcDbEntity
  8
0
 62
     1
100
AcDbBlockBegin
  2
*U7
 70
     1
 10
0.0
 20
0.0
 30
0.0
  3
*U7
  1

  0
SOLID
  5
229A
330
2299
100
AcDbEntity
  8
HATCH
  6
CONTINUOUS
 62
   251
100
AcDbTrace
 10
32313.00749624928
 20
6591.439413088123
 30
0.0
 11
33721.6121643568
 21
5775.639712908446
 31
0.0
 12
33769.25787092396
 22
5775.639712908437
 32
0.0
 13
33769.25787092396
 23
5775.639712908437
 33
0.0
210
0.0
220
0.0
230
1.0
  0
SOLID
  5
229B
330
2299
100
AcDbEntity
  8
HATCH
  6
CONTINUOUS
 62
   251
100
AcDbTrace
 10
32225.1325565324
 20
6598.648692410605
 30
0.0
 11
33721.6121643568
 21
5775.639712908446
 31
0.0
 12
32313.00749624928
 22
6591.439413088123
 32
0.0
 13
32313.00749624928
 23
6591.439413088123
 33
0.0
210
0.0
220
0.0
230
1.0
  0
SOLID
  5
229C
330
2299
100
AcDbEntity
  8
HATCH
  6
CONTINUOUS
 62
   251
100
AcDbTrace
 10
32225.1325565324
 20
6598.648692410605
 30
0.0
 11
33694.25191818042
 21
5775.639712908439
 31
0.0
 12
33721.6121643568
 22
5775.639712908446
 32
0.0
 13
33721.6121643568
 23
5775.639712908446
 33
0.0
  0
SOLID
  5
229D
330
2299
100
AcDbEntity
  8
HATCH
  6
CONTINUOUS
 62
   251
100
AcDbTrace
 10
32225.1325565324
 20
6598.648692410603
 30
0.0
 11
32162.99559076218
 21
6545.034973451944
 31
0.0
 12
33690.54368147171
 22
5777.717088095958
 32
0.0
 13
33690.54368147171
 23
5777.717088095958
 33
0.0
210
0.0
220
0.0
230
1.0
  0
SOLID
  5
229E
330
2299
100
AcDbEntity
  8
HATCH
  6
CONTINUOUS
 62
   251
100
AcDbTrace
 10
33690.54368147172
 20
5689.293889306732
 30
0.0
 11
33690.54368147171
 21
5777.717088095958
 31
0.0
 12
32162.99559076218
 22
6545.034973451944
 32
0.0
 13
32162.99559076218
 23
6545.034973451944
 33
0.0
210
0.0
220
0.0
230
1.0
  0
SOLID
  5
229F
330
2299
100
AcDbEntity
  8
HATCH
  6
CONTINUOUS
 62
   251
100
AcDbTrace
 10
32162.99559076218
 20
6545.034973451947
 30
0.0
 11
32162.99559076214
 21
6462.004445648762
 31
0.0
 12
33690.54368147172
 22
5689.293889306725
 32
0.0
 13
33690.54368147172
 23
5689.293889306725
 33
0.0
  0
SOLID
  5
22A0
330
2299
100
AcDbEntity
  8
HATCH
  6
CONTINUOUS
 62
   251
100
AcDbTrace
 10
33690.54368147172
 20
5606.263361503601
 30
0.0
 11
33690.54368147172
 21
5689.293889306725
 31
0.0
 12
32162.99559076214
 22
6462.004445648762
 32
0.0
 13
32162.99559076214
 23
6462.004445648762
 33
0.0
  0
SOLID
  5
22A1
330
2299
100
AcDbEntity
  8
HATCH
  6
CONTINUOUS
 62
   251
100
AcDbTrace
 10
32511.73364799618
 20
6237.639712908483
 30
0.0
 11
33690.54368147172
 21
5577.263661782671
 31
0.0
 12
33690.54368147172
 22
5606.263361503598
 32
0.0
 13
33690.54368147172
 23
5606.263361503598
 33
0.0
210
0.0
220
0.0
230
1.0
  0
SOLID
  5
22A2
330
2299
100
AcDbEntity
  8
HATCH
  6
CONTINUOUS
 62
   251
100
AcDbTrace
 10
32398.61262502546
 20
6301.010750079291
 30
0.0
 11
32511.73364799618
 21
6237.639712908483
 31
0.0
 12
33690.54368147172
 22
5606.263361503598
 32
0.0
 13
33690.54368147172
 23
5606.263361503598
 33
0.0
210
0.0
220
0.0
230
1.0
  0
SOLID
  5
22A3
330
2299
100
AcDbEntity
  8
HATCH
  6
CONTINUOUS
 62
   251
100
AcDbTrace
 10
32308.63591940738
 20
6312.240860939254
 30
0.0
 11
32511.73364799618
 21
6237.639712908483
 31
0.0
 12
32398.61262502546
 22
6301.010750079291
 32
0.0
 13
32398.61262502546
 23
6301.010750079291
 33
0.0
210
0.0
220
0.0
230
1.0
  0
SOLID
  5
22A4
330
2299
100
AcDbEntity
  8
HATCH
  6
CONTINUOUS
 62
   251
100
AcDbTrace
 10
32336.71165213682
 20
6335.68802536216
 30
0.0
 11
32398.61262502546
 21
6301.010750079291
 31
0.0
 12
33690.54368147172
 22
5606.263361503598
 32
0.0
 13
33690.54368147172
 23
5606.263361503598
 33
0.0
210
0.0
220
0.0
230
1.0
  0
SOLID
  5
22A5
330
2299
100
AcDbEntity
  8
HATCH
  6
CONTINUOUS
 62
   251
100
AcDbTrace
 10
32225.13255653233
 20
6398.195266097307
 30
0.0
 11
32308.63591940738
 21
6312.240860939254
 31
0.0
 12
32336.71165213682
 22
6335.68802536216
 32
0.0
 13
32336.71165213682
 23
6335.68802536216
 33
0.0
210
0.0
220
0.0
230
1.0
  0
SOLID
  5
22A6
330
2299
100
AcDbEntity
  8
HATCH
  6
CONTINUOUS
 62
   251
100
AcDbTrace
 10
-32225.13255653233
 20
6398.195266097307
 30
0.0
 11
-32511.73364799618
 21
6237.639712908483
 31
0.0
 12
-32308.63591940738
 22
6312.240860939254
 32
0.0
 13
-32308.63591940738
 23
6312.240860939254
 33
0.0
210
0.0
220
0.0
230
-1.0
  0
SOLID
  5
22A7
330
2299
100
AcDbEntity
  8
HATCH
  6
CONTINUOUS
 62
   251
100
AcDbTrace
 10
32162.99559076213
 20
6462.004445648765
 30
0.0
 11
32225.13255653233
 21
6398.195266097307
 31
0.0
 12
32336.71165213682
 22
6335.68802536216
 32
0.0
 13
32336.71165213682
 23
6335.68802536216
 33
0.0
210
0.0
220
0.0
230
1.0
  0
SOLID
  5
22A8
330
2299
100
AcDbEntity
  8
HATCH
  6
CONTINUOUS
 62
   251
100
AcDbTrace
 10
32162.99559076213
 20
6462.004445648765
 30
0.0
 11
32336.71165213682
 21
6335.68802536216
 31
0.0
 12
33690.54368147172
 22
5606.263361503598
 32
0.0
 13
33690.54368147172
 23
5606.263361503598
 33
0.0
210
0.0
220
0.0
230
1.0
  0
SOLID
  5
22A9
330
2299
100
AcDbEntity
  8
HATCH
  6
CONTINUOUS
 62
   251
100
AcDbTrace
 10
32441.37613081626
 20
6101.839712908478
 30
0.0
 11
32308.63591940738
 21
5971.639712908435
 31
0.0
 12
32441.37613081631
 22
5971.639712908436
 32
0.0
 13
32441.37613081631
 23
5971.639712908436
 33
0.0
210
0.0
220
0.0
230
1.0
  0
SOLID
  5
22AA
330
2299
100
AcDbEntity
  8
HATCH
  6
CONTINUOUS
 62
   251
100
AcDbTrace
 10
32431.42415523632
 20
6101.839712908478
 30
0.0
 11
32308.63591940738
 21
5971.639712908435
 31
0.0
 12
32441.37613081626
 22
6101.839712908478
 32
0.0
 13
32441.37613081626
 23
6101.839712908478
 33
0.0
  0
SOLID
  5
22AB
330
2299
100
AcDbEntity
  8
HATCH
  6
CONTINUOUS
 62
   251
100
AcDbTrace
 10
32431.42415523634
 20
6237.639712908467
 30
0.0
 11
32308.63591940738
 21
5971.639712908435
 31
0.0
 12
32431.42415523632
 22
6101.839712908478
 32
0.0
 13
32431.42415523632
 23
6101.839712908478
 33
0.0
210
0.0
220
0.0
230
1.0
  0
SOLID
  5
22AC
330
2299
100
AcDbEntity
  8
HATCH
  6
CONTINUOUS
 62
   251
100
AcDbTrace
 10
32441.37613081626
 20
6277.054392155221
 30
0.0
 11
32431.42415523634
 21
6237.639712908467
 31
0.0
 12
32441.37613081628
 22
6237.639712908465
 32
0.0
 13
32441.37613081628
 23
6237.639712908465
 33
0.0
210
0.0
220
0.0
230
1.0
  0
SOLID
  5
22AD
330
2299
100
AcDbEntity
  8
HATCH
  6
CONTINUOUS
 62
   251
100
AcDbTrace
 10
32398.61262502545
 20
6301.010750079292
 30
0.0
 11
32431.42415523634
 21
6237.639712908467
 31
0.0
 12
32441.37613081626
 22
6277.054392155221
 32
0.0
 13
32441.37613081626
 23
6277.054392155221
 33
0.0
  0
SOLID
  5
22AE
330
2299
100
AcDbEntity
  8
HATCH
  6
CONTINUOUS
 62
   251
100
AcDbTrace
 10
32398.61262502545
 20
6301.010750079292
 30
0.0
 11
32308.63591940738
 21
5971.639712908435
 31
0.0
 12
32431.42415523634
 22
6237.639712908467
 32
0.0
 13
32431.42415523634
 23
6237.639712908467
 33
0.0
210
0.0
220
0.0
230
1.0
  0
SOLID
  5
22AF
330
2299
100
AcDbEntity
  8
HATCH
  6
CONTINUOUS
 62
   251
100
AcDbTrace
 10
32308.63591940736
 20
6312.240860939255
 30
0.0
 11
32308.63591940738
 21
5971.639712908435
 31
0.0
 12
32398.61262502545
 22
6301.010750079292
 32
0.0
 13
32398.61262502545
 23
6301.010750079292
 33
0.0
210
0.0
220
0.0
230
1.0
  0
SOLID
  5
22B0
330
2299
100
AcDbEntity
  8
HATCH
  6
CONTINUOUS
 62
   251
100
AcDbTrace
 10
34979.96940900937
 20
6227.246901075432
 30
0.0
 11
33186.97171402262
 21
6101.839712908449
 31
0.0
 12
34756.11021328404
 22
6101.839712908456
 32
0.0
 13
34756.11021328404
 23
6101.839712908456
 33
0.0
210
0.0
220
0.0
230
1.0
  0
SOLID
  5
22B1
330
2299
100
AcDbEntity
  8
HATCH
  6
CONTINUOUS
 62
   251
100
AcDbTrace
 10
34979.96940900939
 20
6237.639712908453
 30
0.0
 11
33186.97171402262
 21
6101.839712908449
 31
0.0
 12
34979.96940900937
 22
6227.246901075432
 32
0.0
 13
34979.96940900937
 23
6227.246901075432
 33
0.0
  0
SOLID
  5
22B2
330
2299
100
AcDbEntity
  8
HATCH
  6
CONTINUOUS
 62
   251
100
AcDbTrace
 10
32511.73364799621
 20
6237.639712908453
 30
0.0
 11
32431.42415523631
 21
6101.839712908478
 31
0.0
 12
32754.1446231869
 22
6101.839712908449
 32
0.0
 13
32754.1446231869
 23
6101.839712908449
 33
0.0
210
0.0
220
0.0
230
1.0
  0
SOLID
  5
22B3
330
2299
100
AcDbEntity
  8
HATCH
  6
CONTINUOUS
 62
   251
100
AcDbTrace
 10
32944.56073883194
 20
6237.639712908453
 30
0.0
 11
33186.97171402262
 21
6101.839712908449
 31
0.0
 12
34979.96940900939
 22
6237.639712908453
 32
0.0
 13
34979.96940900939
 23
6237.639712908453
 33
0.0
210
0.0
220
0.0
230
1.0
  0
SOLID
  5
22B4
330
2299
100
AcDbEntity
  8
HATCH
  6
CONTINUOUS
 62
   251
100
AcDbTrace
 10
34923.71920723916
 20
6237.639712908467
 30
0.0
 11
32944.56073883194
 21
6237.639712908453
 31
0.0
 12
34979.96940900939
 22
6237.639712908453
 32
0.0
 13
34979.96940900939
 23
6237.639712908453
 33
0.0
210
0.0
220
0.0
230
1.0
  0
SOLID
  5
22B5
330
2299
100
AcDbEntity
  8
HATCH
  6
CONTINUOUS
 62
   251
100
AcDbTrace
 10
32431.42415523635
 20
6237.639712908467
 30
0.0
 11
32431.42415523631
 21
6101.839712908478
 31
0.0
 12
32511.73364799621
 22
6237.639712908453
 32
0.0
 13
32511.73364799621
 23
6237.639712908453
 33
0.0
210
0.0
220
0.0
230
1.0
  0
SOLID
  5
22B6
330
2299
100
AcDbEntity
  8
HATCH
  6
CONTINUOUS
 62
   251
100
AcDbTrace
 10
35280.22873795166
 20
6395.453876185612
 30
0.0
 11
33971.54096365304
 21
5662.319579729647
 31
0.0
 12
34009.04394002477
 22
5641.310200153191
 32
0.0
 13
34009.04394002477
 23
5641.310200153191
 33
0.0
210
0.0
220
0.0
230
1.0
  0
SOLID
  5
22B7
330
2299
100
AcDbEntity
  8
HATCH
  6
CONTINUOUS
 62
   251
100
AcDbTrace
 10
35368.10367766852
 20
6402.663155508061
 30
0.0
 11
35280.22873795166
 21
6395.453876185612
 31
0.0
 12
34009.04394002477
 22
5641.310200153191
 32
0.0
 13
34009.04394002477
 23
5641.310200153191
 33
0.0
  0
SOLID
  5
22B8
330
2299
100
AcDbEntity
  8
HATCH
  6
CONTINUOUS
 62
   251
100
AcDbTrace
 10
35430.24064343873
 20
6349.04943654941
 30
0.0
 11
35368.10367766852
 21
6402.66315550806
 31
0.0
 12
34087.96424137959
 22
5597.098600758598
 32
0.0
 13
34087.96424137959
 23
5597.098600758598
 33
0.0
  0
SOLID
  5
22B9
330
2299
100
AcDbEntity
  8
HATCH
  6
CONTINUOUS
 62
   251
100
AcDbTrace
 10
34009.04394002477
 20
5641.310200153192
 30
0.0
 11
34087.96424137959
 21
5597.098600758598
 31
0.0
 12
35368.10367766852
 22
6402.66315550806
 32
0.0
 13
35368.10367766852
 23
6402.66315550806
 33
0.0
210
0.0
220
0.0
230
1.0
  0
SOLID
  5
22BA
330
2299
100
AcDbEntity
  8
HATCH
  6
CONTINUOUS
 62
   251
100
AcDbTrace
 10
35430.24064343872
 20
6266.018908746211
 30
0.0
 11
34087.96424137959
 21
5597.098600758598
 31
0.0
 12
34106.88158427234
 22
5586.50099822508
 32
0.0
 13
34106.88158427234
 23
5586.50099822508
 33
0.0
210
0.0
220
0.0
230
1.0
  0
SOLID
  5
22BB
330
2299
100
AcDbEntity
  8
HATCH
  6
CONTINUOUS
 62
   251
100
AcDbTrace
 10
35430.24064343872
 20
6266.018908746211
 30
0.0
 11
34106.88158427234
 21
5586.50099822508
 31
0.0
 12
34142.84948474294
 22
5544.815096859246
 32
0.0
 13
34142.84948474294
 23
5544.815096859246
 33
0.0
210
0.0
220
0.0
230
1.0
  0
SOLID
  5
22BC
330
2299
100
AcDbEntity
  8
HATCH
  6
CONTINUOUS
 62
   251
100
AcDbTrace
 10
35430.24064343872
 20
6349.04943654941
 30
0.0
 11
34087.96424137959
 21
5597.098600758598
 31
0.0
 12
35430.24064343872
 22
6266.018908746211
 32
0.0
 13
35430.24064343872
 23
6266.018908746211
 33
0.0
210
0.0
220
0.0
230
1.0
  0
SOLID
  5
22BD
330
2299
100
AcDbEntity
  8
HATCH
  6
CONTINUOUS
 62
   251
100
AcDbTrace
 10
33902.69255272901
 20
5658.870089959485
 30
0.0
 11
34031.87563152877
 21
5586.500998225087
 31
0.0
 12
34106.88158427234
 22
5586.50099822508
 32
0.0
 13
34106.88158427234
 23
5586.50099822508
 33
0.0
  0
SOLID
  5
22BE
330
2299
100
AcDbEntity
  8
HATCH
  6
CONTINUOUS
 62
   251
100
AcDbTrace
 10
33902.69255272901
 20
5700.888849112466
 30
0.0
 11
33902.69255272901
 21
5658.870089959485
 31
0.0
 12
34106.88158427234
 22
5586.50099822508
 32
0.0
 13
34106.88158427234
 23
5586.50099822508
 33
0.0
  0
SOLID
  5
22BF
330
2299
100
AcDbEntity
  8
HATCH
  6
CONTINUOUS
 62
   251
100
AcDbTrace
 10
34956.52265780301
 20
5971.639712908424
 30
0.0
 11
34142.84948474293
 21
5544.815096859247
 31
0.0
 12
34155.31374744196
 22
5530.369326639927
 32
0.0
 13
34155.31374744196
 23
5530.369326639927
 33
0.0
210
0.0
220
0.0
230
1.0
  0
SOLID
  5
22C0
330
2299
100
AcDbEntity
  8
HATCH
  6
CONTINUOUS
 62
   251
100
AcDbTrace
 10
34956.52265780301
 20
5971.639712908424
 30
0.0
 11
34155.31374744196
 21
5530.369326639927
 31
0.0
 12
34154.66266656475
 22
5522.433208440507
 32
0.0
 13
34154.66266656475
 23
5522.433208440507
 33
0.0
210
0.0
220
0.0
230
1.0
  0
SOLID
  5
22C1
330
2299
100
AcDbEntity
  8
HATCH
  6
CONTINUOUS
 62
   251
100
AcDbTrace
 10
35180.52222771262
 20
6097.125539487736
 30
0.0
 11
35180.52222771258
 21
5971.63971290843
 31
0.0
 12
35354.46605193698
 22
5971.639712908434
 32
0.0
 13
35354.46605193698
 23
5971.639712908434
 33
0.0
210
0.0
220
0.0
230
1.0
  0
SOLID
  5
22C2
330
2299
100
AcDbEntity
  8
HATCH
  6
CONTINUOUS
 62
   251
100
AcDbTrace
 10
32470.04102703315
 20
6101.839712908475
 30
0.0
 11
32441.37613081631
 21
5971.639712908436
 31
0.0
 12
32470.04102703315
 22
5971.639712908437
 32
0.0
 13
32470.04102703315
 23
5971.639712908437
 33
0.0
210
0.0
220
0.0
230
1.0
  0
SOLID
  5
22C3
330
2299
100
AcDbEntity
  8
HATCH
  6
CONTINUOUS
 62
   251
100
AcDbTrace
 10
32441.37613081627
 20
6101.839712908477
 30
0.0
 11
32441.37613081631
 21
5971.639712908436
 31
0.0
 12
32470.04102703315
 22
6101.839712908475
 32
0.0
 13
32470.04102703315
 23
6101.839712908475
 33
0.0
  0
SOLID
  5
22C4
330
2299
100
AcDbEntity
  8
HATCH
  6
CONTINUOUS
 62
   251
100
AcDbTrace
 10
35288.06318739594
 20
6157.370593629763
 30
0.0
 11
35180.52222771262
 21
6097.125539487736
 31
0.0
 12
35354.46605193698
 22
5971.639712908434
 32
0.0
 13
35354.46605193698
 23
5971.639712908434
 33
0.0
210
0.0
220
0.0
230
1.0
  0
SOLID
  5
22C5
330
2299
100
AcDbEntity
  8
HATCH
  6
CONTINUOUS
 62
   251
100
AcDbTrace
 10
35354.46605193699
 20
6167.58455542147
 30
0.0
 11
35288.06318739594
 21
6157.370593629763
 31
0.0
 12
35354.46605193698
 22
5971.639712908434
 32
0.0
 13
35354.46605193698
 23
5971.639712908434
 33
0.0
210
0.0
220
0.0
230
1.0
  0
SOLID
  5
22C6
330
2299
100
AcDbEntity
  8
HATCH
  6
CONTINUOUS
 62
   251
100
AcDbTrace
 10
35368.10367766856
 20
6202.209729194734
 30
0.0
 11
34142.84948474293
 21
5544.815096859247
 31
0.0
 12
34956.52265780301
 22
5971.639712908424
 32
0.0
 13
34956.52265780301
 23
5971.639712908424
 33
0.0
210
0.0
220
0.0
230
1.0
  0
SOLID
  5
22C7
330
2299
100
AcDbEntity
  8
HATCH
  6
CONTINUOUS
 62
   251
100
AcDbTrace
 10
35430.24064343873
 20
6266.018908746222
 30
0.0
 11
34142.84948474293
 21
5544.815096859247
 31
0.0
 12
35368.10367766856
 22
6202.209729194734
 32
0.0
 13
35368.10367766856
 23
6202.209729194734
 33
0.0
210
0.0
220
0.0
230
1.0
  0
SOLID
  5
22C8
330
2299
100
AcDbEntity
  8
HATCH
  6
CONTINUOUS
 62
   251
100
AcDbTrace
 10
33902.69255272901
 20
5658.870089959486
 30
0.0
 11
33902.69255272902
 21
5570.446891170321
 31
0.0
 12
34031.87563152877
 22
5586.500998225086
 32
0.0
 13
34031.87563152877
 23
5586.500998225086
 33
0.0
210
0.0
220
0.0
230
1.0
  0
SOLID
  5
22C9
330
2299
100
AcDbEntity
  8
HATCH
  6
CONTINUOUS
 62
   251
100
AcDbTrace
 10
33974.23335906974
 20
5530.369326639936
 30
0.0
 11
34031.87563152877
 21
5586.500998225086
 31
0.0
 12
33902.69255272902
 22
5570.446891170321
 32
0.0
 13
33902.69255272902
 23
5570.446891170321
 33
0.0
  0
SOLID
  5
22CA
330
2299
100
AcDbEntity
  8
HATCH
  6
CONTINUOUS
 62
   251
100
AcDbTrace
 10
33974.23335906974
 20
5530.369326639937
 30
0.0
 11
33902.69255272902
 21
5570.446891170323
 31
0.0
 12
33967.72082833578
 22
5450.987155405583
 32
0.0
 13
33967.72082833578
 23
5450.987155405583
 33
0.0
210
0.0
220
0.0
230
1.0
  0
SOLID
  5
22CB
330
2299
100
AcDbEntity
  8
HATCH
  6
CONTINUOUS
 62
   251
100
AcDbTrace
 10
33902.69255272902
 20
5487.416363367157
 30
0.0
 11
33967.72082833578
 21
5450.987155405583
 31
0.0
 12
33902.69255272902
 22
5570.446891170323
 32
0.0
 13
33902.69255272902
 23
5570.446891170323
 33
0.0
210
0.0
220
0.0
230
1.0
  0
SOLID
  5
22CC
330
2299
100
AcDbEntity
  8
HATCH
  6
CONTINUOUS
 62
   251
100
AcDbTrace
 10
33855.78454502353
 20
2947.639712908427
 30
0.0
 11
33871.62406984392
 21
2947.639712908424
 31
0.0
 12
33902.69255272901
 22
2947.639712908424
 32
0.0
 13
33902.69255272901
 23
2947.639712908424
 33
0.0
210
0.0
220
0.0
230
1.0
  0
SOLID
  5
22CD
330
2299
100
AcDbEntity
  8
HATCH
  6
CONTINUOUS
 62
   251
100
AcDbTrace
 10
33855.78454502353
 20
4361.639712908439
 30
0.0
 11
33855.78454502353
 21
2947.639712908427
 31
0.0
 12
33902.69255272901
 22
2947.639712908424
 32
0.0
 13
33902.69255272901
 23
2947.639712908424
 33
0.0
210
0.0
220
0.0
230
1.0
  0
SOLID
  5
22CE
330
2299
100
AcDbEntity
  8
HATCH
  6
CONTINUOUS
 62
   251
100
AcDbTrace
 10
33902.69255272903
 20
4361.639712908452
 30
0.0
 11
33855.78454502353
 21
4361.639712908439
 31
0.0
 12
33902.69255272901
 22
2947.639712908424
 32
0.0
 13
33902.69255272901
 23
2947.639712908424
 33
0.0
210
0.0
220
0.0
230
1.0
  0
SOLID
  5
22CF
330
2299
100
AcDbEntity
  8
HATCH
  6
CONTINUOUS
 62
   251
100
AcDbTrace
 10
33902.69255272903
 20
5458.416663646167
 30
0.0
 11
34016.15299150543
 21
5394.855483820421
 31
0.0
 12
33967.72082833579
 22
5450.987155405583
 32
0.0
 13
33967.72082833579
 23
5450.987155405583
 33
0.0
210
0.0
220
0.0
230
1.0
  0
SOLID
  5
22D0
330
2299
100
AcDbEntity
  8
HATCH
  6
CONTINUOUS
 62
   251
100
AcDbTrace
 10
33902.69255272902
 20
5487.416363367163
 30
0.0
 11
33902.69255272903
 21
5458.416663646167
 31
0.0
 12
33967.72082833579
 22
5450.987155405583
 32
0.0
 13
33967.72082833579
 23
5450.987155405583
 33
0.0
210
0.0
220
0.0
230
1.0
  0
SOLID
  5
22D1
330
2299
100
AcDbEntity
  8
HATCH
  6
CONTINUOUS
 62
   251
100
AcDbTrace
 10
33871.62406984392
 20
5775.639712908424
 30
0.0
 11
33855.78454502353
 21
4361.639712908439
 31
0.0
 12
33902.69255272903
 22
4361.639712908452
 32
0.0
 13
33902.69255272903
 23
4361.639712908452
 33
0.0
210
0.0
220
0.0
230
1.0
  0
SOLID
  5
22D2
330
2299
100
AcDbEntity
  8
HATCH
  6
CONTINUOUS
 62
   251
100
AcDbTrace
 10
33855.78454502351
 20
5775.639712908425
 30
0.0
 11
33855.78454502353
 21
4361.639712908439
 31
0.0
 12
33871.62406984392
 22
5775.639712908424
 32
0.0
 13
33871.62406984392
 23
5775.639712908424
 33
0.0
  0
SOLID
  5
22D3
330
2299
100
AcDbEntity
  8
HATCH
  6
CONTINUOUS
 62
   251
100
AcDbTrace
 10
33902.69255272901
 20
5775.639712908432
 30
0.0
 11
33871.62406984392
 21
5775.639712908424
 31
0.0
 12
33902.69255272903
 22
4361.639712908452
 32
0.0
 13
33902.69255272903
 23
4361.639712908452
 33
0.0
  0
SOLID
  5
22D4
330
2299
100
AcDbEntity
  8
HATCH
  6
CONTINUOUS
 62
   251
100
AcDbTrace
 10
33855.78454502353
 20
4361.639712908439
 30
0.0
 11
33796.61811710033
 21
2947.639712908438
 31
0.0
 12
33855.78454502353
 22
2947.639712908427
 32
0.0
 13
33855.78454502353
 23
2947.639712908427
 33
0.0
210
0.0
220
0.0
230
1.0
  0
SOLID
  5
22D5
330
2299
100
AcDbEntity
  8
HATCH
  6
CONTINUOUS
 62
   251
100
AcDbTrace
 10
33743.46181283232
 20
4361.639712908474
 30
0.0
 11
33796.61811710033
 21
2947.639712908438
 31
0.0
 12
33855.78454502353
 22
4361.639712908439
 32
0.0
 13
33855.78454502353
 23
4361.639712908439
 33
0.0
210
0.0
220
0.0
230
1.0
  0
SOLID
  5
22D6
330
2299
100
AcDbEntity
  8
HATCH
  6
CONTINUOUS
 62
   251
100
AcDbTrace
 10
33743.46181283232
 20
4361.639712908474
 30
0.0
 11
33743.46181283232
 21
2947.639712908433
 31
0.0
 12
33796.61811710033
 22
2947.639712908438
 32
0.0
 13
33796.61811710033
 23
2947.639712908438
 33
0.0
210
0.0
220
0.0
230
1.0
  0
SOLID
  5
22D7
330
2299
100
AcDbEntity
  8
HATCH
  6
CONTINUOUS
 62
   251
100
AcDbTrace
 10
33855.7845450235
 20
5775.639712908426
 30
0.0
 11
33743.46181283232
 21
4361.639712908474
 31
0.0
 12
33855.78454502353
 22
4361.639712908439
 32
0.0
 13
33855.78454502353
 23
4361.639712908439
 33
0.0
210
0.0
220
0.0
230
1.0
  0
SOLID
  5
22D8
330
2299
100
AcDbEntity
  8
HATCH
  6
CONTINUOUS
 62
   251
100
AcDbTrace
 10
33796.61811710033
 20
5775.639712908432
 30
0.0
 11
33743.46181283232
 21
4361.639712908474
 31
0.0
 12
33855.7845450235
 22
5775.639712908426
 32
0.0
 13
33855.7845450235
 23
5775.639712908426
 33
0.0
210
0.0
220
0.0
230
1.0
  0
SOLID
  5
22D9
330
2299
100
AcDbEntity
  8
HATCH
  6
CONTINUOUS
 62
   251
100
AcDbTrace
 10
33743.46181283232
 20
5775.639712908442
 30
0.0
 11
33743.46181283232
 21
4361.639712908474
 31
0.0
 12
33796.61811710033
 22
5775.639712908432
 32
0.0
 13
33796.61811710033
 23
5775.639712908432
 33
0.0
210
0.0
220
0.0
230
1.0
  0
SOLID
  5
22DA
330
2299
100
AcDbEntity
  8
HATCH
  6
CONTINUOUS
 62
   251
100
AcDbTrace
 10
33690.54368147176
 20
4361.639712908432
 30
0.0
 11
33721.61216435682
 21
2947.639712908431
 31
0.0
 12
33743.46181283232
 22
2947.639712908433
 32
0.0
 13
33743.46181283232
 23
2947.639712908433
 33
0.0
  0
SOLID
  5
22DB
330
2299
100
AcDbEntity
  8
HATCH
  6
CONTINUOUS
 62
   251
100
AcDbTrace
 10
33690.54368147176
 20
4361.639712908432
 30
0.0
 11
33690.54368147172
 21
2947.639712908424
 31
0.0
 12
33721.61216435682
 22
2947.639712908431
 32
0.0
 13
33721.61216435682
 23
2947.639712908431
 33
0.0
210
0.0
220
0.0
230
1.0
  0
SOLID
  5
22DC
330
2299
100
AcDbEntity
  8
HATCH
  6
CONTINUOUS
 62
   251
100
AcDbTrace
 10
33743.46181283232
 20
4361.639712908474
 30
0.0
 11
33690.54368147176
 21
4361.639712908432
 31
0.0
 12
33743.46181283232
 22
2947.639712908433
 32
0.0
 13
33743.46181283232
 23
2947.639712908433
 33
0.0
210
0.0
220
0.0
230
1.0
  0
SOLID
  5
22DD
330
2299
100
AcDbEntity
  8
HATCH
  6
CONTINUOUS
 62
   251
100
AcDbTrace
 10
33690.54368147172
 20
5462.884553057525
 30
0.0
 11
33486.35351550993
 21
5390.514825815518
 31
0.0
 12
33561.35946825352
 22
5390.514825815511
 32
0.0
 13
33561.35946825352
 23
5390.514825815511
 33
0.0
210
0.0
220
0.0
230
1.0
  0
SOLID
  5
22DE
330
2299
100
AcDbEntity
  8
HATCH
  6
CONTINUOUS
 62
   251
100
AcDbTrace
 10
33690.54368147172
 20
5504.903312210519
 30
0.0
 11
33486.35351550993
 21
5390.514825815518
 31
0.0
 12
33690.54368147172
 22
5462.884553057525
 32
0.0
 13
33690.54368147172
 23
5462.884553057525
 33
0.0
210
0.0
220
0.0
230
1.0
  0
SOLID
  5
22DF
330
2299
100
AcDbEntity
  8
HATCH
  6
CONTINUOUS
 62
   251
100
AcDbTrace
 10
33690.54368147172
 20
5775.639712908439
 30
0.0
 11
33690.54368147176
 21
4361.639712908432
 31
0.0
 12
33743.46181283232
 22
4361.639712908474
 32
0.0
 13
33743.46181283232
 23
4361.639712908474
 33
0.0
210
0.0
220
0.0
230
1.0
  0
SOLID
  5
22E0
330
2299
100
AcDbEntity
  8
HATCH
  6
CONTINUOUS
 62
   251
100
AcDbTrace
 10
33743.46181283232
 20
5775.639712908443
 30
0.0
 11
33690.54368147172
 21
5775.639712908439
 31
0.0
 12
33743.46181283232
 22
4361.639712908474
 32
0.0
 13
33743.46181283232
 23
4361.639712908474
 33
0.0
210
0.0
220
0.0
230
1.0
  0
SOLID
  5
22E1
330
2299
100
AcDbEntity
  8
HATCH
  6
CONTINUOUS
 62
   251
100
AcDbTrace
 10
33721.6121643568
 20
5775.639712908446
 30
0.0
 11
33690.54368147172
 21
5775.639712908439
 31
0.0
 12
33743.46181283232
 22
5775.639712908443
 32
0.0
 13
33743.46181283232
 23
5775.639712908443
 33
0.0
210
0.0
220
0.0
230
1.0
  0
SOLID
  5
22E2
330
2299
100
AcDbEntity
  8
HATCH
  6
CONTINUOUS
 62
   251
100
AcDbTrace
 10
33690.54368147173
 20
5462.884553057534
 30
0.0
 11
33561.35946825353
 21
5390.514825815512
 31
0.0
 12
33690.54368147172
 22
5374.461354268317
 32
0.0
 13
33690.54368147172
 23
5374.461354268317
 33
0.0
210
0.0
220
0.0
230
1.0
  0
SOLID
  5
22E3
330
2299
100
AcDbEntity
  8
HATCH
  6
CONTINUOUS
 62
   251
100
AcDbTrace
 10
33619.00174071252
 20
5334.383154230385
 30
0.0
 11
33690.54368147172
 21
5374.461354268317
 31
0.0
 12
33561.35946825353
 22
5390.514825815512
 32
0.0
 13
33561.35946825353
 23
5390.514825815512
 33
0.0
210
0.0
220
0.0
230
1.0
  0
SOLID
  5
22E4
330
2299
100
AcDbEntity
  8
HATCH
  6
CONTINUOUS
 62
   251
100
AcDbTrace
 10
33625.51427144651
 20
3468.27844282089
 30
0.0
 11
33690.54368147173
 21
3431.848599351687
 31
0.0
 12
33690.54368147173
 22
3460.848299072684
 32
0.0
 13
33690.54368147173
 23
3460.848299072684
 33
0.0
  0
SOLID
  5
22E5
330
2299
100
AcDbEntity
  8
HATCH
  6
CONTINUOUS
 62
   251
100
AcDbTrace
 10
33577.08210827674
 20
3524.410114406107
 30
0.0
 11
33625.51427144651
 21
3468.27844282089
 31
0.0
 12
33690.54368147173
 22
3460.848299072684
 32
0.0
 13
33690.54368147173
 23
3460.848299072684
 33
0.0
210
0.0
220
0.0
230
1.0
  0
SOLID
  5
22E6
330
2299
100
AcDbEntity
  8
HATCH
  6
CONTINUOUS
 62
   251
100
AcDbTrace
 10
33690.54368147172
 20
5262.431126744253
 30
0.0
 11
33625.51427144649
 21
5255.000982995959
 31
0.0
 12
33577.08210827681
 22
5198.869311410801
 32
0.0
 13
33577.08210827681
 23
5198.869311410801
 33
0.0
210
0.0
220
0.0
230
1.0
  0
SOLID
  5
22E7
330
2299
100
AcDbEntity
  8
HATCH
  6
CONTINUOUS
 62
   251
100
AcDbTrace
 10
33690.54368147172
 20
5291.430826465168
 30
0.0
 11
33625.51427144649
 21
5255.000982995959
 31
0.0
 12
33690.54368147172
 22
5262.431126744253
 32
0.0
 13
33690.54368147172
 23
5262.431126744253
 33
0.0
  0
SOLID
  5
22E8
330
2299
100
AcDbEntity
  8
HATCH
  6
CONTINUOUS
 62
   251
100
AcDbTrace
 10
33619.00174071251
 20
5334.383154230376
 30
0.0
 11
33625.51427144649
 21
5255.000982995962
 31
0.0
 12
33690.54368147172
 22
5291.430826465168
 32
0.0
 13
33690.54368147172
 23
5291.430826465168
 33
0.0
210
0.0
220
0.0
230
1.0
  0
SOLID
  5
22E9
330
2299
100
AcDbEntity
  8
HATCH
  6
CONTINUOUS
 62
   251
100
AcDbTrace
 10
33690.54368147172
 20
5374.46135426832
 30
0.0
 11
33619.00174071251
 21
5334.383154230376
 31
0.0
 12
33690.54368147172
 22
5291.430826465168
 32
0.0
 13
33690.54368147172
 23
5291.430826465168
 33
0.0
210
0.0
220
0.0
230
1.0
  0
SOLID
  5
22EA
330
2299
100
AcDbEntity
  8
HATCH
  6
CONTINUOUS
 62
   251
100
AcDbTrace
 10
33690.54368147173
 20
3431.848599351688
 30
0.0
 11
33625.5142714465
 21
3468.278442820887
 31
0.0
 12
33690.54368147173
 22
3348.818071548537
 32
0.0
 13
33690.54368147173
 23
3348.818071548537
 33
0.0
210
0.0
220
0.0
230
1.0
  0
SOLID
  5
22EB
330
2299
100
AcDbEntity
  8
HATCH
  6
CONTINUOUS
 62
   251
100
AcDbTrace
 10
33619.00174071248
 20
3388.896271586507
 30
0.0
 11
33690.54368147173
 21
3348.818071548537
 31
0.0
 12
33625.5142714465
 22
3468.278442820887
 32
0.0
 13
33625.5142714465
 23
3468.278442820887
 33
0.0
210
0.0
220
0.0
230
1.0
  0
SOLID
  5
22EC
330
2299
100
AcDbEntity
  8
HATCH
  6
CONTINUOUS
 62
   251
100
AcDbTrace
 10
33690.54368147173
 20
3348.818071548535
 30
0.0
 11
33619.00174071251
 21
3388.896271586495
 31
0.0
 12
33690.54368147172
 22
3260.394872759374
 32
0.0
 13
33690.54368147172
 23
3260.394872759374
 33
0.0
210
0.0
220
0.0
230
1.0
  0
SOLID
  5
22ED
330
2299
100
AcDbEntity
  8
HATCH
  6
CONTINUOUS
 62
   251
100
AcDbTrace
 10
33561.35946825353
 20
3332.764600001373
 30
0.0
 11
33690.54368147172
 21
3260.394872759374
 31
0.0
 12
33619.00174071251
 22
3388.896271586495
 32
0.0
 13
33619.00174071251
 23
3388.896271586495
 33
0.0
210
0.0
220
0.0
230
1.0
  0
SOLID
  5
22EE
330
2299
100
AcDbEntity
  8
HATCH
  6
CONTINUOUS
 62
   251
100
AcDbTrace
 10
33902.69255272903
 20
3264.862762170707
 30
0.0
 11
33902.69255272901
 21
3264.862762170703
 31
0.0
 12
33902.69255272901
 22
3235.863062449684
 32
0.0
 13
33902.69255272901
 23
3235.863062449684
 33
0.0
210
0.0
220
0.0
230
1.0
  0
SOLID
  5
22EF
330
2299
100
AcDbEntity
  8
HATCH
  6
CONTINUOUS
 62
   251
100
AcDbTrace
 10
33967.72082833577
 20
3272.292270411309
 30
0.0
 11
33902.69255272903
 21
3264.862762170707
 31
0.0
 12
33902.69255272901
 22
3235.863062449684
 32
0.0
 13
33902.69255272901
 23
3235.863062449684
 33
0.0
210
0.0
220
0.0
230
1.0
  0
SOLID
  5
22F0
330
2299
100
AcDbEntity
  8
HATCH
  6
CONTINUOUS
 62
   251
100
AcDbTrace
 10
33945.65788011245
 20
3288.932181692997
 30
0.0
 11
33902.69255272903
 21
3264.862762170707
 31
0.0
 12
33967.72082833577
 22
3272.292270411309
 32
0.0
 13
33967.72082833577
 23
3272.292270411309
 33
0.0
210
0.0
220
0.0
230
1.0
  0
SOLID
  5
22F1
330
2299
100
AcDbEntity
  8
HATCH
  6
CONTINUOUS
 62
   251
100
AcDbTrace
 10
33971.54096365301
 20
3303.432031553576
 30
0.0
 11
33902.69255272901
 21
3264.862762170703
 31
0.0
 12
33902.69255272903
 22
3264.862762170707
 32
0.0
 13
33902.69255272903
 23
3264.862762170707
 33
0.0
210
0.0
220
0.0
230
1.0
  0
SOLID
  5
22F2
330
2299
100
AcDbEntity
  8
HATCH
  6
CONTINUOUS
 62
   251
100
AcDbTrace
 10
-33902.69255272902
 20
3313.001601215306
 30
0.0
 11
-33971.54096365301
 21
3303.432031553576
 31
0.0
 12
-33902.69255272903
 22
3264.862762170707
 32
0.0
 13
-33902.69255272903
 23
3264.862762170707
 33
0.0
210
0.0
220
0.0
230
-1.0
  0
SOLID
  5
22F3
330
2299
100
AcDbEntity
  8
HATCH
  6
CONTINUOUS
 62
   251
100
AcDbTrace
 10
33967.72082833577
 20
3272.292270411309
 30
0.0
 11
33902.69255272902
 21
3235.863062449687
 31
0.0
 12
33974.23335906975
 22
3192.910099176915
 32
0.0
 13
33974.23335906975
 23
3192.910099176915
 33
0.0
210
0.0
220
0.0
230
1.0
  0
SOLID
  5
22F4
330
2299
100
AcDbEntity
  8
HATCH
  6
CONTINUOUS
 62
   251
100
AcDbTrace
 10
33902.69255272901
 20
3152.832534646535
 30
0.0
 11
33974.23335906975
 21
3192.910099176915
 31
0.0
 12
33902.69255272902
 22
3235.863062449687
 32
0.0
 13
33902.69255272902
 23
3235.863062449687
 33
0.0
210
0.0
220
0.0
230
1.0
  0
SOLID
  5
22F5
330
2299
100
AcDbEntity
  8
HATCH
  6
CONTINUOUS
 62
   251
100
AcDbTrace
 10
33974.23335906975
 20
3192.910099176918
 30
0.0
 11
33902.69255272901
 21
3152.832534646535
 31
0.0
 12
34031.87563152877
 22
3136.77842759176
 32
0.0
 13
34031.87563152877
 23
3136.77842759176
 33
0.0
210
0.0
220
0.0
230
1.0
  0
SOLID
  5
22F6
330
2299
100
AcDbEntity
  8
HATCH
  6
CONTINUOUS
 62
   251
100
AcDbTrace
 10
33902.69255272901
 20
3064.409335857367
 30
0.0
 11
34031.87563152877
 21
3136.77842759176
 31
0.0
 12
33902.69255272901
 22
3152.832534646535
 32
0.0
 13
33902.69255272901
 23
3152.832534646535
 33
0.0
210
0.0
220
0.0
230
1.0
  0
SOLID
  5
22F7
330
2299
100
AcDbEntity
  8
HATCH
  6
CONTINUOUS
 62
   251
100
AcDbTrace
 10
34031.87563152876
 20
3136.778427591759
 30
0.0
 11
33902.69255272901
 21
3064.40933585737
 31
0.0
 12
33902.69255272901
 22
3022.39057670439
 32
0.0
 13
33902.69255272901
 23
3022.39057670439
 33
0.0
210
0.0
220
0.0
230
1.0
  0
SOLID
  5
22F8
330
2299
100
AcDbEntity
  8
HATCH
  6
CONTINUOUS
 62
   251
100
AcDbTrace
 10
34106.8815842723
 20
3136.778427591767
 30
0.0
 11
34031.87563152876
 21
3136.778427591759
 31
0.0
 12
33902.69255272901
 22
3022.39057670439
 32
0.0
 13
33902.69255272901
 23
3022.39057670439
 33
0.0
210
0.0
220
0.0
230
1.0
  0
SOLID
  5
22F9
330
2299
100
AcDbEntity
  8
HATCH
  6
CONTINUOUS
 62
   251
100
AcDbTrace
 10
34142.84948474294
 20
3178.464328957636
 30
0.0
 11
35430.24064343871
 21
2457.260517070659
 31
0.0
 12
35368.10367766855
 22
2521.069696622099
 32
0.0
 13
35368.10367766855
 23
2521.069696622099
 33
0.0
  0
SOLID
  5
22FA
330
2299
100
AcDbEntity
  8
HATCH
  6
CONTINUOUS
 62
   251
100
AcDbTrace
 10
34155.31374744197
 20
3192.910099176948
 30
0.0
 11
34142.84948474294
 21
3178.464328957636
 31
0.0
 12
35368.10367766855
 22
2521.069696622099
 32
0.0
 13
35368.10367766855
 23
2521.069696622099
 33
0.0
210
0.0
220
0.0
230
1.0
  0
SOLID
  5
22FB
330
2299
100
AcDbEntity
  8
HATCH
  6
CONTINUOUS
 62
   251
100
AcDbTrace
 10
34154.66266656475
 20
3200.846217376438
 30
0.0
 11
34155.31374744197
 21
3192.910099176948
 31
0.0
 12
35368.10367766855
 22
2521.069696622099
 32
0.0
 13
35368.10367766855
 23
2521.069696622099
 33
0.0
210
0.0
220
0.0
230
1.0
  0
SOLID
  5
22FC
330
2299
100
AcDbEntity
  8
HATCH
  6
CONTINUOUS
 62
   251
100
AcDbTrace
 10
34087.96424137968
 20
3126.1808250583
 30
0.0
 11
35430.24064343873
 21
2374.229989267494
 31
0.0
 12
35430.24064343871
 22
2457.260517070655
 32
0.0
 13
35430.24064343871
 23
2457.260517070655
 33
0.0
  0
SOLID
  5
22FD
330
2299
100
AcDbEntity
  8
HATCH
  6
CONTINUOUS
 62
   251
100
AcDbTrace
 10
34106.88158427231
 20
3136.778427591762
 30
0.0
 11
34087.96424137968
 21
3126.1808250583
 31
0.0
 12
35430.24064343871
 22
2457.260517070655
 32
0.0
 13
35430.24064343871
 23
2457.260517070655
 33
0.0
210
0.0
220
0.0
230
1.0
  0
SOLID
  5
22FE
330
2299
100
AcDbEntity
  8
HATCH
  6
CONTINUOUS
 62
   251
100
AcDbTrace
 10
34142.84948474294
 20
3178.464328957634
 30
0.0
 11
34106.88158427231
 21
3136.778427591762
 31
0.0
 12
35430.24064343871
 22
2457.260517070655
 32
0.0
 13
35430.24064343871
 23
2457.260517070655
 33
0.0
210
0.0
220
0.0
230
1.0
  0
SOLID
  5
22FF
330
2299
100
AcDbEntity
  8
HATCH
  6
CONTINUOUS
 62
   251
100
AcDbTrace
 10
34087.96424137967
 20
3126.180825058304
 30
0.0
 11
34009.04394002481
 21
3081.969225663693
 31
0.0
 12
35430.24064343872
 22
2374.229989267495
 32
0.0
 13
35430.24064343872
 23
2374.229989267495
 33
0.0
210
0.0
220
0.0
230
1.0
  0
SOLID
  5
2300
330
2299
100
AcDbEntity
  8
HATCH
  6
CONTINUOUS
 62
   251
100
AcDbTrace
 10
35368.10367766851
 20
2320.616270308785
 30
0.0
 11
35430.24064343872
 21
2374.229989267495
 31
0.0
 12
34009.04394002481
 22
3081.969225663693
 32
0.0
 13
34009.04394002481
 23
3081.969225663693
 33
0.0
210
0.0
220
0.0
230
1.0
  0
SOLID
  5
2301
330
2299
100
AcDbEntity
  8
HATCH
  6
CONTINUOUS
 62
   251
100
AcDbTrace
 10
34516.05021631575
 20
2751.639712908461
 30
0.0
 11
33419.38636033954
 21
2751.639712908446
 31
0.0
 12
34459.80001391575
 22
2751.639712908446
 32
0.0
 13
34459.80001391575
 23
2751.639712908446
 33
0.0
210
0.0
220
0.0
230
1.0
  0
SOLID
  5
2302
330
2299
100
AcDbEntity
  8
HATCH
  6
CONTINUOUS
 62
   251
100
AcDbTrace
 10
34516.05021631578
 20
2755.922681604946
 30
0.0
 11
33419.38636033954
 21
2751.639712908446
 31
0.0
 12
34516.05021631575
 22
2751.639712908461
 32
0.0
 13
34516.05021631575
 23
2751.639712908461
 33
0.0
210
0.0
220
0.0
230
1.0
  0
SOLID
  5
2303
330
2299
100
AcDbEntity
  8
HATCH
  6
CONTINUOUS
 62
   251
100
AcDbTrace
 10
33661.79733553019
 20
2887.43971290842
 30
0.0
 11
33419.38636033954
 21
2751.639712908446
 31
0.0
 12
34516.05021631578
 22
2755.922681604946
 32
0.0
 13
34516.05021631578
 23
2755.922681604946
 33
0.0
210
0.0
220
0.0
230
1.0
  0
SOLID
  5
2304
330
2299
100
AcDbEntity
  8
HATCH
  6
CONTINUOUS
 62
   251
100
AcDbTrace
 10
34281.2845917761
 20
2887.439712908449
 30
0.0
 11
33661.79733553019
 21
2887.43971290842
 31
0.0
 12
34516.05021631578
 22
2755.922681604946
 32
0.0
 13
34516.05021631578
 23
2755.922681604946
 33
0.0
210
0.0
220
0.0
230
1.0
  0
SOLID
  5
2305
330
2299
100
AcDbEntity
  8
HATCH
  6
CONTINUOUS
 62
   251
100
AcDbTrace
 10
33694.25191818046
 20
2947.639712908425
 30
0.0
 11
32225.13255653236
 21
2124.630733406312
 31
0.0
 12
32313.00749624926
 22
2131.840012728755
 32
0.0
 13
32313.00749624926
 23
2131.840012728755
 33
0.0
210
0.0
220
0.0
230
1.0
  0
SOLID
  5
2306
330
2299
100
AcDbEntity
  8
HATCH
  6
CONTINUOUS
 62
   251
100
AcDbTrace
 10
33721.61216435682
 20
2947.639712908431
 30
0.0
 11
33694.25191818046
 21
2947.639712908425
 31
0.0
 12
32313.00749624926
 22
2131.840012728755
 32
0.0
 13
32313.00749624926
 23
2131.840012728755
 33
0.0
210
0.0
220
0.0
230
1.0
  0
SOLID
  5
2307
330
2299
100
AcDbEntity
  8
HATCH
  6
CONTINUOUS
 62
   251
100
AcDbTrace
 10
33769.25787092404
 20
2947.639712908435
 30
0.0
 11
33721.61216435682
 21
2947.639712908431
 31
0.0
 12
32313.00749624926
 22
2131.840012728755
 32
0.0
 13
32313.00749624926
 23
2131.840012728755
 33
0.0
210
0.0
220
0.0
230
1.0
  0
SOLID
  5
2308
330
2299
100
AcDbEntity
  8
HATCH
  6
CONTINUOUS
 62
   251
100
AcDbTrace
 10
33971.54096365304
 20
3060.959846087213
 30
0.0
 11
35280.22873795161
 21
2327.825549631266
 31
0.0
 12
35368.10367766852
 22
2320.616270308784
 32
0.0
 13
35368.10367766852
 23
2320.616270308784
 33
0.0
210
0.0
220
0.0
230
1.0
  0
SOLID
  5
2309
330
2299
100
AcDbEntity
  8
HATCH
  6
CONTINUOUS
 62
   251
100
AcDbTrace
 10
34009.04394002481
 20
3081.969225663693
 30
0.0
 11
33971.54096365304
 21
3060.959846087213
 31
0.0
 12
35368.10367766852
 22
2320.616270308784
 32
0.0
 13
35368.10367766852
 23
2320.616270308784
 33
0.0
210
0.0
220
0.0
230
1.0
  0
SOLID
  5
230A
330
2299
100
AcDbEntity
  8
HATCH
  6
CONTINUOUS
 62
   251
100
AcDbTrace
 10
33690.54368147171
 20
2947.639712908424
 30
0.0
 11
32162.99559076216
 21
2178.244452364964
 31
0.0
 12
32225.13255653236
 22
2124.630733406311
 32
0.0
 13
32225.13255653236
 23
2124.630733406311
 33
0.0
210
0.0
220
0.0
230
1.0
  0
SOLID
  5
230B
330
2299
100
AcDbEntity
  8
HATCH
  6
CONTINUOUS
 62
   251
100
AcDbTrace
 10
33694.25191818045
 20
2947.639712908424
 30
0.0
 11
33690.54368147171
 21
2947.639712908424
 31
0.0
 12
32225.13255653236
 22
2124.630733406311
 32
0.0
 13
32225.13255653236
 23
2124.630733406311
 33
0.0
210
0.0
220
0.0
230
1.0
  0
SOLID
  5
230C
330
2299
100
AcDbEntity
  8
HATCH
  6
CONTINUOUS
 62
   251
100
AcDbTrace
 10
33690.54368147172
 20
3033.985536510126
 30
0.0
 11
32162.99559076216
 21
2178.244452364964
 31
0.0
 12
33690.54368147171
 22
2947.639712908424
 32
0.0
 13
33690.54368147171
 23
2947.639712908424
 33
0.0
210
0.0
220
0.0
230
1.0
  0
SOLID
  5
230D
330
2299
100
AcDbEntity
  8
HATCH
  6
CONTINUOUS
 62
   251
100
AcDbTrace
 10
33690.54368147172
 20
3033.985536510127
 30
0.0
 11
33690.54368147172
 21
3117.016064313276
 31
0.0
 12
32162.99559076216
 22
2178.244452364964
 32
0.0
 13
32162.99559076216
 23
2178.244452364964
 33
0.0
210
0.0
220
0.0
230
1.0
  0
SOLID
  5
230E
330
2299
100
AcDbEntity
  8
HATCH
  6
CONTINUOUS
 62
   251
100
AcDbTrace
 10
32162.99559076218
 20
2261.274980168107
 30
0.0
 11
32162.99559076216
 21
2178.244452364964
 31
0.0
 12
33690.54368147172
 22
3117.016064313276
 32
0.0
 13
33690.54368147172
 23
3117.016064313276
 33
0.0
  0
SOLID
  5
230F
330
2299
100
AcDbEntity
  8
HATCH
  6
CONTINUOUS
 62
   251
100
AcDbTrace
 10
32511.73364799621
 20
2485.639712908482
 30
0.0
 11
32225.13255653233
 21
2325.08415971964
 31
0.0
 12
32162.99559076219
 22
2261.274980168118
 32
0.0
 13
32162.99559076219
 23
2261.274980168118
 33
0.0
210
0.0
220
0.0
230
1.0
  0
SOLID
  5
2310
330
2299
100
AcDbEntity
  8
HATCH
  6
CONTINUOUS
 62
   251
100
AcDbTrace
 10
32513.60413278955
 20
2486.687569073934
 30
0.0
 11
32511.73364799621
 21
2485.639712908482
 31
0.0
 12
32162.99559076219
 22
2261.274980168118
 32
0.0
 13
32162.99559076219
 23
2261.274980168118
 33
0.0
210
0.0
220
0.0
230
1.0
  0
SOLID
  5
2311
330
2299
100
AcDbEntity
  8
HATCH
  6
CONTINUOUS
 62
   251
100
AcDbTrace
 10
35180.52222771262
 20
2626.153886329114
 30
0.0
 11
35288.06318739587
 21
2565.908832187118
 31
0.0
 12
35354.46605193698
 22
2555.694870395445
 32
0.0
 13
35354.46605193698
 23
2555.694870395445
 33
0.0
210
0.0
220
0.0
230
1.0
  0
SOLID
  5
2312
330
2299
100
AcDbEntity
  8
HATCH
  6
CONTINUOUS
 62
   251
100
AcDbTrace
 10
35180.52222771256
 20
2751.639712908438
 30
0.0
 11
35180.52222771262
 21
2626.153886329114
 31
0.0
 12
35354.46605193698
 22
2555.694870395445
 32
0.0
 13
35354.46605193698
 23
2555.694870395445
 33
0.0
210
0.0
220
0.0
230
1.0
  0
SOLID
  5
2313
330
2299
100
AcDbEntity
  8
HATCH
  6
CONTINUOUS
 62
   251
100
AcDbTrace
 10
35354.46605193698
 20
2751.639712908445
 30
0.0
 11
35180.52222771256
 21
2751.639712908438
 31
0.0
 12
35354.46605193698
 22
2555.694870395445
 32
0.0
 13
35354.46605193698
 23
2555.694870395445
 33
0.0
  0
SOLID
  5
2314
330
2299
100
AcDbEntity
  8
HATCH
  6
CONTINUOUS
 62
   251
100
AcDbTrace
 10
33690.54368147172
 20
3117.01606431328
 30
0.0
 11
32513.60413278955
 21
2486.687569073934
 31
0.0
 12
32162.99559076219
 22
2261.274980168118
 32
0.0
 13
32162.99559076219
 23
2261.274980168118
 33
0.0
210
0.0
220
0.0
230
1.0
  0
SOLID
  5
2315
330
2299
100
AcDbEntity
  8
HATCH
  6
CONTINUOUS
 62
   251
100
AcDbTrace
 10
33690.54368147172
 20
3146.015764034277
 30
0.0
 11
32513.60413278955
 21
2486.687569073934
 31
0.0
 12
33690.54368147172
 22
3117.01606431328
 32
0.0
 13
33690.54368147172
 23
3117.01606431328
 33
0.0
210
0.0
220
0.0
230
1.0
  0
SOLID
  5
2316
330
2299
100
AcDbEntity
  8
HATCH
  6
CONTINUOUS
 62
   251
100
AcDbTrace
 10
32441.37613081631
 20
2446.225033661747
 30
0.0
 11
32308.63591940738
 21
2411.038564877639
 31
0.0
 12
32398.61262502524
 22
2422.268675737534
 32
0.0
 13
32398.61262502524
 23
2422.268675737534
 33
0.0
210
0.0
220
0.0
230
1.0
  0
SOLID
  5
2317
330
2299
100
AcDbEntity
  8
HATCH
  6
CONTINUOUS
 62
   251
100
AcDbTrace
 10
34979.96940900937
 20
2485.639712908468
 30
0.0
 11
32944.56073883201
 21
2485.639712908461
 31
0.0
 12
34923.71920723916
 22
2485.639712908468
 32
0.0
 13
34923.71920723916
 23
2485.639712908468
 33
0.0
210
0.0
220
0.0
230
1.0
  0
SOLID
  5
2318
330
2299
100
AcDbEntity
  8
HATCH
  6
CONTINUOUS
 62
   251
100
AcDbTrace
 10
32441.37613081631
 20
2485.639712908478
 30
0.0
 11
32308.63591940738
 21
2411.038564877639
 31
0.0
 12
32441.37613081631
 22
2446.225033661747
 32
0.0
 13
32441.37613081631
 23
2446.225033661747
 33
0.0
210
0.0
220
0.0
230
1.0
  0
SOLID
  5
2319
330
2299
100
AcDbEntity
  8
HATCH
  6
CONTINUOUS
 62
   251
100
AcDbTrace
 10
32431.42415523632
 20
2485.639712908482
 30
0.0
 11
32308.63591940738
 21
2411.038564877639
 31
0.0
 12
32441.37613081631
 22
2485.639712908478
 32
0.0
 13
32441.37613081631
 23
2485.639712908478
 33
0.0
210
0.0
220
0.0
230
1.0
  0
SOLID
  5
231A
330
2299
100
AcDbEntity
  8
HATCH
  6
CONTINUOUS
 62
   251
100
AcDbTrace
 10
34979.96940900937
 20
2496.032524741422
 30
0.0
 11
32944.56073883201
 21
2485.639712908461
 31
0.0
 12
34979.96940900937
 22
2485.639712908468
 32
0.0
 13
34979.96940900937
 23
2485.639712908468
 33
0.0
210
0.0
220
0.0
230
1.0
  0
SOLID
  5
231B
330
2299
100
AcDbEntity
  8
HATCH
  6
CONTINUOUS
 62
   251
100
AcDbTrace
 10
35288.06318739586
 20
2565.908832187119
 30
0.0
 11
35328.13111985859
 21
2543.462549694531
 31
0.0
 12
35354.46605193704
 22
2555.694870395432
 32
0.0
 13
35354.46605193704
 23
2555.694870395432
 33
0.0
210
0.0
220
0.0
230
1.0
  0
SOLID
  5
231C
330
2299
100
AcDbEntity
  8
HATCH
  6
CONTINUOUS
 62
   251
100
AcDbTrace
 10
33186.97171402266
 20
2621.439712908435
 30
0.0
 11
32944.56073883201
 21
2485.639712908461
 31
0.0
 12
34979.96940900937
 22
2496.032524741422
 32
0.0
 13
34979.96940900937
 23
2496.032524741422
 33
0.0
210
0.0
220
0.0
230
1.0
  0
SOLID
  5
231D
330
2299
100
AcDbEntity
  8
HATCH
  6
CONTINUOUS
 62
   251
100
AcDbTrace
 10
34756.11021328394
 20
2621.439712908456
 30
0.0
 11
33186.97171402266
 21
2621.439712908435
 31
0.0
 12
34979.96940900937
 22
2496.032524741422
 32
0.0
 13
34979.96940900937
 23
2496.032524741422
 33
0.0
210
0.0
220
0.0
230
1.0
  0
SOLID
  5
231E
330
2299
100
AcDbEntity
  8
HATCH
  6
CONTINUOUS
 62
   251
100
AcDbTrace
 10
32431.42415523631
 20
2621.439712908469
 30
0.0
 11
32308.63591940738
 21
2411.038564877639
 31
0.0
 12
32431.42415523632
 22
2485.639712908482
 32
0.0
 13
32431.42415523632
 23
2485.639712908482
 33
0.0
210
0.0
220
0.0
230
1.0
  0
SOLID
  5
231F
330
2299
100
AcDbEntity
  8
HATCH
  6
CONTINUOUS
 62
   251
100
AcDbTrace
 10
32308.63591940736
 20
2751.639712908438
 30
0.0
 11
32308.63591940738
 21
2411.038564877639
 31
0.0
 12
32431.42415523631
 22
2621.439712908469
 32
0.0
 13
32431.42415523631
 23
2621.439712908469
 33
0.0
210
0.0
220
0.0
230
1.0
  0
SOLID
  5
2320
330
2299
100
AcDbEntity
  8
HATCH
  6
CONTINUOUS
 62
   251
100
AcDbTrace
 10
32431.42415523631
 20
2621.439712908469
 30
0.0
 11
32441.37613081631
 21
2751.639712908438
 31
0.0
 12
32308.63591940736
 22
2751.639712908438
 32
0.0
 13
32308.63591940736
 23
2751.639712908438
 33
0.0
210
0.0
220
0.0
230
1.0
  0
SOLID
  5
2321
330
2299
100
AcDbEntity
  8
HATCH
  6
CONTINUOUS
 62
   251
100
AcDbTrace
 10
32441.37613081631
 20
2751.639712908438
 30
0.0
 11
32431.42415523631
 21
2621.439712908469
 31
0.0
 12
32441.37613081629
 22
2621.439712908469
 32
0.0
 13
32441.37613081629
 23
2621.439712908469
 33
0.0
210
0.0
220
0.0
230
1.0
  0
SOLID
  5
2322
330
2299
100
AcDbEntity
  8
HATCH
  6
CONTINUOUS
 62
   251
100
AcDbTrace
 10
32398.61262502524
 20
2422.268675737533
 30
0.0
 11
32308.63591940739
 21
2411.038564877641
 31
0.0
 12
32336.71165213676
 22
2387.591400454753
 32
0.0
 13
32336.71165213676
 23
2387.591400454753
 33
0.0
  0
SOLID
  5
2323
330
2299
100
AcDbEntity
  8
HATCH
  6
CONTINUOUS
 62
   251
100
AcDbTrace
 10
32470.04102703317
 20
2485.639712908468
 30
0.0
 11
32441.37613081631
 21
2446.225033661749
 31
0.0
 12
32470.04102703313
 22
2462.283270724578
 32
0.0
 13
32470.04102703313
 23
2462.283270724578
 33
0.0
  0
SOLID
  5
2324
330
2299
100
AcDbEntity
  8
HATCH
  6
CONTINUOUS
 62
   251
100
AcDbTrace
 10
32441.37613081631
 20
2485.639712908479
 30
0.0
 11
32441.37613081631
 21
2446.225033661749
 31
0.0
 12
32470.04102703317
 22
2485.639712908468
 32
0.0
 13
32470.04102703317
 23
2485.639712908468
 33
0.0
210
0.0
220
0.0
230
1.0
  0
SOLID
  5
2325
330
2299
100
AcDbEntity
  8
HATCH
  6
CONTINUOUS
 62
   251
100
AcDbTrace
 10
32754.14462318689
 20
2621.439712908456
 30
0.0
 11
32431.42415523631
 21
2485.639712908481
 31
0.0
 12
32511.73364799622
 22
2485.639712908453
 32
0.0
 13
32511.73364799622
 23
2485.639712908453
 33
0.0
210
0.0
220
0.0
230
1.0
  0
SOLID
  5
2326
330
2299
100
AcDbEntity
  8
HATCH
  6
CONTINUOUS
 62
   251
100
AcDbTrace
 10
32470.04102703315
 20
2621.439712908468
 30
0.0
 11
32431.42415523631
 21
2485.639712908481
 31
0.0
 12
32754.14462318689
 22
2621.439712908456
 32
0.0
 13
32754.14462318689
 23
2621.439712908456
 33
0.0
210
0.0
220
0.0
230
1.0
  0
SOLID
  5
2327
330
2299
100
AcDbEntity
  8
HATCH
  6
CONTINUOUS
 62
   251
100
AcDbTrace
 10
32441.37613081628
 20
2621.439712908469
 30
0.0
 11
32431.42415523631
 21
2485.639712908481
 31
0.0
 12
32470.04102703315
 22
2621.439712908468
 32
0.0
 13
32470.04102703315
 23
2621.439712908468
 33
0.0
210
0.0
220
0.0
230
1.0
  0
SOLID
  5
2328
330
2299
100
AcDbEntity
  8
HATCH
  6
CONTINUOUS
 62
   251
100
AcDbTrace
 10
32431.42415523631
 20
2621.43971290847
 30
0.0
 11
32431.42415523631
 21
2485.639712908481
 31
0.0
 12
32441.37613081628
 22
2621.439712908469
 32
0.0
 13
32441.37613081628
 23
2621.439712908469
 33
0.0
210
0.0
220
0.0
230
1.0
  0
SOLID
  5
2329
330
2299
100
AcDbEntity
  8
HATCH
  6
CONTINUOUS
 62
   251
100
AcDbTrace
 10
32986.55926950372
 20
2751.639712908461
 30
0.0
 11
32441.37613081631
 21
2751.639712908438
 31
0.0
 12
32895.70496251575
 22
2751.639712908438
 32
0.0
 13
32895.70496251575
 23
2751.639712908438
 33
0.0
210
0.0
220
0.0
230
1.0
  0
SOLID
  5
232A
330
2299
100
AcDbEntity
  8
HATCH
  6
CONTINUOUS
 62
   251
100
AcDbTrace
 10
32441.37613081627
 20
2753.739712908436
 30
0.0
 11
32441.37613081631
 21
2751.639712908438
 31
0.0
 12
32986.55926950372
 22
2751.639712908461
 32
0.0
 13
32986.55926950372
 23
2751.639712908461
 33
0.0
210
0.0
220
0.0
230
1.0
  0
SOLID
  5
232B
330
2299
100
AcDbEntity
  8
HATCH
  6
CONTINUOUS
 62
   251
100
AcDbTrace
 10
32308.63591940735
 20
2753.739712908458
 30
0.0
 11
30453.55314881741
 21
2751.639712908438
 31
0.0
 12
32308.63591940736
 22
2751.639712908438
 32
0.0
 13
32308.63591940736
 23
2751.639712908438
 33
0.0
210
0.0
220
0.0
230
1.0
  0
SOLID
  5
232C
330
2299
100
AcDbEntity
  8
HATCH
  6
CONTINUOUS
 62
   251
100
AcDbTrace
 10
33690.54368147172
 20
3146.015764034276
 30
0.0
 11
32308.63591940735
 21
2753.739712908458
 31
0.0
 12
32441.37613081627
 22
2753.739712908436
 32
0.0
 13
32441.37613081627
 23
2753.739712908436
 33
0.0
210
0.0
220
0.0
230
1.0
  0
SOLID
  5
232D
330
2299
100
AcDbEntity
  8
HATCH
  6
CONTINUOUS
 62
   251
100
AcDbTrace
 10
33690.54368147172
 20
3146.015764034276
 30
0.0
 11
32441.37613081627
 21
2753.739712908436
 31
0.0
 12
32986.55926950372
 22
2751.639712908461
 32
0.0
 13
32986.55926950372
 23
2751.639712908461
 33
0.0
210
0.0
220
0.0
230
1.0
  0
SOLID
  5
232E
330
2299
100
AcDbEntity
  8
HATCH
  6
CONTINUOUS
 62
   251
100
AcDbTrace
 10
33690.54368147172
 20
3218.37611360638
 30
0.0
 11
32308.63591940735
 21
2753.739712908458
 31
0.0
 12
33690.54368147172
 22
3146.015764034276
 32
0.0
 13
33690.54368147172
 23
3146.015764034276
 33
0.0
210
0.0
220
0.0
230
1.0
  0
SOLID
  5
232F
330
2299
100
AcDbEntity
  8
HATCH
  6
CONTINUOUS
 62
   251
100
AcDbTrace
 10
33690.54368147172
 20
3218.37611360638
 30
0.0
 11
30453.55314881741
 21
2751.639712908438
 31
0.0
 12
32308.63591940735
 22
2753.739712908458
 32
0.0
 13
32308.63591940735
 23
2753.739712908458
 33
0.0
210
0.0
220
0.0
230
1.0
  0
SOLID
  5
2330
330
2299
100
AcDbEntity
  8
HATCH
  6
CONTINUOUS
 62
   251
100
AcDbTrace
 10
33486.35351550996
 20
3332.764600001396
 30
0.0
 11
30453.55314881741
 21
2751.639712908438
 31
0.0
 12
33690.54368147172
 22
3218.37611360638
 32
0.0
 13
33690.54368147172
 23
3218.37611360638
 33
0.0
  0
SOLID
  5
2331
330
2299
100
AcDbEntity
  8
HATCH
  6
CONTINUOUS
 62
   251
100
AcDbTrace
 10
33437.92135234031
 20
3388.896271586455
 30
0.0
 11
30453.55314881741
 21
2751.639712908438
 31
0.0
 12
33486.35351550996
 22
3332.764600001396
 32
0.0
 13
33486.35351550996
 23
3332.764600001396
 33
0.0
210
0.0
220
0.0
230
1.0
  0
SOLID
  5
2332
330
2299
100
AcDbEntity
  8
HATCH
  6
CONTINUOUS
 62
   251
100
AcDbTrace
 10
33444.43388307428
 20
3468.278442820911
 30
0.0
 11
30453.55314881741
 21
2751.639712908438
 31
0.0
 12
33437.92135234031
 22
3388.896271586455
 32
0.0
 13
33437.92135234031
 23
3388.896271586455
 33
0.0
  0
SOLID
  5
2333
330
2299
100
AcDbEntity
  8
HATCH
  6
CONTINUOUS
 62
   251
100
AcDbTrace
 10
33502.07615553328
 20
3524.410114406072
 30
0.0
 11
30453.55314881741
 21
2751.639712908438
 31
0.0
 12
33444.43388307428
 22
3468.278442820911
 32
0.0
 13
33444.43388307428
 23
3468.278442820911
 33
0.0
210
0.0
220
0.0
230
1.0
  0
SOLID
  5
2334
330
2299
100
AcDbEntity
  8
HATCH
  6
CONTINUOUS
 62
   251
100
AcDbTrace
 10
33690.54368147176
 20
4361.639712908432
 30
0.0
 11
33502.07615553328
 21
3524.410114406072
 31
0.0
 12
33577.08210827686
 22
3524.410114406049
 32
0.0
 13
33577.08210827686
 23
3524.410114406049
 33
0.0
210
0.0
220
0.0
230
1.0
  0
SOLID
  5
2335
330
2299
100
AcDbEntity
  8
HATCH
  6
CONTINUOUS
 62
   251
100
AcDbTrace
 10
33690.54368147176
 20
4361.639712908432
 30
0.0
 11
33577.08210827686
 21
3524.410114406049
 31
0.0
 12
33690.54368147172
 22
3460.848299072686
 32
0.0
 13
33690.54368147172
 23
3460.848299072686
 33
0.0
210
0.0
220
0.0
230
1.0
  0
SOLID
  5
2336
330
2299
100
AcDbEntity
  8
HATCH
  6
CONTINUOUS
 62
   251
100
AcDbTrace
 10
30453.55314881741
 20
4361.63971290844
 30
0.0
 11
33502.07615553328
 21
3524.410114406072
 31
0.0
 12
33690.54368147176
 22
4361.639712908432
 32
0.0
 13
33690.54368147176
 23
4361.639712908432
 33
0.0
210
0.0
220
0.0
230
1.0
  0
SOLID
  5
2337
330
2299
100
AcDbEntity
  8
HATCH
  6
CONTINUOUS
 62
   251
100
AcDbTrace
 10
30453.55314881741
 20
4361.63971290844
 30
0.0
 11
30453.55314881741
 21
2751.639712908438
 31
0.0
 12
33502.07615553328
 22
3524.410114406072
 32
0.0
 13
33502.07615553328
 23
3524.410114406072
 33
0.0
210
0.0
220
0.0
230
1.0
  0
SOLID
  5
2338
330
2299
100
AcDbEntity
  8
HATCH
  6
CONTINUOUS
 62
   251
100
AcDbTrace
 10
35226.7914801629
 20
2753.739712908437
 30
0.0
 11
34956.52265780305
 21
2751.63971290843
 31
0.0
 12
35226.79148016293
 22
2751.63971290844
 32
0.0
 13
35226.79148016293
 23
2751.63971290844
 33
0.0
210
0.0
220
0.0
230
1.0
  0
SOLID
  5
2339
330
2299
100
AcDbEntity
  8
HATCH
  6
CONTINUOUS
 62
   251
100
AcDbTrace
 10
35354.46605193698
 20
2753.739712908444
 30
0.0
 11
35354.46605193699
 21
2751.639712908445
 31
0.0
 12
35830.13359307569
 22
2751.639712908461
 32
0.0
 13
35830.13359307569
 23
2751.639712908461
 33
0.0
210
0.0
220
0.0
230
1.0
  0
SOLID
  5
233A
330
2299
100
AcDbEntity
  8
HATCH
  6
CONTINUOUS
 62
   251
100
AcDbTrace
 10
34154.66266656475
 20
3200.846217376435
 30
0.0
 11
35226.7914801629
 21
2753.739712908437
 31
0.0
 12
35354.46605193698
 22
2753.739712908444
 32
0.0
 13
35354.46605193698
 23
2753.739712908444
 33
0.0
210
0.0
220
0.0
230
1.0
  0
SOLID
  5
233B
330
2299
100
AcDbEntity
  8
HATCH
  6
CONTINUOUS
 62
   251
100
AcDbTrace
 10
34154.66266656475
 20
3200.846217376435
 30
0.0
 11
34956.52265780305
 21
2751.63971290843
 31
0.0
 12
35226.7914801629
 22
2753.739712908437
 32
0.0
 13
35226.7914801629
 23
2753.739712908437
 33
0.0
210
0.0
220
0.0
230
1.0
  0
SOLID
  5
233C
330
2299
100
AcDbEntity
  8
HATCH
  6
CONTINUOUS
 62
   251
100
AcDbTrace
 10
34148.80121670797
 20
3272.292270411358
 30
0.0
 11
34154.66266656475
 21
3200.846217376435
 31
0.0
 12
35354.46605193698
 22
2753.739712908444
 32
0.0
 13
35354.46605193698
 23
2753.739712908444
 33
0.0
  0
SOLID
  5
233D
330
2299
100
AcDbEntity
  8
HATCH
  6
CONTINUOUS
 62
   251
100
AcDbTrace
 10
34148.80121670797
 20
3272.292270411358
 30
0.0
 11
35354.46605193698
 21
2753.739712908444
 31
0.0
 12
35830.13359307569
 22
2751.639712908461
 32
0.0
 13
35830.13359307569
 23
2751.639712908461
 33
0.0
  0
SOLID
  5
233E
330
2299
100
AcDbEntity
  8
HATCH
  6
CONTINUOUS
 62
   251
100
AcDbTrace
 10
34091.15894424897
 20
3328.423941996504
 30
0.0
 11
34148.80121670797
 21
3272.292270411358
 31
0.0
 12
35830.13359307569
 22
2751.639712908461
 32
0.0
 13
35830.13359307569
 23
2751.639712908461
 33
0.0
210
0.0
220
0.0
230
1.0
  0
SOLID
  5
233F
330
2299
100
AcDbEntity
  8
HATCH
  6
CONTINUOUS
 62
   251
100
AcDbTrace
 10
33902.69255272901
 20
3342.001300936281
 30
0.0
 11
33971.54096365301
 21
3303.432031553575
 31
0.0
 12
34016.15299150543
 22
3328.423941996504
 32
0.0
 13
34016.15299150543
 23
3328.423941996504
 33
0.0
210
0.0
220
0.0
230
1.0
  0
SOLID
  5
2340
330
2299
100
AcDbEntity
  8
HATCH
  6
CONTINUOUS
 62
   251
100
AcDbTrace
 10
33902.69255272903
 20
4361.639712908452
 30
0.0
 11
33902.69255272901
 21
3342.001300936281
 31
0.0
 12
34016.15299150543
 22
3328.423941996504
 32
0.0
 13
34016.15299150543
 23
3328.423941996504
 33
0.0
210
0.0
220
0.0
230
1.0
  0
SOLID
  5
2341
330
2299
100
AcDbEntity
  8
HATCH
  6
CONTINUOUS
 62
   251
100
AcDbTrace
 10
33902.69255272903
 20
4361.639712908452
 30
0.0
 11
34016.15299150543
 21
3328.423941996504
 31
0.0
 12
34091.15894424897
 22
3328.423941996504
 32
0.0
 13
34091.15894424897
 23
3328.423941996504
 33
0.0
  0
SOLID
  5
2342
330
2299
100
AcDbEntity
  8
HATCH
  6
CONTINUOUS
 62
   251
100
AcDbTrace
 10
33902.69255272903
 20
4361.639712908452
 30
0.0
 11
34091.15894424897
 21
3328.423941996504
 31
0.0
 12
35830.13359307569
 22
2751.639712908461
 32
0.0
 13
35830.13359307569
 23
2751.639712908461
 33
0.0
210
0.0
220
0.0
230
1.0
  0
SOLID
  5
2343
330
2299
100
AcDbEntity
  8
HATCH
  6
CONTINUOUS
 62
   251
100
AcDbTrace
 10
35830.13359307573
 20
4361.639712908468
 30
0.0
 11
33902.69255272903
 21
4361.639712908452
 31
0.0
 12
35830.13359307569
 22
2751.639712908461
 32
0.0
 13
35830.13359307569
 23
2751.639712908461
 33
0.0
210
0.0
220
0.0
230
1.0
  0
SOLID
  5
2344
330
2299
100
AcDbEntity
  8
HATCH
  6
CONTINUOUS
 62
   251
100
AcDbTrace
 10
33577.08210827685
 20
5198.86931141082
 30
0.0
 11
30453.55314881741
 21
4361.63971290844
 31
0.0
 12
33690.54368147176
 22
4361.639712908432
 32
0.0
 13
33690.54368147176
 23
4361.639712908432
 33
0.0
210
0.0
220
0.0
230
1.0
  0
SOLID
  5
2345
330
2299
100
AcDbEntity
  8
HATCH
  6
CONTINUOUS
 62
   251
100
AcDbTrace
 10
33502.07615553327
 20
5198.869311410835
 30
0.0
 11
30453.55314881741
 21
4361.63971290844
 31
0.0
 12
33577.08210827685
 22
5198.86931141082
 32
0.0
 13
33577.08210827685
 23
5198.86931141082
 33
0.0
210
0.0
220
0.0
230
1.0
  0
SOLID
  5
2346
330
2299
100
AcDbEntity
  8
HATCH
  6
CONTINUOUS
 62
   251
100
AcDbTrace
 10
33444.43388307429
 20
5255.000982995978
 30
0.0
 11
30453.55314881741
 21
4361.63971290844
 31
0.0
 12
33502.07615553327
 22
5198.869311410835
 32
0.0
 13
33502.07615553327
 23
5198.869311410835
 33
0.0
210
0.0
220
0.0
230
1.0
  0
SOLID
  5
2347
330
2299
100
AcDbEntity
  8
HATCH
  6
CONTINUOUS
 62
   251
100
AcDbTrace
 10
33690.54368147173
 20
5262.431126744256
 30
0.0
 11
33577.08210827685
 21
5198.86931141082
 31
0.0
 12
33690.54368147176
 22
4361.639712908432
 32
0.0
 13
33690.54368147176
 23
4361.639712908432
 33
0.0
210
0.0
220
0.0
230
1.0
  0
SOLID
  5
2348
330
2299
100
AcDbEntity
  8
HATCH
  6
CONTINUOUS
 62
   251
100
AcDbTrace
 10
33437.92135234029
 20
5334.383154230375
 30
0.0
 11
30453.55314881741
 21
4361.63971290844
 31
0.0
 12
33444.43388307429
 22
5255.000982995978
 32
0.0
 13
33444.43388307429
 23
5255.000982995978
 33
0.0
210
0.0
220
0.0
230
1.0
  0
SOLID
  5
2349
330
2299
100
AcDbEntity
  8
HATCH
  6
CONTINUOUS
 62
   251
100
AcDbTrace
 10
33902.69255272902
 20
5381.278124880604
 30
0.0
 11
33902.69255272903
 21
4361.639712908452
 31
0.0
 12
35830.13359307573
 22
4361.639712908468
 32
0.0
 13
35830.13359307573
 23
4361.639712908468
 33
0.0
210
0.0
220
0.0
230
1.0
  0
SOLID
  5
234A
330
2299
100
AcDbEntity
  8
HATCH
  6
CONTINUOUS
 62
   251
100
AcDbTrace
 10
33486.35351550993
 20
5390.514825815522
 30
0.0
 11
30453.55314881741
 21
4361.63971290844
 31
0.0
 12
33437.92135234029
 22
5334.383154230375
 32
0.0
 13
33437.92135234029
 23
5334.383154230375
 33
0.0
210
0.0
220
0.0
230
1.0
  0
SOLID
  5
234B
330
2299
100
AcDbEntity
  8
HATCH
  6
CONTINUOUS
 62
   251
100
AcDbTrace
 10
34091.15894424898
 20
5394.855483820419
 30
0.0
 11
33902.69255272902
 21
5381.278124880604
 31
0.0
 12
35830.13359307573
 22
4361.639712908468
 32
0.0
 13
35830.13359307573
 23
4361.639712908468
 33
0.0
210
0.0
220
0.0
230
1.0
  0
SOLID
  5
234C
330
2299
100
AcDbEntity
  8
HATCH
  6
CONTINUOUS
 62
   251
100
AcDbTrace
 10
34016.15299150542
 20
5394.855483820425
 30
0.0
 11
33902.69255272902
 21
5381.278124880604
 31
0.0
 12
34091.15894424898
 22
5394.855483820419
 32
0.0
 13
34091.15894424898
 23
5394.855483820419
 33
0.0
  0
SOLID
  5
234D
330
2299
100
AcDbEntity
  8
HATCH
  6
CONTINUOUS
 62
   251
100
AcDbTrace
 10
33971.54096365301
 20
5419.847394263368
 30
0.0
 11
33902.69255272902
 21
5381.278124880604
 31
0.0
 12
34016.15299150542
 22
5394.855483820425
 32
0.0
 13
34016.15299150542
 23
5394.855483820425
 33
0.0
210
0.0
220
0.0
230
1.0
  0
SOLID
  5
234E
330
2299
100
AcDbEntity
  8
HATCH
  6
CONTINUOUS
 62
   251
100
AcDbTrace
 10
34148.80121670798
 20
5450.987155405543
 30
0.0
 11
34091.15894424898
 21
5394.855483820419
 31
0.0
 12
35830.13359307573
 22
4361.639712908468
 32
0.0
 13
35830.13359307573
 23
4361.639712908468
 33
0.0
210
0.0
220
0.0
230
1.0
  0
SOLID
  5
234F
330
2299
100
AcDbEntity
  8
HATCH
  6
CONTINUOUS
 62
   251
100
AcDbTrace
 10
33690.54368147172
 20
5504.903312210519
 30
0.0
 11
30453.55314881741
 21
4361.63971290844
 31
0.0
 12
33486.35351550993
 22
5390.514825815522
 32
0.0
 13
33486.35351550993
 23
5390.514825815522
 33
0.0
210
0.0
220
0.0
230
1.0
  0
SOLID
  5
2350
330
2299
100
AcDbEntity
  8
HATCH
  6
CONTINUOUS
 62
   251
100
AcDbTrace
 10
34154.66266656475
 20
5522.433208440507
 30
0.0
 11
34148.80121670798
 21
5450.987155405543
 31
0.0
 12
35830.13359307573
 22
4361.639712908468
 32
0.0
 13
35830.13359307573
 23
4361.639712908468
 33
0.0
210
0.0
220
0.0
230
1.0
  0
SOLID
  5
2351
330
2299
100
AcDbEntity
  8
HATCH
  6
CONTINUOUS
 62
   251
100
AcDbTrace
 10
33690.54368147172
 20
5577.263661782668
 30
0.0
 11
30453.55314881741
 21
4361.63971290844
 31
0.0
 12
33690.54368147172
 22
5504.903312210519
 32
0.0
 13
33690.54368147172
 23
5504.903312210519
 33
0.0
210
0.0
220
0.0
230
1.0
  0
SOLID
  5
2352
330
2299
100
AcDbEntity
  8
HATCH
  6
CONTINUOUS
 62
   251
100
AcDbTrace
 10
35226.79148016293
 20
5969.539712908431
 30
0.0
 11
34154.66266656475
 21
5522.433208440507
 31
0.0
 12
35830.13359307573
 22
4361.639712908468
 32
0.0
 13
35830.13359307573
 23
4361.639712908468
 33
0.0
210
0.0
220
0.0
230
1.0
  0
SOLID
  5
2353
330
2299
100
AcDbEntity
  8
HATCH
  6
CONTINUOUS
 62
   251
100
AcDbTrace
 10
32308.63591940738
 20
5969.539712908431
 30
0.0
 11
30453.55314881741
 21
4361.63971290844
 31
0.0
 12
33690.54368147172
 22
5577.263661782668
 32
0.0
 13
33690.54368147172
 23
5577.263661782668
 33
0.0
210
0.0
220
0.0
230
1.0
  0
SOLID
  5
2354
330
2299
100
AcDbEntity
  8
HATCH
  6
CONTINUOUS
 62
   251
100
AcDbTrace
 10
32441.37613081627
 20
5969.539712908454
 30
0.0
 11
32308.63591940738
 21
5969.539712908431
 31
0.0
 12
33690.54368147172
 22
5577.263661782668
 32
0.0
 13
33690.54368147172
 23
5577.263661782668
 33
0.0
210
0.0
220
0.0
230
1.0
  0
SOLID
  5
2355
330
2299
100
AcDbEntity
  8
HATCH
  6
CONTINUOUS
 62
   251
100
AcDbTrace
 10
35354.46605193699
 20
5969.539712908478
 30
0.0
 11
35226.79148016293
 21
5969.539712908431
 31
0.0
 12
35830.13359307573
 22
4361.639712908468
 32
0.0
 13
35830.13359307573
 23
4361.639712908468
 33
0.0
210
0.0
220
0.0
230
1.0
  0
SOLID
  5
2356
330
2299
100
AcDbEntity
  8
HATCH
  6
CONTINUOUS
 62
   251
100
AcDbTrace
 10
30453.5531488174
 20
5971.639712908424
 30
0.0
 11
30453.55314881741
 21
4361.63971290844
 31
0.0
 12
32308.63591940738
 22
5969.539712908431
 32
0.0
 13
32308.63591940738
 23
5969.539712908431
 33
0.0
  0
SOLID
  5
2357
330
2299
100
AcDbEntity
  8
HATCH
  6
CONTINUOUS
 62
   251
100
AcDbTrace
 10
34956.52265780301
 20
5971.639712908426
 30
0.0
 11
34154.66266656475
 21
5522.433208440507
 31
0.0
 12
35226.79148016293
 22
5969.539712908431
 32
0.0
 13
35226.79148016293
 23
5969.539712908431
 33
0.0
210
0.0
220
0.0
230
1.0
  0
SOLID
  5
2358
330
2299
100
AcDbEntity
  8
HATCH
  6
CONTINUOUS
 62
   251
100
AcDbTrace
 10
35226.79148016294
 20
5971.63971290843
 30
0.0
 11
34956.52265780301
 21
5971.639712908426
 31
0.0
 12
35226.79148016293
 22
5969.539712908431
 32
0.0
 13
35226.79148016293
 23
5969.539712908431
 33
0.0
210
0.0
220
0.0
230
1.0
  0
SOLID
  5
2359
330
2299
100
AcDbEntity
  8
HATCH
  6
CONTINUOUS
 62
   251
100
AcDbTrace
 10
35354.46605193698
 20
5971.639712908434
 30
0.0
 11
35354.46605193699
 21
5969.539712908478
 31
0.0
 12
35830.13359307573
 22
4361.639712908468
 32
0.0
 13
35830.13359307573
 23
4361.639712908468
 33
0.0
210
0.0
220
0.0
230
1.0
  0
SOLID
  5
235A
330
2299
100
AcDbEntity
  8
HATCH
  6
CONTINUOUS
 62
   251
100
AcDbTrace
 10
32308.63591940738
 20
5971.639712908435
 30
0.0
 11
30453.5531488174
 21
5971.639712908424
 31
0.0
 12
32308.63591940738
 22
5969.539712908431
 32
0.0
 13
32308.63591940738
 23
5969.539712908431
 33
0.0
210
0.0
220
0.0
230
1.0
  0
SOLID
  5
235B
330
2299
100
AcDbEntity
  8
HATCH
  6
CONTINUOUS
 62
   251
100
AcDbTrace
 10
35830.13359307571
 20
5971.639712908446
 30
0.0
 11
35354.46605193698
 21
5971.639712908434
 31
0.0
 12
35830.13359307573
 22
4361.639712908468
 32
0.0
 13
35830.13359307573
 23
4361.639712908468
 33
0.0
210
0.0
220
0.0
230
1.0
  0
SOLID
  5
235C
330
2299
100
AcDbEntity
  8
HATCH
  6
CONTINUOUS
 62
   251
100
AcDbTrace
 10
32441.37613081631
 20
5971.639712908448
 30
0.0
 11
32441.37613081627
 21
5969.539712908454
 31
0.0
 12
33690.54368147172
 22
5577.263661782668
 32
0.0
 13
33690.54368147172
 23
5577.263661782668
 33
0.0
210
0.0
220
0.0
230
1.0
  0
SOLID
  5
235D
330
2299
100
AcDbEntity
  8
HATCH
  6
CONTINUOUS
 62
   251
100
AcDbTrace
 10
32986.55926950374
 20
5971.639712908455
 30
0.0
 11
32441.37613081631
 21
5971.639712908448
 31
0.0
 12
33690.54368147172
 22
5577.263661782668
 32
0.0
 13
33690.54368147172
 23
5577.263661782668
 33
0.0
210
0.0
220
0.0
230
1.0
  0
ENDBLK
  5
235F
330
2299
100
AcDbEntity
  8
0
 62
     1
100
AcDbBlockEnd
  0
BLOCK
  5
2365
330
2360
100
AcDbEntity
  8
0
 62
     1
100
AcDbBlockBegin
  2
*U8
 70
     1
 10
0.0
 20
0.0
 30
0.0
  3
*U8
  1

  0
SOLID
  5
2361
330
2360
100
AcDbEntity
  8
HATCH
  6
CONTINUOUS
 62
   251
100
AcDbTrace
 10
33902.69255272902
 20
3313.001601215302
 30
0.0
 11
33945.65788011246
 21
3288.932181692998
 31
0.0
 12
33971.54096365306
 22
3303.43203155355
 32
0.0
 13
33971.54096365306
 23
3303.43203155355
 33
0.0
210
0.0
220
0.0
230
1.0
  0
SOLID
  5
2362
330
2360
100
AcDbEntity
  8
HATCH
  6
CONTINUOUS
 62
   251
100
AcDbTrace
 10
33561.35946825354
 20
3332.764600001373
 30
0.0
 11
33690.54368147172
 21
3218.376113606379
 31
0.0
 12
33690.54368147173
 22
3260.394872759373
 32
0.0
 13
33690.54368147173
 23
3260.394872759373
 33
0.0
210
0.0
220
0.0
230
1.0
  0
SOLID
  5
2363
330
2360
100
AcDbEntity
  8
HATCH
  6
CONTINUOUS
 62
   251
100
AcDbTrace
 10
33486.35351550997
 20
3332.764600001395
 30
0.0
 11
33690.54368147172
 21
3218.376113606379
 31
0.0
 12
33561.35946825354
 22
3332.764600001373
 32
0.0
 13
33561.35946825354
 23
3332.764600001373
 33
0.0
210
0.0
220
0.0
230
1.0
  0
SOLID
  5
2364
330
2360
100
AcDbEntity
  8
HATCH
  6
CONTINUOUS
 62
   251
100
AcDbTrace
 10
33902.69255272902
 20
3342.00130093628
 30
0.0
 11
33902.69255272902
 21
3313.001601215302
 31
0.0
 12
33971.54096365306
 22
3303.43203155355
 32
0.0
 13
33971.54096365306
 23
3303.43203155355
 33
0.0
210
0.0
220
0.0
230
1.0
  0
ENDBLK
  5
2366
330
2360
100
AcDbEntity
  8
0
 62
     1
100
AcDbBlockEnd
  0
BLOCK
  5
236C
330
2367
100
AcDbEntity
  8
0
 62
     1
100
AcDbBlockBegin
  2
*U9
 70
     1
 10
0.0
 20
0.0
 30
0.0
  3
*U9
  1

  0
SOLID
  5
2368
330
2367
100
AcDbEntity
  8
HATCH
  6
CONTINUOUS
 62
   251
100
AcDbTrace
 10
32455.70857892472
 20
2686.539712908453
 30
0.0
 11
32470.04102703315
 21
2751.639712908438
 31
0.0
 12
32441.37613081631
 22
2751.639712908437
 32
0.0
 13
32441.37613081631
 23
2751.639712908437
 33
0.0
210
0.0
220
0.0
230
1.0
  0
SOLID
  5
2369
330
2367
100
AcDbEntity
  8
HATCH
  6
CONTINUOUS
 62
   251
100
AcDbTrace
 10
32455.70857892472
 20
2686.539712908453
 30
0.0
 11
32441.37613081631
 21
2751.639712908437
 31
0.0
 12
32441.37613081628
 22
2621.439712908469
 32
0.0
 13
32441.37613081628
 23
2621.439712908469
 33
0.0
210
0.0
220
0.0
230
1.0
  0
SOLID
  5
236A
330
2367
100
AcDbEntity
  8
HATCH
  6
CONTINUOUS
 62
   251
100
AcDbTrace
 10
32455.70857892472
 20
2686.539712908453
 30
0.0
 11
32441.37613081628
 21
2621.439712908469
 31
0.0
 12
32470.04102703315
 22
2621.439712908468
 32
0.0
 13
32470.04102703315
 23
2621.439712908468
 33
0.0
210
0.0
220
0.0
230
1.0
  0
SOLID
  5
236B
330
2367
100
AcDbEntity
  8
HATCH
  6
CONTINUOUS
 62
   251
100
AcDbTrace
 10
32455.70857892472
 20
2686.539712908453
 30
0.0
 11
32470.04102703315
 21
2621.439712908468
 31
0.0
 12
32470.04102703315
 22
2751.639712908438
 32
0.0
 13
32470.04102703315
 23
2751.639712908438
 33
0.0
210
0.0
220
0.0
230
1.0
  0
ENDBLK
  5
236D
330
2367
100
AcDbEntity
  8
0
 62
     1
100
AcDbBlockEnd
  0
BLOCK
  5
237F
330
236E
100
AcDbEntity
  8
0
 62
     1
100
AcDbBlockBegin
  2
*U10
 70
     1
 10
0.0
 20
0.0
 30
0.0
  3
*U10
  1

  0
SOLID
  5
236F
330
236E
100
AcDbEntity
  8
HATCH
  6
CONTINUOUS
 62
   251
100
AcDbTrace
 10
33902.69255272901
 20
2947.639712908423
 30
0.0
 11
33661.79733553019
 21
2887.43971290842
 31
0.0
 12
34281.28459177611
 22
2887.439712908449
 32
0.0
 13
34281.28459177611
 23
2887.439712908449
 33
0.0
210
0.0
220
0.0
230
1.0
  0
SOLID
  5
2370
330
236E
100
AcDbEntity
  8
HATCH
  6
CONTINUOUS
 62
   251
100
AcDbTrace
 10
33871.62406984392
 20
2947.639712908424
 30
0.0
 11
33661.79733553019
 21
2887.43971290842
 31
0.0
 12
33902.69255272901
 22
2947.639712908423
 32
0.0
 13
33902.69255272901
 23
2947.639712908423
 33
0.0
210
0.0
220
0.0
230
1.0
  0
SOLID
  5
2371
330
236E
100
AcDbEntity
  8
HATCH
  6
CONTINUOUS
 62
   251
100
AcDbTrace
 10
33769.25787092402
 20
2947.639712908435
 30
0.0
 11
33661.79733553019
 21
2887.43971290842
 31
0.0
 12
33871.62406984392
 22
2947.639712908424
 32
0.0
 13
33871.62406984392
 23
2947.639712908424
 33
0.0
210
0.0
220
0.0
230
1.0
  0
SOLID
  5
2372
330
236E
100
AcDbEntity
  8
HATCH
  6
CONTINUOUS
 62
   251
100
AcDbTrace
 10
33796.61811710033
 20
2947.639712908438
 30
0.0
 11
33769.25787092402
 21
2947.639712908435
 31
0.0
 12
33871.62406984392
 22
2947.639712908424
 32
0.0
 13
33871.62406984392
 23
2947.639712908424
 33
0.0
210
0.0
220
0.0
230
1.0
  0
SOLID
  5
2373
330
236E
100
AcDbEntity
  8
HATCH
  6
CONTINUOUS
 62
   251
100
AcDbTrace
 10
33902.69255272901
 20
3022.390576704387
 30
0.0
 11
33902.69255272901
 21
2947.639712908423
 31
0.0
 12
34281.28459177611
 22
2887.439712908449
 32
0.0
 13
34281.28459177611
 23
2887.439712908449
 33
0.0
210
0.0
220
0.0
230
1.0
  0
SOLID
  5
2374
330
236E
100
AcDbEntity
  8
HATCH
  6
CONTINUOUS
 62
   251
100
AcDbTrace
 10
33971.54096365304
 20
3060.959846087212
 30
0.0
 11
33902.69255272901
 21
3022.390576704387
 31
0.0
 12
34281.28459177611
 22
2887.439712908449
 32
0.0
 13
34281.28459177611
 23
2887.439712908449
 33
0.0
210
0.0
220
0.0
230
1.0
  0
SOLID
  5
2375
330
236E
100
AcDbEntity
  8
HATCH
  6
CONTINUOUS
 62
   251
100
AcDbTrace
 10
34516.05021631575
 20
5967.356744211904
 30
0.0
 11
33661.79733553018
 21
5835.839712908422
 31
0.0
 12
34281.28459177614
 22
5835.839712908436
 32
0.0
 13
34281.28459177614
 23
5835.839712908436
 33
0.0
  0
SOLID
  5
2376
330
236E
100
AcDbEntity
  8
HATCH
  6
CONTINUOUS
 62
   251
100
AcDbTrace
 10
34459.80001391578
 20
5971.639712908424
 30
0.0
 11
33661.79733553018
 21
5835.839712908422
 31
0.0
 12
34516.05021631575
 22
5967.356744211904
 32
0.0
 13
34516.05021631575
 23
5967.356744211904
 33
0.0
210
0.0
220
0.0
230
1.0
  0
SOLID
  5
2377
330
236E
100
AcDbEntity
  8
HATCH
  6
CONTINUOUS
 62
   251
100
AcDbTrace
 10
33419.38636033947
 20
5971.639712908438
 30
0.0
 11
33661.79733553018
 21
5835.839712908422
 31
0.0
 12
34459.80001391578
 22
5971.639712908424
 32
0.0
 13
34459.80001391578
 23
5971.639712908424
 33
0.0
  0
SOLID
  5
2378
330
236E
100
AcDbEntity
  8
HATCH
  6
CONTINUOUS
 62
   251
100
AcDbTrace
 10
34516.05021631579
 20
5971.639712908439
 30
0.0
 11
34459.80001391578
 21
5971.639712908424
 31
0.0
 12
34516.05021631575
 22
5967.356744211904
 32
0.0
 13
34516.05021631575
 23
5967.356744211904
 33
0.0
210
0.0
220
0.0
230
1.0
  0
SOLID
  5
2379
330
236E
100
AcDbEntity
  8
HATCH
  6
CONTINUOUS
 62
   251
100
AcDbTrace
 10
33902.69255272901
 20
5775.639712908432
 30
0.0
 11
33902.69255272901
 21
5700.888849112465
 31
0.0
 12
33971.54096365304
 22
5662.319579729649
 32
0.0
 13
33971.54096365304
 23
5662.319579729649
 33
0.0
210
0.0
220
0.0
230
1.0
  0
SOLID
  5
237A
330
236E
100
AcDbEntity
  8
HATCH
  6
CONTINUOUS
 62
   251
100
AcDbTrace
 10
33796.61811710033
 20
5775.639712908432
 30
0.0
 11
33871.62406984392
 21
5775.639712908424
 31
0.0
 12
33902.69255272901
 22
5775.639712908432
 32
0.0
 13
33902.69255272901
 23
5775.639712908432
 33
0.0
210
0.0
220
0.0
230
1.0
  0
SOLID
  5
237B
330
236E
100
AcDbEntity
  8
HATCH
  6
CONTINUOUS
 62
   251
100
AcDbTrace
 10
33769.25787092396
 20
5775.639712908436
 30
0.0
 11
33796.61811710033
 21
5775.639712908432
 31
0.0
 12
33902.69255272901
 22
5775.639712908432
 32
0.0
 13
33902.69255272901
 23
5775.639712908432
 33
0.0
210
0.0
220
0.0
230
1.0
  0
SOLID
  5
237C
330
236E
100
AcDbEntity
  8
HATCH
  6
CONTINUOUS
 62
   251
100
AcDbTrace
 10
33661.79733553019
 20
5835.839712908422
 30
0.0
 11
33769.25787092396
 21
5775.639712908436
 31
0.0
 12
33902.69255272901
 22
5775.639712908432
 32
0.0
 13
33902.69255272901
 23
5775.639712908432
 33
0.0
210
0.0
220
0.0
230
1.0
  0
SOLID
  5
237D
330
236E
100
AcDbEntity
  8
HATCH
  6
CONTINUOUS
 62
   251
100
AcDbTrace
 10
34281.28459177615
 20
5835.839712908438
 30
0.0
 11
33661.79733553019
 21
5835.839712908422
 31
0.0
 12
33902.69255272901
 22
5775.639712908432
 32
0.0
 13
33902.69255272901
 23
5775.639712908432
 33
0.0
210
0.0
220
0.0
230
1.0
  0
SOLID
  5
237E
330
236E
100
AcDbEntity
  8
HATCH
  6
CONTINUOUS
 62
   251
100
AcDbTrace
 10
34281.28459177615
 20
5835.839712908438
 30
0.0
 11
33902.69255272901
 21
5775.639712908432
 31
0.0
 12
33971.54096365304
 22
5662.319579729649
 32
0.0
 13
33971.54096365304
 23
5662.319579729649
 33
0.0
210
0.0
220
0.0
230
1.0
  0
ENDBLK
  5
2380
330
236E
100
AcDbEntity
  8
0
 62
     1
100
AcDbBlockEnd
  0
BLOCK
  5
2385
330
2381
100
AcDbEntity
  8
0
 62
     1
100
AcDbBlockBegin
  2
*U11
 70
     1
 10
0.0
 20
0.0
 30
0.0
  3
*U11
  1

  0
SOLID
  5
2382
330
2381
100
AcDbEntity
  8
HATCH
  6
CONTINUOUS
 62
   251
100
AcDbTrace
 10
33945.65788011248
 20
5434.347244123873
 30
0.0
 11
33902.69255272902
 21
5410.277824601593
 31
0.0
 12
33971.54096365301
 22
5419.847394263372
 32
0.0
 13
33971.54096365301
 23
5419.847394263372
 33
0.0
210
0.0
220
0.0
230
1.0
  0
SOLID
  5
2383
330
2381
100
AcDbEntity
  8
HATCH
  6
CONTINUOUS
 62
   251
100
AcDbTrace
 10
33902.69255272903
 20
5381.278124880609
 30
0.0
 11
33971.54096365301
 21
5419.847394263372
 31
0.0
 12
33902.69255272902
 22
5410.277824601593
 32
0.0
 13
33902.69255272902
 23
5410.277824601593
 33
0.0
210
0.0
220
0.0
230
1.0
  0
SOLID
  5
2384
330
2381
100
AcDbEntity
  8
HATCH
  6
CONTINUOUS
 62
   251
100
AcDbTrace
 10
33945.65788011248
 20
5434.347244123876
 30
0.0
 11
33902.69255272902
 21
5458.416663646168
 31
0.0
 12
33902.69255272903
 22
5410.277824601597
 32
0.0
 13
33902.69255272903
 23
5410.277824601597
 33
0.0
210
0.0
220
0.0
230
1.0
  0
ENDBLK
  5
2386
330
2381
100
AcDbEntity
  8
0
 62
     1
100
AcDbBlockEnd
  0
ENDSEC
  0
SECTION
  2
ENTITIES
  0
INSERT
  5
216D
330
1F
100
AcDbEntity
  8
HATCH
 62
     1
100
AcDbBlockReference
  2
TDKA
 10
0.0
 20
0.0
 30
0.0
  0
ENDSEC
  0
SECTION
  2
OBJECTS
  0
DICTIONARY
  5
C
330
0
100
AcDbDictionary
  3
ACAD_GROUP
350
D
  3
ACAD_LAYOUT
350
1A
  3
ACAD_MLINESTYLE
350
17
  3
ACAD_PLOTSETTINGS
350
19
1001
ACAD
1000
TREAT_AS_HARD
1070
     0
1000
TREAT_AS_HARD
1070
     0
  0
DICTIONARY
  5
42D
330
1F
100
AcDbDictionary
  3
ACAD_LAYOUTSELFREF
350
216F
  3
ACAD_SORTENTS
350
1F8C
1001
ACAD
1000
TREAT_AS_HARD
1070
     1
1000
TREAT_AS_HARD
1070
     0
  0
DICTIONARY
  5
42F
330
50
100
AcDbDictionary
  3
ACAD_LAYOUTSELFREF
350
2170
1001
ACAD
1000
TREAT_AS_HARD
1070
     1
1000
TREAT_AS_HARD
1070
     0
  0
DICTIONARY
  5
D
102
{ACAD_REACTORS
330
C
102
}
330
C
100
AcDbDictionary
1001
ACAD
1000
TREAT_AS_HARD
1070
     0
1000
TREAT_AS_HARD
1070
     0
  0
DICTIONARY
  5
1A
102
{ACAD_REACTORS
330
C
102
}
330
C
100
AcDbDictionary
1001
ACAD
1000
TREAT_AS_HARD
1070
     0
1000
TREAT_AS_HARD
1070
     0
  0
DICTIONARY
  5
17
102
{ACAD_REACTORS
330
C
102
}
330
C
100
AcDbDictionary
  3
STANDARD
350
18
1001
ACAD
1000
TREAT_AS_HARD
1070
     0
1000
TREAT_AS_HARD
1070
     0
  0
DICTIONARY
  5
19
102
{ACAD_REACTORS
330
C
102
}
330
C
100
AcDbDictionary
1001
ACAD
1000
TREAT_AS_HARD
1070
     0
1000
TREAT_AS_HARD
1070
     0
  0
XRECORD
  5
216F
102
{ACAD_REACTORS
330
42D
102
}
330
42D
100
AcDbXrecord
340
1F
  0
SORTENTSTABLE
  5
1F8C
102
{ACAD_REACTORS
330
42D
102
}
330
42D
100
AcDbSortentsTable
330
1F
331
1EC2
  5
1EC2
331
1EE4
  5
1EE4
331
1F06
  5
1F06
331
1F28
  5
1F28
331
1EB0
  5
1EB0
331
1E8E
  5
1E8E
331
1E6C
  5
1E6C
331
1E4A
  5
1E4A
331
1E30
  5
1E30
331
1F42
  5
1F42
331
1F64
  5
1F64
331
1F86
  5
1F86
331
1ED3
  5
1ED3
331
1EF5
  5
1EF5
331
1F53
  5
1F53
331
1F17
  5
1F17
331
1E9F
  5
1E9F
331
1E7D
  5
1E7D
331
1E5B
  5
1E5B
331
1E41
  5
1E41
331
1E1F
  5
1E1F
331
1DFD
  5
1DFD
331
1F75
  5
1F75
331
1E0E
  5
1E0E
331
1DEC
  5
1DEC
331
1DDB
  5
1DDB
331
1DC1
  5
1DC1
331
1EC0
  5
1EC0
331
1EE2
  5
1EE2
331
1F04
  5
1F04
331
1F26
  5
1F26
331
1EAE
  5
1EAE
331
1E8C
  5
1E8C
331
1E6A
  5
1E6A
331
1E48
  5
1E48
331
B90
  5
D7D
331
1DBF
  5
1DBF
331
1BC1
  5
1DB7
331
1F62
  5
1F62
331
1F84
  5
1F84
331
1ED1
  5
1ED1
331
1EF3
  5
1EF3
331
1F15
  5
1F15
331
1F51
  5
1F51
331
1F37
  5
1F37
331
1EBF
  5
1EBF
331
1E9D
  5
1E9D
331
1E7B
  5
1E7B
331
1E59
  5
1E59
331
1E3F
  5
1E3F
331
1E1D
  5
1E1D
331
1DFB
  5
1DFB
331
1F73
  5
1F73
331
1E2E
  5
1E2E
331
1E0C
  5
1E0C
331
1DEA
  5
1DEA
331
1DD9
  5
1DD9
331
1F40
  5
1F40
331
1EE0
  5
1EE0
331
1F02
  5
1F02
331
1F24
  5
1F24
331
1EAC
  5
1EAC
331
1E8A
  5
1E8A
331
1E68
  5
1E68
331
1F3E
  5
1F3E
331
1F60
  5
1F60
331
1F82
  5
1F82
331
1ECF
  5
1ECF
331
1EF1
  5
1EF1
331
1F13
  5
1F13
331
1F35
  5
1F35
331
1EBD
  5
1EBD
331
1E9B
  5
1E9B
331
1E79
  5
1E79
331
1E57
  5
1E57
331
1E3D
  5
1E3D
331
1E1B
  5
1E1B
331
1DF9
  5
1DF9
331
1DD7
  5
1DD7
331
1F4F
  5
1F4F
331
1F71
  5
1F71
331
643
  5
871
331
1E0A
  5
1E0A
331
1DE8
  5
1DE8
331
1DCE
  5
1DCE
331
1DBD
  5
1DBD
331
1E2C
  5
1E2C
331
17F8
  5
19E4
331
1F00
  5
1F00
331
1E88
  5
1E88
331
1F22
  5
1F22
331
1F3C
  5
1F3C
331
1F5E
  5
1F5E
331
1F80
  5
1F80
331
1ECD
  5
1ECD
331
871
  5
B90
331
1EEF
  5
1EEF
331
1E77
  5
1E77
331
1E55
  5
1E55
331
1E3B
  5
1E3B
331
1E19
  5
1E19
331
1DF7
  5
1DF7
331
1DD5
  5
1DD5
331
1DBB
  5
1DBB
331
1EAA
  5
1EAA
331
1F11
  5
1F11
331
1F33
  5
1F33
331
1EBB
  5
1EBB
331
1F4D
  5
1F4D
331
1F6F
  5
1F6F
331
1EDE
  5
1EDE
331
1E66
  5
1E66
331
1E2A
  5
1E2A
331
1E08
  5
1E08
331
1DE6
  5
1DE6
331
1DCC
  5
1DCC
331
1E99
  5
1E99
331
1F20
  5
1F20
331
1EA8
  5
1EA8
331
1F3A
  5
1F3A
331
1F5C
  5
1F5C
331
1F7E
  5
1F7E
331
1ECB
  5
1ECB
331
1EED
  5
1EED
331
1F0F
  5
1F0F
331
1F31
  5
1F31
331
1EB9
  5
1EB9
331
1E97
  5
1E97
331
1E75
  5
1E75
331
1E53
  5
1E53
331
1E39
  5
1E39
331
1E17
  5
1E17
331
1DF5
  5
1DF5
331
1DD3
  5
1DD3
331
1F4B
  5
1F4B
331
1F6D
  5
1F6D
331
1EDC
  5
1EDC
331
1EFE
  5
1EFE
331
1E86
  5
1E86
331
1E64
  5
1E64
331
1E28
  5
1E28
331
1E06
  5
1E06
331
1DE4
  5
1DE4
331
1DCA
  5
1DCA
331
1DB9
  5
1DB9
331
1F38
  5
1F38
331
1F5A
  5
1F5A
331
1F7C
  5
1F7C
331
1EC9
  5
1EC9
331
1EEB
  5
1EEB
331
1F0D
  5
1F0D
331
1F2F
  5
1F2F
331
1EB7
  5
1EB7
331
1E95
  5
1E95
331
1E73
  5
1E73
331
1E51
  5
1E51
331
1E37
  5
1E37
331
1E15
  5
1E15
331
1DF3
  5
1DF3
331
1DD1
  5
1DD1
331
1F49
  5
1F49
331
1F6B
  5
1F6B
331
1EDA
  5
1EDA
331
1EFC
  5
1EFC
331
1DB7
  5
643
331
1F1E
  5
1F1E
331
1EA6
  5
1EA6
331
1E84
  5
1E84
331
1E62
  5
1E62
331
1E26
  5
1E26
331
1E04
  5
1E04
331
1DE2
  5
1DE2
331
1DC8
  5
1DC8
331
1F58
  5
1F58
331
1F7A
  5
1F7A
331
1EC7
  5
1EC7
331
1EE9
  5
1EE9
331
19E4
  5
1BC1
331
1F0B
  5
1F0B
331
1E93
  5
1E93
331
1E71
  5
1E71
331
1E4F
  5
1E4F
331
1E35
  5
1E35
331
1E13
  5
1E13
331
1DF1
  5
1DF1
331
1F2D
  5
1F2D
331
1F47
  5
1F47
331
1F69
  5
1F69
331
1F8B
  5
1F8B
331
1ED8
  5
1ED8
331
1EFA
  5
1EFA
331
1F1C
  5
1F1C
331
1EA4
  5
1EA4
331
1E82
  5
1E82
331
1E60
  5
1E60
331
1E46
  5
1E46
331
1E24
  5
1E24
331
1E02
  5
1E02
331
1DE0
  5
1DE0
331
1DC6
  5
1DC6
331
1EB5
  5
1EB5
331
1F78
  5
1F78
331
1EC5
  5
1EC5
331
1EE7
  5
1EE7
331
1F09
  5
1F09
331
1F2B
  5
1F2B
331
1EB3
  5
1EB3
331
1E91
  5
1E91
331
1E6F
  5
1E6F
331
1E4D
  5
1E4D
331
1E33
  5
1E33
331
1E11
  5
1E11
331
1F45
  5
1F45
331
1F67
  5
1F67
331
1F89
  5
1F89
331
1ED6
  5
1ED6
331
1EF8
  5
1EF8
331
1F56
  5
1F56
331
1F1A
  5
1F1A
331
1EA2
  5
1EA2
331
1E80
  5
1E80
331
1E5E
  5
1E5E
331
1E44
  5
1E44
331
1E22
  5
1E22
331
1E00
  5
1E00
331
1DEF
  5
1DEF
331
1DDE
  5
1DDE
331
1DC4
  5
1DC4
331
1EC3
  5
1EC3
331
1EE5
  5
1EE5
331
1F07
  5
1F07
331
1F29
  5
1F29
331
1EB1
  5
1EB1
331
1E8F
  5
1E8F
331
1E6D
  5
1E6D
331
1E4B
  5
1E4B
331
1E31
  5
1E31
331
1F43
  5
1F43
331
1F65
  5
1F65
331
F57
  5
1130
331
1DFE
  5
1DFE
331
1DDC
  5
1DDC
331
1DC2
  5
1DC2
331
1ED4
  5
1ED4
331
1EF6
  5
1EF6
331
1F54
  5
1F54
331
1F18
  5
1F18
331
1EA0
  5
1EA0
331
1E7E
  5
1E7E
331
1E5C
  5
1E5C
331
1E42
  5
1E42
331
1E20
  5
1E20
331
1F76
  5
1F76
331
1E0F
  5
1E0F
331
1DED
  5
1DED
331
1F87
  5
1F87
331
1EC1
  5
1EC1
331
1EE3
  5
1EE3
331
1F05
  5
1F05
331
1440
  5
161E
331
1F27
  5
1F27
331
1EAF
  5
1EAF
331
1E8D
  5
1E8D
331
1E6B
  5
1E6B
331
1E49
  5
1E49
331
1F41
  5
1F41
331
1F63
  5
1F63
331
1F85
  5
1F85
331
1ED2
  5
1ED2
331
D7D
  5
F57
331
1EF4
  5
1EF4
331
1E7C
  5
1E7C
331
1E5A
  5
1E5A
331
1E40
  5
1E40
331
1E1E
  5
1E1E
331
1DFC
  5
1DFC
331
1DDA
  5
1DDA
331
1DC0
  5
1DC0
331
1F52
  5
1F52
331
1F16
  5
1F16
331
1F74
  5
1F74
331
1E2F
  5
1E2F
331
1E0D
  5
1E0D
331
1DEB
  5
1DEB
331
1E9E
  5
1E9E
331
1EE1
  5
1EE1
331
1F03
  5
1F03
331
1F25
  5
1F25
331
1EAD
  5
1EAD
331
1E8B
  5
1E8B
331
1E69
  5
1E69
331
1F3F
  5
1F3F
331
1130
  5
1440
331
1DD8
  5
1DD8
331
1DBE
  5
1DBE
331
1F83
  5
1F83
331
1ED0
  5
1ED0
331
1EF2
  5
1EF2
331
1F14
  5
1F14
331
1F36
  5
1F36
331
1EBE
  5
1EBE
331
1E9C
  5
1E9C
331
1E7A
  5
1E7A
331
1E58
  5
1E58
331
1E3E
  5
1E3E
331
1E1C
  5
1E1C
331
1DFA
  5
1DFA
331
1F50
  5
1F50
331
1F72
  5
1F72
331
1E2D
  5
1E2D
331
1E0B
  5
1E0B
331
1DE9
  5
1DE9
331
1DCF
  5
1DCF
331
1F61
  5
1F61
331
1F01
  5
1F01
331
1F23
  5
1F23
331
1EAB
  5
1EAB
331
1E89
  5
1E89
331
1F3D
  5
1F3D
331
1F5F
  5
1F5F
331
1F81
  5
1F81
331
1ECE
  5
1ECE
331
1EF0
  5
1EF0
331
1F12
  5
1F12
331
1F34
  5
1F34
331
1EBC
  5
1EBC
331
1E9A
  5
1E9A
331
1E78
  5
1E78
331
1E56
  5
1E56
331
1E3C
  5
1E3C
331
1E1A
  5
1E1A
331
1DF8
  5
1DF8
331
1DD6
  5
1DD6
331
1F4E
  5
1F4E
331
1F70
  5
1F70
331
1EDF
  5
1EDF
331
1E67
  5
1E67
331
1E2B
  5
1E2B
331
1E09
  5
1E09
331
1DE7
  5
1DE7
331
1DCD
  5
1DCD
331
1DBC
  5
1DBC
331
1F21
  5
1F21
331
1EA9
  5
1EA9
331
1F3B
  5
1F3B
331
1F5D
  5
1F5D
331
1F7F
  5
1F7F
331
1ECC
  5
1ECC
331
1EEE
  5
1EEE
331
1F10
  5
1F10
331
1F32
  5
1F32
331
1EBA
  5
1EBA
331
1E98
  5
1E98
331
1E76
  5
1E76
331
1E54
  5
1E54
331
1E3A
  5
1E3A
331
1E18
  5
1E18
331
1DF6
  5
1DF6
331
1DD4
  5
1DD4
331
1F4C
  5
1F4C
331
1F6E
  5
1F6E
331
1EDD
  5
1EDD
331
1EFF
  5
1EFF
331
1E87
  5
1E87
331
1E65
  5
1E65
331
1E29
  5
1E29
331
1E07
  5
1E07
331
1DE5
  5
1DE5
331
1DCB
  5
1DCB
331
1DBA
  5
1DBA
331
1F39
  5
1F39
331
1F5B
  5
1F5B
331
1F7D
  5
1F7D
331
1ECA
  5
1ECA
331
1EEC
  5
1EEC
331
1F0E
  5
1F0E
331
1F30
  5
1F30
331
1EB8
  5
1EB8
331
1E96
  5
1E96
331
1E74
  5
1E74
331
1E52
  5
1E52
331
1E38
  5
1E38
331
1E16
  5
1E16
331
1DF4
  5
1DF4
331
1DD2
  5
1DD2
331
1F4A
  5
1F4A
331
1F6C
  5
1F6C
331
1EDB
  5
1EDB
331
1EFD
  5
1EFD
331
1F1F
  5
1F1F
331
1EA7
  5
1EA7
331
1E85
  5
1E85
331
1E63
  5
1E63
331
1E27
  5
1E27
331
1E05
  5
1E05
331
1DE3
  5
1DE3
331
1DC9
  5
1DC9
331
1DB8
  5
1DB8
331
1F59
  5
1F59
331
1F7B
  5
1F7B
331
1EC8
  5
1EC8
331
1EEA
  5
1EEA
331
1F0C
  5
1F0C
331
1F2E
  5
1F2E
331
1EB6
  5
1EB6
331
1E94
  5
1E94
331
1E72
  5
1E72
331
1E50
  5
1E50
331
1E36
  5
1E36
331
1E14
  5
1E14
331
1DF2
  5
1DF2
331
1DD0
  5
1DD0
331
1F48
  5
1F48
331
1F6A
  5
1F6A
331
1ED9
  5
1ED9
331
1EFB
  5
1EFB
331
1F1D
  5
1F1D
331
1EA5
  5
1EA5
331
1E83
  5
1E83
331
1E61
  5
1E61
331
1E47
  5
1E47
331
1E25
  5
1E25
331
1E03
  5
1E03
331
1DE1
  5
1DE1
331
1DC7
  5
1DC7
331
1F79
  5
1F79
331
161E
  5
17F8
331
1E34
  5
1E34
331
1E12
  5
1E12
331
1DF0
  5
1DF0
331
1EC6
  5
1EC6
331
1EE8
  5
1EE8
331
1F0A
  5
1F0A
331
1F2C
  5
1F2C
331
1EB4
  5
1EB4
331
1E92
  5
1E92
331
1E70
  5
1E70
331
1F46
  5
1F46
331
1F68
  5
1F68
331
1F8A
  5
1F8A
331
1ED7
  5
1ED7
331
1EF9
  5
1EF9
331
1F57
  5
1F57
331
1F1B
  5
1F1B
331
1EA3
  5
1EA3
331
1E81
  5
1E81
331
1E5F
  5
1E5F
331
1E45
  5
1E45
331
1E23
  5
1E23
331
1E01
  5
1E01
331
1DDF
  5
1DDF
331
1DC5
  5
1DC5
331
1E4E
  5
1E4E
331
1EC4
  5
1EC4
331
1EE6
  5
1EE6
331
1F08
  5
1F08
331
1F2A
  5
1F2A
331
1EB2
  5
1EB2
331
1E90
  5
1E90
331
1E6E
  5
1E6E
331
1E4C
  5
1E4C
331
1E32
  5
1E32
331
1E10
  5
1E10
331
1F44
  5
1F44
331
1F66
  5
1F66
331
1F88
  5
1F88
331
1ED5
  5
1ED5
331
1EF7
  5
1EF7
331
1F55
  5
1F55
331
1F19
  5
1F19
331
1EA1
  5
1EA1
331
1E7F
  5
1E7F
331
1E5D
  5
1E5D
331
1E43
  5
1E43
331
1E21
  5
1E21
331
1DFF
  5
1DFF
331
1F77
  5
1F77
331
1DEE
  5
1DEE
331
1DDD
  5
1DDD
331
1DC3
  5
1DC3
  0
XRECORD
  5
2170
102
{ACAD_REACTORS
330
42F
102
}
330
42F
100
AcDbXrecord
340
50
  0
MLINESTYLE
  5
18
102
{ACAD_REACTORS
330
17
102
}
330
17
100
AcDbMlineStyle
  2
STANDARD
 70
     0
  3

 62
   256
 51
90.0
 52
90.0
 71
     2
 49
0.5
 62
   256
  6
BYLAYER
 49
-0.5
 62
   256
  6
BYLAYER
  0
ENDSEC
  0
EOF
