  0
SECTION
  2
HEADER
  9
$ACADVER
  1
AC1012
  9
$DWGCODEPAGE
  3
ANSI_1252
  9
$INSBASE
 10
0.0
 20
0.0
 30
0.0
  9
$EXTMIN
 10
-0.5025342426379212
 20
-310.9905597410979
 30
-0.0015258207003583
  9
$EXTMAX
 10
16468.80108590313
 20
10516.55248862691
 30
0.0000000349246037
  9
$LIMMIN
 10
0.0
 20
0.0
  9
$LIMMAX
 10
420.0
 20
297.0
  9
$ORTHOMODE
 70
     1
  9
$REGENMODE
 70
     1
  9
$FILLMODE
 70
     1
  9
$QTEXTMODE
 70
     0
  9
$MIRRTEXT
 70
     1
  9
$DRAGMODE
 70
     2
  9
$LTSCALE
 40
1.0
  9
$OSMODE
 70
  2559
  9
$ATTMODE
 70
     1
  9
$TEXTSIZE
 40
2.5
  9
$TRACEWID
 40
1.0
  9
$TEXTSTYLE
  7
STANDARD
  9
$CLAYER
  8
HATCH
  9
$CELTYPE
  6
BYLAYER
  9
$CECOLOR
 62
   256
  9
$CELTSCALE
 40
1.0
  9
$DELOBJ
 70
     1
  9
$DISPSILH
 70
     0
  9
$DIMSCALE
 40
1.0
  9
$DIMASZ
 40
2.5
  9
$DIMEXO
 40
0.625
  9
$DIMDLI
 40
3.75
  9
$DIMRND
 40
0.0
  9
$DIMDLE
 40
0.0
  9
$DIMEXE
 40
1.25
  9
$DIMTP
 40
0.0
  9
$DIMTM
 40
0.0
  9
$DIMTXT
 40
2.5
  9
$DIMCEN
 40
2.5
  9
$DIMTSZ
 40
0.0
  9
$DIMTOL
 70
     0
  9
$DIMLIM
 70
     0
  9
$DIMTIH
 70
     0
  9
$DIMTOH
 70
     0
  9
$DIMSE1
 70
     0
  9
$DIMSE2
 70
     0
  9
$DIMTAD
 70
     1
  9
$DIMZIN
 70
     8
  9
$DIMBLK
  1

  9
$DIMASO
 70
     1
  9
$DIMSHO
 70
     1
  9
$DIMPOST
  1

  9
$DIMAPOST
  1

  9
$DIMALT
 70
     0
  9
$DIMALTD
 70
     3
  9
$DIMALTF
 40
0.03937007874016
  9
$DIMLFAC
 40
1.0
  9
$DIMTOFL
 70
     1
  9
$DIMTVP
 40
0.0
  9
$DIMTIX
 70
     0
  9
$DIMSOXD
 70
     0
  9
$DIMSAH
 70
     0
  9
$DIMBLK1
  1

  9
$DIMBLK2
  1

  9
$DIMSTYLE
  2
ISO-25
  9
$DIMCLRD
 70
     0
  9
$DIMCLRE
 70
     0
  9
$DIMCLRT
 70
     0
  9
$DIMTFAC
 40
1.0
  9
$DIMGAP
 40
0.625
  9
$DIMJUST
 70
     0
  9
$DIMSD1
 70
     0
  9
$DIMSD2
 70
     0
  9
$DIMTOLJ
 70
     0
  9
$DIMTZIN
 70
     8
  9
$DIMALTZ
 70
     0
  9
$DIMALTTZ
 70
     0
  9
$DIMFIT
 70
     3
  9
$DIMUPT
 70
     0
  9
$DIMUNIT
 70
     2
  9
$DIMDEC
 70
     2
  9
$DIMTDEC
 70
     2
  9
$DIMALTU
 70
     2
  9
$DIMALTTD
 70
     3
  9
$DIMTXSTY
  7
STANDARD
  9
$DIMAUNIT
 70
     0
  9
$LUNITS
 70
     2
  9
$LUPREC
 70
     4
  9
$SKETCHINC
 40
1.0
  9
$FILLETRAD
 40
10.0
  9
$AUNITS
 70
     0
  9
$AUPREC
 70
     0
  9
$MENU
  1
.
  9
$ELEVATION
 40
0.0
  9
$PELEVATION
 40
0.0
  9
$THICKNESS
 40
0.0
  9
$LIMCHECK
 70
     0
  9
$BLIPMODE
 70
     0
  9
$CHAMFERA
 40
10.0
  9
$CHAMFERB
 40
10.0
  9
$CHAMFERC
 40
20.0
  9
$CHAMFERD
 40
0.0
  9
$SKPOLY
 70
     0
  9
$TDCREATE
 40
2452626.601815509
  9
$TDUPDATE
 40
2452776.635692592
  9
$TDINDWG
 40
0.0525459491
  9
$TDUSRTIMER
 40
0.0525459491
  9
$USRTIMER
 70
     1
  9
$ANGBASE
 50
0.0
  9
$ANGDIR
 70
     0
  9
$PDMODE
 70
     0
  9
$PDSIZE
 40
0.0
  9
$PLINEWID
 40
0.0
  9
$COORDS
 70
     2
  9
$SPLFRAME
 70
     0
  9
$SPLINETYPE
 70
     6
  9
$SPLINESEGS
 70
     8
  9
$ATTDIA
 70
     0
  9
$ATTREQ
 70
     1
  9
$HANDLING
 70
-16383
  9
$HANDSEED
  5
D33
  9
$SURFTAB1
 70
     6
  9
$SURFTAB2
 70
     6
  9
$SURFTYPE
 70
     6
  9
$SURFU
 70
     6
  9
$SURFV
 70
     6
  9
$UCSNAME
  2

  9
$UCSORG
 10
0.0
 20
0.0
 30
0.0
  9
$UCSXDIR
 10
1.0
 20
0.0
 30
0.0
  9
$UCSYDIR
 10
0.0
 20
1.0
 30
0.0
  9
$PUCSNAME
  2

  9
$PUCSORG
 10
0.0
 20
0.0
 30
0.0
  9
$PUCSXDIR
 10
1.0
 20
0.0
 30
0.0
  9
$PUCSYDIR
 10
0.0
 20
1.0
 30
0.0
  9
$USERI1
 70
     0
  9
$USERI2
 70
     0
  9
$USERI3
 70
     0
  9
$USERI4
 70
     0
  9
$USERI5
 70
     0
  9
$USERR1
 40
0.0
  9
$USERR2
 40
0.0
  9
$USERR3
 40
0.0
  9
$USERR4
 40
0.0
  9
$USERR5
 40
0.0
  9
$WORLDVIEW
 70
     1
  9
$SHADEDGE
 70
     3
  9
$SHADEDIF
 70
    70
  9
$TILEMODE
 70
     1
  9
$MAXACTVP
 70
    64
  9
$PINSBASE
 10
0.0
 20
0.0
 30
0.0
  9
$PLIMCHECK
 70
     0
  9
$PEXTMIN
 10
0.0
 20
0.0
 30
0.0
  9
$PEXTMAX
 10
0.0
 20
0.0
 30
0.0
  9
$PLIMMIN
 10
0.0
 20
0.0
  9
$PLIMMAX
 10
12.0
 20
9.0
  9
$UNITMODE
 70
     0
  9
$VISRETAIN
 70
     1
  9
$PLINEGEN
 70
     0
  9
$PSLTSCALE
 70
     1
  9
$TREEDEPTH
 70
  3020
  9
$PICKSTYLE
 70
     1
  9
$CMLSTYLE
  2
STANDARD
  9
$CMLJUST
 70
     0
  9
$CMLSCALE
 40
20.0
  9
$SAVEIMAGES
 70
     1
  0
ENDSEC
  0
SECTION
  2
CLASSES
  0
CLASS
  1
ACDBDICTIONARYWDFLT
  2
AcDbDictionaryWithDefault
  3
AutoCAD 2000
 90
    32768
280
     0
281
     0
  0
CLASS
  1
ACDBPLACEHOLDER
  2
AcDbPlaceHolder
  3
AutoCAD 2000
 90
    32768
280
     0
281
     0
  0
CLASS
  1
LAYOUT
  2
AcDbLayout
  3
AutoCAD 2000
 90
    32768
280
     0
281
     0
  0
CLASS
  1
LONG_TRANSACTION
  2
AcDbLongTransaction
  3
AutoCAD 2000
 90
    32768
280
     0
281
     0
  0
CLASS
  1
LWPOLYLINE
  2
AcDbPolyline
  3
AutoCAD 2000
 90
    32768
280
     0
281
     1
  0
CLASS
  1
HATCH
  2
AcDbHatch
  3
AutoCAD 2000
 90
    32768
280
     0
281
     1
  0
CLASS
  1
XRECORD
  2
AcDbXrecord
  3
AutoCAD 2000
 90
    32768
280
     0
281
     0
  0
CLASS
  1
LONG_TRANSACTION
  2
AcDbLongTransaction
  3
AutoCAD 2000
 90
    32768
280
     0
281
     0
  0
CLASS
  1
LWPOLYLINE
  2
AcDbPolyline
  3
AutoCAD 2000
 90
    32768
280
     0
281
     1
  0
CLASS
  1
HATCH
  2
AcDbHatch
  3
AutoCAD 2000
 90
    32768
280
     0
281
     1
  0
CLASS
  1
XRECORD
  2
AcDbXrecord
  3
AutoCAD 2000
 90
    32768
280
     0
281
     0
  0
CLASS
  1
LONG_TRANSACTION
  2
AcDbLongTransaction
  3
AutoCAD 2000
 90
    32768
280
     0
281
     0
  0
CLASS
  1
LWPOLYLINE
  2
AcDbPolyline
  3
AutoCAD 2000
 90
    32768
280
     0
281
     1
  0
CLASS
  1
HATCH
  2
AcDbHatch
  3
AutoCAD 2000
 90
    32768
280
     0
281
     1
  0
CLASS
  1
XRECORD
  2
AcDbXrecord
  3
AutoCAD 2000
 90
    32768
280
     0
281
     0
  0
CLASS
  1
DICTIONARYVAR
  2
AcDbDictionaryVar
  3
AutoCAD 2000
 90
    32768
280
     0
281
     0
  0
CLASS
  1
SORTENTSTABLE
  2
AcDbSortentsTable
  3
AutoCAD 2000
 90
    32768
280
     0
281
     0
  0
CLASS
  1
LONG_TRANSACTION
  2
AcDbLongTransaction
  3
AutoCAD 2000
 90
    32768
280
     0
281
     0
  0
CLASS
  1
LWPOLYLINE
  2
AcDbPolyline
  3
AutoCAD 2000
 90
    32768
280
     0
281
     1
  0
CLASS
  1
HATCH
  2
AcDbHatch
  3
AutoCAD 2000
 90
    32768
280
     0
281
     1
  0
CLASS
  1
XRECORD
  2
AcDbXrecord
  3
AutoCAD 2000
 90
    32768
280
     0
281
     0
  0
CLASS
  1
LONG_TRANSACTION
  2
AcDbLongTransaction
  3
AutoCAD 2000
 90
    32768
280
     0
281
     0
  0
CLASS
  1
LWPOLYLINE
  2
AcDbPolyline
  3
AutoCAD 2000
 90
    32768
280
     0
281
     1
  0
CLASS
  1
HATCH
  2
AcDbHatch
  3
AutoCAD 2000
 90
    32768
280
     0
281
     1
  0
CLASS
  1
XRECORD
  2
AcDbXrecord
  3
AutoCAD 2000
 90
    32768
280
     0
281
     0
  0
ENDSEC
  0
SECTION
  2
TABLES
  0
TABLE
  2
VPORT
  5
8
330
0
100
AcDbSymbolTable
 70
     3
  0
VPORT
  5
C17
330
8
100
AcDbSymbolTableRecord
100
AcDbViewportTableRecord
  2
*ACTIVE
 70
     0
 10
0.0
 20
0.0
 11
1.0
 21
1.0
 12
8234.149275830247
 22
5102.780964442906
 13
0.0
 23
0.0
 14
10.0
 24
10.0
 15
10.0
 25
10.0
 16
0.0
 26
0.0
 36
1.0
 17
0.0
 27
0.0
 37
0.0
 40
10958.78599440883
 41
1.558704453441295
 42
50.0
 43
0.0
 44
0.0
 50
0.0
 51
0.0
 71
     0
 72
   100
 73
     1
 74
     3
 75
     0
 76
     0
 77
     0
 78
     0
  0
ENDTAB
  0
TABLE
  2
LTYPE
  5
5
330
0
100
AcDbSymbolTable
 70
     1
  0
LTYPE
  5
14
330
5
100
AcDbSymbolTableRecord
100
AcDbLinetypeTableRecord
  2
BYBLOCK
 70
     0
  3

 72
    65
 73
     0
 40
0.0
  0
LTYPE
  5
15
330
5
100
AcDbSymbolTableRecord
100
AcDbLinetypeTableRecord
  2
BYLAYER
 70
     0
  3

 72
    65
 73
     0
 40
0.0
  0
LTYPE
  5
16
330
5
100
AcDbSymbolTableRecord
100
AcDbLinetypeTableRecord
  2
CONTINUOUS
 70
     0
  3
Solid line
 72
    65
 73
     0
 40
0.0
  0
ENDTAB
  0
TABLE
  2
LAYER
  5
2
330
0
100
AcDbSymbolTable
 70
     5
  0
LAYER
  5
10
330
2
100
AcDbSymbolTableRecord
100
AcDbLayerTableRecord
  2
0
 70
     0
 62
     7
  6
CONTINUOUS
  0
LAYER
  5
5D
330
2
100
AcDbSymbolTableRecord
100
AcDbLayerTableRecord
  2
SAFETY
 70
     0
 62
     7
  6
CONTINUOUS
  0
LAYER
  5
5E
330
2
100
AcDbSymbolTableRecord
100
AcDbLayerTableRecord
  2
OBJECT
 70
     0
 62
     7
  6
CONTINUOUS
  0
LAYER
  5
276
330
2
100
AcDbSymbolTableRecord
100
AcDbLayerTableRecord
  2
TEKST
 70
     0
 62
     7
  6
CONTINUOUS
  0
LAYER
  5
415
330
2
100
AcDbSymbolTableRecord
100
AcDbLayerTableRecord
  2
HATCH
 70
     0
 62
     7
  6
CONTINUOUS
  0
ENDTAB
  0
TABLE
  2
STYLE
  5
3
330
0
100
AcDbSymbolTable
 70
     1
  0
STYLE
  5
11
330
3
100
AcDbSymbolTableRecord
100
AcDbTextStyleTableRecord
  2
STANDARD
 70
     0
 40
0.0
 41
1.0
 50
0.0
 71
     0
 42
2.5
  3
txt
  4

  0
ENDTAB
  0
TABLE
  2
VIEW
  5
6
330
0
100
AcDbSymbolTable
 70
     0
  0
ENDTAB
  0
TABLE
  2
UCS
  5
7
330
0
100
AcDbSymbolTable
 70
     0
  0
ENDTAB
  0
TABLE
  2
APPID
  5
9
330
0
100
AcDbSymbolTable
 70
     2
  0
APPID
  5
12
330
9
100
AcDbSymbolTableRecord
100
AcDbRegAppTableRecord
  2
ACAD
 70
     0
  0
APPID
  5
26F
330
9
100
AcDbSymbolTableRecord
100
AcDbRegAppTableRecord
  2
CONTENTBLOCKICON
 70
     0
  0
ENDTAB
  0
TABLE
  2
DIMSTYLE
  5
A
330
0
100
AcDbSymbolTable
 70
     1
  0
DIMSTYLE
105
27
330
A
100
AcDbSymbolTableRecord
100
AcDbDimStyleTableRecord
  2
ISO-25
 70
     0
  3

  4

  5

  6

  7

 40
1.0
 41
2.5
 42
0.625
 43
3.75
 44
1.25
 45
0.0
 46
0.0
 47
0.0
 48
0.0
140
2.5
141
2.5
142
0.0
143
0.03937007874016
144
1.0
145
0.0
146
1.0
147
0.625
 71
     0
 72
     0
 73
     0
 74
     0
 75
     0
 76
     0
 77
     1
 78
     8
170
     0
171
     3
172
     1
173
     0
174
     0
175
     0
176
     0
177
     0
178
     0
270
     2
271
     2
272
     2
273
     2
274
     3
340
11
275
     0
280
     0
281
     0
282
     0
283
     0
284
     8
285
     0
286
     0
287
     3
288
     0
  0
ENDTAB
  0
TABLE
  2
BLOCK_RECORD
  5
1
330
0
100
AcDbSymbolTable
 70
    21
  0
BLOCK_RECORD
  5
1F
102
{ACAD_XDICTIONARY
360
1A9
102
}
330
1
100
AcDbSymbolTableRecord
100
AcDbBlockTableRecord
  2
*MODEL_SPACE
  0
BLOCK_RECORD
  5
50
102
{ACAD_XDICTIONARY
360
1AB
102
}
330
1
100
AcDbSymbolTableRecord
100
AcDbBlockTableRecord
  2
*PAPER_SPACE
  0
BLOCK_RECORD
  5
1B5
330
1
100
AcDbSymbolTableRecord
100
AcDbBlockTableRecord
  2
ADKH
1001
ACAD
1000
DesignCenter Data
1002
{
1070
     1
1070
     4
1002
}
1001
CONTENTBLOCKICON
1071
        0
1004
28000000200000002000000001000800000000000004000000000000000000000000000000000000000000004000000080000000FF000000002000004020000080200000FF200000004000004040000080400000FF400000006000004060000080600000FF600000008000004080000080800000FF80000000A0000040A000
1004
0080A00000FFA0000000C0000040C0000080C00000FFC0000000FF000040FF000080FF0000FFFF0000000020004000200080002000FF002000002020004020200080202000FF202000004020004040200080402000FF402000006020004060200080602000FF602000008020004080200080802000FF80200000A0200040A0
1004
200080A02000FFA0200000C0200040C0200080C02000FFC0200000FF200040FF200080FF2000FFFF2000000040004000400080004000FF004000002040004020400080204000FF204000004040004040400080404000FF404000006040004060400080604000FF604000008040004080400080804000FF80400000A0400040
1004
A0400080A04000FFA0400000C0400040C0400080C04000FFC0400000FF400040FF400080FF4000FFFF4000000060004000600080006000FF006000002060004020600080206000FF206000004060004040600080406000FF406000006060004060600080606000FF606000008060004080600080806000FF80600000A06000
1004
40A0600080A06000FFA0600000C0600040C0600080C06000FFC0600000FF600040FF600080FF6000FFFF6000000080004000800080008000FF008000002080004020800080208000FF208000004080004040800080408000FF408000006080004060800080608000FF608000008080004080800080808000FF80800000A080
1004
0040A0800080A08000FFA0800000C0800040C0800080C08000FFC0800000FF800040FF800080FF8000FFFF80000000A0004000A0008000A000FF00A0000020A0004020A0008020A000FF20A0000040A0004040A0008040A000FF40A0000060A0004060A0008060A000FF60A0000080A0004080A0008080A000FF80A00000A0
1004
A00040A0A00080A0A000FFA0A00000C0A00040C0A00080C0A000FFC0A00000FFA00040FFA00080FFA000FFFFA0000000C0004000C0008000C000FF00C0000020C0004020C0008020C000FF20C0000040C0004040C0008040C000FF40C0000060C0004060C0008060C000FF60C0000080C0004080C0008080C000FF80C00000
1004
A0C00040A0C00080A0C000FFA0C00000C0C00040C0C00080C0C000FFC0C00000FFC00040FFC00080FFC000FFFFC0000000FF004000FF008000FF00FF00FF000020FF004020FF008020FF00FF20FF000040FF004040FF008040FF00FF40FF000060FF004060FF008060FF00FF60FF000080FF004080FF008080FF00FF80FF00
1004
00A0FF0040A0FF0080A0FF00FFA0FF0000C0FF0040C0FF0080C0FF00FFC0FF0000FFFF0040FFFF0080FFFF00FFFFFF0000000000000000000000000000000000000000000000000000000000000000000000000000000000000000000000000000000000000000000000000000000000000000000000000000000000000000
1004
00000000000000000000000000000000000000000000000000000000000000000000000000000000000000000000000000000000000000000000000000000000000000000000000000000000000000000000000000000000000000000000000000000000000000000000000000000000000000000000000000000000000000
1004
0000000000000000000000000000000000000000000000FFFFFFFFFFFFFF00000000000000000000000000000000000000000000000000FF000000000000FFFFFFFFFFFFFFFFFFFF000000000000000000000000000000FF00000000000000000000000000000000FF0000000000000000000000000000FF00000000000000
1004
00000000000000FF00FFFFFFFFFF00000000000000000000FF001C1C1C1C00000000000000001C1C1C1C00000000FFFFFFFF000000000000FF001C1C1C494949494949FCFCFC1C1C1CFCFCFCFCFC000000FF000000000000FF001C1C1C490000004949FCFCFC1C1C1CFCFCFCFCFC000000FF000000000000FF001CE0E04949
1004
494949494900001C1C1C1C00000000000000FF000000000000FF0000E0E0000000004900490000001F1F490000000000FFFFFF000000000000FF0000E0E0000000004900490000001F1F4900FFFFFFFF000000000000000000FF0000E0E0000000004900490000001F1F4900FF00000000000000000000FFFF00FFE0FFE000
1004
0000004949491C1C1CE01C1C00FF00000000000000000000FF0000E0E0E00000000303031C1C494900491C1C00FF000000000000000000FF0000E0E0E00000000000001C1C1C1C1C1C1C1C1C00FF0000000000000000FF00000000E0000000000000001C1C1C1C1C1C1C000000FF000000000000000000FF00000000000000
1004
00000000000000000000000000FF0000000000000000000000FFFF00FFFFFFFFFFFFFFFFFFFFFFFFFFFFFFFFFFFF00000000000000000000000000FF00000000000000000000000000000000000000000000000000000000000000000000000000000000000000000000000000000000000000000000000000000000000000
1004
00000000000000000000000000000000000000000000000000000000000000000000000000000000000000000000000000000000000000000000000000000000000000000000000000000000000000000000000000000000000000000000000000000000000000000000000000000000000000000000000000000000000000
1004
0000000000000000000000000000000000000000000000000000000000000000000000000000000000000000000000000000000000000000
  0
BLOCK_RECORD
  5
6C8
330
1
100
AcDbSymbolTableRecord
100
AcDbBlockTableRecord
  2
*U1
  0
BLOCK_RECORD
  5
6D7
330
1
100
AcDbSymbolTableRecord
100
AcDbBlockTableRecord
  2
*U2
  0
BLOCK_RECORD
  5
6E6
330
1
100
AcDbSymbolTableRecord
100
AcDbBlockTableRecord
  2
*U3
  0
BLOCK_RECORD
  5
6F5
330
1
100
AcDbSymbolTableRecord
100
AcDbBlockTableRecord
  2
*U4
  0
BLOCK_RECORD
  5
70D
330
1
100
AcDbSymbolTableRecord
100
AcDbBlockTableRecord
  2
*U5
  0
BLOCK_RECORD
  5
734
330
1
100
AcDbSymbolTableRecord
100
AcDbBlockTableRecord
  2
*U6
  0
BLOCK_RECORD
  5
74F
330
1
100
AcDbSymbolTableRecord
100
AcDbBlockTableRecord
  2
*U7
  0
BLOCK_RECORD
  5
769
330
1
100
AcDbSymbolTableRecord
100
AcDbBlockTableRecord
  2
*U8
  0
BLOCK_RECORD
  5
772
330
1
100
AcDbSymbolTableRecord
100
AcDbBlockTableRecord
  2
*U9
  0
BLOCK_RECORD
  5
778
330
1
100
AcDbSymbolTableRecord
100
AcDbBlockTableRecord
  2
*U10
  0
BLOCK_RECORD
  5
77E
330
1
100
AcDbSymbolTableRecord
100
AcDbBlockTableRecord
  2
*U11
  0
BLOCK_RECORD
  5
C1B
330
1
100
AcDbSymbolTableRecord
100
AcDbBlockTableRecord
  2
*U12
  0
BLOCK_RECORD
  5
C25
330
1
100
AcDbSymbolTableRecord
100
AcDbBlockTableRecord
  2
*U13
  0
BLOCK_RECORD
  5
C2D
330
1
100
AcDbSymbolTableRecord
100
AcDbBlockTableRecord
  2
*U14
  0
BLOCK_RECORD
  5
C36
330
1
100
AcDbSymbolTableRecord
100
AcDbBlockTableRecord
  2
*U15
  0
BLOCK_RECORD
  5
C43
330
1
100
AcDbSymbolTableRecord
100
AcDbBlockTableRecord
  2
*U16
  0
BLOCK_RECORD
  5
C4A
330
1
100
AcDbSymbolTableRecord
100
AcDbBlockTableRecord
  2
*U17
  0
BLOCK_RECORD
  5
C55
330
1
100
AcDbSymbolTableRecord
100
AcDbBlockTableRecord
  2
*U18
  0
BLOCK_RECORD
  5
C64
330
1
100
AcDbSymbolTableRecord
100
AcDbBlockTableRecord
  2
*U19
  0
BLOCK_RECORD
  5
C6B
330
1
100
AcDbSymbolTableRecord
100
AcDbBlockTableRecord
  2
*U20
  0
ENDTAB
  0
ENDSEC
  0
SECTION
  2
BLOCKS
  0
BLOCK
  5
20
330
1F
100
AcDbEntity
  8
0
100
AcDbBlockBegin
  2
*MODEL_SPACE
 70
     0
 10
0.0
 20
0.0
 30
0.0
  3
*MODEL_SPACE
  1

  0
ENDBLK
  5
21
330
1F
100
AcDbEntity
  8
0
100
AcDbBlockEnd
  0
BLOCK
  5
52
330
50
100
AcDbEntity
 67
     1
  8
0
100
AcDbBlockBegin
  2
*PAPER_SPACE
 70
     0
 10
0.0
 20
0.0
 30
0.0
  3
*PAPER_SPACE
  1

  0
ENDBLK
  5
53
330
50
100
AcDbEntity
 67
     1
  8
0
100
AcDbBlockEnd
  0
BLOCK
  5
1B6
330
1B5
100
AcDbEntity
  8
0
100
AcDbBlockBegin
  2
ADKH
 70
     0
 10
0.0
 20
0.0
 30
0.0
  3
ADKH
  1

  0
INSERT
  5
B77
330
1B5
100
AcDbEntity
  8
HATCH
  6
CONTINUOUS
 62
     2
100
AcDbBlockReference
  2
*U12
 10
0.0
 20
0.0
 30
0.0
1001
ACAD
1002
{
1000
R14_HATCH_DATA
1000
B77
1011
1.0
1021
0.0
1031
0.0
1011
0.0
1021
1.0
1031
0.0
1011
0.0
1021
0.0
1031
1.0
1040
0.0
1010
0.0
1020
0.0
1030
1.0
1000
SOLID
1070
     1
1070
     0
1071
        3
1071
        7
1070
     0
1070
     1
1071
        4
1040
14506.9300271207
1040
3819.292044192672
1040
14506.9300271207
1040
3844.292044192672
1040
11971.93002712072
1040
3844.292044192665
1040
11971.93002712072
1040
3819.292044192678
1071
        0
1071
        7
1070
     1
1070
     1
1071
        4
1040
11971.93002712072
1040
3819.292044192678
1040
0.0
1040
11971.93002712072
1040
3369.292044192675
1040
0.0
1040
14506.93002712072
1040
3369.292044192672
1040
-0.1716957873187099
1040
14506.93002712072
1040
3819.292044192672
1040
0.0
1071
        0
1071
        7
1070
     0
1070
     1
1071
        4
1040
14506.93002712073
1040
3344.292044192675
1040
14506.93002712073
1040
3369.292044192671
1040
11971.93002712072
1040
3369.292044192675
1040
11971.93002712072
1040
3344.29204419268
1071
        0
1070
     0
1070
     1
1040
5.031806814096154
1071
        3
1040
13535.47832662798
1040
3830.276595353542
1040
0.0
1040
13540.51384396071
1040
3704.481486411212
1040
0.0
1040
13535.47832662798
1040
3347.223140681352
1040
0.0
1002
}
  0
INSERT
  5
B78
330
1B5
100
AcDbEntity
  8
HATCH
  6
CONTINUOUS
 62
     5
100
AcDbBlockReference
  2
*U13
 10
0.0
 20
0.0
 30
0.0
1001
ACAD
1002
{
1000
R14_HATCH_DATA
1000
B78
1011
1.0
1021
0.0
1031
0.0
1011
0.0
1021
1.0
1031
0.0
1011
0.0
1021
0.0
1031
1.0
1040
0.0
1010
0.0
1020
0.0
1030
1.0
1000
SOLID
1070
     1
1070
     0
1071
        1
1071
        7
1070
     1
1070
     1
1071
        4
1040
6363.130027120714
1040
7525.492044192677
1040
1.0
1040
6363.130027120714
1040
7483.092044192675
1040
0.0
1040
7371.930027120708
1040
7483.092044192668
1040
0.0
1040
7371.930027120706
1040
7525.492044192671
1040
0.0
1071
        0
1070
     0
1070
     1
1040
2.037813363579481
1071
        1
1040
7034.419373986951
1040
7512.855141917724
1040
0.0
1002
}
  0
INSERT
  5
B79
330
1B5
100
AcDbEntity
  8
HATCH
  6
CONTINUOUS
 62
     3
100
AcDbBlockReference
  2
*U3
 10
7049.999999999986
 20
0.0000000000509317
 30
0.0
1001
ACAD
1002
{
1000
R14_HATCH_DATA
1000
433
1011
7050.999999999986
1021
0.0000000000509317
1031
0.0
1011
7049.999999999986
1021
1.000000000050931
1031
0.0
1011
7049.999999999986
1021
0.0000000000509317
1031
1.0
1040
0.0
1010
0.0
1020
0.0
1030
1.0
1000
SOLID
1070
     1
1070
     1
1071
        8
1071
        7
1070
     0
1070
     1
1071
        4
1040
4671.930027120719
1040
4094.292044192672
1040
4921.930027120709
1040
4344.292044192668
1040
3421.930027120725
1040
4344.29204419268
1040
3671.930027120737
1040
4094.292044192672
1071
        4
1005
B99
1005
B9A
1005
B97
1005
B98
1071
        7
1070
     0
1070
     1
1071
        3
1040
4671.930027120717
1040
4094.292044192672
1040
3671.930027120737
1040
4094.292044192672
1040
4171.930027120736
1040
3594.292044192679
1071
        3
1005
B97
1005
B9A
1005
B98
1071
        7
1070
     0
1070
     1
1071
        4
1040
4671.930027120746
1040
3094.292044192678
1040
4921.930027120746
1040
2844.29204419268
1040
4921.930027120709
1040
4344.292044192668
1040
4671.930027120725
1040
4094.292044192679
1071
        4
1005
B98
1005
B97
1005
B9A
1005
B99
1071
        7
1070
     0
1070
     1
1071
        3
1040
4171.930027120736
1040
3594.292044192679
1040
4671.930027120747
1040
3094.292044192677
1040
4671.930027120725
1040
4094.292044192679
1071
        3
1005
B98
1005
B9A
1005
B97
1071
        7
1070
     0
1070
     1
1071
        3
1040
4671.930027120743
1040
3094.292044192679
1040
4171.930027120736
1040
3594.292044192679
1040
3671.930027120745
1040
3094.29204419268
1071
        3
1005
B98
1005
B97
1005
B9A
1071
        7
1070
     0
1070
     1
1071
        4
1040
3671.930027120745
1040
3094.29204419268
1040
3421.930027120739
1040
2844.292044192669
1040
4921.930027120748
1040
2844.29204419268
1040
4671.930027120743
1040
3094.29204419268
1071
        4
1005
B97
1005
B98
1005
B99
1005
B9A
1071
        7
1070
     0
1070
     1
1071
        3
1040
4171.930027120736
1040
3594.292044192679
1040
3671.930027120696
1040
4094.292044192712
1040
3671.930027120717
1040
3094.292044192652
1071
        3
1005
B9A
1005
B97
1005
B98
1071
        7
1070
     0
1070
     1
1071
        4
1040
3671.930027120695
1040
4094.292044192714
1040
3421.930027120726
1040
4344.29204419268
1040
3421.930027120739
1040
2844.292044192668
1040
3671.930027120717
1040
3094.29204419265
1071
        4
1005
B9A
1005
B99
1005
B98
1005
B97
1070
     0
1070
     1
1040
3.819481418162246
1071
        8
1040
4383.782896088684
1040
4131.257966510324
1040
0.0
1040
4318.804705040689
1040
3890.630628068043
1040
0.0
1040
4746.896594668839
1040
3787.504619921426
1040
0.0
1040
4529.028391542117
1040
3760.768262883211
1040
0.0
1040
4104.758720173195
1040
3180.207081257176
1040
0.0
1040
4146.803441452109
1040
3012.149890518143
1040
0.0
1040
3837.201279142231
1040
3401.736986072632
1040
0.0
1040
3592.577307880346
1040
3428.473384810299
1040
0.0
1002
}
  0
INSERT
  5
B7A
330
1B5
100
AcDbEntity
  8
HATCH
  6
CONTINUOUS
 62
   251
100
AcDbBlockReference
  2
*U14
 10
0.0
 20
0.0
 30
0.0
1001
ACAD
1002
{
1000
R14_HATCH_DATA
1000
B7A
1011
1.0
1021
0.0
1031
0.0
1011
0.0
1021
1.0
1031
0.0
1011
0.0
1021
0.0
1031
1.0
1040
0.0
1010
0.0
1020
0.0
1030
1.0
1000
SOLID
1070
     1
1070
     1
1071
        2
1071
        7
1070
     0
1070
     1
1071
        5
1040
8721.930027120718
1040
6754.292044192673
1040
7521.930027120723
1040
6754.29204419268
1040
7521.930027120716
1040
4194.29204419268
1040
7621.930027120717
1040
4194.292044192664
1040
8721.930027120709
1040
4194.292044192668
1071
        5
1005
B8A
1005
B94
1005
BB0
1005
B90
1005
BBE
1071
        7
1070
     0
1070
     1
1071
        5
1040
7521.930027120717
1040
4194.29204419268
1040
4921.930027120714
1040
4194.29204419267
1040
4921.930027120742
1040
2994.292044192672
1040
7521.930027120717
1040
2994.292044192672
1040
7521.930027120717
1040
3094.292044192672
1071
        5
1005
B95
1005
B99
1005
B96
1005
BA1
1005
B90
1070
     0
1070
     1
1040
14.76690624785845
1071
        2
1040
8179.175930163038
1040
5249.499647334989
1040
0.0
1040
7115.188121704822
1040
3772.808978437679
1040
0.0
1002
}
  0
INSERT
  5
B7B
330
1B5
100
AcDbEntity
  8
HATCH
  6
CONTINUOUS
 62
     2
100
AcDbBlockReference
  2
*U15
 10
0.0
 20
0.0
 30
0.0
1001
ACAD
1002
{
1000
R14_HATCH_DATA
1000
B7B
1011
1.0
1021
0.0
1031
0.0
1011
0.0
1021
1.0
1031
0.0
1011
0.0
1021
0.0
1031
1.0
1040
0.0
1010
0.0
1020
0.0
1030
1.0
1000
SOLID
1070
     1
1070
     0
1071
        5
1071
        7
1070
     0
1070
     1
1071
        4
1040
10471.93002712072
1040
3894.292044192669
1040
10471.93002712072
1040
3994.292044192679
1040
8721.930027120716
1040
3994.292044192667
1040
8721.930027120718
1040
3894.292044192672
1071
        0
1071
        7
1070
     0
1070
     1
1071
        4
1040
10471.93002712071
1040
3694.292044192675
1040
10471.93002712072
1040
3894.292044192669
1040
8721.930027120718
1040
3894.292044192672
1040
8721.930027120722
1040
3694.292044192678
1071
        0
1071
        7
1070
     0
1070
     1
1071
        4
1040
10471.93002712071
1040
3494.292044192665
1040
10471.93002712071
1040
3694.292044192676
1040
8721.930027120725
1040
3694.292044192678
1040
8721.930027120729
1040
3494.292044192683
1071
        0
1071
        7
1070
     0
1070
     1
1071
        4
1040
10471.9300271207
1040
3294.292044192676
1040
10471.93002712071
1040
3494.292044192665
1040
8721.930027120729
1040
3494.292044192683
1040
8721.930027120734
1040
3294.292044192676
1071
        0
1071
        7
1070
     0
1070
     1
1071
        4
1040
10471.93002712069
1040
3194.29204419268
1040
10471.9300271207
1040
3294.292044192676
1040
8721.930027120734
1040
3294.292044192675
1040
8721.930027120736
1040
3194.292044192664
1071
        0
1070
     0
1070
     1
1040
3.496799825311543
1071
        5
1040
9872.854422052187
1040
3933.451222646385
1040
0.0
1040
9869.355108812278
1040
3783.08890541039
1040
0.0
1040
9869.355108812278
1040
3541.809661024599
1040
0.0
1040
9869.355108812278
1040
3377.459993982571
1040
0.0
1040
9883.35236177186
1040
3206.116793135748
1040
0.0
1002
}
  0
INSERT
  5
B7C
330
1B5
100
AcDbEntity
  8
HATCH
  6
CONTINUOUS
 62
     1
100
AcDbBlockReference
  2
*U16
 10
0.0
 20
0.0
 30
0.0
1001
ACAD
1002
{
1000
R14_HATCH_DATA
1000
B7C
1011
1.0
1021
0.0
1031
0.0
1011
0.0
1021
1.0
1031
0.0
1011
0.0
1021
0.0
1031
1.0
1040
0.0
1010
0.0
1020
0.0
1030
1.0
1000
SOLID
1070
     1
1070
     1
1071
        1
1071
        7
1070
     0
1070
     1
1071
        4
1040
10621.93002712073
1040
7004.292044192688
1040
8871.930027120731
1040
7004.292044192654
1040
8871.930027120741
1040
6904.292044192729
1040
10621.93002712072
1040
6904.2920441927
1071
        1
1005
BFE
1070
     0
1070
     1
1040
9.605157442866486
1071
        1
1040
10640.40506172503
1040
6965.863283401748
1040
0.0
1002
}
  0
INSERT
  5
B7D
330
1B5
100
AcDbEntity
  8
HATCH
  6
CONTINUOUS
 62
     3
100
AcDbBlockReference
  2
*U6
 10
0.0
 20
0.0
 30
0.0
1001
ACAD
1002
{
1000
R14_HATCH_DATA
1000
4BC
1011
1.0
1021
0.0
1031
0.0
1011
0.0
1021
1.0
1031
0.0
1011
0.0
1021
0.0
1031
1.0
1040
0.0
1010
0.0
1020
0.0
1030
1.0
1000
SOLID
1070
     1
1070
     1
1071
        3
1071
        7
1070
     1
1070
     1
1071
       10
1040
9621.930027120733
1040
8104.292044192677
1040
0.0
1040
8871.930027120709
1040
8104.292044192671
1040
0.0
1040
8871.930027120709
1040
8004.292044192672
1040
0.0
1040
9721.930027120713
1040
8004.292044192665
1040
0.0
1040
9721.930027120713
1040
8104.292044192677
1040
-1.0
1040
10521.93002712074
1040
8104.292044192513
1040
0.0
1040
10521.9300271207
1040
8004.292044192444
1040
0.0
1040
11821.93002712073
1040
8004.292044192672
1040
0.0
1040
11821.93002712073
1040
8104.292044192671
1040
0.0
1040
10621.9300271207
1040
8104.292044192673
1040
1.0
1071
        6
1005
BFC
1005
BED
1005
BFD
1005
BEF
1005
C13
1005
BF0
1071
        7
1070
     0
1070
     1
1071
        4
1040
11821.93002712073
1040
8004.292044192672
1040
11721.93002712073
1040
8004.292044192672
1040
11721.93002712073
1040
6904.292044192685
1040
11821.93002712075
1040
6904.292044192685
1071
        1
1005
C12
1071
        7
1070
     0
1070
     1
1071
        4
1040
10621.93002712072
1040
7004.292044192688
1040
8871.930027120741
1040
7004.292044192654
1040
8871.930027120741
1040
6904.292044192731
1040
10621.93002712072
1040
6904.2920441927
1071
        2
1005
BFE
1005
BFF
1070
     0
1070
     1
1040
17.83269942381098
1071
        3
1040
10547.18602070929
1040
8243.988904752397
1040
0.0
1040
11754.66885961002
1040
7465.208273112591
1040
0.0
1040
10005.79789108694
1040
6948.059955173288
1040
0.0
1002
}
  0
INSERT
  5
B7E
330
1B5
100
AcDbEntity
  8
HATCH
  6
CONTINUOUS
 62
   251
100
AcDbBlockReference
  2
*U7
 10
0.0
 20
0.0
 30
0.0
1001
ACAD
1002
{
1000
R14_HATCH_DATA
1000
4C9
1011
1.0
1021
0.0
1031
0.0
1011
0.0
1021
1.0
1031
0.0
1011
0.0
1021
0.0
1031
1.0
1040
0.0
1010
0.0
1020
0.0
1030
1.0
1000
SOLID
1070
     1
1070
     0
1071
        1
1071
        7
1070
     1
1070
     1
1071
       11
1040
11721.93002712073
1040
8004.292044192654
1040
0.0
1040
10521.93002712069
1040
8004.292044192446
1040
0.0
1040
10521.93002712074
1040
8104.292044192503
1040
1.0
1040
9721.930027120713
1040
8104.292044192581
1040
0.0
1040
9721.930027120713
1040
8004.292044192665
1040
0.0
1040
8871.930027120709
1040
8004.292044192672
1040
0.0
1040
8871.930027120734
1040
7004.292044192654
1040
0.0
1040
10621.93002712073
1040
7004.292044192687
1040
0.0
1040
10721.93002712072
1040
7004.292044192687
1040
0.0
1040
10721.93002712073
1040
6904.292044192674
1040
0.0
1040
11721.93002712073
1040
6904.292044192679
1040
0.0
1071
        0
1070
     0
1070
     1
1040
14.57158836039847
1071
        1
1040
10610.90140736781
1040
7414.201331289899
1040
0.0
1002
}
  0
INSERT
  5
B7F
330
1B5
100
AcDbEntity
  8
HATCH
  6
CONTINUOUS
 62
   251
100
AcDbBlockReference
  2
*U17
 10
0.0
 20
0.0
 30
0.0
1001
ACAD
1002
{
1000
R14_HATCH_DATA
1000
B7F
1011
1.0
1021
0.0
1031
0.0
1011
0.0
1021
1.0
1031
0.0
1011
0.0
1021
0.0
1031
1.0
1040
0.0
1010
0.0
1020
0.0
1030
1.0
1000
SOLID
1070
     1
1070
     0
1071
        4
1071
        7
1070
     0
1070
     1
1071
        4
1040
8621.930027120709
1040
4194.29204419267
1040
7621.930027120717
1040
4194.29204419268
1040
7621.930027120694
1040
4094.292044192665
1040
8621.930027120715
1040
4094.292044192675
1071
        0
1071
        7
1070
     0
1070
     1
1071
        4
1040
8721.930027120714
1040
4094.292044192665
1040
8621.930027120717
1040
4094.292044192676
1040
8621.930027120747
1040
3094.292044192664
1040
8721.930027120738
1040
3094.292044192669
1071
        0
1071
        7
1070
     0
1070
     1
1071
        4
1040
7621.930027120717
1040
4094.292044192665
1040
7521.930027120717
1040
4094.292044192665
1040
7521.930027120717
1040
3094.292044192672
1040
7621.930027120716
1040
3094.292044192672
1071
        0
1071
        7
1070
     0
1070
     1
1071
        4
1040
8621.930027120747
1040
3094.292044192663
1040
7621.930027120717
1040
3094.292044192672
1040
7621.930027120717
1040
2994.292044192672
1040
8621.930027120749
1040
2994.292044192673
1071
        0
1070
     0
1070
     1
1040
3.744664094194321
1071
        4
1040
8251.642897588725
1040
4141.573511602881
1040
0.0
1040
8682.591317553248
1040
3658.511866540619
1040
0.0
1040
7565.872732450138
1040
3703.447843367219
1040
0.0
1040
7888.147143746727
1040
3074.344167794828
1040
0.0
1002
}
  0
INSERT
  5
B80
330
1B5
100
AcDbEntity
  8
HATCH
  6
CONTINUOUS
 62
   251
100
AcDbBlockReference
  2
*U11
 10
0.0
 20
0.0
 30
0.0
1001
ACAD
1002
{
1000
R14_HATCH_DATA
1000
553
1011
1.0
1021
0.0
1031
0.0
1011
0.0
1021
1.0
1031
0.0
1011
0.0
1021
0.0
1031
1.0
1040
0.0
1010
0.0
1020
0.0
1030
1.0
1000
SOLID
1070
     1
1070
     0
1071
        1
1071
        7
1070
     0
1070
     1
1071
        4
1040
8621.930027120717
1040
4094.292044192676
1040
7621.930027120717
1040
4094.292044192665
1040
7621.930027120717
1040
3094.292044192672
1040
8621.930027120747
1040
3094.292044192664
1071
        0
1070
     0
1070
     1
1040
4.686467468212923
1071
        1
1040
8230.085086372856
1040
3615.149907158397
1040
0.0
1002
}
  0
INSERT
  5
B81
330
1B5
100
AcDbEntity
  8
HATCH
  6
CONTINUOUS
 62
     1
100
AcDbBlockReference
  2
*U18
 10
0.0
 20
0.0
 30
0.0
1001
ACAD
1002
{
1000
R14_HATCH_DATA
1000
B81
1011
1.0
1021
0.0
1031
0.0
1011
0.0
1021
1.0
1031
0.0
1011
0.0
1021
0.0
1031
1.0
1040
0.0
1010
0.0
1020
0.0
1030
1.0
1000
SOLID
1070
     1
1070
     0
1071
        6
1071
        7
1070
     0
1070
     1
1071
        4
1040
7621.930027120717
1040
4194.292044192664
1040
7521.930027120716
1040
4194.29204419268
1040
7521.930027120724
1040
4094.292044192665
1040
7621.930027120694
1040
4094.292044192665
1071
        0
1071
        7
1070
     0
1070
     1
1071
        4
1040
8721.930027120711
1040
4194.29204419267
1040
8621.930027120709
1040
4194.29204419267
1040
8621.930027120717
1040
4094.292044192676
1040
8721.930027120718
1040
4094.292044192664
1071
        0
1071
        7
1070
     0
1070
     1
1071
        4
1040
8721.930027120739
1040
3094.292044192669
1040
8621.930027120747
1040
3094.292044192663
1040
8621.930027120747
1040
2994.292044192672
1040
8721.930027120739
1040
2994.292044192672
1071
        0
1071
        7
1070
     0
1070
     1
1071
        4
1040
7621.930027120717
1040
3094.292044192672
1040
7521.930027120717
1040
3094.292044192672
1040
7521.930027120717
1040
2994.292044192672
1040
7621.930027120717
1040
2994.292044192672
1071
        0
1071
        7
1070
     0
1070
     1
1071
        4
1040
7921.930027120701
1040
2994.292044192672
1040
7851.930027120717
1040
2994.292044192672
1040
7851.930027120733
1040
2964.292044192673
1040
7921.930027120717
1040
2964.292044192673
1071
        0
1071
        7
1070
     0
1070
     1
1071
        4
1040
8451.930027120726
1040
2994.292044192672
1040
8381.9300271207
1040
2994.292044192672
1040
8381.930027120718
1040
2964.29204419268
1040
8451.930027120742
1040
2964.292044192673
1071
        0
1070
     0
1070
     1
1040
3.744664094194321
1071
        6
1040
7562.125337673293
1040
4137.828905658258
1040
0.0
1040
8663.854343668965
1040
4152.807611633194
1040
0.0
1040
8660.10694889209
1040
3048.131502887801
1040
0.0
1040
7577.114916780731
1040
3018.174232036137
1040
0.0
1040
7903.136722854135
1040
2980.727608197019
1040
0.0
1040
8405.285423648514
1040
2976.983002252396
1040
0.0
1002
}
  0
INSERT
  5
B82
330
1B5
100
AcDbEntity
  8
HATCH
  6
CONTINUOUS
 62
     5
100
AcDbBlockReference
  2
*U19
 10
0.0
 20
0.0
 30
0.0
1001
ACAD
1002
{
1000
R14_HATCH_DATA
1000
B82
1011
1.0
1021
0.0
1031
0.0
1011
0.0
1021
1.0
1031
0.0
1011
0.0
1021
0.0
1031
1.0
1040
0.0
1010
0.0
1020
0.0
1030
1.0
1000
SOLID
1070
     1
1070
     0
1071
        2
1071
        7
1070
     0
1070
     1
1071
        4
1040
8621.930027120749
1040
2994.292044192672
1040
8551.930027120725
1040
2994.292044192672
1040
8551.930027120734
1040
2964.292044192673
1040
8621.930027120724
1040
2964.29204419268
1071
        0
1071
        7
1070
     0
1070
     1
1071
        4
1040
8141.930027120725
1040
2994.292044192672
1040
8071.930027120705
1040
2994.292044192672
1040
8071.930027120718
1040
2964.292044192679
1040
8141.930027120737
1040
2964.292044192673
1071
        0
1070
     0
1070
     1
1040
3.744664094194321
1071
        2
1040
8592.654282769567
1040
2976.983002252396
1040
0.0
1040
8105.495161082625
1040
2976.983002252396
1040
0.0
1002
}
  0
INSERT
  5
B83
330
1B5
100
AcDbEntity
  8
HATCH
  6
CONTINUOUS
100
AcDbBlockReference
  2
*U20
 10
0.0
 20
0.0
 30
0.0
1001
ACAD
1002
{
1000
R14_HATCH_DATA
1000
B83
1011
1.0
1021
0.0
1031
0.0
1011
0.0
1021
1.0
1031
0.0
1011
0.0
1021
0.0
1031
1.0
1040
0.0
1010
0.0
1020
0.0
1030
1.0
1000
SOLID
1070
     1
1070
     0
1071
        2
1071
        7
1070
     0
1070
     1
1071
        4
1040
7801.930027120715
1040
2994.292044192672
1040
7731.930027120725
1040
2994.292044192672
1040
7731.930027120738
1040
2964.292044192665
1040
7801.930027120732
1040
2964.292044192669
1071
        0
1071
        7
1070
     0
1070
     1
1071
        4
1040
8281.930027120703
1040
2994.292044192672
1040
8211.930027120718
1040
2994.292044192672
1040
8211.930027120727
1040
2964.292044192673
1040
8281.930027120719
1040
2964.29204419268
1071
        0
1070
     0
1070
     1
1040
3.744664094194321
1071
        2
1040
7760.736381124939
1040
2980.727608197019
1040
0.0
1040
8240.400713258132
1040
2976.983002252396
1040
0.0
1002
}
  0
INSERT
  5
B84
330
1B5
100
AcDbEntity
  8
HATCH
  6
CONTINUOUS
 62
     1
100
AcDbBlockReference
  2
*U8
 10
0.0
 20
0.0
 30
0.0
1001
ACAD
1002
{
1000
R14_HATCH_DATA
1000
53F
1011
1.0
1021
0.0
1031
0.0
1011
0.0
1021
1.0
1031
0.0
1011
0.0
1021
0.0
1031
1.0
1040
0.0
1010
0.0
1020
0.0
1030
1.0
1000
SOLID
1070
     1
1070
     1
1071
        1
1071
        7
1070
     1
1070
     1
1071
        7
1040
3771.930027120745
1040
4344.292044192675
1040
0.0
1040
4571.930027120724
1040
4344.292044192662
1040
0.0
1040
4571.930027120739
1040
6178.606619243395
1040
0.198912367379658
1040
4337.615452069965
1040
6744.292044192659
1040
0.0
1040
2687.005786628979
1040
8394.901709633662
1040
0.0
1040
2121.32036167974
1040
7829.216284684429
1040
0.0
1040
3771.930027120731
1040
6178.606619243438
1040
0.0
1071
        1
1005
C15
1070
     0
1070
     1
1040
12.34675971472489
1071
        2
1040
-2000.0
1040
-50000.0
1040
0.0
1040
3635.668904073944
1040
7251.941596531731
1040
0.0
1002
}
  0
INSERT
  5
B85
330
1B5
100
AcDbEntity
  8
HATCH
  6
CONTINUOUS
 62
     4
100
AcDbBlockReference
  2
*U5
 10
0.0
 20
0.0
 30
0.0
1001
ACAD
1002
{
1000
R14_HATCH_DATA
1000
4A7
1011
1.0
1021
0.0
1031
0.0
1011
0.0
1021
1.0
1031
0.0
1011
0.0
1021
0.0
1031
1.0
1040
0.0
1010
0.0
1020
0.0
1030
1.0
1000
SOLID
1070
     1
1070
     1
1071
       18
1071
        7
1070
     0
1070
     1
1071
        4
1040
10781.93002712073
1040
6613.644786718023
1040
10821.93002712074
1040
6613.644786718023
1040
10821.93002712072
1040
6744.292044192683
1040
10781.93002712073
1040
6744.292044192683
1071
        4
1005
BEE
1005
BFB
1005
BF1
1005
C0B
1071
        7
1070
     0
1070
     1
1071
        4
1040
11621.93002712071
1040
6613.644786718021
1040
11661.93002712073
1040
6613.644786718021
1040
11661.93002712073
1040
6744.292044192682
1040
11621.93002712073
1040
6744.292044192682
1071
        4
1005
BEE
1005
C10
1005
BF1
1005
C11
1071
        7
1070
     0
1070
     1
1071
        4
1040
11661.93002712073
1040
6453.644786718022
1040
11621.93002712073
1040
6453.644786718024
1040
11621.93002712073
1040
6350.544778817116
1040
11661.93002712073
1040
6350.544778817116
1071
        4
1005
BF1
1005
C0E
1005
BF2
1005
C0F
1071
        7
1070
     0
1070
     1
1071
        4
1040
11621.93002712073
1040
6087.444770916206
1040
11661.93002712073
1040
6087.444770916206
1040
11661.93002712073
1040
6190.544778817121
1040
11621.93002712071
1040
6190.544778817121
1071
        4
1005
BF2
1005
C0C
1005
BF3
1005
C0D
1071
        7
1070
     0
1070
     1
1071
        4
1040
11621.93002712071
1040
5824.344763015305
1040
11661.93002712071
1040
5824.344763015305
1040
11661.93002712073
1040
5927.44477091621
1040
11621.93002712071
1040
5927.44477091621
1071
        4
1005
BF3
1005
C07
1005
BF4
1005
C08
1071
        7
1070
     0
1070
     1
1071
        4
1040
11621.93002712073
1040
5561.244755114396
1040
11661.93002712073
1040
5561.244755114397
1040
11661.93002712073
1040
5664.344763015304
1040
11621.93002712073
1040
5664.344763015304
1071
        4
1005
BF4
1005
C05
1005
BF5
1005
C06
1071
        7
1070
     0
1070
     1
1071
        4
1040
11661.93002712073
1040
5401.244755114397
1040
11621.93002712071
1040
5401.244755114397
1040
11621.93002712071
1040
5298.144747213489
1040
11661.93002712073
1040
5298.144747213489
1071
        4
1005
BF5
1005
C03
1005
BBD
1005
C04
1071
        7
1070
     0
1070
     1
1071
        4
1040
11621.93002712071
1040
5035.044739312583
1040
11661.9300271207
1040
5035.044739312581
1040
11661.93002712073
1040
5138.144747213488
1040
11621.93002712073
1040
5138.144747213488
1071
        4
1005
BBD
1005
BE8
1005
BC3
1005
BE9
1071
        7
1070
     0
1070
     1
1071
        4
1040
11621.93002712071
1040
4771.944731411676
1040
11661.93002712073
1040
4771.944731411676
1040
11661.93002712071
1040
4875.044739312585
1040
11621.9300271207
1040
4875.044739312585
1071
        4
1005
BC3
1005
BE4
1005
BC4
1005
BE5
1071
        7
1070
     0
1070
     1
1071
        4
1040
11621.93002712073
1040
4508.844723510771
1040
11661.93002712073
1040
4508.844723510771
1040
11661.93002712071
1040
4611.944731411679
1040
11621.93002712071
1040
4611.944731411679
1071
        4
1005
BC4
1005
BE6
1005
BC5
1005
BE7
1071
        7
1070
     0
1070
     1
1071
        4
1040
10821.93002712072
1040
4611.944731411682
1040
10781.93002712073
1040
4611.944731411682
1040
10781.93002712072
1040
4508.844723510771
1040
10821.93002712072
1040
4508.844723510772
1071
        4
1005
BC4
1005
BDB
1005
BC5
1005
BE2
1071
        7
1070
     0
1070
     1
1071
        4
1040
10781.9300271207
1040
4771.944731411674
1040
10821.93002712072
1040
4771.944731411673
1040
10821.93002712072
1040
4875.044739312588
1040
10781.93002712072
1040
4875.044739312588
1071
        4
1005
BC3
1005
BDA
1005
BC4
1005
BE1
1071
        7
1070
     0
1070
     1
1071
        4
1040
10781.93002712073
1040
5035.044739312583
1040
10821.93002712072
1040
5035.044739312583
1040
10821.93002712074
1040
5138.144747213496
1040
10781.93002712074
1040
5138.144747213497
1071
        4
1005
BBD
1005
BDC
1005
BC3
1005
BE3
1071
        7
1070
     0
1070
     1
1071
        4
1040
10781.93002712072
1040
5298.144747213486
1040
10821.93002712072
1040
5298.144747213487
1040
10821.9300271207
1040
5401.244755114401
1040
10781.93002712073
1040
5401.244755114401
1071
        4
1005
BF5
1005
BF6
1005
BBD
1005
C00
1071
        7
1070
     0
1070
     1
1071
        4
1040
10821.93002712074
1040
5664.344763015311
1040
10781.93002712074
1040
5664.344763015311
1040
10781.93002712074
1040
5561.244755114396
1040
10821.93002712074
1040
5561.244755114396
1071
        4
1005
BF4
1005
BF7
1005
BF5
1005
C01
1071
        7
1070
     0
1070
     1
1071
        4
1040
10821.93002712074
1040
5927.444770916215
1040
10781.93002712074
1040
5927.444770916216
1040
10781.93002712073
1040
5824.3447630153
1040
10821.93002712072
1040
5824.3447630153
1071
        4
1005
BF3
1005
BF8
1005
BF4
1005
C02
1071
        7
1070
     0
1070
     1
1071
        4
1040
10821.93002712072
1040
6453.644786718027
1040
10781.93002712072
1040
6453.644786718027
1040
10781.93002712072
1040
6350.544778817112
1040
10821.9300271207
1040
6350.544778817113
1071
        4
1005
BF1
1005
BFA
1005
BF2
1005
C0A
1071
        7
1070
     0
1070
     1
1071
        4
1040
10781.93002712072
1040
6087.444770916206
1040
10821.93002712072
1040
6087.444770916206
1040
10821.93002712074
1040
6190.544778817127
1040
10781.93002712072
1040
6190.544778817127
1071
        4
1005
BF2
1005
BF9
1005
BF3
1005
C09
1070
     0
1070
     1
1040
6.805231234771177
1071
       18
1040
10797.36828589193
1040
6668.882094814013
1040
0.0
1040
11635.01830392281
1040
6682.492547174596
1040
0.0
1040
11648.63863137309
1040
6403.478065285359
1040
0.0
1040
11641.82850770137
1040
6131.268809576408
1040
0.0
1040
11635.01830392281
1040
5865.864780047757
1040
0.0
1040
11641.82850770137
1040
5607.265976699388
1040
0.0
1040
11648.63863137309
1040
5348.667215050483
1040
0.0
1040
11635.01830392281
1040
5076.45795934154
1040
0.0
1040
11635.01830392281
1040
4811.053929812886
1040
0.0
1040
11635.01830392281
1040
4566.065620524561
1040
0.0
1040
10804.17840956364
1040
4559.260352644815
1040
0.0
1040
10797.36828589193
1040
4831.469608353756
1040
0.0
1040
10790.55808211337
1040
5090.068411702123
1040
0.0
1040
10797.36828589193
1040
5348.667215050483
1040
0.0
1040
10804.17840956364
1040
5600.460750519101
1040
0.0
1040
10810.98861334219
1040
5893.08572646838
1040
0.0
1040
10804.17840956364
1040
6389.867612924775
1040
0.0
1040
10797.36828589193
1040
6131.268809576408
1040
0.0
1002
}
  0
INSERT
  5
B86
330
1B5
100
AcDbEntity
  8
HATCH
  6
CONTINUOUS
 62
   251
100
AcDbBlockReference
  2
*U4
 10
0.0
 20
0.0
 30
0.0
1001
ACAD
1002
{
1000
R14_HATCH_DATA
1000
45D
1011
1.0
1021
0.0
1031
0.0
1011
0.0
1021
1.0
1031
0.0
1011
0.0
1021
0.0
1031
1.0
1040
0.0
1010
0.0
1020
0.0
1030
1.0
1000
SOLID
1070
     1
1070
     1
1071
       10
1071
        7
1070
     0
1070
     1
1071
        5
1040
11781.93002712071
1040
6904.292044192685
1040
11721.93002712073
1040
6904.292044192685
1040
10661.93002712076
1040
6904.292044192674
1040
10661.93002712078
1040
6744.292044192684
1040
11781.93002712071
1040
6744.29204419268
1071
        2
1005
C12
1005
BEE
1071
        7
1070
     0
1070
     1
1071
        4
1040
11781.9300271207
1040
6613.644786718021
1040
10661.93002712074
1040
6613.644786718021
1040
10661.93002712075
1040
6453.644786718029
1040
11781.9300271207
1040
6453.644786718021
1071
        1
1005
BF1
1071
        7
1070
     0
1070
     1
1071
        4
1040
11781.9300271207
1040
6350.544778817114
1040
10661.93002712074
1040
6350.544778817112
1040
10661.93002712076
1040
6190.544778817127
1040
11781.9300271207
1040
6190.544778817121
1071
        1
1005
BF2
1071
        7
1070
     0
1070
     1
1071
        4
1040
11781.9300271207
1040
6087.444770916206
1040
10661.93002712075
1040
6087.444770916206
1040
10661.93002712076
1040
5927.444770916216
1040
11781.93002712071
1040
5927.444770916209
1071
        1
1005
BF3
1071
        7
1070
     0
1070
     1
1071
        4
1040
11781.93002712071
1040
5824.344763015305
1040
10661.93002712076
1040
5824.344763015301
1040
10661.93002712076
1040
5664.344763015311
1040
11781.93002712071
1040
5664.344763015304
1071
        1
1005
BF4
1071
        7
1070
     0
1070
     1
1071
        4
1040
11781.93002712071
1040
5561.244755114396
1040
10661.93002712076
1040
5561.244755114396
1040
10661.93002712077
1040
5401.244755114404
1040
11781.93002712071
1040
5401.244755114396
1071
        1
1005
BF5
1071
        7
1070
     0
1070
     1
1071
        4
1040
11781.93002712071
1040
5298.144747213489
1040
10661.93002712076
1040
5298.144747213486
1040
10661.93002712077
1040
5138.144747213497
1040
11781.93002712071
1040
5138.144747213488
1071
        1
1005
BBD
1071
        7
1070
     0
1070
     1
1071
        4
1040
11781.93002712073
1040
5035.044739312584
1040
10661.93002712077
1040
5035.044739312581
1040
10661.93002712078
1040
4875.044739312591
1040
11781.93002712071
1040
4875.044739312583
1071
        1
1005
BC3
1071
        7
1070
     0
1070
     1
1071
        4
1040
11781.93002712073
1040
4771.944731411677
1040
10661.93002712076
1040
4771.944731411673
1040
10661.93002712078
1040
4611.944731411682
1040
11781.93002712073
1040
4611.944731411679
1071
        1
1005
BC4
1071
        7
1070
     0
1070
     1
1071
        4
1040
11781.93002712073
1040
4508.844723510771
1040
10661.93002712076
1040
4508.844723510771
1040
10661.93002712079
1040
4348.844723510778
1040
11781.93002712073
1040
4348.844723510771
1071
        1
1005
BC5
1070
     0
1070
     1
1040
6.805231234771177
1071
       10
1040
11137.87639204165
1040
6818.597154179339
1040
0.0
1040
11137.87639204165
1040
6566.803618710728
1040
0.0
1040
11151.49671949191
1040
6260.568190400867
1040
0.0
1040
11151.49671949191
1040
5988.358934691918
1040
0.0
1040
11062.96463111863
1040
5716.149678982969
1040
0.0
1040
10947.19188784482
1040
5464.356143514358
1040
0.0
1040
11015.29352509614
1040
5198.952113985702
1040
0.0
1040
11110.63573714113
1040
4919.937632096466
1040
0.0
1040
11144.68659582021
1040
4681.754548988428
1040
0.0
1040
11314.94064889507
1040
4429.960971820357
1040
0.0
1002
}
  0
INSERT
  5
B87
330
1B5
100
AcDbEntity
  8
HATCH
  6
CONTINUOUS
 62
     3
100
AcDbBlockReference
  2
*U3
 10
0.0
 20
0.0
 30
0.0
1001
ACAD
1002
{
1000
R14_HATCH_DATA
1000
433
1011
1.0
1021
0.0
1031
0.0
1011
0.0
1021
1.0
1031
0.0
1011
0.0
1021
0.0
1031
1.0
1040
0.0
1010
0.0
1020
0.0
1030
1.0
1000
SOLID
1070
     1
1070
     1
1071
        8
1071
        7
1070
     0
1070
     1
1071
        4
1040
4671.930027120719
1040
4094.292044192672
1040
4921.930027120709
1040
4344.292044192668
1040
3421.930027120725
1040
4344.29204419268
1040
3671.930027120737
1040
4094.292044192672
1071
        4
1005
B99
1005
B9A
1005
B97
1005
B98
1071
        7
1070
     0
1070
     1
1071
        3
1040
4671.930027120717
1040
4094.292044192672
1040
3671.930027120737
1040
4094.292044192672
1040
4171.930027120736
1040
3594.292044192679
1071
        3
1005
B97
1005
B9A
1005
B98
1071
        7
1070
     0
1070
     1
1071
        4
1040
4671.930027120746
1040
3094.292044192678
1040
4921.930027120746
1040
2844.29204419268
1040
4921.930027120709
1040
4344.292044192668
1040
4671.930027120725
1040
4094.292044192679
1071
        4
1005
B98
1005
B97
1005
B9A
1005
B99
1071
        7
1070
     0
1070
     1
1071
        3
1040
4171.930027120736
1040
3594.292044192679
1040
4671.930027120747
1040
3094.292044192677
1040
4671.930027120725
1040
4094.292044192679
1071
        3
1005
B98
1005
B9A
1005
B97
1071
        7
1070
     0
1070
     1
1071
        3
1040
4671.930027120743
1040
3094.292044192679
1040
4171.930027120736
1040
3594.292044192679
1040
3671.930027120745
1040
3094.29204419268
1071
        3
1005
B98
1005
B97
1005
B9A
1071
        7
1070
     0
1070
     1
1071
        4
1040
3671.930027120745
1040
3094.29204419268
1040
3421.930027120739
1040
2844.292044192669
1040
4921.930027120748
1040
2844.29204419268
1040
4671.930027120743
1040
3094.29204419268
1071
        4
1005
B97
1005
B98
1005
B99
1005
B9A
1071
        7
1070
     0
1070
     1
1071
        3
1040
4171.930027120736
1040
3594.292044192679
1040
3671.930027120696
1040
4094.292044192712
1040
3671.930027120717
1040
3094.292044192652
1071
        3
1005
B9A
1005
B97
1005
B98
1071
        7
1070
     0
1070
     1
1071
        4
1040
3671.930027120695
1040
4094.292044192714
1040
3421.930027120726
1040
4344.29204419268
1040
3421.930027120739
1040
2844.292044192668
1040
3671.930027120717
1040
3094.29204419265
1071
        4
1005
B9A
1005
B99
1005
B98
1005
B97
1070
     0
1070
     1
1040
3.819481418162246
1071
        8
1040
4383.782896088684
1040
4131.257966510324
1040
0.0
1040
4318.804705040689
1040
3890.630628068043
1040
0.0
1040
4746.896594668839
1040
3787.504619921426
1040
0.0
1040
4529.028391542117
1040
3760.768262883211
1040
0.0
1040
4104.758720173195
1040
3180.207081257176
1040
0.0
1040
4146.803441452109
1040
3012.149890518143
1040
0.0
1040
3837.201279142231
1040
3401.736986072632
1040
0.0
1040
3592.577307880346
1040
3428.473384810299
1040
0.0
1002
}
  0
INSERT
  5
B88
330
1B5
100
AcDbEntity
  8
HATCH
  6
CONTINUOUS
 62
     3
100
AcDbBlockReference
  2
*U2
 10
0.0
 20
0.0
 30
0.0
1001
ACAD
1002
{
1000
R14_HATCH_DATA
1000
414
1011
1.0
1021
0.0
1031
0.0
1011
0.0
1021
1.0
1031
0.0
1011
0.0
1021
0.0
1031
1.0
1040
0.0
1010
0.0
1020
0.0
1030
1.0
1000
SOLID
1070
     1
1070
     1
1071
        8
1071
        7
1070
     0
1070
     1
1071
        4
1040
8621.930027120702
1040
8004.292044192665
1040
8871.930027120702
1040
8254.292044192665
1040
7371.930027120686
1040
8254.292044192672
1040
7621.930027120696
1040
8004.292044192672
1071
        4
1005
B8A
1005
B8E
1005
B8B
1005
B89
1071
        7
1070
     0
1070
     1
1071
        3
1040
8621.930027120702
1040
8004.292044192665
1040
7621.930027120699
1040
8004.292044192672
1040
8121.930027120717
1040
7504.292044192673
1071
        3
1005
B8B
1005
B8E
1005
B89
1071
        7
1070
     0
1070
     1
1071
        3
1040
8621.930027120717
1040
8004.292044192679
1040
8121.930027120717
1040
7504.292044192673
1040
8621.930027120745
1040
7004.292044192657
1071
        3
1005
B89
1005
B8E
1005
B8B
1071
        7
1070
     0
1070
     1
1071
        4
1040
8871.930027120702
1040
8254.292044192665
1040
8621.930027120717
1040
8004.292044192679
1040
8621.930027120745
1040
7004.292044192659
1040
8871.930027120741
1040
6754.292044192673
1071
        4
1005
B89
1005
B8B
1005
B8E
1005
B8A
1071
        7
1070
     0
1070
     1
1071
        3
1040
7621.930027120689
1040
8004.292044192681
1040
7621.930027120717
1040
7004.292044192673
1040
8121.930027120717
1040
7504.292044192673
1071
        3
1005
B8B
1005
B89
1005
B8E
1071
        7
1070
     0
1070
     1
1071
        3
1040
8121.930027120713
1040
7504.292044192673
1040
7621.93002712072
1040
7004.292044192677
1040
8621.930027120731
1040
7004.292044192673
1071
        3
1005
B89
1005
B8B
1005
B8E
1071
        7
1070
     0
1070
     1
1071
        4
1040
8871.930027120741
1040
6754.292044192673
1040
8621.930027120731
1040
7004.292044192673
1040
7621.93002712072
1040
7004.292044192677
1040
7371.930027120725
1040
6754.29204419268
1071
        4
1005
B8B
1005
B89
1005
B8A
1005
B8E
1071
        7
1070
     0
1070
     1
1071
        4
1040
7621.930027120689
1040
8004.292044192682
1040
7371.930027120687
1040
8254.292044192677
1040
7371.930027120725
1040
6754.29204419268
1040
7621.930027120717
1040
7004.292044192673
1071
        4
1005
B8E
1005
B8A
1005
B89
1005
B8B
1070
     0
1070
     1
1040
3.844921624680187
1071
        8
1040
8412.382196312494
1040
8038.319638361857
1040
0.0
1040
8350.81888018953
1040
7819.159096657021
1040
0.0
1040
8520.118059607819
1040
7649.982567410806
1040
0.0
1040
8793.305329976908
1040
7703.811478243493
1040
0.0
1040
7973.743518869611
1040
7538.479847371353
1040
0.0
1040
8135.347233705749
1040
7350.078659456936
1040
0.0
1040
8089.174766640237
1040
6831.01425149769
1040
0.0
1040
7538.952533664384
1040
7323.164204040593
1040
0.0
1002
}
  0
LINE
  5
B89
330
1B5
100
AcDbEntity
  8
OBJECT
100
AcDbLine
 10
7371.930027120725
 20
6754.29204419268
 30
0.0
 11
8871.930027120702
 21
8254.292044192665
 31
0.0
  0
POLYLINE
  5
B8A
330
1B5
100
AcDbEntity
  8
OBJECT
100
AcDb2dPolyline
 66
     1
 10
0.0
 20
0.0
 30
0.0
 70
     1
  0
VERTEX
  5
C72
330
B8A
100
AcDbEntity
  8
OBJECT
100
AcDbVertex
100
AcDb2dVertex
 10
8871.930027120741
 20
6754.292044192673
 30
0.0
  0
VERTEX
  5
C73
330
B8A
100
AcDbEntity
  8
OBJECT
100
AcDbVertex
100
AcDb2dVertex
 10
8871.930027120702
 20
8254.292044192665
 30
0.0
  0
VERTEX
  5
C74
330
B8A
100
AcDbEntity
  8
OBJECT
100
AcDbVertex
100
AcDb2dVertex
 10
7371.930027120689
 20
8254.292044192672
 30
0.0
  0
VERTEX
  5
C75
330
B8A
100
AcDbEntity
  8
OBJECT
100
AcDbVertex
100
AcDb2dVertex
 10
7371.930027120725
 20
6754.29204419268
 30
0.0
  0
SEQEND
  5
C76
330
B8A
100
AcDbEntity
  8
OBJECT
  0
POLYLINE
  5
B8B
330
1B5
100
AcDbEntity
  8
OBJECT
100
AcDb2dPolyline
 66
     1
 10
0.0
 20
0.0
 30
0.0
 70
     1
  0
VERTEX
  5
C77
330
B8B
100
AcDbEntity
  8
OBJECT
100
AcDbVertex
100
AcDb2dVertex
 10
8621.930027120747
 20
7004.292044192673
 30
0.0
  0
VERTEX
  5
C78
330
B8B
100
AcDbEntity
  8
OBJECT
100
AcDbVertex
100
AcDb2dVertex
 10
8621.930027120717
 20
8004.292044192665
 30
0.0
  0
VERTEX
  5
C79
330
B8B
100
AcDbEntity
  8
OBJECT
100
AcDbVertex
100
AcDb2dVertex
 10
7621.930027120689
 20
8004.292044192672
 30
0.0
  0
VERTEX
  5
C7A
330
B8B
100
AcDbEntity
  8
OBJECT
100
AcDbVertex
100
AcDb2dVertex
 10
7621.930027120717
 20
7004.292044192677
 30
0.0
  0
SEQEND
  5
C7B
330
B8B
100
AcDbEntity
  8
OBJECT
  0
POLYLINE
  5
B8C
330
1B5
100
AcDbEntity
  8
OBJECT
 62
     0
100
AcDb2dPolyline
 66
     1
 10
0.0
 20
0.0
 30
0.0
 70
     1
  0
VERTEX
  5
C7C
330
B8C
100
AcDbEntity
  8
OBJECT
 62
     0
100
AcDbVertex
100
AcDb2dVertex
 10
10721.93002712074
 20
4094.292044192669
 30
0.0
  0
VERTEX
  5
C7D
330
B8C
100
AcDbEntity
  8
OBJECT
 62
     0
100
AcDbVertex
100
AcDb2dVertex
 10
11721.93002712073
 20
4094.29204419268
 30
0.0
  0
VERTEX
  5
C7E
330
B8C
100
AcDbEntity
  8
OBJECT
 62
     0
100
AcDbVertex
100
AcDb2dVertex
 10
11721.93002712073
 20
3094.29204419268
 30
0.0
  0
VERTEX
  5
C7F
330
B8C
100
AcDbEntity
  8
OBJECT
 62
     0
100
AcDbVertex
100
AcDb2dVertex
 10
10721.93002712073
 20
3094.292044192672
 30
0.0
  0
SEQEND
  5
C80
330
B8C
100
AcDbEntity
  8
OBJECT
 62
     0
  0
LINE
  5
B8D
330
1B5
100
AcDbEntity
  8
OBJECT
100
AcDbLine
 10
10471.93002712069
 20
2844.292044192672
 30
0.0
 11
11971.93002712072
 21
4344.292044192675
 31
0.0
  0
LINE
  5
B8E
330
1B5
100
AcDbEntity
  8
OBJECT
100
AcDbLine
 10
7371.930027120689
 20
8254.292044192672
 30
0.0
 11
8871.930027120741
 21
6754.292044192673
 31
0.0
  0
LINE
  5
B8F
330
1B5
100
AcDbEntity
  8
OBJECT
100
AcDbLine
 10
8281.93002712072
 20
2964.29204419268
 30
0.0
 11
8211.930027120725
 21
2964.292044192673
 31
0.0
  0
POLYLINE
  5
B90
330
1B5
100
AcDbEntity
  8
OBJECT
100
AcDb2dPolyline
 66
     1
 10
0.0
 20
0.0
 30
0.0
 70
     1
  0
VERTEX
  5
C81
330
B90
100
AcDbEntity
  8
OBJECT
100
AcDbVertex
100
AcDb2dVertex
 10
8721.930027120739
 20
2994.292044192672
 30
0.0
  0
VERTEX
  5
C82
330
B90
100
AcDbEntity
  8
OBJECT
100
AcDbVertex
100
AcDb2dVertex
 10
8721.930027120711
 20
4194.29204419267
 30
0.0
  0
VERTEX
  5
C83
330
B90
100
AcDbEntity
  8
OBJECT
100
AcDbVertex
100
AcDb2dVertex
 10
7521.930027120717
 20
4194.29204419268
 30
0.0
  0
VERTEX
  5
C84
330
B90
100
AcDbEntity
  8
OBJECT
100
AcDbVertex
100
AcDb2dVertex
 10
7521.930027120717
 20
2994.292044192672
 30
0.0
  0
SEQEND
  5
C85
330
B90
100
AcDbEntity
  8
OBJECT
  0
POLYLINE
  5
B91
330
1B5
100
AcDbEntity
  8
OBJECT
100
AcDb2dPolyline
 66
     1
 10
0.0
 20
0.0
 30
0.0
 70
     1
  0
VERTEX
  5
C86
330
B91
100
AcDbEntity
  8
OBJECT
100
AcDbVertex
100
AcDb2dVertex
 10
8621.930027120747
 20
3094.292044192664
 30
0.0
  0
VERTEX
  5
C87
330
B91
100
AcDbEntity
  8
OBJECT
100
AcDbVertex
100
AcDb2dVertex
 10
8621.930027120717
 20
4094.292044192676
 30
0.0
  0
VERTEX
  5
C88
330
B91
100
AcDbEntity
  8
OBJECT
100
AcDbVertex
100
AcDb2dVertex
 10
7621.930027120696
 20
4094.292044192665
 30
0.0
  0
VERTEX
  5
C89
330
B91
100
AcDbEntity
  8
OBJECT
100
AcDbVertex
100
AcDb2dVertex
 10
7621.930027120717
 20
3094.292044192672
 30
0.0
  0
SEQEND
  5
C8A
330
B91
100
AcDbEntity
  8
OBJECT
  0
POLYLINE
  5
B92
330
1B5
100
AcDbEntity
  8
SAFETY
100
AcDb2dPolyline
 66
     1
 10
0.0
 20
0.0
 30
0.0
 70
     1
  0
VERTEX
  5
C8B
330
B92
100
AcDbEntity
  8
SAFETY
100
AcDbVertex
100
AcDb2dVertex
 10
971.5257310694651
 20
6865.903091885735
 30
0.0
 42
-0.1905178589883583
  0
VERTEX
  5
C8C
330
B92
100
AcDbEntity
  8
SAFETY
100
AcDbVertex
100
AcDb2dVertex
 10
623.6441654510489
 20
7912.678918539929
 30
0.0
  0
VERTEX
  5
C8D
330
B92
100
AcDbEntity
  8
SAFETY
100
AcDbVertex
100
AcDb2dVertex
 10
0.0000181200448424
 20
8536.323065870925
 30
0.0
  0
VERTEX
  5
C8E
330
B92
100
AcDbEntity
  8
SAFETY
100
AcDbVertex
100
AcDb2dVertex
 10
1979.899005441708
 20
10516.22205319399
 30
0.0
  0
VERTEX
  5
C8F
330
B92
100
AcDbEntity
  8
SAFETY
100
AcDbVertex
100
AcDb2dVertex
 10
2597.84846172214
 20
9898.27259691359
 30
0.0
  0
VERTEX
  5
C90
330
B92
100
AcDbEntity
  8
SAFETY
100
AcDbVertex
100
AcDb2dVertex
 10
7371.930027120652
 20
9754.292044192673
 30
0.0
  0
VERTEX
  5
C91
330
B92
100
AcDbEntity
  8
SAFETY
100
AcDbVertex
100
AcDb2dVertex
 10
11821.93002712073
 20
9604.292044192673
 30
0.0
 42
-0.4142135623730961
  0
VERTEX
  5
C92
330
B92
100
AcDbEntity
  8
SAFETY
100
AcDbVertex
100
AcDb2dVertex
 10
13321.93002712073
 20
8104.292044192701
 30
0.0
  0
VERTEX
  5
C93
330
B92
100
AcDbEntity
  8
SAFETY
100
AcDbVertex
100
AcDb2dVertex
 10
13422.9480274528
 20
5572.107502535251
 30
0.0
  0
VERTEX
  5
C94
330
B92
100
AcDbEntity
  8
SAFETY
100
AcDbVertex
100
AcDb2dVertex
 10
14506.9300271207
 20
5344.292044192673
 30
0.0
 42
-0.2134217652833895
  0
VERTEX
  5
C95
330
B92
100
AcDbEntity
  8
SAFETY
100
AcDbVertex
100
AcDb2dVertex
 10
15624.96401587061
 20
4844.292044192677
 30
0.0
  0
VERTEX
  5
C96
330
B92
100
AcDbEntity
  8
SAFETY
100
AcDbVertex
100
AcDb2dVertex
 10
16468.29847497399
 20
4844.292044192677
 30
0.0
  0
VERTEX
  5
C97
330
B92
100
AcDbEntity
  8
SAFETY
100
AcDbVertex
100
AcDb2dVertex
 10
16468.29847497401
 20
3594.292044192672
 30
0.0
  0
VERTEX
  5
C98
330
B92
100
AcDbEntity
  8
SAFETY
100
AcDbVertex
100
AcDb2dVertex
 10
16468.29847497401
 20
2344.292044192676
 30
0.0
  0
VERTEX
  5
C99
330
B92
100
AcDbEntity
  8
SAFETY
100
AcDbVertex
100
AcDb2dVertex
 10
15624.96401587061
 20
2344.292044192676
 30
0.0
 42
-0.2134217652833881
  0
VERTEX
  5
C9A
330
B92
100
AcDbEntity
  8
SAFETY
100
AcDbVertex
100
AcDb2dVertex
 10
14506.93002712073
 20
1844.292044192674
 30
0.0
  0
VERTEX
  5
C9B
330
B92
100
AcDbEntity
  8
SAFETY
100
AcDbVertex
100
AcDb2dVertex
 10
12262.46999521632
 20
1844.292044192674
 30
0.0
 42
-0.330437863921426
  0
VERTEX
  5
C9C
330
B92
100
AcDbEntity
  8
SAFETY
100
AcDbVertex
100
AcDb2dVertex
 10
10826.9300271207
 20
779.2920441926762
 30
0.0
  0
VERTEX
  5
C9D
330
B92
100
AcDbEntity
  8
SAFETY
100
AcDbVertex
100
AcDb2dVertex
 10
6218.178767221733
 20
779.2920441926762
 30
0.0
 42
-0.2739619458381451
  0
VERTEX
  5
C9E
330
B92
100
AcDbEntity
  8
SAFETY
100
AcDbVertex
100
AcDb2dVertex
 10
4902.663641242216
 20
-0.0000029449438443
 30
0.0
  0
VERTEX
  5
C9F
330
B92
100
AcDbEntity
  8
SAFETY
100
AcDbVertex
100
AcDb2dVertex
 10
3441.19641299924
 20
-0.0000029449474823
 30
0.0
 42
-0.4142135623730966
  0
VERTEX
  5
CA0
330
B92
100
AcDbEntity
  8
SAFETY
100
AcDbVertex
100
AcDb2dVertex
 10
1941.196412999238
 20
1499.999997055051
 30
0.0
  0
VERTEX
  5
CA1
330
B92
100
AcDbEntity
  8
SAFETY
100
AcDbVertex
100
AcDb2dVertex
 10
1941.196412999238
 20
5896.232409955974
 30
0.0
  0
VERTEX
  5
CA2
330
B92
100
AcDbEntity
  8
SAFETY
100
AcDbVertex
100
AcDb2dVertex
 10
1158.007168881048
 20
6679.42165407415
 30
0.0
  0
SEQEND
  5
CA3
330
B92
100
AcDbEntity
  8
SAFETY
  0
LINE
  5
B93
330
1B5
100
AcDbEntity
  8
OBJECT
100
AcDbLine
 10
4171.930027120732
 20
4344.292044192662
 30
0.0
 11
4171.930027120747
 21
6178.606619243438
 31
0.0
  0
LINE
  5
B94
330
1B5
100
AcDbEntity
  8
OBJECT
100
AcDbLine
 10
7521.930027120717
 20
4194.29204419268
 30
0.0
 11
7521.930027120724
 21
6754.29204419268
 31
0.0
  0
LINE
  5
B95
330
1B5
100
AcDbEntity
  8
OBJECT
100
AcDbLine
 10
4921.930027120717
 20
4194.29204419267
 30
0.0
 11
7521.930027120717
 21
4194.29204419268
 31
0.0
  0
LINE
  5
B96
330
1B5
100
AcDbEntity
  8
OBJECT
100
AcDbLine
 10
4921.930027120747
 20
2994.292044192672
 30
0.0
 11
7521.930027120717
 21
2994.292044192672
 31
0.0
  0
POLYLINE
  5
B97
330
1B5
100
AcDbEntity
  8
OBJECT
100
AcDb2dPolyline
 66
     1
 10
0.0
 20
0.0
 30
0.0
 70
     1
  0
VERTEX
  5
CA4
330
B97
100
AcDbEntity
  8
OBJECT
100
AcDbVertex
100
AcDb2dVertex
 10
4671.930027120747
 20
3094.29204419268
 30
0.0
  0
VERTEX
  5
CA5
330
B97
100
AcDbEntity
  8
OBJECT
100
AcDbVertex
100
AcDb2dVertex
 10
4671.930027120725
 20
4094.292044192672
 30
0.0
  0
VERTEX
  5
CA6
330
B97
100
AcDbEntity
  8
OBJECT
100
AcDbVertex
100
AcDb2dVertex
 10
3671.930027120696
 20
4094.292044192672
 30
0.0
  0
VERTEX
  5
CA7
330
B97
100
AcDbEntity
  8
OBJECT
100
AcDbVertex
100
AcDb2dVertex
 10
3671.930027120717
 20
3094.29204419268
 30
0.0
  0
SEQEND
  5
CA8
330
B97
100
AcDbEntity
  8
OBJECT
  0
LINE
  5
B98
330
1B5
100
AcDbEntity
  8
OBJECT
100
AcDbLine
 10
3421.930027120739
 20
2844.292044192669
 30
0.0
 11
4921.93002712071
 21
4344.292044192669
 31
0.0
  0
POLYLINE
  5
B99
330
1B5
100
AcDbEntity
  8
OBJECT
100
AcDb2dPolyline
 66
     1
 10
0.0
 20
0.0
 30
0.0
 70
     1
  0
VERTEX
  5
CA9
330
B99
100
AcDbEntity
  8
OBJECT
100
AcDbVertex
100
AcDb2dVertex
 10
4921.930027120747
 20
2844.29204419268
 30
0.0
  0
VERTEX
  5
CAA
330
B99
100
AcDbEntity
  8
OBJECT
100
AcDbVertex
100
AcDb2dVertex
 10
4921.93002712071
 20
4344.292044192669
 30
0.0
  0
VERTEX
  5
CAB
330
B99
100
AcDbEntity
  8
OBJECT
100
AcDbVertex
100
AcDb2dVertex
 10
3421.930027120725
 20
4344.29204419268
 30
0.0
  0
VERTEX
  5
CAC
330
B99
100
AcDbEntity
  8
OBJECT
100
AcDbVertex
100
AcDb2dVertex
 10
3421.930027120739
 20
2844.292044192669
 30
0.0
  0
SEQEND
  5
CAD
330
B99
100
AcDbEntity
  8
OBJECT
  0
LINE
  5
B9A
330
1B5
100
AcDbEntity
  8
OBJECT
100
AcDbLine
 10
3421.930027120725
 20
4344.29204419268
 30
0.0
 11
4921.930027120747
 21
2844.29204419268
 31
0.0
  0
LINE
  5
B9B
330
1B5
100
AcDbEntity
  8
OBJECT
100
AcDbLine
 10
4571.930027120695
 20
3094.292044192669
 30
0.0
 11
4371.930027120725
 21
3094.29204419268
 31
0.0
  0
LINE
  5
B9C
330
1B5
100
AcDbEntity
  8
OBJECT
100
AcDbLine
 10
3558.806727591829
 20
2844.292044192672
 30
0.0
 11
4785.053326649598
 21
2844.292044192664
 31
0.0
  0
LINE
  5
B9D
330
1B5
100
AcDbEntity
  8
OBJECT
100
AcDbLine
 10
4171.930027120732
 20
3094.29204419268
 30
0.0
 11
3971.930027120717
 21
3094.292044192672
 31
0.0
  0
LINE
  5
B9E
330
1B5
100
AcDbEntity
  8
OBJECT
100
AcDbLine
 10
3971.930027120717
 20
3094.292044192672
 30
0.0
 11
3771.930027120717
 21
3094.292044192669
 31
0.0
  0
LINE
  5
B9F
330
1B5
100
AcDbEntity
  8
OBJECT
100
AcDbLine
 10
4371.930027120725
 20
3094.29204419268
 30
0.0
 11
4171.930027120732
 21
3094.29204419268
 31
0.0
  0
LINE
  5
BA0
330
1B5
100
AcDbEntity
  8
OBJECT
100
AcDbLine
 10
7621.930027120717
 20
4144.292044192669
 30
0.0
 11
7621.930027120717
 21
2994.292044192672
 31
0.0
  0
POLYLINE
  5
BA1
330
1B5
100
AcDbEntity
  8
OBJECT
100
AcDb2dPolyline
 66
     1
 10
0.0
 20
0.0
 30
0.0
 70
     1
  0
VERTEX
  5
CAE
330
BA1
100
AcDbEntity
  8
OBJECT
100
AcDbVertex
100
AcDb2dVertex
 10
7621.930027120717
 20
2994.292044192672
 30
0.0
  0
VERTEX
  5
CAF
330
BA1
100
AcDbEntity
  8
OBJECT
100
AcDbVertex
100
AcDb2dVertex
 10
7621.930027120717
 20
3094.292044192672
 30
0.0
  0
VERTEX
  5
CB0
330
BA1
100
AcDbEntity
  8
OBJECT
100
AcDbVertex
100
AcDb2dVertex
 10
7521.930027120717
 20
3094.292044192672
 30
0.0
  0
VERTEX
  5
CB1
330
BA1
100
AcDbEntity
  8
OBJECT
100
AcDbVertex
100
AcDb2dVertex
 10
7521.930027120717
 20
2994.292044192672
 30
0.0
  0
SEQEND
  5
CB2
330
BA1
100
AcDbEntity
  8
OBJECT
  0
LINE
  5
BA2
330
1B5
100
AcDbEntity
  8
OBJECT
100
AcDbLine
 10
7921.930027120717
 20
2964.292044192673
 30
0.0
 11
7851.930027120733
 21
2964.292044192673
 31
0.0
  0
LINE
  5
BA3
330
1B5
100
AcDbEntity
  8
OBJECT
100
AcDbLine
 10
7801.930027120732
 20
2964.292044192669
 30
0.0
 11
7731.930027120738
 21
2964.292044192665
 31
0.0
  0
LINE
  5
BA4
330
1B5
100
AcDbEntity
  8
OBJECT
100
AcDbLine
 10
7731.930027120738
 20
2964.292044192665
 30
0.0
 11
7731.930027120725
 21
2994.292044192672
 31
0.0
  0
LINE
  5
BA5
330
1B5
100
AcDbEntity
  8
OBJECT
100
AcDbLine
 10
7731.930027120725
 20
2994.292044192672
 30
0.0
 11
7731.930027120738
 21
2964.292044192665
 31
0.0
  0
LINE
  5
BA6
330
1B5
100
AcDbEntity
  8
OBJECT
100
AcDbLine
 10
7801.930027120717
 20
2994.292044192672
 30
0.0
 11
7801.930027120732
 21
2964.292044192669
 31
0.0
  0
LINE
  5
BA7
330
1B5
100
AcDbEntity
  8
OBJECT
100
AcDbLine
 10
7851.930027120733
 20
2964.292044192673
 30
0.0
 11
7851.930027120717
 21
2994.292044192672
 31
0.0
  0
LINE
  5
BA8
330
1B5
100
AcDbEntity
  8
OBJECT
100
AcDbLine
 10
8141.930027120739
 20
2964.292044192673
 30
0.0
 11
8071.930027120718
 21
2964.29204419268
 31
0.0
  0
LINE
  5
BA9
330
1B5
100
AcDbEntity
  8
OBJECT
100
AcDbLine
 10
8071.930027120718
 20
2964.29204419268
 30
0.0
 11
8071.930027120703
 21
2994.292044192665
 31
0.0
  0
LINE
  5
BAA
330
1B5
100
AcDbEntity
  8
OBJECT
100
AcDbLine
 10
7921.930027120703
 20
2994.292044192679
 30
0.0
 11
7921.930027120717
 21
2964.292044192673
 31
0.0
  0
LINE
  5
BAB
330
1B5
100
AcDbEntity
  8
OBJECT
100
AcDbLine
 10
8141.930027120739
 20
2964.292044192673
 30
0.0
 11
8141.930027120725
 21
2994.292044192672
 31
0.0
  0
LINE
  5
BAC
330
1B5
100
AcDbEntity
  8
OBJECT
100
AcDbLine
 10
8141.930027120725
 20
2994.292044192672
 30
0.0
 11
8141.930027120739
 21
2964.292044192673
 31
0.0
  0
LINE
  5
BAD
330
1B5
100
AcDbEntity
  8
OBJECT
100
AcDbLine
 10
8211.930027120725
 20
2964.292044192673
 30
0.0
 11
8211.930027120718
 21
2994.292044192665
 31
0.0
  0
LINE
  5
BAE
330
1B5
100
AcDbEntity
  8
OBJECT
100
AcDbLine
 10
8141.930027120739
 20
2964.292044192673
 30
0.0
 11
8141.930027120725
 21
2994.292044192672
 31
0.0
  0
LINE
  5
BAF
330
1B5
100
AcDbEntity
  8
OBJECT
100
AcDbLine
 10
8211.930027120718
 20
2994.292044192665
 30
0.0
 11
8211.930027120725
 21
2964.292044192673
 31
0.0
  0
POLYLINE
  5
BB0
330
1B5
100
AcDbEntity
  8
OBJECT
100
AcDb2dPolyline
 66
     1
 10
0.0
 20
0.0
 30
0.0
 70
     1
  0
VERTEX
  5
CB3
330
BB0
100
AcDbEntity
  8
OBJECT
100
AcDbVertex
100
AcDb2dVertex
 10
7621.930027120696
 20
4094.292044192665
 30
0.0
  0
VERTEX
  5
CB4
330
BB0
100
AcDbEntity
  8
OBJECT
100
AcDbVertex
100
AcDb2dVertex
 10
7621.930027120717
 20
4194.292044192664
 30
0.0
  0
VERTEX
  5
CB5
330
BB0
100
AcDbEntity
  8
OBJECT
100
AcDbVertex
100
AcDb2dVertex
 10
7521.930027120717
 20
4194.29204419268
 30
0.0
  0
VERTEX
  5
CB6
330
BB0
100
AcDbEntity
  8
OBJECT
100
AcDbVertex
100
AcDb2dVertex
 10
7521.930027120724
 20
4094.292044192665
 30
0.0
  0
SEQEND
  5
CB7
330
BB0
100
AcDbEntity
  8
OBJECT
  0
LINE
  5
BB1
330
1B5
100
AcDbEntity
  8
OBJECT
100
AcDbLine
 10
2946.625194400251
 20
7003.911451963926
 30
0.0
 11
3512.31061934946
 21
7569.596876913144
 31
0.0
  0
LINE
  5
BB2
330
1B5
100
AcDbEntity
  8
OBJECT
100
AcDbLine
 10
4054.772739595348
 20
6461.449331718046
 30
0.0
 11
2404.163074154327
 21
8112.058997159037
 31
0.0
  0
ARC
  5
BB3
330
1B5
100
AcDbEntity
  8
OBJECT
100
AcDbCircle
 10
2404.163074154334
 20
8112.058997159016
 30
0.0
 40
400.0000000000347
100
AcDbArc
 50
225.0000000001473
 51
45.00000000014737
  0
LINE
  5
BB4
330
1B5
100
AcDbEntity
  8
OBJECT
100
AcDbLine
 10
2121.32036167974
 20
7829.216284684415
 30
0.0
 11
2687.005786628979
 21
8394.901709633646
 31
0.0
  0
LINE
  5
BB5
330
1B5
100
AcDbEntity
  8
OBJECT
100
AcDbLine
 10
2121.32036167974
 20
7829.216284684429
 30
0.0
 11
2687.005786628979
 21
8394.901709633662
 31
0.0
  0
LINE
  5
BB6
330
1B5
100
AcDbEntity
  8
OBJECT
100
AcDbLine
 10
3771.930027120731
 20
6178.606619243438
 30
0.0
 11
4571.930027120739
 21
6178.606619243438
 31
0.0
  0
LINE
  5
BB7
330
1B5
100
AcDbEntity
  8
OBJECT
100
AcDbLine
 10
3771.930027120725
 20
5261.44933171806
 30
0.0
 11
4571.930027120725
 21
5261.44933171806
 31
0.0
  0
LINE
  5
BB8
330
1B5
100
AcDbEntity
  8
OBJECT
100
AcDbLine
 10
3771.930027120731
 20
6178.606619243438
 30
0.0
 11
4337.615452069942
 21
6744.292044192683
 31
0.0
  0
ARC
  5
BB9
330
1B5
100
AcDbEntity
  8
OBJECT
100
AcDbCircle
 10
3771.930027120703
 20
6178.606619243423
 30
0.0
 40
400.0
100
AcDbArc
 50
0.0
 51
45.00000000014737
  0
LINE
  5
BBA
330
1B5
100
AcDbEntity
  8
OBJECT
100
AcDbLine
 10
7371.930027120709
 20
7525.492044192671
 30
0.0
 11
6363.130027120721
 21
7525.492044192677
 31
0.0
  0
LINE
  5
BBB
330
1B5
100
AcDbEntity
  8
OBJECT
100
AcDbLine
 10
7371.930027120709
 20
7483.092044192668
 30
0.0
 11
6363.130027120721
 21
7483.092044192675
 31
0.0
  0
ARC
  5
BBC
330
1B5
100
AcDbEntity
  8
OBJECT
100
AcDbCircle
 10
6363.130027120714
 20
7504.29204419268
 30
0.0
 40
21.19999999999981
100
AcDbArc
 50
90.0
 51
270.0
  0
POLYLINE
  5
BBD
330
1B5
100
AcDbEntity
  8
OBJECT
100
AcDb2dPolyline
 66
     1
 10
0.0
 20
0.0
 30
0.0
  0
VERTEX
  5
CB8
330
BBD
100
AcDbEntity
  8
OBJECT
100
AcDbVertex
100
AcDb2dVertex
 10
11781.93002712071
 20
5138.144747213488
 30
0.0
  0
VERTEX
  5
CB9
330
BBD
100
AcDbEntity
  8
OBJECT
100
AcDbVertex
100
AcDb2dVertex
 10
11781.93002712071
 20
5298.144747213489
 30
0.0
  0
VERTEX
  5
CBA
330
BBD
100
AcDbEntity
  8
OBJECT
100
AcDbVertex
100
AcDb2dVertex
 10
10661.93002712076
 20
5298.144747213486
 30
0.0
  0
VERTEX
  5
CBB
330
BBD
100
AcDbEntity
  8
OBJECT
100
AcDbVertex
100
AcDb2dVertex
 10
10661.93002712077
 20
5138.144747213497
 30
0.0
  0
VERTEX
  5
CBC
330
BBD
100
AcDbEntity
  8
OBJECT
100
AcDbVertex
100
AcDb2dVertex
 10
11781.93002712071
 20
5138.144747213488
 30
0.0
  0
SEQEND
  5
CBD
330
BBD
100
AcDbEntity
  8
OBJECT
  0
LINE
  5
BBE
330
1B5
100
AcDbEntity
  8
OBJECT
100
AcDbLine
 10
8721.930027120711
 20
4194.29204419267
 30
0.0
 11
8721.930027120718
 21
6754.29204419268
 31
0.0
  0
LINE
  5
BBF
330
1B5
100
AcDbEntity
  8
OBJECT
100
AcDbLine
 10
14506.93002712073
 20
3369.292044192672
 30
0.0
 11
11971.93002712071
 21
3369.292044192675
 31
0.0
  0
LINE
  5
BC0
330
1B5
100
AcDbEntity
  8
OBJECT
100
AcDbLine
 10
14506.9300271207
 20
3819.292044192672
 30
0.0
 11
11971.93002712073
 21
3819.292044192678
 31
0.0
  0
LINE
  5
BC1
330
1B5
100
AcDbEntity
  8
OBJECT
100
AcDbLine
 10
14506.9300271207
 20
3844.292044192672
 30
0.0
 11
11971.93002712073
 21
3844.292044192665
 31
0.0
  0
LINE
  5
BC2
330
1B5
100
AcDbEntity
  8
OBJECT
100
AcDbLine
 10
14506.93002712073
 20
3344.292044192676
 30
0.0
 11
11971.93002712071
 21
3344.29204419268
 31
0.0
  0
POLYLINE
  5
BC3
330
1B5
100
AcDbEntity
  8
OBJECT
100
AcDb2dPolyline
 66
     1
 10
0.0
 20
0.0
 30
0.0
  0
VERTEX
  5
CBE
330
BC3
100
AcDbEntity
  8
OBJECT
100
AcDbVertex
100
AcDb2dVertex
 10
11781.93002712071
 20
4875.044739312583
 30
0.0
  0
VERTEX
  5
CBF
330
BC3
100
AcDbEntity
  8
OBJECT
100
AcDbVertex
100
AcDb2dVertex
 10
11781.93002712073
 20
5035.044739312583
 30
0.0
  0
VERTEX
  5
CC0
330
BC3
100
AcDbEntity
  8
OBJECT
100
AcDbVertex
100
AcDb2dVertex
 10
10661.93002712077
 20
5035.044739312583
 30
0.0
  0
VERTEX
  5
CC1
330
BC3
100
AcDbEntity
  8
OBJECT
100
AcDbVertex
100
AcDb2dVertex
 10
10661.93002712078
 20
4875.044739312591
 30
0.0
  0
VERTEX
  5
CC2
330
BC3
100
AcDbEntity
  8
OBJECT
100
AcDbVertex
100
AcDb2dVertex
 10
11781.93002712071
 20
4875.044739312583
 30
0.0
  0
SEQEND
  5
CC3
330
BC3
100
AcDbEntity
  8
OBJECT
  0
POLYLINE
  5
BC4
330
1B5
100
AcDbEntity
  8
OBJECT
100
AcDb2dPolyline
 66
     1
 10
0.0
 20
0.0
 30
0.0
  0
VERTEX
  5
CC4
330
BC4
100
AcDbEntity
  8
OBJECT
100
AcDbVertex
100
AcDb2dVertex
 10
11781.93002712073
 20
4611.944731411679
 30
0.0
  0
VERTEX
  5
CC5
330
BC4
100
AcDbEntity
  8
OBJECT
100
AcDbVertex
100
AcDb2dVertex
 10
11781.93002712073
 20
4771.944731411677
 30
0.0
  0
VERTEX
  5
CC6
330
BC4
100
AcDbEntity
  8
OBJECT
100
AcDbVertex
100
AcDb2dVertex
 10
10661.93002712077
 20
4771.944731411673
 30
0.0
  0
VERTEX
  5
CC7
330
BC4
100
AcDbEntity
  8
OBJECT
100
AcDbVertex
100
AcDb2dVertex
 10
10661.93002712078
 20
4611.944731411684
 30
0.0
  0
VERTEX
  5
CC8
330
BC4
100
AcDbEntity
  8
OBJECT
100
AcDbVertex
100
AcDb2dVertex
 10
11781.93002712073
 20
4611.944731411679
 30
0.0
  0
SEQEND
  5
CC9
330
BC4
100
AcDbEntity
  8
OBJECT
  0
POLYLINE
  5
BC5
330
1B5
100
AcDbEntity
  8
OBJECT
100
AcDb2dPolyline
 66
     1
 10
0.0
 20
0.0
 30
0.0
  0
VERTEX
  5
CCA
330
BC5
100
AcDbEntity
  8
OBJECT
100
AcDbVertex
100
AcDb2dVertex
 10
11781.93002712073
 20
4348.844723510771
 30
0.0
  0
VERTEX
  5
CCB
330
BC5
100
AcDbEntity
  8
OBJECT
100
AcDbVertex
100
AcDb2dVertex
 10
11781.93002712073
 20
4508.844723510771
 30
0.0
  0
VERTEX
  5
CCC
330
BC5
100
AcDbEntity
  8
OBJECT
100
AcDbVertex
100
AcDb2dVertex
 10
10661.93002712077
 20
4508.844723510771
 30
0.0
  0
VERTEX
  5
CCD
330
BC5
100
AcDbEntity
  8
OBJECT
100
AcDbVertex
100
AcDb2dVertex
 10
10661.93002712079
 20
4348.844723510778
 30
0.0
  0
VERTEX
  5
CCE
330
BC5
100
AcDbEntity
  8
OBJECT
100
AcDbVertex
100
AcDb2dVertex
 10
11781.93002712073
 20
4348.844723510771
 30
0.0
  0
SEQEND
  5
CCF
330
BC5
100
AcDbEntity
  8
OBJECT
  0
POLYLINE
  5
BC6
330
1B5
100
AcDbEntity
  8
OBJECT
100
AcDb2dPolyline
 66
     1
 10
0.0
 20
0.0
 30
0.0
 70
     1
  0
VERTEX
  5
CD0
330
BC6
100
AcDbEntity
  8
OBJECT
100
AcDbVertex
100
AcDb2dVertex
 10
10471.93002712074
 20
4344.292044192672
 30
0.0
  0
VERTEX
  5
CD1
330
BC6
100
AcDbEntity
  8
OBJECT
100
AcDbVertex
100
AcDb2dVertex
 10
11971.93002712072
 20
4344.292044192675
 30
0.0
  0
VERTEX
  5
CD2
330
BC6
100
AcDbEntity
  8
OBJECT
100
AcDbVertex
100
AcDb2dVertex
 10
11971.93002712073
 20
2844.292044192664
 30
0.0
  0
VERTEX
  5
CD3
330
BC6
100
AcDbEntity
  8
OBJECT
100
AcDbVertex
100
AcDb2dVertex
 10
10471.93002712069
 20
2844.292044192672
 30
0.0
  0
SEQEND
  5
CD4
330
BC6
100
AcDbEntity
  8
OBJECT
  0
LINE
  5
BC7
330
1B5
100
AcDbEntity
  8
OBJECT
100
AcDbLine
 10
11971.93002712073
 20
2844.292044192664
 30
0.0
 11
10471.93002712074
 21
4344.292044192672
 31
0.0
  0
LINE
  5
BC8
330
1B5
100
AcDbEntity
  8
OBJECT
100
AcDbLine
 10
10471.93002712073
 20
3294.292044192676
 30
0.0
 11
8721.930027120732
 21
3294.292044192676
 31
0.0
  0
LINE
  5
BC9
330
1B5
100
AcDbEntity
  8
OBJECT
100
AcDbLine
 10
10471.93002712073
 20
3194.29204419268
 30
0.0
 11
8721.930027120739
 21
3194.292044192664
 31
0.0
  0
LINE
  5
BCA
330
1B5
100
AcDbEntity
  8
OBJECT
100
AcDbLine
 10
10471.93002712073
 20
3494.292044192665
 30
0.0
 11
8871.930027120724
 21
3494.292044192672
 31
0.0
  0
LINE
  5
BCB
330
1B5
100
AcDbEntity
  8
OBJECT
100
AcDbLine
 10
10471.93002712073
 20
3494.292044192665
 30
0.0
 11
8721.930027120725
 21
3494.292044192683
 31
0.0
  0
LINE
  5
BCC
330
1B5
100
AcDbEntity
  8
OBJECT
100
AcDbLine
 10
8621.930027120724
 20
2964.29204419268
 30
0.0
 11
8551.930027120732
 21
2964.292044192673
 31
0.0
  0
LINE
  5
BCD
330
1B5
100
AcDbEntity
  8
OBJECT
100
AcDbLine
 10
8451.930027120743
 20
2964.292044192673
 30
0.0
 11
8381.930027120718
 21
2964.29204419268
 31
0.0
  0
LINE
  5
BCE
330
1B5
100
AcDbEntity
  8
OBJECT
100
AcDbLine
 10
8381.930027120718
 20
2964.29204419268
 30
0.0
 11
8381.9300271207
 21
2994.292044192669
 31
0.0
  0
LINE
  5
BCF
330
1B5
100
AcDbEntity
  8
OBJECT
100
AcDbLine
 10
8281.930027120703
 20
2994.292044192679
 30
0.0
 11
8281.93002712072
 21
2964.29204419268
 31
0.0
  0
LINE
  5
BD0
330
1B5
100
AcDbEntity
  8
OBJECT
100
AcDbLine
 10
8551.930027120732
 20
2964.292044192673
 30
0.0
 11
8551.930027120725
 21
2994.292044192675
 31
0.0
  0
LINE
  5
BD1
330
1B5
100
AcDbEntity
  8
OBJECT
100
AcDbLine
 10
8451.930027120727
 20
2994.292044192675
 30
0.0
 11
8451.930027120743
 21
2964.292044192673
 31
0.0
  0
POLYLINE
  5
BD2
330
1B5
100
AcDbEntity
  8
OBJECT
100
AcDb2dPolyline
 66
     1
 10
0.0
 20
0.0
 30
0.0
 70
     1
  0
VERTEX
  5
CD5
330
BD2
100
AcDbEntity
  8
OBJECT
100
AcDbVertex
100
AcDb2dVertex
 10
8721.930027120739
 20
2994.292044192672
 30
0.0
  0
VERTEX
  5
CD6
330
BD2
100
AcDbEntity
  8
OBJECT
100
AcDbVertex
100
AcDb2dVertex
 10
8621.930027120747
 20
2994.292044192672
 30
0.0
  0
VERTEX
  5
CD7
330
BD2
100
AcDbEntity
  8
OBJECT
100
AcDbVertex
100
AcDb2dVertex
 10
8621.930027120747
 20
3094.292044192664
 30
0.0
  0
VERTEX
  5
CD8
330
BD2
100
AcDbEntity
  8
OBJECT
100
AcDbVertex
100
AcDb2dVertex
 10
8721.930027120739
 20
3094.292044192669
 30
0.0
  0
SEQEND
  5
CD9
330
BD2
100
AcDbEntity
  8
OBJECT
  0
LINE
  5
BD3
330
1B5
100
AcDbEntity
  8
OBJECT
100
AcDbLine
 10
8621.930027120747
 20
2994.292044192672
 30
0.0
 11
8621.930027120724
 21
2964.29204419268
 31
0.0
  0
LINE
  5
BD4
330
1B5
100
AcDbEntity
  8
OBJECT
100
AcDbLine
 10
10721.93002712074
 20
2844.292044192664
 30
0.0
 11
10721.9300271207
 21
2294.292044192683
 31
0.0
  0
LINE
  5
BD5
330
1B5
100
AcDbEntity
  8
OBJECT
100
AcDbLine
 10
10471.93002712069
 20
3694.292044192676
 30
0.0
 11
8721.930027120725
 21
3694.292044192678
 31
0.0
  0
LINE
  5
BD6
330
1B5
100
AcDbEntity
  8
OBJECT
100
AcDbLine
 10
10471.93002712069
 20
3894.292044192669
 30
0.0
 11
8721.930027120718
 21
3894.292044192672
 31
0.0
  0
LINE
  5
BD7
330
1B5
100
AcDbEntity
  8
OBJECT
100
AcDbLine
 10
10471.93002712069
 20
3994.292044192679
 30
0.0
 11
8721.930027120718
 21
3994.292044192668
 31
0.0
  0
POLYLINE
  5
BD8
330
1B5
100
AcDbEntity
  8
OBJECT
100
AcDb2dPolyline
 66
     1
 10
0.0
 20
0.0
 30
0.0
 70
     1
  0
VERTEX
  5
CDA
330
BD8
100
AcDbEntity
  8
OBJECT
100
AcDbVertex
100
AcDb2dVertex
 10
8721.930027120711
 20
4194.29204419267
 30
0.0
  0
VERTEX
  5
CDB
330
BD8
100
AcDbEntity
  8
OBJECT
100
AcDbVertex
100
AcDb2dVertex
 10
8621.930027120709
 20
4194.29204419267
 30
0.0
  0
VERTEX
  5
CDC
330
BD8
100
AcDbEntity
  8
OBJECT
100
AcDbVertex
100
AcDb2dVertex
 10
8621.930027120717
 20
4094.292044192676
 30
0.0
  0
VERTEX
  5
CDD
330
BD8
100
AcDbEntity
  8
OBJECT
100
AcDbVertex
100
AcDb2dVertex
 10
8721.930027120718
 20
4094.292044192665
 30
0.0
  0
SEQEND
  5
CDE
330
BD8
100
AcDbEntity
  8
OBJECT
  0
LINE
  5
BD9
330
1B5
100
AcDbEntity
  8
OBJECT
100
AcDbLine
 10
10781.93002712073
 20
4344.292044192672
 30
0.0
 11
10781.9300271207
 21
4348.844723510778
 31
0.0
  0
LINE
  5
BDA
330
1B5
100
AcDbEntity
  8
OBJECT
100
AcDbLine
 10
10781.9300271207
 20
4771.944731411673
 30
0.0
 11
10781.93002712073
 21
4875.044739312591
 31
0.0
  0
LINE
  5
BDB
330
1B5
100
AcDbEntity
  8
OBJECT
100
AcDbLine
 10
10781.93002712072
 20
4508.844723510767
 30
0.0
 11
10781.93002712073
 21
4611.944731411679
 31
0.0
  0
LINE
  5
BDC
330
1B5
100
AcDbEntity
  8
OBJECT
100
AcDbLine
 10
10781.93002712073
 20
5035.044739312583
 30
0.0
 11
10781.93002712074
 21
5138.144747213501
 31
0.0
  0
LINE
  5
BDD
330
1B5
100
AcDbEntity
  8
OBJECT
100
AcDbLine
 10
10821.93002712074
 20
2294.292044192672
 30
0.0
 11
10821.93002712074
 21
2844.292044192664
 31
0.0
  0
LINE
  5
BDE
330
1B5
100
AcDbEntity
  8
OBJECT
100
AcDbLine
 10
10821.93002712072
 20
4344.292044192672
 30
0.0
 11
10821.93002712072
 21
4348.844723510774
 31
0.0
  0
LINE
  5
BDF
330
1B5
100
AcDbEntity
  8
OBJECT
100
AcDbLine
 10
11621.93002712073
 20
4344.292044192675
 30
0.0
 11
11621.93002712073
 21
4348.844723510771
 31
0.0
  0
LINE
  5
BE0
330
1B5
100
AcDbEntity
  8
OBJECT
100
AcDbLine
 10
11661.93002712073
 20
4344.292044192675
 30
0.0
 11
11661.93002712073
 21
4348.844723510771
 31
0.0
  0
LINE
  5
BE1
330
1B5
100
AcDbEntity
  8
OBJECT
100
AcDbLine
 10
10821.93002712072
 20
4771.944731411673
 30
0.0
 11
10821.93002712072
 21
4875.044739312591
 31
0.0
  0
LINE
  5
BE2
330
1B5
100
AcDbEntity
  8
OBJECT
100
AcDbLine
 10
10821.93002712072
 20
4508.844723510767
 30
0.0
 11
10821.93002712072
 21
4611.944731411679
 31
0.0
  0
LINE
  5
BE3
330
1B5
100
AcDbEntity
  8
OBJECT
100
AcDbLine
 10
10821.93002712072
 20
5035.044739312583
 30
0.0
 11
10821.93002712074
 21
5138.144747213501
 31
0.0
  0
LINE
  5
BE4
330
1B5
100
AcDbEntity
  8
OBJECT
100
AcDbLine
 10
11621.93002712071
 20
4771.94473141168
 30
0.0
 11
11621.93002712071
 21
4875.044739312583
 31
0.0
  0
LINE
  5
BE5
330
1B5
100
AcDbEntity
  8
OBJECT
100
AcDbLine
 10
11661.93002712073
 20
4771.944731411677
 30
0.0
 11
11661.93002712071
 21
4875.044739312583
 31
0.0
  0
LINE
  5
BE6
330
1B5
100
AcDbEntity
  8
OBJECT
100
AcDbLine
 10
11621.93002712073
 20
4508.844723510771
 30
0.0
 11
11621.93002712071
 21
4611.944731411679
 31
0.0
  0
LINE
  5
BE7
330
1B5
100
AcDbEntity
  8
OBJECT
100
AcDbLine
 10
11661.93002712073
 20
4508.844723510771
 30
0.0
 11
11661.93002712071
 21
4611.944731411679
 31
0.0
  0
LINE
  5
BE8
330
1B5
100
AcDbEntity
  8
OBJECT
100
AcDbLine
 10
11621.93002712071
 20
5035.044739312583
 30
0.0
 11
11621.93002712073
 21
5138.144747213495
 31
0.0
  0
LINE
  5
BE9
330
1B5
100
AcDbEntity
  8
OBJECT
100
AcDbLine
 10
11661.93002712071
 20
5035.044739312583
 30
0.0
 11
11661.93002712073
 21
5138.144747213495
 31
0.0
  0
ARC
  5
BEA
330
1B5
100
AcDbEntity
  8
OBJECT
100
AcDbCircle
 10
15142.84290724714
 20
3594.292044192672
 30
0.0
 40
674.5444322731262
100
AcDbArc
 50
160.5150977190081
 51
199.4849022809918
  0
LINE
  5
BEB
330
1B5
100
AcDbEntity
  8
OBJECT
100
AcDbLine
 10
14506.93002712073
 20
3344.292044192676
 30
0.0
 11
14506.93002712073
 21
3369.292044192672
 31
0.0
  0
LINE
  5
BEC
330
1B5
100
AcDbEntity
  8
OBJECT
100
AcDbLine
 10
14506.9300271207
 20
3819.292044192672
 30
0.0
 11
14506.9300271207
 21
3844.292044192672
 31
0.0
  0
POLYLINE
  5
BED
330
1B5
100
AcDbEntity
  8
OBJECT
100
AcDb2dPolyline
 66
     1
 10
0.0
 20
0.0
 30
0.0
  0
VERTEX
  5
CDF
330
BED
100
AcDbEntity
  8
OBJECT
100
AcDbVertex
100
AcDb2dVertex
 10
10621.93002712072
 20
8104.292044192673
 30
0.0
  0
VERTEX
  5
CE0
330
BED
100
AcDbEntity
  8
OBJECT
100
AcDbVertex
100
AcDb2dVertex
 10
11821.93002712073
 20
8104.292044192666
 30
0.0
  0
VERTEX
  5
CE1
330
BED
100
AcDbEntity
  8
OBJECT
100
AcDbVertex
100
AcDb2dVertex
 10
11821.93002712073
 20
8004.292044192672
 30
0.0
  0
VERTEX
  5
CE2
330
BED
100
AcDbEntity
  8
OBJECT
100
AcDbVertex
100
AcDb2dVertex
 10
10521.9300271207
 20
8004.292044192455
 30
0.0
  0
VERTEX
  5
CE3
330
BED
100
AcDbEntity
  8
OBJECT
100
AcDbVertex
100
AcDb2dVertex
 10
10521.93002712074
 20
8104.292044192686
 30
0.0
 42
1.0
  0
VERTEX
  5
CE4
330
BED
100
AcDbEntity
  8
OBJECT
100
AcDbVertex
100
AcDb2dVertex
 10
9721.930027120713
 20
8104.292044192666
 30
0.0
  0
VERTEX
  5
CE5
330
BED
100
AcDbEntity
  8
OBJECT
100
AcDbVertex
100
AcDb2dVertex
 10
9721.930027120713
 20
8004.292044192665
 30
0.0
  0
VERTEX
  5
CE6
330
BED
100
AcDbEntity
  8
OBJECT
100
AcDbVertex
100
AcDb2dVertex
 10
8871.930027120709
 20
8004.292044192672
 30
0.0
  0
VERTEX
  5
CE7
330
BED
100
AcDbEntity
  8
OBJECT
100
AcDbVertex
100
AcDb2dVertex
 10
8871.930027120709
 20
8104.292044192671
 30
0.0
  0
VERTEX
  5
CE8
330
BED
100
AcDbEntity
  8
OBJECT
100
AcDbVertex
100
AcDb2dVertex
 10
9621.930027120733
 20
8104.292044192671
 30
0.0
 42
-1.000000000000272
  0
VERTEX
  5
CE9
330
BED
100
AcDbEntity
  8
OBJECT
100
AcDbVertex
100
AcDb2dVertex
 10
10621.93002712072
 20
8104.292044192396
 30
0.0
  0
SEQEND
  5
CEA
330
BED
100
AcDbEntity
  8
OBJECT
  0
POLYLINE
  5
BEE
330
1B5
100
AcDbEntity
  8
OBJECT
100
AcDb2dPolyline
 66
     1
 10
0.0
 20
0.0
 30
0.0
  0
VERTEX
  5
CEB
330
BEE
100
AcDbEntity
  8
OBJECT
100
AcDbVertex
100
AcDb2dVertex
 10
11781.93002712071
 20
6744.29204419268
 30
0.0
  0
VERTEX
  5
CEC
330
BEE
100
AcDbEntity
  8
OBJECT
100
AcDbVertex
100
AcDb2dVertex
 10
11781.93002712073
 20
6904.292044192679
 30
0.0
  0
VERTEX
  5
CED
330
BEE
100
AcDbEntity
  8
OBJECT
100
AcDbVertex
100
AcDb2dVertex
 10
10661.93002712076
 20
6904.292044192676
 30
0.0
  0
VERTEX
  5
CEE
330
BEE
100
AcDbEntity
  8
OBJECT
100
AcDbVertex
100
AcDb2dVertex
 10
10661.93002712078
 20
6744.292044192683
 30
0.0
  0
VERTEX
  5
CEF
330
BEE
100
AcDbEntity
  8
OBJECT
100
AcDbVertex
100
AcDb2dVertex
 10
11781.93002712071
 20
6744.29204419268
 30
0.0
  0
SEQEND
  5
CF0
330
BEE
100
AcDbEntity
  8
OBJECT
  0
POLYLINE
  5
BEF
330
1B5
100
AcDbEntity
  8
OBJECT
100
AcDb2dPolyline
 66
     1
 10
0.0
 20
0.0
 30
0.0
  0
VERTEX
  5
CF1
330
BEF
100
AcDbEntity
  8
OBJECT
100
AcDbVertex
100
AcDb2dVertex
 10
11821.93002712073
 20
8004.292044192672
 30
0.0
  0
VERTEX
  5
CF2
330
BEF
100
AcDbEntity
  8
OBJECT
100
AcDbVertex
100
AcDb2dVertex
 10
10521.9300271207
 20
8004.292044192446
 30
0.0
  0
SEQEND
  5
CF3
330
BEF
100
AcDbEntity
  8
OBJECT
  0
POLYLINE
  5
BF0
330
1B5
100
AcDbEntity
  8
OBJECT
100
AcDb2dPolyline
 66
     1
 10
0.0
 20
0.0
 30
0.0
  0
VERTEX
  5
CF4
330
BF0
100
AcDbEntity
  8
OBJECT
100
AcDbVertex
100
AcDb2dVertex
 10
11821.93002712073
 20
8104.292044192671
 30
0.0
  0
VERTEX
  5
CF5
330
BF0
100
AcDbEntity
  8
OBJECT
100
AcDbVertex
100
AcDb2dVertex
 10
10621.93002712072
 20
8104.292044192673
 30
0.0
  0
SEQEND
  5
CF6
330
BF0
100
AcDbEntity
  8
OBJECT
  0
POLYLINE
  5
BF1
330
1B5
100
AcDbEntity
  8
OBJECT
100
AcDb2dPolyline
 66
     1
 10
0.0
 20
0.0
 30
0.0
  0
VERTEX
  5
CF7
330
BF1
100
AcDbEntity
  8
OBJECT
100
AcDbVertex
100
AcDb2dVertex
 10
11781.9300271207
 20
6453.644786718021
 30
0.0
  0
VERTEX
  5
CF8
330
BF1
100
AcDbEntity
  8
OBJECT
100
AcDbVertex
100
AcDb2dVertex
 10
11781.9300271207
 20
6613.644786718021
 30
0.0
  0
VERTEX
  5
CF9
330
BF1
100
AcDbEntity
  8
OBJECT
100
AcDbVertex
100
AcDb2dVertex
 10
10661.93002712074
 20
6613.644786718021
 30
0.0
  0
VERTEX
  5
CFA
330
BF1
100
AcDbEntity
  8
OBJECT
100
AcDbVertex
100
AcDb2dVertex
 10
10661.93002712075
 20
6453.644786718029
 30
0.0
  0
VERTEX
  5
CFB
330
BF1
100
AcDbEntity
  8
OBJECT
100
AcDbVertex
100
AcDb2dVertex
 10
11781.9300271207
 20
6453.644786718021
 30
0.0
  0
SEQEND
  5
CFC
330
BF1
100
AcDbEntity
  8
OBJECT
  0
POLYLINE
  5
BF2
330
1B5
100
AcDbEntity
  8
OBJECT
100
AcDb2dPolyline
 66
     1
 10
0.0
 20
0.0
 30
0.0
  0
VERTEX
  5
CFD
330
BF2
100
AcDbEntity
  8
OBJECT
100
AcDbVertex
100
AcDb2dVertex
 10
11781.9300271207
 20
6190.544778817121
 30
0.0
  0
VERTEX
  5
CFE
330
BF2
100
AcDbEntity
  8
OBJECT
100
AcDbVertex
100
AcDb2dVertex
 10
11781.9300271207
 20
6350.544778817116
 30
0.0
  0
VERTEX
  5
CFF
330
BF2
100
AcDbEntity
  8
OBJECT
100
AcDbVertex
100
AcDb2dVertex
 10
10661.93002712074
 20
6350.544778817112
 30
0.0
  0
VERTEX
  5
D00
330
BF2
100
AcDbEntity
  8
OBJECT
100
AcDbVertex
100
AcDb2dVertex
 10
10661.93002712076
 20
6190.544778817127
 30
0.0
  0
VERTEX
  5
D01
330
BF2
100
AcDbEntity
  8
OBJECT
100
AcDbVertex
100
AcDb2dVertex
 10
11781.9300271207
 20
6190.544778817121
 30
0.0
  0
SEQEND
  5
D02
330
BF2
100
AcDbEntity
  8
OBJECT
  0
POLYLINE
  5
BF3
330
1B5
100
AcDbEntity
  8
OBJECT
100
AcDb2dPolyline
 66
     1
 10
0.0
 20
0.0
 30
0.0
  0
VERTEX
  5
D03
330
BF3
100
AcDbEntity
  8
OBJECT
100
AcDbVertex
100
AcDb2dVertex
 10
11781.93002712071
 20
5927.444770916209
 30
0.0
  0
VERTEX
  5
D04
330
BF3
100
AcDbEntity
  8
OBJECT
100
AcDbVertex
100
AcDb2dVertex
 10
11781.93002712071
 20
6087.444770916209
 30
0.0
  0
VERTEX
  5
D05
330
BF3
100
AcDbEntity
  8
OBJECT
100
AcDbVertex
100
AcDb2dVertex
 10
10661.93002712075
 20
6087.444770916209
 30
0.0
  0
VERTEX
  5
D06
330
BF3
100
AcDbEntity
  8
OBJECT
100
AcDbVertex
100
AcDb2dVertex
 10
10661.93002712076
 20
5927.444770916216
 30
0.0
  0
VERTEX
  5
D07
330
BF3
100
AcDbEntity
  8
OBJECT
100
AcDbVertex
100
AcDb2dVertex
 10
11781.93002712071
 20
5927.444770916209
 30
0.0
  0
SEQEND
  5
D08
330
BF3
100
AcDbEntity
  8
OBJECT
  0
POLYLINE
  5
BF4
330
1B5
100
AcDbEntity
  8
OBJECT
100
AcDb2dPolyline
 66
     1
 10
0.0
 20
0.0
 30
0.0
  0
VERTEX
  5
D09
330
BF4
100
AcDbEntity
  8
OBJECT
100
AcDbVertex
100
AcDb2dVertex
 10
11781.93002712071
 20
5664.344763015306
 30
0.0
  0
VERTEX
  5
D0A
330
BF4
100
AcDbEntity
  8
OBJECT
100
AcDbVertex
100
AcDb2dVertex
 10
11781.93002712071
 20
5824.344763015306
 30
0.0
  0
VERTEX
  5
D0B
330
BF4
100
AcDbEntity
  8
OBJECT
100
AcDbVertex
100
AcDb2dVertex
 10
10661.93002712076
 20
5824.344763015301
 30
0.0
  0
VERTEX
  5
D0C
330
BF4
100
AcDbEntity
  8
OBJECT
100
AcDbVertex
100
AcDb2dVertex
 10
10661.93002712076
 20
5664.344763015311
 30
0.0
  0
VERTEX
  5
D0D
330
BF4
100
AcDbEntity
  8
OBJECT
100
AcDbVertex
100
AcDb2dVertex
 10
11781.93002712071
 20
5664.344763015306
 30
0.0
  0
SEQEND
  5
D0E
330
BF4
100
AcDbEntity
  8
OBJECT
  0
POLYLINE
  5
BF5
330
1B5
100
AcDbEntity
  8
OBJECT
100
AcDb2dPolyline
 66
     1
 10
0.0
 20
0.0
 30
0.0
  0
VERTEX
  5
D0F
330
BF5
100
AcDbEntity
  8
OBJECT
100
AcDbVertex
100
AcDb2dVertex
 10
11781.93002712071
 20
5401.244755114396
 30
0.0
  0
VERTEX
  5
D10
330
BF5
100
AcDbEntity
  8
OBJECT
100
AcDbVertex
100
AcDb2dVertex
 10
11781.93002712071
 20
5561.244755114396
 30
0.0
  0
VERTEX
  5
D11
330
BF5
100
AcDbEntity
  8
OBJECT
100
AcDbVertex
100
AcDb2dVertex
 10
10661.93002712076
 20
5561.244755114396
 30
0.0
  0
VERTEX
  5
D12
330
BF5
100
AcDbEntity
  8
OBJECT
100
AcDbVertex
100
AcDb2dVertex
 10
10661.93002712077
 20
5401.244755114404
 30
0.0
  0
VERTEX
  5
D13
330
BF5
100
AcDbEntity
  8
OBJECT
100
AcDbVertex
100
AcDb2dVertex
 10
11781.93002712071
 20
5401.244755114396
 30
0.0
  0
SEQEND
  5
D14
330
BF5
100
AcDbEntity
  8
OBJECT
  0
LINE
  5
BF6
330
1B5
100
AcDbEntity
  8
OBJECT
100
AcDbLine
 10
10781.93002712073
 20
5298.144747213489
 30
0.0
 11
10781.93002712073
 21
5401.244755114404
 31
0.0
  0
LINE
  5
BF7
330
1B5
100
AcDbEntity
  8
OBJECT
100
AcDbLine
 10
10781.93002712074
 20
5561.244755114396
 30
0.0
 11
10781.93002712074
 21
5664.344763015312
 31
0.0
  0
LINE
  5
BF8
330
1B5
100
AcDbEntity
  8
OBJECT
100
AcDbLine
 10
10781.93002712073
 20
5824.344763015301
 30
0.0
 11
10781.93002712074
 21
5927.444770916221
 31
0.0
  0
LINE
  5
BF9
330
1B5
100
AcDbEntity
  8
OBJECT
100
AcDbLine
 10
10781.93002712073
 20
6087.444770916209
 30
0.0
 11
10781.93002712073
 21
6190.544778817127
 31
0.0
  0
LINE
  5
BFA
330
1B5
100
AcDbEntity
  8
OBJECT
100
AcDbLine
 10
10781.93002712072
 20
6350.54477881712
 30
0.0
 11
10781.93002712073
 21
6453.644786718033
 31
0.0
  0
LINE
  5
BFB
330
1B5
100
AcDbEntity
  8
OBJECT
100
AcDbLine
 10
10781.93002712073
 20
6613.644786718025
 30
0.0
 11
10781.93002712073
 21
6744.292044192683
 31
0.0
  0
LINE
  5
BFC
330
1B5
100
AcDbEntity
  8
OBJECT
100
AcDbLine
 10
8871.930027120709
 20
8104.292044192671
 30
0.0
 11
9621.930027120749
 21
8104.292044192677
 31
0.0
  0
LINE
  5
BFD
330
1B5
100
AcDbEntity
  8
OBJECT
100
AcDbLine
 10
8871.930027120709
 20
8004.292044192672
 30
0.0
 11
9721.930027120713
 21
8004.292044192665
 31
0.0
  0
POLYLINE
  5
BFE
330
1B5
100
AcDbEntity
  8
OBJECT
100
AcDb2dPolyline
 66
     1
 10
0.0
 20
0.0
 30
0.0
  0
VERTEX
  5
D15
330
BFE
100
AcDbEntity
  8
OBJECT
100
AcDbVertex
100
AcDb2dVertex
 10
10621.93002712073
 20
7004.292044192687
 30
0.0
  0
VERTEX
  5
D16
330
BFE
100
AcDbEntity
  8
OBJECT
100
AcDbVertex
100
AcDb2dVertex
 10
10721.93002712073
 20
7004.292044192687
 30
0.0
  0
VERTEX
  5
D17
330
BFE
100
AcDbEntity
  8
OBJECT
100
AcDbVertex
100
AcDb2dVertex
 10
10721.93002712073
 20
6904.292044192676
 30
0.0
  0
VERTEX
  5
D18
330
BFE
100
AcDbEntity
  8
OBJECT
100
AcDbVertex
100
AcDb2dVertex
 10
10621.93002712073
 20
6904.292044192702
 30
0.0
  0
VERTEX
  5
D19
330
BFE
100
AcDbEntity
  8
OBJECT
100
AcDbVertex
100
AcDb2dVertex
 10
8871.930027120741
 20
6904.292044192728
 30
0.0
  0
VERTEX
  5
D1A
330
BFE
100
AcDbEntity
  8
OBJECT
100
AcDbVertex
100
AcDb2dVertex
 10
8871.930027120731
 20
7004.292044192654
 30
0.0
  0
VERTEX
  5
D1B
330
BFE
100
AcDbEntity
  8
OBJECT
100
AcDbVertex
100
AcDb2dVertex
 10
10621.93002712073
 20
7004.292044192687
 30
0.0
  0
VERTEX
  5
D1C
330
BFE
100
AcDbEntity
  8
OBJECT
100
AcDbVertex
100
AcDb2dVertex
 10
10621.93002712073
 20
6904.292044192702
 30
0.0
  0
SEQEND
  5
D1D
330
BFE
100
AcDbEntity
  8
OBJECT
  0
POLYLINE
  5
BFF
330
1B5
100
AcDbEntity
  8
OBJECT
100
AcDb2dPolyline
 66
     1
 10
0.0
 20
0.0
 30
0.0
  0
VERTEX
  5
D1E
330
BFF
100
AcDbEntity
  8
OBJECT
100
AcDbVertex
100
AcDb2dVertex
 10
8871.930027120741
 20
6904.292044192679
 30
0.0
  0
VERTEX
  5
D1F
330
BFF
100
AcDbEntity
  8
OBJECT
100
AcDbVertex
100
AcDb2dVertex
 10
8871.930027120741
 20
7004.292044192647
 30
0.0
  0
SEQEND
  5
D20
330
BFF
100
AcDbEntity
  8
OBJECT
  0
LINE
  5
C00
330
1B5
100
AcDbEntity
  8
OBJECT
100
AcDbLine
 10
10821.93002712072
 20
5298.144747213486
 30
0.0
 11
10821.93002712072
 21
5401.244755114404
 31
0.0
  0
LINE
  5
C01
330
1B5
100
AcDbEntity
  8
OBJECT
100
AcDbLine
 10
10821.93002712074
 20
5561.244755114396
 30
0.0
 11
10821.93002712074
 21
5664.344763015312
 31
0.0
  0
LINE
  5
C02
330
1B5
100
AcDbEntity
  8
OBJECT
100
AcDbLine
 10
10821.93002712072
 20
5824.344763015306
 30
0.0
 11
10821.93002712074
 21
5927.444770916221
 31
0.0
  0
LINE
  5
C03
330
1B5
100
AcDbEntity
  8
OBJECT
100
AcDbLine
 10
11621.93002712071
 20
5298.144747213493
 30
0.0
 11
11621.93002712071
 21
5401.2447551144
 31
0.0
  0
LINE
  5
C04
330
1B5
100
AcDbEntity
  8
OBJECT
100
AcDbLine
 10
11661.93002712073
 20
5298.144747213493
 30
0.0
 11
11661.93002712073
 21
5401.2447551144
 31
0.0
  0
LINE
  5
C05
330
1B5
100
AcDbEntity
  8
OBJECT
100
AcDbLine
 10
11621.93002712073
 20
5561.244755114399
 30
0.0
 11
11621.93002712073
 21
5664.344763015311
 31
0.0
  0
LINE
  5
C06
330
1B5
100
AcDbEntity
  8
OBJECT
100
AcDbLine
 10
11661.93002712073
 20
5561.244755114399
 30
0.0
 11
11661.93002712073
 21
5664.344763015311
 31
0.0
  0
LINE
  5
C07
330
1B5
100
AcDbEntity
  8
OBJECT
100
AcDbLine
 10
11621.93002712071
 20
5824.344763015298
 30
0.0
 11
11621.93002712073
 21
5927.444770916216
 31
0.0
  0
LINE
  5
C08
330
1B5
100
AcDbEntity
  8
OBJECT
100
AcDbLine
 10
11661.93002712071
 20
5824.344763015298
 30
0.0
 11
11661.93002712073
 21
5927.444770916216
 31
0.0
  0
LINE
  5
C09
330
1B5
100
AcDbEntity
  8
OBJECT
100
AcDbLine
 10
10821.93002712072
 20
6087.444770916209
 30
0.0
 11
10821.93002712074
 21
6190.544778817127
 31
0.0
  0
LINE
  5
C0A
330
1B5
100
AcDbEntity
  8
OBJECT
100
AcDbLine
 10
10821.93002712072
 20
6350.54477881712
 30
0.0
 11
10821.93002712072
 21
6453.644786718033
 31
0.0
  0
LINE
  5
C0B
330
1B5
100
AcDbEntity
  8
OBJECT
100
AcDbLine
 10
10821.93002712074
 20
6613.644786718025
 30
0.0
 11
10821.93002712072
 21
6744.29204419268
 31
0.0
  0
LINE
  5
C0C
330
1B5
100
AcDbEntity
  8
OBJECT
100
AcDbLine
 10
11621.93002712073
 20
6087.444770916209
 30
0.0
 11
11621.93002712073
 21
6190.544778817121
 31
0.0
  0
LINE
  5
C0D
330
1B5
100
AcDbEntity
  8
OBJECT
100
AcDbLine
 10
11661.93002712073
 20
6087.444770916209
 30
0.0
 11
11661.93002712073
 21
6190.544778817116
 31
0.0
  0
LINE
  5
C0E
330
1B5
100
AcDbEntity
  8
OBJECT
100
AcDbLine
 10
11621.93002712073
 20
6350.544778817112
 30
0.0
 11
11621.93002712073
 21
6453.644786718021
 31
0.0
  0
LINE
  5
C0F
330
1B5
100
AcDbEntity
  8
OBJECT
100
AcDbLine
 10
11661.93002712073
 20
6350.544778817116
 30
0.0
 11
11661.93002712073
 21
6453.644786718021
 31
0.0
  0
LINE
  5
C10
330
1B5
100
AcDbEntity
  8
OBJECT
100
AcDbLine
 10
11621.93002712073
 20
6613.644786718021
 30
0.0
 11
11621.93002712073
 21
6744.29204419268
 31
0.0
  0
LINE
  5
C11
330
1B5
100
AcDbEntity
  8
OBJECT
100
AcDbLine
 10
11661.93002712073
 20
6613.644786718021
 30
0.0
 11
11661.93002712073
 21
6744.29204419268
 31
0.0
  0
POLYLINE
  5
C12
330
1B5
100
AcDbEntity
  8
OBJECT
100
AcDb2dPolyline
 66
     1
 10
0.0
 20
0.0
 30
0.0
  0
VERTEX
  5
D21
330
C12
100
AcDbEntity
  8
OBJECT
100
AcDbVertex
100
AcDb2dVertex
 10
11821.93002712073
 20
6904.292044192685
 30
0.0
  0
VERTEX
  5
D22
330
C12
100
AcDbEntity
  8
OBJECT
100
AcDbVertex
100
AcDb2dVertex
 10
11721.93002712073
 20
6904.292044192685
 30
0.0
  0
VERTEX
  5
D23
330
C12
100
AcDbEntity
  8
OBJECT
100
AcDbVertex
100
AcDb2dVertex
 10
11721.93002712073
 20
8004.292044192672
 30
0.0
  0
VERTEX
  5
D24
330
C12
100
AcDbEntity
  8
OBJECT
100
AcDbVertex
100
AcDb2dVertex
 10
11821.93002712073
 20
8004.292044192672
 30
0.0
  0
VERTEX
  5
D25
330
C12
100
AcDbEntity
  8
OBJECT
100
AcDbVertex
100
AcDb2dVertex
 10
11821.93002712075
 20
6904.292044192685
 30
0.0
  0
SEQEND
  5
D26
330
C12
100
AcDbEntity
  8
OBJECT
  0
POLYLINE
  5
C13
330
1B5
100
AcDbEntity
  8
OBJECT
100
AcDb2dPolyline
 66
     1
 10
0.0
 20
0.0
 30
0.0
  0
VERTEX
  5
D27
330
C13
100
AcDbEntity
  8
OBJECT
100
AcDbVertex
100
AcDb2dVertex
 10
11821.93002712073
 20
8004.292044192672
 30
0.0
  0
VERTEX
  5
D28
330
C13
100
AcDbEntity
  8
OBJECT
100
AcDbVertex
100
AcDb2dVertex
 10
11821.93002712073
 20
8104.292044192666
 30
0.0
  0
SEQEND
  5
D29
330
C13
100
AcDbEntity
  8
OBJECT
  0
LINE
  5
C14
330
1B5
100
AcDbEntity
  8
OBJECT
100
AcDbLine
 10
10721.9300271207
 20
2294.292044192683
 30
0.0
 11
10821.93002712074
 21
2294.292044192672
 31
0.0
  0
POLYLINE
  5
C15
330
1B5
100
AcDbEntity
  8
OBJECT
100
AcDb2dPolyline
 66
     1
 10
0.0
 20
0.0
 30
0.0
 70
     1
  0
VERTEX
  5
D2A
330
C15
100
AcDbEntity
  8
OBJECT
100
AcDbVertex
100
AcDb2dVertex
 10
4337.615452069942
 20
6744.292044192683
 30
0.0
  0
VERTEX
  5
D2B
330
C15
100
AcDbEntity
  8
OBJECT
100
AcDbVertex
100
AcDb2dVertex
 10
2687.005786628979
 20
8394.901709633662
 30
0.0
  0
VERTEX
  5
D2C
330
C15
100
AcDbEntity
  8
OBJECT
100
AcDbVertex
100
AcDb2dVertex
 10
2121.32036167974
 20
7829.216284684429
 30
0.0
  0
VERTEX
  5
D2D
330
C15
100
AcDbEntity
  8
OBJECT
100
AcDbVertex
100
AcDb2dVertex
 10
3771.930027120731
 20
6178.606619243438
 30
0.0
  0
VERTEX
  5
D2E
330
C15
100
AcDbEntity
  8
OBJECT
100
AcDbVertex
100
AcDb2dVertex
 10
3771.930027120745
 20
4344.292044192675
 30
0.0
  0
VERTEX
  5
D2F
330
C15
100
AcDbEntity
  8
OBJECT
100
AcDbVertex
100
AcDb2dVertex
 10
4571.930027120725
 20
4344.292044192662
 30
0.0
  0
VERTEX
  5
D30
330
C15
100
AcDbEntity
  8
OBJECT
100
AcDbVertex
100
AcDb2dVertex
 10
4571.930027120739
 20
6178.606619243438
 30
0.0
 42
0.1989123673803265
  0
VERTEX
  5
D31
330
C15
100
AcDbEntity
  8
OBJECT
100
AcDbVertex
100
AcDb2dVertex
 10
4337.615452068486
 20
6744.292044194145
 30
0.0
  0
SEQEND
  5
D32
330
C15
100
AcDbEntity
  8
OBJECT
  0
ENDBLK
  5
1B7
330
1B5
100
AcDbEntity
  8
0
100
AcDbBlockEnd
  0
BLOCK
  5
6D5
330
6C8
100
AcDbEntity
  8
0
100
AcDbBlockBegin
  2
*U1
 70
     1
 10
0.0
 20
0.0
 30
0.0
  3
*U1
  1

  0
SOLID
  5
6C9
330
6C8
100
AcDbEntity
  8
OBJECT
  6
CONTINUOUS
 62
     3
100
AcDbTrace
 10
11971.93002712072
 20
4344.292044192673
 30
0.0
 11
10471.93002712074
 21
4344.292044192672
 31
0.0
 12
11721.93002712071
 22
4094.292044192679
 32
0.0
 13
11721.93002712071
 23
4094.292044192679
 33
0.0
  0
SOLID
  5
6CA
330
6C8
100
AcDbEntity
  8
OBJECT
  6
CONTINUOUS
 62
     3
100
AcDbTrace
 10
10721.93002712074
 20
4094.292044192669
 30
0.0
 11
11721.93002712071
 21
4094.292044192679
 31
0.0
 12
10471.93002712074
 22
4344.292044192672
 32
0.0
 13
10471.93002712074
 23
4344.292044192672
 33
0.0
  0
SOLID
  5
6CB
330
6C8
100
AcDbEntity
  8
OBJECT
  6
CONTINUOUS
 62
     3
100
AcDbTrace
 10
11721.93002712071
 20
4094.292044192679
 30
0.0
 11
10721.93002712074
 21
4094.292044192669
 31
0.0
 12
11221.93002712071
 22
3594.292044192686
 32
0.0
 13
11221.93002712071
 23
3594.292044192686
 33
0.0
  0
SOLID
  5
6CC
330
6C8
100
AcDbEntity
  8
OBJECT
  6
CONTINUOUS
 62
     3
100
AcDbTrace
 10
11721.93002712073
 20
4094.292044192691
 30
0.0
 11
11221.93002712071
 21
3594.292044192686
 31
0.0
 12
11721.93002712073
 22
3094.292044192668
 32
0.0
 13
11721.93002712073
 23
3094.292044192668
 33
0.0
  0
SOLID
  5
6CD
330
6C8
100
AcDbEntity
  8
OBJECT
  6
CONTINUOUS
 62
     3
100
AcDbTrace
 10
11971.93002712072
 20
4344.292044192677
 30
0.0
 11
11721.93002712073
 21
4094.292044192687
 31
0.0
 12
11971.93002712073
 22
2844.292044192661
 32
0.0
 13
11971.93002712073
 23
2844.292044192661
 33
0.0
  0
SOLID
  5
6CE
330
6C8
100
AcDbEntity
  8
OBJECT
  6
CONTINUOUS
 62
     3
100
AcDbTrace
 10
11721.93002712071
 20
3094.292044192667
 30
0.0
 11
11971.93002712073
 21
2844.292044192661
 31
0.0
 12
11721.93002712073
 22
4094.292044192687
 32
0.0
 13
11721.93002712073
 23
4094.292044192687
 33
0.0
  0
SOLID
  5
6CF
330
6C8
100
AcDbEntity
  8
OBJECT
  6
CONTINUOUS
 62
     3
100
AcDbTrace
 10
11221.93002712071
 20
3594.292044192686
 30
0.0
 11
10721.93002712069
 21
3094.292044192672
 31
0.0
 12
11721.93002712071
 22
3094.292044192679
 32
0.0
 13
11721.93002712071
 23
3094.292044192679
 33
0.0
  0
SOLID
  5
6D0
330
6C8
100
AcDbEntity
  8
OBJECT
  6
CONTINUOUS
 62
     3
100
AcDbTrace
 10
11721.93002712071
 20
3094.292044192679
 30
0.0
 11
10721.93002712069
 21
3094.292044192672
 31
0.0
 12
11971.93002712072
 22
2844.292044192663
 32
0.0
 13
11971.93002712072
 23
2844.292044192663
 33
0.0
  0
SOLID
  5
6D1
330
6C8
100
AcDbEntity
  8
OBJECT
  6
CONTINUOUS
 62
     3
100
AcDbTrace
 10
10471.93002712069
 20
2844.292044192672
 30
0.0
 11
11971.93002712072
 21
2844.292044192663
 31
0.0
 12
10721.93002712069
 22
3094.292044192672
 32
0.0
 13
10721.93002712069
 23
3094.292044192672
 33
0.0
  0
SOLID
  5
6D2
330
6C8
100
AcDbEntity
  8
OBJECT
  6
CONTINUOUS
 62
     3
100
AcDbTrace
 10
11221.93002712071
 20
3594.292044192687
 30
0.0
 11
10721.93002712074
 21
4094.292044192665
 31
0.0
 12
10721.93002712073
 22
3094.292044192708
 32
0.0
 13
10721.93002712073
 23
3094.292044192708
 33
0.0
  0
SOLID
  5
6D3
330
6C8
100
AcDbEntity
  8
OBJECT
  6
CONTINUOUS
 62
     3
100
AcDbTrace
 10
10721.93002712074
 20
4094.292044192665
 30
0.0
 11
10471.93002712074
 21
4344.29204419267
 31
0.0
 12
10721.93002712073
 22
3094.292044192707
 32
0.0
 13
10721.93002712073
 23
3094.292044192707
 33
0.0
  0
SOLID
  5
6D4
330
6C8
100
AcDbEntity
  8
OBJECT
  6
CONTINUOUS
 62
     3
100
AcDbTrace
 10
10471.93002712069
 20
2844.292044192672
 30
0.0
 11
10721.93002712073
 21
3094.292044192707
 31
0.0
 12
10471.93002712074
 22
4344.29204419267
 32
0.0
 13
10471.93002712074
 23
4344.29204419267
 33
0.0
  0
ENDBLK
  5
6D6
330
6C8
100
AcDbEntity
  8
0
100
AcDbBlockEnd
  0
BLOCK
  5
6E4
330
6D7
100
AcDbEntity
  8
0
100
AcDbBlockBegin
  2
*U2
 70
     1
 10
0.0
 20
0.0
 30
0.0
  3
*U2
  1

  0
SOLID
  5
6D8
330
6D7
100
AcDbEntity
  8
HATCH
  6
CONTINUOUS
 62
     3
100
AcDbTrace
 10
8621.930027120702
 20
8004.292044192665
 30
0.0
 11
8871.930027120702
 21
8254.292044192665
 31
0.0
 12
7621.930027120696
 22
8004.292044192672
 32
0.0
 13
7621.930027120696
 23
8004.292044192672
 33
0.0
  0
SOLID
  5
6D9
330
6D7
100
AcDbEntity
  8
HATCH
  6
CONTINUOUS
 62
     3
100
AcDbTrace
 10
7371.930027120686
 20
8254.292044192672
 30
0.0
 11
7621.930027120696
 21
8004.292044192672
 31
0.0
 12
8871.930027120702
 22
8254.292044192665
 32
0.0
 13
8871.930027120702
 23
8254.292044192665
 33
0.0
  0
SOLID
  5
6DA
330
6D7
100
AcDbEntity
  8
HATCH
  6
CONTINUOUS
 62
     3
100
AcDbTrace
 10
8621.930027120702
 20
8004.292044192665
 30
0.0
 11
7621.930027120699
 21
8004.292044192672
 31
0.0
 12
8121.930027120717
 22
7504.292044192673
 32
0.0
 13
8121.930027120717
 23
7504.292044192673
 33
0.0
  0
SOLID
  5
6DB
330
6D7
100
AcDbEntity
  8
HATCH
  6
CONTINUOUS
 62
     3
100
AcDbTrace
 10
8621.930027120717
 20
8004.292044192679
 30
0.0
 11
8121.930027120717
 21
7504.292044192673
 31
0.0
 12
8621.930027120745
 22
7004.292044192657
 32
0.0
 13
8621.930027120745
 23
7004.292044192657
 33
0.0
  0
SOLID
  5
6DC
330
6D7
100
AcDbEntity
  8
HATCH
  6
CONTINUOUS
 62
     3
100
AcDbTrace
 10
8621.930027120717
 20
8004.292044192679
 30
0.0
 11
8621.930027120745
 21
7004.292044192659
 31
0.0
 12
8871.930027120741
 22
6754.292044192673
 32
0.0
 13
8871.930027120741
 23
6754.292044192673
 33
0.0
  0
SOLID
  5
6DD
330
6D7
100
AcDbEntity
  8
HATCH
  6
CONTINUOUS
 62
     3
100
AcDbTrace
 10
7621.930027120689
 20
8004.292044192681
 30
0.0
 11
7621.930027120717
 21
7004.292044192673
 31
0.0
 12
8121.930027120717
 22
7504.292044192673
 32
0.0
 13
8121.930027120717
 23
7504.292044192673
 33
0.0
  0
SOLID
  5
6DE
330
6D7
100
AcDbEntity
  8
HATCH
  6
CONTINUOUS
 62
     3
100
AcDbTrace
 10
8871.930027120702
 20
8254.292044192665
 30
0.0
 11
8621.930027120717
 21
8004.292044192679
 31
0.0
 12
8871.930027120741
 22
6754.292044192673
 32
0.0
 13
8871.930027120741
 23
6754.292044192673
 33
0.0
  0
SOLID
  5
6DF
330
6D7
100
AcDbEntity
  8
HATCH
  6
CONTINUOUS
 62
     3
100
AcDbTrace
 10
8121.930027120713
 20
7504.292044192673
 30
0.0
 11
7621.93002712072
 21
7004.292044192677
 31
0.0
 12
8621.930027120731
 22
7004.292044192673
 32
0.0
 13
8621.930027120731
 23
7004.292044192673
 33
0.0
  0
SOLID
  5
6E0
330
6D7
100
AcDbEntity
  8
HATCH
  6
CONTINUOUS
 62
     3
100
AcDbTrace
 10
8871.930027120741
 20
6754.292044192673
 30
0.0
 11
8621.930027120731
 21
7004.292044192673
 31
0.0
 12
7371.930027120725
 22
6754.29204419268
 32
0.0
 13
7371.930027120725
 23
6754.29204419268
 33
0.0
  0
SOLID
  5
6E1
330
6D7
100
AcDbEntity
  8
HATCH
  6
CONTINUOUS
 62
     3
100
AcDbTrace
 10
7621.93002712072
 20
7004.292044192677
 30
0.0
 11
7371.930027120725
 21
6754.29204419268
 31
0.0
 12
8621.930027120731
 22
7004.292044192673
 32
0.0
 13
8621.930027120731
 23
7004.292044192673
 33
0.0
  0
SOLID
  5
6E2
330
6D7
100
AcDbEntity
  8
HATCH
  6
CONTINUOUS
 62
     3
100
AcDbTrace
 10
7621.930027120689
 20
8004.292044192682
 30
0.0
 11
7371.930027120687
 21
8254.292044192677
 31
0.0
 12
7621.930027120717
 22
7004.292044192673
 32
0.0
 13
7621.930027120717
 23
7004.292044192673
 33
0.0
  0
SOLID
  5
6E3
330
6D7
100
AcDbEntity
  8
HATCH
  6
CONTINUOUS
 62
     3
100
AcDbTrace
 10
7371.930027120725
 20
6754.29204419268
 30
0.0
 11
7621.930027120717
 21
7004.292044192673
 31
0.0
 12
7371.930027120687
 22
8254.292044192677
 32
0.0
 13
7371.930027120687
 23
8254.292044192677
 33
0.0
  0
ENDBLK
  5
6E5
330
6D7
100
AcDbEntity
  8
0
100
AcDbBlockEnd
  0
BLOCK
  5
6F3
330
6E6
100
AcDbEntity
  8
0
100
AcDbBlockBegin
  2
*U3
 70
     1
 10
0.0
 20
0.0
 30
0.0
  3
*U3
  1

  0
SOLID
  5
6E7
330
6E6
100
AcDbEntity
  8
HATCH
  6
CONTINUOUS
 62
     3
100
AcDbTrace
 10
4671.930027120719
 20
4094.292044192672
 30
0.0
 11
4921.930027120709
 21
4344.292044192668
 31
0.0
 12
3671.930027120737
 22
4094.292044192672
 32
0.0
 13
3671.930027120737
 23
4094.292044192672
 33
0.0
  0
SOLID
  5
6E8
330
6E6
100
AcDbEntity
  8
HATCH
  6
CONTINUOUS
 62
     3
100
AcDbTrace
 10
3421.930027120725
 20
4344.29204419268
 30
0.0
 11
3671.930027120737
 21
4094.292044192672
 31
0.0
 12
4921.930027120709
 22
4344.292044192668
 32
0.0
 13
4921.930027120709
 23
4344.292044192668
 33
0.0
  0
SOLID
  5
6E9
330
6E6
100
AcDbEntity
  8
HATCH
  6
CONTINUOUS
 62
     3
100
AcDbTrace
 10
4671.930027120717
 20
4094.292044192672
 30
0.0
 11
3671.930027120737
 21
4094.292044192672
 31
0.0
 12
4171.930027120736
 22
3594.292044192679
 32
0.0
 13
4171.930027120736
 23
3594.292044192679
 33
0.0
  0
SOLID
  5
6EA
330
6E6
100
AcDbEntity
  8
HATCH
  6
CONTINUOUS
 62
     3
100
AcDbTrace
 10
4671.930027120746
 20
3094.292044192678
 30
0.0
 11
4921.930027120746
 21
2844.29204419268
 31
0.0
 12
4671.930027120725
 22
4094.292044192679
 32
0.0
 13
4671.930027120725
 23
4094.292044192679
 33
0.0
  0
SOLID
  5
6EB
330
6E6
100
AcDbEntity
  8
HATCH
  6
CONTINUOUS
 62
     3
100
AcDbTrace
 10
4921.930027120709
 20
4344.292044192668
 30
0.0
 11
4671.930027120725
 21
4094.292044192679
 31
0.0
 12
4921.930027120746
 22
2844.29204419268
 32
0.0
 13
4921.930027120746
 23
2844.29204419268
 33
0.0
  0
SOLID
  5
6EC
330
6E6
100
AcDbEntity
  8
HATCH
  6
CONTINUOUS
 62
     3
100
AcDbTrace
 10
4171.930027120736
 20
3594.292044192679
 30
0.0
 11
4671.930027120747
 21
3094.292044192677
 31
0.0
 12
4671.930027120725
 22
4094.292044192679
 32
0.0
 13
4671.930027120725
 23
4094.292044192679
 33
0.0
  0
SOLID
  5
6ED
330
6E6
100
AcDbEntity
  8
HATCH
  6
CONTINUOUS
 62
     3
100
AcDbTrace
 10
4671.930027120743
 20
3094.292044192679
 30
0.0
 11
4171.930027120736
 21
3594.292044192679
 31
0.0
 12
3671.930027120745
 22
3094.29204419268
 32
0.0
 13
3671.930027120745
 23
3094.29204419268
 33
0.0
  0
SOLID
  5
6EE
330
6E6
100
AcDbEntity
  8
HATCH
  6
CONTINUOUS
 62
     3
100
AcDbTrace
 10
3671.930027120745
 20
3094.29204419268
 30
0.0
 11
3421.930027120739
 21
2844.292044192669
 31
0.0
 12
4671.930027120743
 22
3094.29204419268
 32
0.0
 13
4671.930027120743
 23
3094.29204419268
 33
0.0
  0
SOLID
  5
6EF
330
6E6
100
AcDbEntity
  8
HATCH
  6
CONTINUOUS
 62
     3
100
AcDbTrace
 10
4921.930027120748
 20
2844.29204419268
 30
0.0
 11
4671.930027120743
 21
3094.29204419268
 31
0.0
 12
3421.930027120739
 22
2844.292044192669
 32
0.0
 13
3421.930027120739
 23
2844.292044192669
 33
0.0
  0
SOLID
  5
6F0
330
6E6
100
AcDbEntity
  8
HATCH
  6
CONTINUOUS
 62
     3
100
AcDbTrace
 10
4171.930027120736
 20
3594.292044192679
 30
0.0
 11
3671.930027120696
 21
4094.292044192712
 31
0.0
 12
3671.930027120717
 22
3094.292044192652
 32
0.0
 13
3671.930027120717
 23
3094.292044192652
 33
0.0
  0
SOLID
  5
6F1
330
6E6
100
AcDbEntity
  8
HATCH
  6
CONTINUOUS
 62
     3
100
AcDbTrace
 10
3671.930027120695
 20
4094.292044192714
 30
0.0
 11
3421.930027120726
 21
4344.29204419268
 31
0.0
 12
3671.930027120717
 22
3094.29204419265
 32
0.0
 13
3671.930027120717
 23
3094.29204419265
 33
0.0
  0
SOLID
  5
6F2
330
6E6
100
AcDbEntity
  8
HATCH
  6
CONTINUOUS
 62
     3
100
AcDbTrace
 10
3421.930027120739
 20
2844.292044192668
 30
0.0
 11
3671.930027120717
 21
3094.29204419265
 31
0.0
 12
3421.930027120726
 22
4344.29204419268
 32
0.0
 13
3421.930027120726
 23
4344.29204419268
 33
0.0
  0
ENDBLK
  5
6F4
330
6E6
100
AcDbEntity
  8
0
100
AcDbBlockEnd
  0
BLOCK
  5
70B
330
6F5
100
AcDbEntity
  8
0
100
AcDbBlockBegin
  2
*U4
 70
     1
 10
0.0
 20
0.0
 30
0.0
  3
*U4
  1

  0
SOLID
  5
6F6
330
6F5
100
AcDbEntity
  8
HATCH
  6
CONTINUOUS
 62
   251
100
AcDbTrace
 10
10661.93002712079
 20
4348.844723510778
 30
0.0
 11
11781.93002712073
 21
4508.844723510771
 31
0.0
 12
10661.93002712076
 22
4508.844723510771
 32
0.0
 13
10661.93002712076
 23
4508.844723510771
 33
0.0
  0
SOLID
  5
6F7
330
6F5
100
AcDbEntity
  8
HATCH
  6
CONTINUOUS
 62
   251
100
AcDbTrace
 10
11781.93002712073
 20
4508.844723510771
 30
0.0
 11
10661.93002712079
 21
4348.844723510778
 31
0.0
 12
11781.93002712073
 22
4348.844723510771
 32
0.0
 13
11781.93002712073
 23
4348.844723510771
 33
0.0
  0
SOLID
  5
6F8
330
6F5
100
AcDbEntity
  8
HATCH
  6
CONTINUOUS
 62
   251
100
AcDbTrace
 10
10661.93002712076
 20
4771.944731411673
 30
0.0
 11
10661.93002712078
 21
4611.944731411682
 31
0.0
 12
11781.93002712073
 22
4611.944731411679
 32
0.0
 13
11781.93002712073
 23
4611.944731411679
 33
0.0
  0
SOLID
  5
6F9
330
6F5
100
AcDbEntity
  8
HATCH
  6
CONTINUOUS
 62
   251
100
AcDbTrace
 10
11781.93002712073
 20
4771.944731411677
 30
0.0
 11
10661.93002712076
 21
4771.944731411673
 31
0.0
 12
11781.93002712073
 22
4611.944731411679
 32
0.0
 13
11781.93002712073
 23
4611.944731411679
 33
0.0
  0
SOLID
  5
6FA
330
6F5
100
AcDbEntity
  8
HATCH
  6
CONTINUOUS
 62
   251
100
AcDbTrace
 10
10661.93002712077
 20
5035.044739312581
 30
0.0
 11
10661.93002712078
 21
4875.044739312591
 31
0.0
 12
11781.93002712071
 22
4875.044739312583
 32
0.0
 13
11781.93002712071
 23
4875.044739312583
 33
0.0
  0
SOLID
  5
6FB
330
6F5
100
AcDbEntity
  8
HATCH
  6
CONTINUOUS
 62
   251
100
AcDbTrace
 10
11781.93002712073
 20
5035.044739312584
 30
0.0
 11
10661.93002712077
 21
5035.044739312581
 31
0.0
 12
11781.93002712071
 22
4875.044739312583
 32
0.0
 13
11781.93002712071
 23
4875.044739312583
 33
0.0
  0
SOLID
  5
6FC
330
6F5
100
AcDbEntity
  8
HATCH
  6
CONTINUOUS
 62
   251
100
AcDbTrace
 10
10661.93002712076
 20
5298.144747213486
 30
0.0
 11
10661.93002712077
 21
5138.144747213497
 31
0.0
 12
11781.93002712071
 22
5138.144747213488
 32
0.0
 13
11781.93002712071
 23
5138.144747213488
 33
0.0
  0
SOLID
  5
6FD
330
6F5
100
AcDbEntity
  8
HATCH
  6
CONTINUOUS
 62
   251
100
AcDbTrace
 10
11781.93002712071
 20
5298.144747213489
 30
0.0
 11
10661.93002712076
 21
5298.144747213486
 31
0.0
 12
11781.93002712071
 22
5138.144747213488
 32
0.0
 13
11781.93002712071
 23
5138.144747213488
 33
0.0
  0
SOLID
  5
6FE
330
6F5
100
AcDbEntity
  8
HATCH
  6
CONTINUOUS
 62
   251
100
AcDbTrace
 10
10661.93002712077
 20
5401.244755114404
 30
0.0
 11
11781.93002712071
 21
5561.244755114396
 31
0.0
 12
10661.93002712076
 22
5561.244755114396
 32
0.0
 13
10661.93002712076
 23
5561.244755114396
 33
0.0
  0
SOLID
  5
6FF
330
6F5
100
AcDbEntity
  8
HATCH
  6
CONTINUOUS
 62
   251
100
AcDbTrace
 10
11781.93002712071
 20
5561.244755114396
 30
0.0
 11
10661.93002712077
 21
5401.244755114404
 31
0.0
 12
11781.93002712071
 22
5401.244755114396
 32
0.0
 13
11781.93002712071
 23
5401.244755114396
 33
0.0
  0
SOLID
  5
700
330
6F5
100
AcDbEntity
  8
HATCH
  6
CONTINUOUS
 62
   251
100
AcDbTrace
 10
10661.93002712076
 20
5824.344763015301
 30
0.0
 11
10661.93002712076
 21
5664.344763015311
 31
0.0
 12
11781.93002712071
 22
5664.344763015304
 32
0.0
 13
11781.93002712071
 23
5664.344763015304
 33
0.0
  0
SOLID
  5
701
330
6F5
100
AcDbEntity
  8
HATCH
  6
CONTINUOUS
 62
   251
100
AcDbTrace
 10
11781.93002712071
 20
5824.344763015305
 30
0.0
 11
10661.93002712076
 21
5824.344763015301
 31
0.0
 12
11781.93002712071
 22
5664.344763015304
 32
0.0
 13
11781.93002712071
 23
5664.344763015304
 33
0.0
  0
SOLID
  5
702
330
6F5
100
AcDbEntity
  8
HATCH
  6
CONTINUOUS
 62
   251
100
AcDbTrace
 10
10661.93002712076
 20
5927.444770916216
 30
0.0
 11
11781.9300271207
 21
6087.444770916206
 31
0.0
 12
10661.93002712075
 22
6087.444770916206
 32
0.0
 13
10661.93002712075
 23
6087.444770916206
 33
0.0
  0
SOLID
  5
703
330
6F5
100
AcDbEntity
  8
HATCH
  6
CONTINUOUS
 62
   251
100
AcDbTrace
 10
11781.9300271207
 20
6087.444770916206
 30
0.0
 11
10661.93002712076
 21
5927.444770916216
 31
0.0
 12
11781.93002712071
 22
5927.444770916209
 32
0.0
 13
11781.93002712071
 23
5927.444770916209
 33
0.0
  0
SOLID
  5
704
330
6F5
100
AcDbEntity
  8
HATCH
  6
CONTINUOUS
 62
   251
100
AcDbTrace
 10
10661.93002712074
 20
6350.544778817112
 30
0.0
 11
10661.93002712076
 21
6190.544778817127
 31
0.0
 12
11781.9300271207
 22
6190.544778817121
 32
0.0
 13
11781.9300271207
 23
6190.544778817121
 33
0.0
  0
SOLID
  5
705
330
6F5
100
AcDbEntity
  8
HATCH
  6
CONTINUOUS
 62
   251
100
AcDbTrace
 10
11781.9300271207
 20
6350.544778817114
 30
0.0
 11
10661.93002712074
 21
6350.544778817112
 31
0.0
 12
11781.9300271207
 22
6190.544778817121
 32
0.0
 13
11781.9300271207
 23
6190.544778817121
 33
0.0
  0
SOLID
  5
706
330
6F5
100
AcDbEntity
  8
HATCH
  6
CONTINUOUS
 62
   251
100
AcDbTrace
 10
10661.93002712075
 20
6453.644786718029
 30
0.0
 11
11781.9300271207
 21
6613.644786718021
 31
0.0
 12
10661.93002712074
 22
6613.644786718021
 32
0.0
 13
10661.93002712074
 23
6613.644786718021
 33
0.0
  0
SOLID
  5
707
330
6F5
100
AcDbEntity
  8
HATCH
  6
CONTINUOUS
 62
   251
100
AcDbTrace
 10
11781.9300271207
 20
6613.644786718021
 30
0.0
 11
10661.93002712075
 21
6453.644786718029
 31
0.0
 12
11781.9300271207
 22
6453.644786718021
 32
0.0
 13
11781.9300271207
 23
6453.644786718021
 33
0.0
  0
SOLID
  5
708
330
6F5
100
AcDbEntity
  8
HATCH
  6
CONTINUOUS
 62
   251
100
AcDbTrace
 10
10661.93002712076
 20
6904.292044192674
 30
0.0
 11
10661.93002712078
 21
6744.292044192684
 31
0.0
 12
11781.93002712071
 22
6744.29204419268
 32
0.0
 13
11781.93002712071
 23
6744.29204419268
 33
0.0
  0
SOLID
  5
709
330
6F5
100
AcDbEntity
  8
HATCH
  6
CONTINUOUS
 62
   251
100
AcDbTrace
 10
10661.93002712076
 20
6904.292044192674
 30
0.0
 11
11781.93002712071
 21
6904.292044192685
 31
0.0
 12
11721.93002712073
 22
6904.292044192685
 32
0.0
 13
11721.93002712073
 23
6904.292044192685
 33
0.0
  0
SOLID
  5
70A
330
6F5
100
AcDbEntity
  8
HATCH
  6
CONTINUOUS
 62
   251
100
AcDbTrace
 10
11781.93002712071
 20
6904.292044192685
 30
0.0
 11
10661.93002712076
 21
6904.292044192674
 31
0.0
 12
11781.93002712071
 22
6744.29204419268
 32
0.0
 13
11781.93002712071
 23
6744.29204419268
 33
0.0
  0
ENDBLK
  5
70C
330
6F5
100
AcDbEntity
  8
0
100
AcDbBlockEnd
  0
BLOCK
  5
732
330
70D
100
AcDbEntity
  8
0
100
AcDbBlockBegin
  2
*U5
 70
     1
 10
0.0
 20
0.0
 30
0.0
  3
*U5
  1

  0
SOLID
  5
70E
330
70D
100
AcDbEntity
  8
HATCH
  6
CONTINUOUS
 62
     4
100
AcDbTrace
 10
11661.93002712073
 20
4508.844723510771
 30
0.0
 11
11661.93002712071
 21
4611.944731411679
 31
0.0
 12
11621.93002712071
 22
4611.944731411679
 32
0.0
 13
11621.93002712071
 23
4611.944731411679
 33
0.0
  0
SOLID
  5
70F
330
70D
100
AcDbEntity
  8
HATCH
  6
CONTINUOUS
 62
     4
100
AcDbTrace
 10
11621.93002712071
 20
4611.944731411679
 30
0.0
 11
11621.93002712073
 21
4508.844723510771
 31
0.0
 12
11661.93002712073
 22
4508.844723510771
 32
0.0
 13
11661.93002712073
 23
4508.844723510771
 33
0.0
  0
SOLID
  5
710
330
70D
100
AcDbEntity
  8
HATCH
  6
CONTINUOUS
 62
     4
100
AcDbTrace
 10
10821.93002712072
 20
4508.844723510772
 30
0.0
 11
10821.93002712072
 21
4611.944731411682
 31
0.0
 12
10781.93002712073
 22
4611.944731411682
 32
0.0
 13
10781.93002712073
 23
4611.944731411682
 33
0.0
  0
SOLID
  5
711
330
70D
100
AcDbEntity
  8
HATCH
  6
CONTINUOUS
 62
     4
100
AcDbTrace
 10
10781.93002712073
 20
4611.944731411682
 30
0.0
 11
10781.93002712072
 21
4508.844723510771
 31
0.0
 12
10821.93002712072
 22
4508.844723510772
 32
0.0
 13
10821.93002712072
 23
4508.844723510772
 33
0.0
  0
SOLID
  5
712
330
70D
100
AcDbEntity
  8
HATCH
  6
CONTINUOUS
 62
     4
100
AcDbTrace
 10
11661.93002712073
 20
4771.944731411676
 30
0.0
 11
11661.93002712071
 21
4875.044739312585
 31
0.0
 12
11621.9300271207
 22
4875.044739312585
 32
0.0
 13
11621.9300271207
 23
4875.044739312585
 33
0.0
  0
SOLID
  5
713
330
70D
100
AcDbEntity
  8
HATCH
  6
CONTINUOUS
 62
     4
100
AcDbTrace
 10
11621.9300271207
 20
4875.044739312585
 30
0.0
 11
11621.93002712071
 21
4771.944731411676
 31
0.0
 12
11661.93002712073
 22
4771.944731411676
 32
0.0
 13
11661.93002712073
 23
4771.944731411676
 33
0.0
  0
SOLID
  5
714
330
70D
100
AcDbEntity
  8
HATCH
  6
CONTINUOUS
 62
     4
100
AcDbTrace
 10
10781.9300271207
 20
4771.944731411674
 30
0.0
 11
10821.93002712072
 21
4875.044739312588
 31
0.0
 12
10781.93002712072
 22
4875.044739312588
 32
0.0
 13
10781.93002712072
 23
4875.044739312588
 33
0.0
  0
SOLID
  5
715
330
70D
100
AcDbEntity
  8
HATCH
  6
CONTINUOUS
 62
     4
100
AcDbTrace
 10
10821.93002712072
 20
4875.044739312588
 30
0.0
 11
10781.9300271207
 21
4771.944731411674
 31
0.0
 12
10821.93002712072
 22
4771.944731411673
 32
0.0
 13
10821.93002712072
 23
4771.944731411673
 33
0.0
  0
SOLID
  5
716
330
70D
100
AcDbEntity
  8
HATCH
  6
CONTINUOUS
 62
     4
100
AcDbTrace
 10
11661.93002712073
 20
5138.144747213488
 30
0.0
 11
11621.93002712071
 21
5035.044739312583
 31
0.0
 12
11661.9300271207
 22
5035.044739312581
 32
0.0
 13
11661.9300271207
 23
5035.044739312581
 33
0.0
  0
SOLID
  5
717
330
70D
100
AcDbEntity
  8
HATCH
  6
CONTINUOUS
 62
     4
100
AcDbTrace
 10
11621.93002712073
 20
5138.144747213488
 30
0.0
 11
11621.93002712071
 21
5035.044739312583
 31
0.0
 12
11661.93002712073
 22
5138.144747213488
 32
0.0
 13
11661.93002712073
 23
5138.144747213488
 33
0.0
  0
SOLID
  5
718
330
70D
100
AcDbEntity
  8
HATCH
  6
CONTINUOUS
 62
     4
100
AcDbTrace
 10
10821.93002712074
 20
5138.144747213496
 30
0.0
 11
10781.93002712073
 21
5035.044739312583
 31
0.0
 12
10821.93002712072
 22
5035.044739312583
 32
0.0
 13
10821.93002712072
 23
5035.044739312583
 33
0.0
  0
SOLID
  5
719
330
70D
100
AcDbEntity
  8
HATCH
  6
CONTINUOUS
 62
     4
100
AcDbTrace
 10
10781.93002712074
 20
5138.144747213497
 30
0.0
 11
10781.93002712073
 21
5035.044739312583
 31
0.0
 12
10821.93002712074
 22
5138.144747213496
 32
0.0
 13
10821.93002712074
 23
5138.144747213496
 33
0.0
  0
SOLID
  5
71A
330
70D
100
AcDbEntity
  8
HATCH
  6
CONTINUOUS
 62
     4
100
AcDbTrace
 10
11661.93002712073
 20
5401.244755114397
 30
0.0
 11
11621.93002712071
 21
5298.144747213489
 31
0.0
 12
11661.93002712073
 22
5298.144747213489
 32
0.0
 13
11661.93002712073
 23
5298.144747213489
 33
0.0
  0
SOLID
  5
71B
330
70D
100
AcDbEntity
  8
HATCH
  6
CONTINUOUS
 62
     4
100
AcDbTrace
 10
11621.93002712071
 20
5401.244755114397
 30
0.0
 11
11621.93002712071
 21
5298.144747213489
 31
0.0
 12
11661.93002712073
 22
5401.244755114397
 32
0.0
 13
11661.93002712073
 23
5401.244755114397
 33
0.0
  0
SOLID
  5
71C
330
70D
100
AcDbEntity
  8
HATCH
  6
CONTINUOUS
 62
     4
100
AcDbTrace
 10
10821.93002712072
 20
5298.144747213487
 30
0.0
 11
10821.9300271207
 21
5401.244755114401
 31
0.0
 12
10781.93002712073
 22
5401.244755114401
 32
0.0
 13
10781.93002712073
 23
5401.244755114401
 33
0.0
  0
SOLID
  5
71D
330
70D
100
AcDbEntity
  8
HATCH
  6
CONTINUOUS
 62
     4
100
AcDbTrace
 10
10781.93002712073
 20
5401.244755114401
 30
0.0
 11
10781.93002712072
 21
5298.144747213486
 31
0.0
 12
10821.93002712072
 22
5298.144747213487
 32
0.0
 13
10821.93002712072
 23
5298.144747213487
 33
0.0
  0
SOLID
  5
71E
330
70D
100
AcDbEntity
  8
HATCH
  6
CONTINUOUS
 62
     4
100
AcDbTrace
 10
11661.93002712073
 20
5561.244755114397
 30
0.0
 11
11661.93002712073
 21
5664.344763015304
 31
0.0
 12
11621.93002712073
 22
5664.344763015304
 32
0.0
 13
11621.93002712073
 23
5664.344763015304
 33
0.0
  0
SOLID
  5
71F
330
70D
100
AcDbEntity
  8
HATCH
  6
CONTINUOUS
 62
     4
100
AcDbTrace
 10
11621.93002712073
 20
5664.344763015304
 30
0.0
 11
11621.93002712073
 21
5561.244755114396
 31
0.0
 12
11661.93002712073
 22
5561.244755114397
 32
0.0
 13
11661.93002712073
 23
5561.244755114397
 33
0.0
  0
SOLID
  5
720
330
70D
100
AcDbEntity
  8
HATCH
  6
CONTINUOUS
 62
     4
100
AcDbTrace
 10
10821.93002712074
 20
5664.344763015311
 30
0.0
 11
10781.93002712074
 21
5561.244755114396
 31
0.0
 12
10821.93002712074
 22
5561.244755114396
 32
0.0
 13
10821.93002712074
 23
5561.244755114396
 33
0.0
  0
SOLID
  5
721
330
70D
100
AcDbEntity
  8
HATCH
  6
CONTINUOUS
 62
     4
100
AcDbTrace
 10
10781.93002712074
 20
5664.344763015311
 30
0.0
 11
10781.93002712074
 21
5561.244755114396
 31
0.0
 12
10821.93002712074
 22
5664.344763015311
 32
0.0
 13
10821.93002712074
 23
5664.344763015311
 33
0.0
  0
SOLID
  5
722
330
70D
100
AcDbEntity
  8
HATCH
  6
CONTINUOUS
 62
     4
100
AcDbTrace
 10
11661.93002712073
 20
5927.44477091621
 30
0.0
 11
11621.93002712071
 21
5824.344763015305
 31
0.0
 12
11661.93002712071
 22
5824.344763015305
 32
0.0
 13
11661.93002712071
 23
5824.344763015305
 33
0.0
  0
SOLID
  5
723
330
70D
100
AcDbEntity
  8
HATCH
  6
CONTINUOUS
 62
     4
100
AcDbTrace
 10
11621.93002712071
 20
5927.44477091621
 30
0.0
 11
11621.93002712071
 21
5824.344763015305
 31
0.0
 12
11661.93002712073
 22
5927.44477091621
 32
0.0
 13
11661.93002712073
 23
5927.44477091621
 33
0.0
  0
SOLID
  5
724
330
70D
100
AcDbEntity
  8
HATCH
  6
CONTINUOUS
 62
     4
100
AcDbTrace
 10
10821.93002712074
 20
5927.444770916215
 30
0.0
 11
10781.93002712073
 21
5824.3447630153
 31
0.0
 12
10821.93002712072
 22
5824.3447630153
 32
0.0
 13
10821.93002712072
 23
5824.3447630153
 33
0.0
  0
SOLID
  5
725
330
70D
100
AcDbEntity
  8
HATCH
  6
CONTINUOUS
 62
     4
100
AcDbTrace
 10
10781.93002712074
 20
5927.444770916216
 30
0.0
 11
10781.93002712073
 21
5824.3447630153
 31
0.0
 12
10821.93002712074
 22
5927.444770916215
 32
0.0
 13
10821.93002712074
 23
5927.444770916215
 33
0.0
  0
SOLID
  5
726
330
70D
100
AcDbEntity
  8
HATCH
  6
CONTINUOUS
 62
     4
100
AcDbTrace
 10
11661.93002712073
 20
6087.444770916206
 30
0.0
 11
11661.93002712073
 21
6190.544778817121
 31
0.0
 12
11621.93002712071
 22
6190.544778817121
 32
0.0
 13
11621.93002712071
 23
6190.544778817121
 33
0.0
  0
SOLID
  5
727
330
70D
100
AcDbEntity
  8
HATCH
  6
CONTINUOUS
 62
     4
100
AcDbTrace
 10
11621.93002712071
 20
6190.544778817121
 30
0.0
 11
11621.93002712073
 21
6087.444770916206
 31
0.0
 12
11661.93002712073
 22
6087.444770916206
 32
0.0
 13
11661.93002712073
 23
6087.444770916206
 33
0.0
  0
SOLID
  5
728
330
70D
100
AcDbEntity
  8
HATCH
  6
CONTINUOUS
 62
     4
100
AcDbTrace
 10
10821.93002712074
 20
6190.544778817127
 30
0.0
 11
10781.93002712072
 21
6087.444770916206
 31
0.0
 12
10821.93002712072
 22
6087.444770916206
 32
0.0
 13
10821.93002712072
 23
6087.444770916206
 33
0.0
  0
SOLID
  5
729
330
70D
100
AcDbEntity
  8
HATCH
  6
CONTINUOUS
 62
     4
100
AcDbTrace
 10
10781.93002712072
 20
6190.544778817127
 30
0.0
 11
10781.93002712072
 21
6087.444770916206
 31
0.0
 12
10821.93002712074
 22
6190.544778817127
 32
0.0
 13
10821.93002712074
 23
6190.544778817127
 33
0.0
  0
SOLID
  5
72A
330
70D
100
AcDbEntity
  8
HATCH
  6
CONTINUOUS
 62
     4
100
AcDbTrace
 10
11661.93002712073
 20
6453.644786718022
 30
0.0
 11
11621.93002712073
 21
6350.544778817116
 31
0.0
 12
11661.93002712073
 22
6350.544778817116
 32
0.0
 13
11661.93002712073
 23
6350.544778817116
 33
0.0
  0
SOLID
  5
72B
330
70D
100
AcDbEntity
  8
HATCH
  6
CONTINUOUS
 62
     4
100
AcDbTrace
 10
11621.93002712073
 20
6453.644786718024
 30
0.0
 11
11621.93002712073
 21
6350.544778817116
 31
0.0
 12
11661.93002712073
 22
6453.644786718022
 32
0.0
 13
11661.93002712073
 23
6453.644786718022
 33
0.0
  0
SOLID
  5
72C
330
70D
100
AcDbEntity
  8
HATCH
  6
CONTINUOUS
 62
     4
100
AcDbTrace
 10
10821.9300271207
 20
6350.544778817113
 30
0.0
 11
10821.93002712072
 21
6453.644786718027
 31
0.0
 12
10781.93002712072
 22
6453.644786718027
 32
0.0
 13
10781.93002712072
 23
6453.644786718027
 33
0.0
  0
SOLID
  5
72D
330
70D
100
AcDbEntity
  8
HATCH
  6
CONTINUOUS
 62
     4
100
AcDbTrace
 10
10781.93002712072
 20
6453.644786718027
 30
0.0
 11
10781.93002712072
 21
6350.544778817112
 31
0.0
 12
10821.9300271207
 22
6350.544778817113
 32
0.0
 13
10821.9300271207
 23
6350.544778817113
 33
0.0
  0
SOLID
  5
72E
330
70D
100
AcDbEntity
  8
HATCH
  6
CONTINUOUS
 62
     4
100
AcDbTrace
 10
11661.93002712073
 20
6613.644786718021
 30
0.0
 11
11661.93002712073
 21
6744.292044192682
 31
0.0
 12
11621.93002712073
 22
6744.292044192682
 32
0.0
 13
11621.93002712073
 23
6744.292044192682
 33
0.0
  0
SOLID
  5
72F
330
70D
100
AcDbEntity
  8
HATCH
  6
CONTINUOUS
 62
     4
100
AcDbTrace
 10
11621.93002712073
 20
6744.292044192682
 30
0.0
 11
11621.93002712071
 21
6613.644786718021
 31
0.0
 12
11661.93002712073
 22
6613.644786718021
 32
0.0
 13
11661.93002712073
 23
6613.644786718021
 33
0.0
  0
SOLID
  5
730
330
70D
100
AcDbEntity
  8
HATCH
  6
CONTINUOUS
 62
     4
100
AcDbTrace
 10
10821.93002712072
 20
6744.292044192683
 30
0.0
 11
10781.93002712073
 21
6613.644786718023
 31
0.0
 12
10821.93002712074
 22
6613.644786718023
 32
0.0
 13
10821.93002712074
 23
6613.644786718023
 33
0.0
  0
SOLID
  5
731
330
70D
100
AcDbEntity
  8
HATCH
  6
CONTINUOUS
 62
     4
100
AcDbTrace
 10
10781.93002712073
 20
6744.292044192683
 30
0.0
 11
10781.93002712073
 21
6613.644786718023
 31
0.0
 12
10821.93002712072
 22
6744.292044192683
 32
0.0
 13
10821.93002712072
 23
6744.292044192683
 33
0.0
  0
ENDBLK
  5
733
330
70D
100
AcDbEntity
  8
0
100
AcDbBlockEnd
  0
BLOCK
  5
74D
330
734
100
AcDbEntity
  8
0
100
AcDbBlockBegin
  2
*U6
 70
     1
 10
0.0
 20
0.0
 30
0.0
  3
*U6
  1

  0
SOLID
  5
735
330
734
100
AcDbEntity
  8
HATCH
  6
CONTINUOUS
 62
     3
100
AcDbTrace
 10
10521.93002712074
 20
8104.292044192513
 30
0.0
 11
10521.9300271207
 21
8004.292044192444
 31
0.0
 12
11821.93002712073
 22
8004.292044192672
 32
0.0
 13
11821.93002712073
 23
8004.292044192672
 33
0.0
  0
SOLID
  5
736
330
734
100
AcDbEntity
  8
HATCH
  6
CONTINUOUS
 62
     3
100
AcDbTrace
 10
8871.930027120709
 20
8104.292044192671
 30
0.0
 11
8871.930027120709
 21
8004.292044192672
 31
0.0
 12
9721.930027120713
 22
8004.292044192665
 32
0.0
 13
9721.930027120713
 23
8004.292044192665
 33
0.0
  0
SOLID
  5
737
330
734
100
AcDbEntity
  8
HATCH
  6
CONTINUOUS
 62
     3
100
AcDbTrace
 10
11821.93002712073
 20
8104.292044192671
 30
0.0
 11
10521.93002712074
 21
8104.292044192513
 31
0.0
 12
11821.93002712073
 22
8004.292044192672
 32
0.0
 13
11821.93002712073
 23
8004.292044192672
 33
0.0
  0
SOLID
  5
738
330
734
100
AcDbEntity
  8
HATCH
  6
CONTINUOUS
 62
     3
100
AcDbTrace
 10
10621.9300271207
 20
8104.292044192673
 30
0.0
 11
10521.93002712074
 21
8104.292044192513
 31
0.0
 12
11821.93002712073
 22
8104.292044192671
 32
0.0
 13
11821.93002712073
 23
8104.292044192671
 33
0.0
  0
SOLID
  5
739
330
734
100
AcDbEntity
  8
HATCH
  6
CONTINUOUS
 62
     3
100
AcDbTrace
 10
9721.930027120713
 20
8104.292044192677
 30
0.0
 11
8871.930027120709
 21
8104.292044192671
 31
0.0
 12
9721.930027120713
 22
8004.292044192665
 32
0.0
 13
9721.930027120713
 23
8004.292044192665
 33
0.0
  0
SOLID
  5
73A
330
734
100
AcDbEntity
  8
HATCH
  6
CONTINUOUS
 62
     3
100
AcDbTrace
 10
9621.930027120733
 20
8104.292044192677
 30
0.0
 11
8871.930027120709
 21
8104.292044192671
 31
0.0
 12
9721.930027120713
 22
8104.292044192677
 32
0.0
 13
9721.930027120713
 23
8104.292044192677
 33
0.0
  0
SOLID
  5
73B
330
734
100
AcDbEntity
  8
HATCH
  6
CONTINUOUS
 62
     3
100
AcDbTrace
 10
10583.86979337635
 20
8295.633760375215
 30
0.0
 11
10521.93002712074
 21
8104.292044192513
 31
0.0
 12
10621.9300271207
 22
8104.292044192673
 32
0.0
 13
10621.9300271207
 23
8104.292044192673
 33
0.0
  0
SOLID
  5
73C
330
734
100
AcDbEntity
  8
HATCH
  6
CONTINUOUS
 62
     3
100
AcDbTrace
 10
9659.990260865088
 20
8295.633760375222
 30
0.0
 11
9621.930027120733
 21
8104.292044192677
 31
0.0
 12
9721.930027120713
 22
8104.292044192677
 32
0.0
 13
9721.930027120713
 23
8104.292044192677
 33
0.0
  0
SOLID
  5
73D
330
734
100
AcDbEntity
  8
HATCH
  6
CONTINUOUS
 62
     3
100
AcDbTrace
 10
10468.34018863455
 20
8304.292044192528
 30
0.0
 11
10521.93002712074
 21
8104.292044192513
 31
0.0
 12
10583.86979337635
 22
8295.633760375215
 32
0.0
 13
10583.86979337635
 23
8295.633760375215
 33
0.0
  0
SOLID
  5
73E
330
734
100
AcDbEntity
  8
HATCH
  6
CONTINUOUS
 62
     3
100
AcDbTrace
 10
9775.51986560698
 20
8304.292044192672
 30
0.0
 11
9659.990260865088
 21
8295.633760375222
 31
0.0
 12
9721.930027120713
 22
8104.292044192677
 32
0.0
 13
9721.930027120713
 23
8104.292044192677
 33
0.0
  0
SOLID
  5
73F
330
734
100
AcDbEntity
  8
HATCH
  6
CONTINUOUS
 62
     3
100
AcDbTrace
 10
10321.9300271208
 20
8450.702205706342
 30
0.0
 11
10468.34018863455
 21
8304.292044192528
 31
0.0
 12
10583.86979337635
 22
8295.633760375215
 32
0.0
 13
10583.86979337635
 23
8295.633760375215
 33
0.0
  0
SOLID
  5
740
330
734
100
AcDbEntity
  8
HATCH
  6
CONTINUOUS
 62
     3
100
AcDbTrace
 10
9921.93002712079
 20
8450.702205706425
 30
0.0
 11
9659.990260865088
 21
8295.633760375222
 31
0.0
 12
9775.51986560698
 22
8304.292044192672
 32
0.0
 13
9775.51986560698
 23
8304.292044192672
 33
0.0
  0
SOLID
  5
741
330
734
100
AcDbEntity
  8
HATCH
  6
CONTINUOUS
 62
     3
100
AcDbTrace
 10
10475.48341771399
 20
8457.845434785944
 30
0.0
 11
10321.9300271208
 21
8450.702205706342
 31
0.0
 12
10583.86979337635
 22
8295.633760375215
 32
0.0
 13
10583.86979337635
 23
8295.633760375215
 33
0.0
  0
SOLID
  5
742
330
734
100
AcDbEntity
  8
HATCH
  6
CONTINUOUS
 62
     3
100
AcDbTrace
 10
9768.376636527456
 20
8457.845434785946
 30
0.0
 11
9659.990260865088
 21
8295.633760375222
 31
0.0
 12
9921.93002712079
 22
8450.702205706425
 32
0.0
 13
9921.93002712079
 23
8450.702205706425
 33
0.0
  0
SOLID
  5
743
330
734
100
AcDbEntity
  8
HATCH
  6
CONTINUOUS
 62
     3
100
AcDbTrace
 10
10121.9300271208
 20
8504.292044192608
 30
0.0
 11
9768.376636527456
 21
8457.845434785946
 31
0.0
 12
9921.93002712079
 22
8450.702205706425
 32
0.0
 13
9921.93002712079
 23
8450.702205706425
 33
0.0
  0
SOLID
  5
744
330
734
100
AcDbEntity
  8
HATCH
  6
CONTINUOUS
 62
     3
100
AcDbTrace
 10
10121.9300271208
 20
8504.292044192608
 30
0.0
 11
10321.9300271208
 21
8450.702205706342
 31
0.0
 12
10475.48341771399
 22
8457.845434785944
 32
0.0
 13
10475.48341771399
 23
8457.845434785944
 33
0.0
  0
SOLID
  5
745
330
734
100
AcDbEntity
  8
HATCH
  6
CONTINUOUS
 62
     3
100
AcDbTrace
 10
10313.27174330326
 20
8566.231810448311
 30
0.0
 11
10121.9300271208
 21
8504.292044192608
 31
0.0
 12
10475.48341771399
 22
8457.845434785944
 32
0.0
 13
10475.48341771399
 23
8457.845434785944
 33
0.0
  0
SOLID
  5
746
330
734
100
AcDbEntity
  8
HATCH
  6
CONTINUOUS
 62
     3
100
AcDbTrace
 10
9930.588310938183
 20
8566.231810448313
 30
0.0
 11
10121.9300271208
 21
8504.292044192608
 31
0.0
 12
10313.27174330326
 22
8566.231810448311
 32
0.0
 13
10313.27174330326
 23
8566.231810448311
 33
0.0
  0
SOLID
  5
747
330
734
100
AcDbEntity
  8
HATCH
  6
CONTINUOUS
 62
     3
100
AcDbTrace
 10
9930.588310938183
 20
8566.231810448313
 30
0.0
 11
9768.376636527456
 21
8457.845434785946
 31
0.0
 12
10121.9300271208
 22
8504.292044192608
 32
0.0
 13
10121.9300271208
 23
8504.292044192608
 33
0.0
  0
SOLID
  5
748
330
734
100
AcDbEntity
  8
HATCH
  6
CONTINUOUS
 62
     3
100
AcDbTrace
 10
10121.93002712072
 20
8604.292044192671
 30
0.0
 11
9930.588310938183
 21
8566.231810448313
 31
0.0
 12
10313.27174330326
 22
8566.231810448311
 32
0.0
 13
10313.27174330326
 23
8566.231810448311
 33
0.0
  0
SOLID
  5
749
330
734
100
AcDbEntity
  8
HATCH
  6
CONTINUOUS
 62
     3
100
AcDbTrace
 10
8871.930027120741
 20
7004.292044192654
 30
0.0
 11
8871.930027120741
 21
6904.292044192731
 31
0.0
 12
10621.93002712072
 22
6904.2920441927
 32
0.0
 13
10621.93002712072
 23
6904.2920441927
 33
0.0
  0
SOLID
  5
74A
330
734
100
AcDbEntity
  8
HATCH
  6
CONTINUOUS
 62
     3
100
AcDbTrace
 10
10621.93002712072
 20
7004.292044192688
 30
0.0
 11
8871.930027120741
 21
7004.292044192654
 31
0.0
 12
10621.93002712072
 22
6904.2920441927
 32
0.0
 13
10621.93002712072
 23
6904.2920441927
 33
0.0
  0
SOLID
  5
74B
330
734
100
AcDbEntity
  8
HATCH
  6
CONTINUOUS
 62
     3
100
AcDbTrace
 10
11821.93002712073
 20
8004.292044192672
 30
0.0
 11
11721.93002712073
 21
6904.292044192685
 31
0.0
 12
11821.93002712075
 22
6904.292044192685
 32
0.0
 13
11821.93002712075
 23
6904.292044192685
 33
0.0
  0
SOLID
  5
74C
330
734
100
AcDbEntity
  8
HATCH
  6
CONTINUOUS
 62
     3
100
AcDbTrace
 10
11721.93002712073
 20
8004.292044192672
 30
0.0
 11
11721.93002712073
 21
6904.292044192685
 31
0.0
 12
11821.93002712073
 22
8004.292044192672
 32
0.0
 13
11821.93002712073
 23
8004.292044192672
 33
0.0
  0
ENDBLK
  5
74E
330
734
100
AcDbEntity
  8
0
100
AcDbBlockEnd
  0
BLOCK
  5
75E
330
74F
100
AcDbEntity
  8
0
100
AcDbBlockBegin
  2
*U7
 70
     1
 10
0.0
 20
0.0
 30
0.0
  3
*U7
  1

  0
SOLID
  5
750
330
74F
100
AcDbEntity
  8
HATCH
  6
CONTINUOUS
 62
   251
100
AcDbTrace
 10
10721.93002712072
 20
7004.292044192687
 30
0.0
 11
10721.93002712073
 21
6904.292044192674
 31
0.0
 12
11721.93002712073
 22
6904.292044192679
 32
0.0
 13
11721.93002712073
 23
6904.292044192679
 33
0.0
  0
SOLID
  5
751
330
74F
100
AcDbEntity
  8
HATCH
  6
CONTINUOUS
 62
   251
100
AcDbTrace
 10
10521.93002712069
 20
8004.292044192446
 30
0.0
 11
10621.93002712073
 21
7004.292044192687
 31
0.0
 12
10721.93002712072
 22
7004.292044192687
 32
0.0
 13
10721.93002712072
 23
7004.292044192687
 33
0.0
  0
SOLID
  5
752
330
74F
100
AcDbEntity
  8
HATCH
  6
CONTINUOUS
 62
   251
100
AcDbTrace
 10
10521.93002712069
 20
8004.292044192446
 30
0.0
 11
10721.93002712072
 21
7004.292044192687
 31
0.0
 12
11721.93002712073
 22
6904.292044192679
 32
0.0
 13
11721.93002712073
 23
6904.292044192679
 33
0.0
  0
SOLID
  5
753
330
74F
100
AcDbEntity
  8
HATCH
  6
CONTINUOUS
 62
   251
100
AcDbTrace
 10
10521.93002712069
 20
8004.292044192446
 30
0.0
 11
8871.930027120734
 21
7004.292044192654
 31
0.0
 12
10621.93002712073
 22
7004.292044192687
 32
0.0
 13
10621.93002712073
 23
7004.292044192687
 33
0.0
  0
SOLID
  5
754
330
74F
100
AcDbEntity
  8
HATCH
  6
CONTINUOUS
 62
   251
100
AcDbTrace
 10
11721.93002712073
 20
8004.292044192654
 30
0.0
 11
10521.93002712069
 21
8004.292044192446
 31
0.0
 12
11721.93002712073
 22
6904.292044192679
 32
0.0
 13
11721.93002712073
 23
6904.292044192679
 33
0.0
  0
SOLID
  5
755
330
74F
100
AcDbEntity
  8
HATCH
  6
CONTINUOUS
 62
   251
100
AcDbTrace
 10
9721.930027120713
 20
8004.292044192665
 30
0.0
 11
8871.930027120734
 21
7004.292044192654
 31
0.0
 12
10521.93002712069
 22
8004.292044192446
 32
0.0
 13
10521.93002712069
 23
8004.292044192446
 33
0.0
  0
SOLID
  5
756
330
74F
100
AcDbEntity
  8
HATCH
  6
CONTINUOUS
 62
   251
100
AcDbTrace
 10
8871.930027120709
 20
8004.292044192672
 30
0.0
 11
8871.930027120734
 21
7004.292044192654
 31
0.0
 12
9721.930027120713
 22
8004.292044192665
 32
0.0
 13
9721.930027120713
 23
8004.292044192665
 33
0.0
  0
SOLID
  5
757
330
74F
100
AcDbEntity
  8
HATCH
  6
CONTINUOUS
 62
   251
100
AcDbTrace
 10
10521.93002712074
 20
8104.292044192503
 30
0.0
 11
9721.930027120713
 21
8004.292044192665
 31
0.0
 12
10521.93002712069
 22
8004.292044192446
 32
0.0
 13
10521.93002712069
 23
8004.292044192446
 33
0.0
  0
SOLID
  5
758
330
74F
100
AcDbEntity
  8
HATCH
  6
CONTINUOUS
 62
   251
100
AcDbTrace
 10
9721.930027120713
 20
8104.292044192581
 30
0.0
 11
9721.930027120713
 21
8004.292044192665
 31
0.0
 12
10521.93002712074
 22
8104.292044192503
 32
0.0
 13
10521.93002712074
 23
8104.292044192503
 33
0.0
  0
SOLID
  5
759
330
74F
100
AcDbEntity
  8
HATCH
  6
CONTINUOUS
 62
   251
100
AcDbTrace
 10
10468.34018863453
 20
8304.292044192512
 30
0.0
 11
9721.930027120713
 21
8104.292044192581
 31
0.0
 12
10521.93002712074
 22
8104.292044192503
 32
0.0
 13
10521.93002712074
 23
8104.292044192503
 33
0.0
  0
SOLID
  5
75A
330
74F
100
AcDbEntity
  8
HATCH
  6
CONTINUOUS
 62
   251
100
AcDbTrace
 10
9775.519865606961
 20
8304.292044192585
 30
0.0
 11
9721.930027120713
 21
8104.292044192581
 31
0.0
 12
10468.34018863453
 22
8304.292044192512
 32
0.0
 13
10468.34018863453
 23
8304.292044192512
 33
0.0
  0
SOLID
  5
75B
330
74F
100
AcDbEntity
  8
HATCH
  6
CONTINUOUS
 62
   251
100
AcDbTrace
 10
10321.93002712077
 20
8450.70220570631
 30
0.0
 11
9775.519865606961
 21
8304.292044192585
 31
0.0
 12
10468.34018863453
 22
8304.292044192512
 32
0.0
 13
10468.34018863453
 23
8304.292044192512
 33
0.0
  0
SOLID
  5
75C
330
74F
100
AcDbEntity
  8
HATCH
  6
CONTINUOUS
 62
   251
100
AcDbTrace
 10
9921.930027120756
 20
8450.702205706351
 30
0.0
 11
9775.519865606961
 21
8304.292044192585
 31
0.0
 12
10321.93002712077
 22
8450.70220570631
 32
0.0
 13
10321.93002712077
 23
8450.70220570631
 33
0.0
  0
SOLID
  5
75D
330
74F
100
AcDbEntity
  8
HATCH
  6
CONTINUOUS
 62
   251
100
AcDbTrace
 10
10121.93002712076
 20
8504.292044192556
 30
0.0
 11
9921.930027120756
 21
8450.702205706351
 31
0.0
 12
10321.93002712077
 22
8450.70220570631
 32
0.0
 13
10321.93002712077
 23
8450.70220570631
 33
0.0
  0
ENDBLK
  5
75F
330
74F
100
AcDbEntity
  8
0
100
AcDbBlockEnd
  0
BLOCK
  5
770
330
769
100
AcDbEntity
  8
0
100
AcDbBlockBegin
  2
*U8
 70
     1
 10
0.0
 20
0.0
 30
0.0
  3
*U8
  1

  0
SOLID
  5
76A
330
769
100
AcDbEntity
  8
HATCH
  6
CONTINUOUS
 62
     1
100
AcDbTrace
 10
4571.930027120739
 20
6178.606619243395
 30
0.0
 11
3771.930027120745
 21
4344.292044192675
 31
0.0
 12
4571.930027120724
 22
4344.292044192662
 32
0.0
 13
4571.930027120724
 23
4344.292044192662
 33
0.0
  0
SOLID
  5
76B
330
769
100
AcDbEntity
  8
HATCH
  6
CONTINUOUS
 62
     1
100
AcDbTrace
 10
3771.930027120731
 20
6178.606619243438
 30
0.0
 11
3771.930027120745
 21
4344.292044192675
 31
0.0
 12
4571.930027120739
 22
6178.606619243395
 32
0.0
 13
4571.930027120739
 23
6178.606619243395
 33
0.0
  0
SOLID
  5
76C
330
769
100
AcDbEntity
  8
HATCH
  6
CONTINUOUS
 62
     1
100
AcDbTrace
 10
4511.033653129766
 20
6484.753365135481
 30
0.0
 11
3771.930027120731
 21
6178.606619243438
 31
0.0
 12
4571.930027120739
 22
6178.606619243395
 32
0.0
 13
4571.930027120739
 23
6178.606619243395
 33
0.0
  0
SOLID
  5
76D
330
769
100
AcDbEntity
  8
HATCH
  6
CONTINUOUS
 62
     1
100
AcDbTrace
 10
4337.615452069965
 20
6744.292044192659
 30
0.0
 11
3771.930027120731
 21
6178.606619243438
 31
0.0
 12
4511.033653129766
 22
6484.753365135481
 32
0.0
 13
4511.033653129766
 23
6484.753365135481
 33
0.0
  0
SOLID
  5
76E
330
769
100
AcDbEntity
  8
HATCH
  6
CONTINUOUS
 62
     1
100
AcDbTrace
 10
2121.32036167974
 20
7829.216284684429
 30
0.0
 11
3771.930027120731
 21
6178.606619243438
 31
0.0
 12
4337.615452069965
 22
6744.292044192659
 32
0.0
 13
4337.615452069965
 23
6744.292044192659
 33
0.0
  0
SOLID
  5
76F
330
769
100
AcDbEntity
  8
HATCH
  6
CONTINUOUS
 62
     1
100
AcDbTrace
 10
2687.005786628979
 20
8394.901709633662
 30
0.0
 11
2121.32036167974
 21
7829.216284684429
 31
0.0
 12
4337.615452069965
 22
6744.292044192659
 32
0.0
 13
4337.615452069965
 23
6744.292044192659
 33
0.0
  0
ENDBLK
  5
771
330
769
100
AcDbEntity
  8
0
100
AcDbBlockEnd
  0
BLOCK
  5
776
330
772
100
AcDbEntity
  8
0
100
AcDbBlockBegin
  2
*U9
 70
     1
 10
0.0
 20
0.0
 30
0.0
  3
*U9
  1

  0
SOLID
  5
773
330
772
100
AcDbEntity
  8
OBJECT
  6
CONTINUOUS
 62
   251
100
AcDbTrace
 10
7521.930027120717
 20
4194.29204419268
 30
0.0
 11
7621.930027120717
 21
4194.292044192664
 31
0.0
 12
7521.930027120723
 22
6754.29204419268
 32
0.0
 13
7521.930027120723
 23
6754.29204419268
 33
0.0
  0
SOLID
  5
774
330
772
100
AcDbEntity
  8
OBJECT
  6
CONTINUOUS
 62
   251
100
AcDbTrace
 10
8721.930027120709
 20
4194.292044192668
 30
0.0
 11
7521.930027120723
 21
6754.29204419268
 31
0.0
 12
7621.930027120717
 22
4194.292044192664
 32
0.0
 13
7621.930027120717
 23
4194.292044192664
 33
0.0
  0
SOLID
  5
775
330
772
100
AcDbEntity
  8
OBJECT
  6
CONTINUOUS
 62
   251
100
AcDbTrace
 10
7521.930027120723
 20
6754.29204419268
 30
0.0
 11
8721.930027120709
 21
4194.292044192668
 31
0.0
 12
8721.930027120718
 22
6754.292044192673
 32
0.0
 13
8721.930027120718
 23
6754.292044192673
 33
0.0
  0
ENDBLK
  5
777
330
772
100
AcDbEntity
  8
0
100
AcDbBlockEnd
  0
BLOCK
  5
77C
330
778
100
AcDbEntity
  8
0
100
AcDbBlockBegin
  2
*U10
 70
     1
 10
0.0
 20
0.0
 30
0.0
  3
*U10
  1

  0
SOLID
  5
779
330
778
100
AcDbEntity
  8
OBJECT
  6
CONTINUOUS
 62
   251
100
AcDbTrace
 10
7521.930027120717
 20
2994.292044192672
 30
0.0
 11
7521.930027120717
 21
3094.292044192672
 31
0.0
 12
4921.930027120742
 22
2994.292044192672
 32
0.0
 13
4921.930027120742
 23
2994.292044192672
 33
0.0
  0
SOLID
  5
77A
330
778
100
AcDbEntity
  8
OBJECT
  6
CONTINUOUS
 62
   251
100
AcDbTrace
 10
7521.930027120717
 20
4194.29204419268
 30
0.0
 11
4921.930027120742
 21
2994.292044192672
 31
0.0
 12
7521.930027120717
 22
3094.292044192672
 32
0.0
 13
7521.930027120717
 23
3094.292044192672
 33
0.0
  0
SOLID
  5
77B
330
778
100
AcDbEntity
  8
OBJECT
  6
CONTINUOUS
 62
   251
100
AcDbTrace
 10
4921.930027120742
 20
2994.292044192672
 30
0.0
 11
7521.930027120717
 21
4194.29204419268
 31
0.0
 12
4921.930027120714
 22
4194.29204419267
 32
0.0
 13
4921.930027120714
 23
4194.29204419267
 33
0.0
  0
ENDBLK
  5
77D
330
778
100
AcDbEntity
  8
0
100
AcDbBlockEnd
  0
BLOCK
  5
783
330
77E
100
AcDbEntity
  8
0
100
AcDbBlockBegin
  2
*U11
 70
     1
 10
0.0
 20
0.0
 30
0.0
  3
*U11
  1

  0
SOLID
  5
77F
330
77E
100
AcDbEntity
  8
HATCH
  6
CONTINUOUS
 62
   251
100
AcDbTrace
 10
8121.930027120717
 20
3594.292044192672
 30
0.0
 11
8621.930027120717
 21
4094.292044192676
 31
0.0
 12
7621.930027120717
 22
4094.292044192665
 32
0.0
 13
7621.930027120717
 23
4094.292044192665
 33
0.0
  0
SOLID
  5
780
330
77E
100
AcDbEntity
  8
HATCH
  6
CONTINUOUS
 62
   251
100
AcDbTrace
 10
8121.930027120717
 20
3594.292044192672
 30
0.0
 11
7621.930027120717
 21
4094.292044192665
 31
0.0
 12
7621.930027120717
 22
3094.292044192672
 32
0.0
 13
7621.930027120717
 23
3094.292044192672
 33
0.0
  0
SOLID
  5
781
330
77E
100
AcDbEntity
  8
HATCH
  6
CONTINUOUS
 62
   251
100
AcDbTrace
 10
8121.930027120717
 20
3594.292044192672
 30
0.0
 11
7621.930027120717
 21
3094.292044192672
 31
0.0
 12
8621.930027120747
 22
3094.292044192664
 32
0.0
 13
8621.930027120747
 23
3094.292044192664
 33
0.0
  0
SOLID
  5
782
330
77E
100
AcDbEntity
  8
HATCH
  6
CONTINUOUS
 62
   251
100
AcDbTrace
 10
8121.930027120717
 20
3594.292044192672
 30
0.0
 11
8621.930027120747
 21
3094.292044192664
 31
0.0
 12
8621.930027120717
 22
4094.292044192676
 32
0.0
 13
8621.930027120717
 23
4094.292044192676
 33
0.0
  0
ENDBLK
  5
784
330
77E
100
AcDbEntity
  8
0
100
AcDbBlockEnd
  0
BLOCK
  5
C23
330
C1B
100
AcDbEntity
  8
0
100
AcDbBlockBegin
  2
*U12
 70
     1
 10
0.0
 20
0.0
 30
0.0
  3
*U12
  1

  0
SOLID
  5
C1C
330
C1B
100
AcDbEntity
  8
HATCH
  6
CONTINUOUS
 62
     2
100
AcDbTrace
 10
14506.9300271207
 20
3819.292044192672
 30
0.0
 11
14506.9300271207
 21
3844.292044192672
 31
0.0
 12
11971.93002712072
 22
3819.292044192678
 32
0.0
 13
11971.93002712072
 23
3819.292044192678
 33
0.0
210
0.0
220
0.0
230
1.0
  0
SOLID
  5
C1D
330
C1B
100
AcDbEntity
  8
HATCH
  6
CONTINUOUS
 62
     2
100
AcDbTrace
 10
11971.93002712072
 20
3844.292044192665
 30
0.0
 11
11971.93002712072
 21
3819.292044192678
 31
0.0
 12
14506.9300271207
 22
3844.292044192672
 32
0.0
 13
14506.9300271207
 23
3844.292044192672
 33
0.0
210
0.0
220
0.0
230
1.0
  0
SOLID
  5
C1E
330
C1B
100
AcDbEntity
  8
HATCH
  6
CONTINUOUS
 62
     2
100
AcDbTrace
 10
14468.29847497401
 20
3594.292044192672
 30
0.0
 11
11971.93002712072
 21
3369.292044192675
 31
0.0
 12
14506.93002712072
 22
3369.292044192672
 32
0.0
 13
14506.93002712072
 23
3369.292044192672
 33
0.0
210
0.0
220
0.0
230
1.0
  0
SOLID
  5
C1F
330
C1B
100
AcDbEntity
  8
HATCH
  6
CONTINUOUS
 62
     2
100
AcDbTrace
 10
14506.93002712072
 20
3819.292044192672
 30
0.0
 11
11971.93002712072
 21
3369.292044192675
 31
0.0
 12
14468.29847497401
 22
3594.292044192672
 32
0.0
 13
14468.29847497401
 23
3594.292044192672
 33
0.0
  0
SOLID
  5
C20
330
C1B
100
AcDbEntity
  8
HATCH
  6
CONTINUOUS
 62
     2
100
AcDbTrace
 10
11971.93002712072
 20
3819.292044192678
 30
0.0
 11
11971.93002712072
 21
3369.292044192675
 31
0.0
 12
14506.93002712072
 22
3819.292044192672
 32
0.0
 13
14506.93002712072
 23
3819.292044192672
 33
0.0
210
0.0
220
0.0
230
1.0
  0
SOLID
  5
C21
330
C1B
100
AcDbEntity
  8
HATCH
  6
CONTINUOUS
 62
     2
100
AcDbTrace
 10
14506.93002712073
 20
3344.292044192675
 30
0.0
 11
14506.93002712073
 21
3369.292044192671
 31
0.0
 12
11971.93002712072
 22
3344.29204419268
 32
0.0
 13
11971.93002712072
 23
3344.29204419268
 33
0.0
210
0.0
220
0.0
230
1.0
  0
SOLID
  5
C22
330
C1B
100
AcDbEntity
  8
HATCH
  6
CONTINUOUS
 62
     2
100
AcDbTrace
 10
11971.93002712072
 20
3369.292044192675
 30
0.0
 11
11971.93002712072
 21
3344.29204419268
 31
0.0
 12
14506.93002712073
 22
3369.292044192671
 32
0.0
 13
14506.93002712073
 23
3369.292044192671
 33
0.0
210
0.0
220
0.0
230
1.0
  0
ENDBLK
  5
C24
330
C1B
100
AcDbEntity
  8
0
100
AcDbBlockEnd
  0
BLOCK
  5
C2B
330
C25
100
AcDbEntity
  8
0
100
AcDbBlockBegin
  2
*U13
 70
     1
 10
0.0
 20
0.0
 30
0.0
  3
*U13
  1

  0
SOLID
  5
C26
330
C25
100
AcDbEntity
  8
HATCH
  6
CONTINUOUS
 62
     5
100
AcDbTrace
 10
6363.130027120714
 20
7525.492044192677
 30
0.0
 11
6348.139363359558
 21
7519.282707953832
 31
0.0
 12
7371.930027120706
 22
7525.492044192671
 32
0.0
 13
7371.930027120706
 23
7525.492044192671
 33
0.0
210
0.0
220
0.0
230
1.0
  0
SOLID
  5
C27
330
C25
100
AcDbEntity
  8
HATCH
  6
CONTINUOUS
 62
     5
100
AcDbTrace
 10
6341.930027120714
 20
7504.292044192677
 30
0.0
 11
7371.930027120706
 21
7525.492044192671
 31
0.0
 12
6348.139363359558
 22
7519.282707953832
 32
0.0
 13
6348.139363359558
 23
7519.282707953832
 33
0.0
210
0.0
220
0.0
230
1.0
  0
SOLID
  5
C28
330
C25
100
AcDbEntity
  8
HATCH
  6
CONTINUOUS
 62
     5
100
AcDbTrace
 10
7371.930027120706
 20
7525.492044192671
 30
0.0
 11
6341.930027120714
 21
7504.292044192677
 31
0.0
 12
7371.930027120708
 22
7483.092044192668
 32
0.0
 13
7371.930027120708
 23
7483.092044192668
 33
0.0
210
0.0
220
0.0
230
1.0
  0
SOLID
  5
C29
330
C25
100
AcDbEntity
  8
HATCH
  6
CONTINUOUS
 62
     5
100
AcDbTrace
 10
6348.139363359558
 20
7489.30138043152
 30
0.0
 11
7371.930027120708
 21
7483.092044192668
 31
0.0
 12
6341.930027120714
 22
7504.292044192677
 32
0.0
 13
6341.930027120714
 23
7504.292044192677
 33
0.0
210
0.0
220
0.0
230
1.0
  0
SOLID
  5
C2A
330
C25
100
AcDbEntity
  8
HATCH
  6
CONTINUOUS
 62
     5
100
AcDbTrace
 10
7371.930027120708
 20
7483.092044192668
 30
0.0
 11
6348.139363359558
 21
7489.30138043152
 31
0.0
 12
6363.130027120714
 22
7483.092044192675
 32
0.0
 13
6363.130027120714
 23
7483.092044192675
 33
0.0
210
0.0
220
0.0
230
1.0
  0
ENDBLK
  5
C2C
330
C25
100
AcDbEntity
  8
0
100
AcDbBlockEnd
  0
BLOCK
  5
C34
330
C2D
100
AcDbEntity
  8
0
100
AcDbBlockBegin
  2
*U14
 70
     1
 10
0.0
 20
0.0
 30
0.0
  3
*U14
  1

  0
SOLID
  5
C2E
330
C2D
100
AcDbEntity
  8
HATCH
  6
CONTINUOUS
 62
   251
100
AcDbTrace
 10
8721.930027120718
 20
6754.292044192673
 30
0.0
 11
7521.930027120723
 21
6754.29204419268
 31
0.0
 12
8721.930027120709
 22
4194.292044192668
 32
0.0
 13
8721.930027120709
 23
4194.292044192668
 33
0.0
210
0.0
220
0.0
230
1.0
  0
SOLID
  5
C2F
330
C2D
100
AcDbEntity
  8
HATCH
  6
CONTINUOUS
 62
   251
100
AcDbTrace
 10
7521.930027120716
 20
4194.29204419268
 30
0.0
 11
8721.930027120709
 21
4194.292044192668
 31
0.0
 12
7521.930027120723
 22
6754.29204419268
 32
0.0
 13
7521.930027120723
 23
6754.29204419268
 33
0.0
  0
SOLID
  5
C30
330
C2D
100
AcDbEntity
  8
HATCH
  6
CONTINUOUS
 62
   251
100
AcDbTrace
 10
8721.930027120709
 20
4194.292044192668
 30
0.0
 11
7521.930027120716
 21
4194.29204419268
 31
0.0
 12
7621.930027120717
 22
4194.292044192664
 32
0.0
 13
7621.930027120717
 23
4194.292044192664
 33
0.0
210
0.0
220
0.0
230
1.0
  0
SOLID
  5
C31
330
C2D
100
AcDbEntity
  8
HATCH
  6
CONTINUOUS
 62
   251
100
AcDbTrace
 10
7521.930027120717
 20
4194.29204419268
 30
0.0
 11
4921.930027120714
 21
4194.29204419267
 31
0.0
 12
7521.930027120717
 22
3094.292044192672
 32
0.0
 13
7521.930027120717
 23
3094.292044192672
 33
0.0
210
0.0
220
0.0
230
1.0
  0
SOLID
  5
C32
330
C2D
100
AcDbEntity
  8
HATCH
  6
CONTINUOUS
 62
   251
100
AcDbTrace
 10
4921.930027120742
 20
2994.292044192672
 30
0.0
 11
7521.930027120717
 21
3094.292044192672
 31
0.0
 12
4921.930027120714
 22
4194.29204419267
 32
0.0
 13
4921.930027120714
 23
4194.29204419267
 33
0.0
210
0.0
220
0.0
230
1.0
  0
SOLID
  5
C33
330
C2D
100
AcDbEntity
  8
HATCH
  6
CONTINUOUS
 62
   251
100
AcDbTrace
 10
7521.930027120717
 20
3094.292044192672
 30
0.0
 11
4921.930027120742
 21
2994.292044192672
 31
0.0
 12
7521.930027120717
 22
2994.292044192672
 32
0.0
 13
7521.930027120717
 23
2994.292044192672
 33
0.0
210
0.0
220
0.0
230
1.0
  0
ENDBLK
  5
C35
330
C2D
100
AcDbEntity
  8
0
100
AcDbBlockEnd
  0
BLOCK
  5
C41
330
C36
100
AcDbEntity
  8
0
100
AcDbBlockBegin
  2
*U15
 70
     1
 10
0.0
 20
0.0
 30
0.0
  3
*U15
  1

  0
SOLID
  5
C37
330
C36
100
AcDbEntity
  8
HATCH
  6
CONTINUOUS
 62
     2
100
AcDbTrace
 10
10471.93002712072
 20
3894.292044192669
 30
0.0
 11
10471.93002712072
 21
3994.292044192679
 31
0.0
 12
8721.930027120718
 22
3894.292044192672
 32
0.0
 13
8721.930027120718
 23
3894.292044192672
 33
0.0
  0
SOLID
  5
C38
330
C36
100
AcDbEntity
  8
HATCH
  6
CONTINUOUS
 62
     2
100
AcDbTrace
 10
8721.930027120716
 20
3994.292044192667
 30
0.0
 11
8721.930027120718
 21
3894.292044192672
 31
0.0
 12
10471.93002712072
 22
3994.292044192679
 32
0.0
 13
10471.93002712072
 23
3994.292044192679
 33
0.0
  0
SOLID
  5
C39
330
C36
100
AcDbEntity
  8
HATCH
  6
CONTINUOUS
 62
     2
100
AcDbTrace
 10
10471.93002712071
 20
3694.292044192675
 30
0.0
 11
10471.93002712072
 21
3894.292044192669
 31
0.0
 12
8721.930027120722
 22
3694.292044192678
 32
0.0
 13
8721.930027120722
 23
3694.292044192678
 33
0.0
210
0.0
220
0.0
230
1.0
  0
SOLID
  5
C3A
330
C36
100
AcDbEntity
  8
HATCH
  6
CONTINUOUS
 62
     2
100
AcDbTrace
 10
8721.930027120718
 20
3894.292044192672
 30
0.0
 11
8721.930027120722
 21
3694.292044192678
 31
0.0
 12
10471.93002712072
 22
3894.292044192669
 32
0.0
 13
10471.93002712072
 23
3894.292044192669
 33
0.0
  0
SOLID
  5
C3B
330
C36
100
AcDbEntity
  8
HATCH
  6
CONTINUOUS
 62
     2
100
AcDbTrace
 10
10471.93002712071
 20
3494.292044192665
 30
0.0
 11
10471.93002712071
 21
3694.292044192676
 31
0.0
 12
8721.930027120729
 22
3494.292044192683
 32
0.0
 13
8721.930027120729
 23
3494.292044192683
 33
0.0
210
0.0
220
0.0
230
1.0
  0
SOLID
  5
C3C
330
C36
100
AcDbEntity
  8
HATCH
  6
CONTINUOUS
 62
     2
100
AcDbTrace
 10
8721.930027120725
 20
3694.292044192678
 30
0.0
 11
8721.930027120729
 21
3494.292044192683
 31
0.0
 12
10471.93002712071
 22
3694.292044192676
 32
0.0
 13
10471.93002712071
 23
3694.292044192676
 33
0.0
  0
SOLID
  5
C3D
330
C36
100
AcDbEntity
  8
HATCH
  6
CONTINUOUS
 62
     2
100
AcDbTrace
 10
10471.9300271207
 20
3294.292044192676
 30
0.0
 11
10471.93002712071
 21
3494.292044192665
 31
0.0
 12
8721.930027120734
 22
3294.292044192676
 32
0.0
 13
8721.930027120734
 23
3294.292044192676
 33
0.0
210
0.0
220
0.0
230
1.0
  0
SOLID
  5
C3E
330
C36
100
AcDbEntity
  8
HATCH
  6
CONTINUOUS
 62
     2
100
AcDbTrace
 10
8721.930027120729
 20
3494.292044192683
 30
0.0
 11
8721.930027120734
 21
3294.292044192676
 31
0.0
 12
10471.93002712071
 22
3494.292044192665
 32
0.0
 13
10471.93002712071
 23
3494.292044192665
 33
0.0
210
0.0
220
0.0
230
1.0
  0
SOLID
  5
C3F
330
C36
100
AcDbEntity
  8
HATCH
  6
CONTINUOUS
 62
     2
100
AcDbTrace
 10
10471.93002712069
 20
3194.29204419268
 30
0.0
 11
10471.9300271207
 21
3294.292044192676
 31
0.0
 12
8721.930027120736
 22
3194.292044192664
 32
0.0
 13
8721.930027120736
 23
3194.292044192664
 33
0.0
210
0.0
220
0.0
230
1.0
  0
SOLID
  5
C40
330
C36
100
AcDbEntity
  8
HATCH
  6
CONTINUOUS
 62
     2
100
AcDbTrace
 10
8721.930027120734
 20
3294.292044192675
 30
0.0
 11
8721.930027120736
 21
3194.292044192664
 31
0.0
 12
10471.9300271207
 22
3294.292044192676
 32
0.0
 13
10471.9300271207
 23
3294.292044192676
 33
0.0
210
0.0
220
0.0
230
1.0
  0
ENDBLK
  5
C42
330
C36
100
AcDbEntity
  8
0
100
AcDbBlockEnd
  0
BLOCK
  5
C48
330
C43
100
AcDbEntity
  8
0
100
AcDbBlockBegin
  2
*U16
 70
     1
 10
0.0
 20
0.0
 30
0.0
  3
*U16
  1

  0
SOLID
  5
C44
330
C43
100
AcDbEntity
  8
HATCH
  6
CONTINUOUS
 62
     1
100
AcDbTrace
 10
9746.930027120736
 20
6954.292044192709
 30
0.0
 11
10621.93002712073
 21
7004.292044192688
 31
0.0
 12
8871.930027120731
 22
7004.292044192654
 32
0.0
 13
8871.930027120731
 23
7004.292044192654
 33
0.0
210
0.0
220
0.0
230
1.0
  0
SOLID
  5
C45
330
C43
100
AcDbEntity
  8
HATCH
  6
CONTINUOUS
 62
     1
100
AcDbTrace
 10
9746.930027120736
 20
6954.292044192709
 30
0.0
 11
8871.930027120731
 21
7004.292044192654
 31
0.0
 12
8871.930027120741
 22
6904.292044192729
 32
0.0
 13
8871.930027120741
 23
6904.292044192729
 33
0.0
  0
SOLID
  5
C46
330
C43
100
AcDbEntity
  8
HATCH
  6
CONTINUOUS
 62
     1
100
AcDbTrace
 10
9746.930027120736
 20
6954.292044192709
 30
0.0
 11
8871.930027120741
 21
6904.292044192729
 31
0.0
 12
10621.93002712072
 22
6904.2920441927
 32
0.0
 13
10621.93002712072
 23
6904.2920441927
 33
0.0
  0
SOLID
  5
C47
330
C43
100
AcDbEntity
  8
HATCH
  6
CONTINUOUS
 62
     1
100
AcDbTrace
 10
9746.930027120736
 20
6954.292044192709
 30
0.0
 11
10621.93002712072
 21
6904.2920441927
 31
0.0
 12
10621.93002712073
 22
7004.292044192688
 32
0.0
 13
10621.93002712073
 23
7004.292044192688
 33
0.0
210
0.0
220
0.0
230
1.0
  0
ENDBLK
  5
C49
330
C43
100
AcDbEntity
  8
0
100
AcDbBlockEnd
  0
BLOCK
  5
C53
330
C4A
100
AcDbEntity
  8
0
100
AcDbBlockBegin
  2
*U17
 70
     1
 10
0.0
 20
0.0
 30
0.0
  3
*U17
  1

  0
SOLID
  5
C4B
330
C4A
100
AcDbEntity
  8
HATCH
  6
CONTINUOUS
 62
   251
100
AcDbTrace
 10
8621.930027120709
 20
4194.29204419267
 30
0.0
 11
7621.930027120717
 21
4194.29204419268
 31
0.0
 12
8621.930027120715
 22
4094.292044192675
 32
0.0
 13
8621.930027120715
 23
4094.292044192675
 33
0.0
210
0.0
220
0.0
230
1.0
  0
SOLID
  5
C4C
330
C4A
100
AcDbEntity
  8
HATCH
  6
CONTINUOUS
 62
   251
100
AcDbTrace
 10
7621.930027120694
 20
4094.292044192665
 30
0.0
 11
8621.930027120715
 21
4094.292044192675
 31
0.0
 12
7621.930027120717
 22
4194.29204419268
 32
0.0
 13
7621.930027120717
 23
4194.29204419268
 33
0.0
210
0.0
220
0.0
230
1.0
  0
SOLID
  5
C4D
330
C4A
100
AcDbEntity
  8
HATCH
  6
CONTINUOUS
 62
   251
100
AcDbTrace
 10
7621.930027120716
 20
3094.292044192672
 30
0.0
 11
7621.930027120717
 21
4094.292044192665
 31
0.0
 12
7521.930027120717
 22
4094.292044192665
 32
0.0
 13
7521.930027120717
 23
4094.292044192665
 33
0.0
210
0.0
220
0.0
230
1.0
  0
SOLID
  5
C4E
330
C4A
100
AcDbEntity
  8
HATCH
  6
CONTINUOUS
 62
   251
100
AcDbTrace
 10
7521.930027120717
 20
4094.292044192665
 30
0.0
 11
7521.930027120717
 21
3094.292044192672
 31
0.0
 12
7621.930027120716
 22
3094.292044192672
 32
0.0
 13
7621.930027120716
 23
3094.292044192672
 33
0.0
210
0.0
220
0.0
230
1.0
  0
SOLID
  5
C4F
330
C4A
100
AcDbEntity
  8
HATCH
  6
CONTINUOUS
 62
   251
100
AcDbTrace
 10
8721.930027120714
 20
4094.292044192665
 30
0.0
 11
8621.930027120747
 21
3094.292044192664
 31
0.0
 12
8721.930027120738
 22
3094.292044192669
 32
0.0
 13
8721.930027120738
 23
3094.292044192669
 33
0.0
  0
SOLID
  5
C50
330
C4A
100
AcDbEntity
  8
HATCH
  6
CONTINUOUS
 62
   251
100
AcDbTrace
 10
8621.930027120717
 20
4094.292044192676
 30
0.0
 11
8621.930027120747
 21
3094.292044192664
 31
0.0
 12
8721.930027120714
 22
4094.292044192665
 32
0.0
 13
8721.930027120714
 23
4094.292044192665
 33
0.0
210
0.0
220
0.0
230
1.0
  0
SOLID
  5
C51
330
C4A
100
AcDbEntity
  8
HATCH
  6
CONTINUOUS
 62
   251
100
AcDbTrace
 10
8621.930027120747
 20
3094.292044192663
 30
0.0
 11
7621.930027120717
 21
3094.292044192672
 31
0.0
 12
8621.930027120749
 22
2994.292044192673
 32
0.0
 13
8621.930027120749
 23
2994.292044192673
 33
0.0
210
0.0
220
0.0
230
1.0
  0
SOLID
  5
C52
330
C4A
100
AcDbEntity
  8
HATCH
  6
CONTINUOUS
 62
   251
100
AcDbTrace
 10
7621.930027120717
 20
2994.292044192672
 30
0.0
 11
8621.930027120749
 21
2994.292044192673
 31
0.0
 12
7621.930027120717
 22
3094.292044192672
 32
0.0
 13
7621.930027120717
 23
3094.292044192672
 33
0.0
  0
ENDBLK
  5
C54
330
C4A
100
AcDbEntity
  8
0
100
AcDbBlockEnd
  0
BLOCK
  5
C62
330
C55
100
AcDbEntity
  8
0
100
AcDbBlockBegin
  2
*U18
 70
     1
 10
0.0
 20
0.0
 30
0.0
  3
*U18
  1

  0
SOLID
  5
C56
330
C55
100
AcDbEntity
  8
HATCH
  6
CONTINUOUS
 62
     1
100
AcDbTrace
 10
7921.930027120717
 20
2964.292044192673
 30
0.0
 11
7921.930027120701
 21
2994.292044192672
 31
0.0
 12
7851.930027120717
 22
2994.292044192672
 32
0.0
 13
7851.930027120717
 23
2994.292044192672
 33
0.0
210
0.0
220
0.0
230
1.0
  0
SOLID
  5
C57
330
C55
100
AcDbEntity
  8
HATCH
  6
CONTINUOUS
 62
     1
100
AcDbTrace
 10
7851.930027120717
 20
2994.292044192672
 30
0.0
 11
7851.930027120733
 21
2964.292044192673
 31
0.0
 12
7921.930027120717
 22
2964.292044192673
 32
0.0
 13
7921.930027120717
 23
2964.292044192673
 33
0.0
210
0.0
220
0.0
230
1.0
  0
SOLID
  5
C58
330
C55
100
AcDbEntity
  8
HATCH
  6
CONTINUOUS
 62
     1
100
AcDbTrace
 10
8381.930027120718
 20
2964.29204419268
 30
0.0
 11
8451.930027120726
 21
2994.292044192672
 31
0.0
 12
8381.9300271207
 22
2994.292044192672
 32
0.0
 13
8381.9300271207
 23
2994.292044192672
 33
0.0
210
0.0
220
0.0
230
1.0
  0
SOLID
  5
C59
330
C55
100
AcDbEntity
  8
HATCH
  6
CONTINUOUS
 62
     1
100
AcDbTrace
 10
8451.930027120726
 20
2994.292044192672
 30
0.0
 11
8381.930027120718
 21
2964.29204419268
 31
0.0
 12
8451.930027120742
 22
2964.292044192673
 32
0.0
 13
8451.930027120742
 23
2964.292044192673
 33
0.0
210
0.0
220
0.0
230
1.0
  0
SOLID
  5
C5A
330
C55
100
AcDbEntity
  8
HATCH
  6
CONTINUOUS
 62
     1
100
AcDbTrace
 10
8621.930027120747
 20
3094.292044192663
 30
0.0
 11
8621.930027120747
 21
2994.292044192672
 31
0.0
 12
8721.930027120739
 22
2994.292044192672
 32
0.0
 13
8721.930027120739
 23
2994.292044192672
 33
0.0
210
0.0
220
0.0
230
1.0
  0
SOLID
  5
C5B
330
C55
100
AcDbEntity
  8
HATCH
  6
CONTINUOUS
 62
     1
100
AcDbTrace
 10
8721.930027120739
 20
3094.292044192669
 30
0.0
 11
8621.930027120747
 21
3094.292044192663
 31
0.0
 12
8721.930027120739
 22
2994.292044192672
 32
0.0
 13
8721.930027120739
 23
2994.292044192672
 33
0.0
210
0.0
220
0.0
230
1.0
  0
SOLID
  5
C5C
330
C55
100
AcDbEntity
  8
HATCH
  6
CONTINUOUS
 62
     1
100
AcDbTrace
 10
7621.930027120717
 20
3094.292044192672
 30
0.0
 11
7521.930027120717
 21
2994.292044192672
 31
0.0
 12
7621.930027120717
 22
2994.292044192672
 32
0.0
 13
7621.930027120717
 23
2994.292044192672
 33
0.0
210
0.0
220
0.0
230
1.0
  0
SOLID
  5
C5D
330
C55
100
AcDbEntity
  8
HATCH
  6
CONTINUOUS
 62
     1
100
AcDbTrace
 10
7521.930027120717
 20
3094.292044192672
 30
0.0
 11
7521.930027120717
 21
2994.292044192672
 31
0.0
 12
7621.930027120717
 22
3094.292044192672
 32
0.0
 13
7621.930027120717
 23
3094.292044192672
 33
0.0
210
0.0
220
0.0
230
1.0
  0
SOLID
  5
C5E
330
C55
100
AcDbEntity
  8
HATCH
  6
CONTINUOUS
 62
     1
100
AcDbTrace
 10
7621.930027120717
 20
4194.292044192664
 30
0.0
 11
7521.930027120724
 21
4094.292044192665
 31
0.0
 12
7621.930027120694
 22
4094.292044192665
 32
0.0
 13
7621.930027120694
 23
4094.292044192665
 33
0.0
210
0.0
220
0.0
230
1.0
  0
SOLID
  5
C5F
330
C55
100
AcDbEntity
  8
HATCH
  6
CONTINUOUS
 62
     1
100
AcDbTrace
 10
8621.930027120709
 20
4194.29204419267
 30
0.0
 11
8621.930027120717
 21
4094.292044192676
 31
0.0
 12
8721.930027120718
 22
4094.292044192664
 32
0.0
 13
8721.930027120718
 23
4094.292044192664
 33
0.0
210
0.0
220
0.0
230
1.0
  0
SOLID
  5
C60
330
C55
100
AcDbEntity
  8
HATCH
  6
CONTINUOUS
 62
     1
100
AcDbTrace
 10
8721.930027120711
 20
4194.29204419267
 30
0.0
 11
8621.930027120709
 21
4194.29204419267
 31
0.0
 12
8721.930027120718
 22
4094.292044192664
 32
0.0
 13
8721.930027120718
 23
4094.292044192664
 33
0.0
210
0.0
220
0.0
230
1.0
  0
SOLID
  5
C61
330
C55
100
AcDbEntity
  8
HATCH
  6
CONTINUOUS
 62
     1
100
AcDbTrace
 10
7521.930027120716
 20
4194.29204419268
 30
0.0
 11
7521.930027120724
 21
4094.292044192665
 31
0.0
 12
7621.930027120717
 22
4194.292044192664
 32
0.0
 13
7621.930027120717
 23
4194.292044192664
 33
0.0
210
0.0
220
0.0
230
1.0
  0
ENDBLK
  5
C63
330
C55
100
AcDbEntity
  8
0
100
AcDbBlockEnd
  0
BLOCK
  5
C69
330
C64
100
AcDbEntity
  8
0
100
AcDbBlockBegin
  2
*U19
 70
     1
 10
0.0
 20
0.0
 30
0.0
  3
*U19
  1

  0
SOLID
  5
C65
330
C64
100
AcDbEntity
  8
HATCH
  6
CONTINUOUS
 62
     5
100
AcDbTrace
 10
8621.930027120724
 20
2964.29204419268
 30
0.0
 11
8621.930027120749
 21
2994.292044192672
 31
0.0
 12
8551.930027120725
 22
2994.292044192672
 32
0.0
 13
8551.930027120725
 23
2994.292044192672
 33
0.0
210
0.0
220
0.0
230
1.0
  0
SOLID
  5
C66
330
C64
100
AcDbEntity
  8
HATCH
  6
CONTINUOUS
 62
     5
100
AcDbTrace
 10
8551.930027120725
 20
2994.292044192672
 30
0.0
 11
8551.930027120734
 21
2964.292044192673
 31
0.0
 12
8621.930027120724
 22
2964.29204419268
 32
0.0
 13
8621.930027120724
 23
2964.29204419268
 33
0.0
210
0.0
220
0.0
230
1.0
  0
SOLID
  5
C67
330
C64
100
AcDbEntity
  8
HATCH
  6
CONTINUOUS
 62
     5
100
AcDbTrace
 10
8071.930027120718
 20
2964.292044192679
 30
0.0
 11
8141.930027120725
 21
2994.292044192672
 31
0.0
 12
8071.930027120705
 22
2994.292044192672
 32
0.0
 13
8071.930027120705
 23
2994.292044192672
 33
0.0
210
0.0
220
0.0
230
1.0
  0
SOLID
  5
C68
330
C64
100
AcDbEntity
  8
HATCH
  6
CONTINUOUS
 62
     5
100
AcDbTrace
 10
8141.930027120725
 20
2994.292044192672
 30
0.0
 11
8071.930027120718
 21
2964.292044192679
 31
0.0
 12
8141.930027120737
 22
2964.292044192673
 32
0.0
 13
8141.930027120737
 23
2964.292044192673
 33
0.0
210
0.0
220
0.0
230
1.0
  0
ENDBLK
  5
C6A
330
C64
100
AcDbEntity
  8
0
100
AcDbBlockEnd
  0
BLOCK
  5
C70
330
C6B
100
AcDbEntity
  8
0
100
AcDbBlockBegin
  2
*U20
 70
     1
 10
0.0
 20
0.0
 30
0.0
  3
*U20
  1

  0
SOLID
  5
C6C
330
C6B
100
AcDbEntity
  8
HATCH
  6
CONTINUOUS
100
AcDbTrace
 10
8211.930027120718
 20
2994.292044192672
 30
0.0
 11
8211.930027120727
 21
2964.292044192673
 31
0.0
 12
8281.930027120719
 22
2964.29204419268
 32
0.0
 13
8281.930027120719
 23
2964.29204419268
 33
0.0
210
0.0
220
0.0
230
1.0
  0
SOLID
  5
C6D
330
C6B
100
AcDbEntity
  8
HATCH
  6
CONTINUOUS
100
AcDbTrace
 10
7801.930027120732
 20
2964.292044192669
 30
0.0
 11
7801.930027120715
 21
2994.292044192672
 31
0.0
 12
7731.930027120725
 22
2994.292044192672
 32
0.0
 13
7731.930027120725
 23
2994.292044192672
 33
0.0
210
0.0
220
0.0
230
1.0
  0
SOLID
  5
C6E
330
C6B
100
AcDbEntity
  8
HATCH
  6
CONTINUOUS
100
AcDbTrace
 10
7731.930027120725
 20
2994.292044192672
 30
0.0
 11
7731.930027120738
 21
2964.292044192665
 31
0.0
 12
7801.930027120732
 22
2964.292044192669
 32
0.0
 13
7801.930027120732
 23
2964.292044192669
 33
0.0
210
0.0
220
0.0
230
1.0
  0
SOLID
  5
C6F
330
C6B
100
AcDbEntity
  8
HATCH
  6
CONTINUOUS
100
AcDbTrace
 10
8281.930027120703
 20
2994.292044192672
 30
0.0
 11
8211.930027120718
 21
2994.292044192672
 31
0.0
 12
8281.930027120719
 22
2964.29204419268
 32
0.0
 13
8281.930027120719
 23
2964.29204419268
 33
0.0
210
0.0
220
0.0
230
1.0
  0
ENDBLK
  5
C71
330
C6B
100
AcDbEntity
  8
0
100
AcDbBlockEnd
  0
ENDSEC
  0
SECTION
  2
ENTITIES
  0
MTEXT
  5
27D
330
1F
100
AcDbEntity
  8
TEKST
100
AcDbMText
 10
4731.868365557502
 20
9014.745237995596
 30
0.0
 40
200.0
 41
4131.574
 71
     1
 72
     1
  1
{\FIMPACT.TTF;Hoogte: 585 cm\PMax. valhoogte: 150 cm}
1001
ACAD
1000
MTEXTBEGIN
1070
    73
1070
     1
1070
    44
1040
1.0
1070
    74
1070
     0
1000
MTEXTEND
1000
MTEXTBEGIN
1070
    73
1070
     1
1070
    44
1040
1.0
1070
    74
1070
     0
1000
MTEXTEND
1000
MTEXTBEGIN
1070
    73
1070
     1
1070
    44
1040
1.0
1070
    74
1070
     0
1000
MTEXTEND
  0
INSERT
  5
C16
330
1F
100
AcDbEntity
  8
HATCH
100
AcDbBlockReference
  2
ADKH
 10
0.0
 20
0.0
 30
0.0
  0
ENDSEC
  0
SECTION
  2
OBJECTS
  0
DICTIONARY
  5
C
330
0
100
AcDbDictionary
  3
ACAD_GROUP
350
D
  3
ACAD_LAYOUT
350
1A
  3
ACAD_MLINESTYLE
350
17
  3
ACAD_PLOTSETTINGS
350
19
1001
ACAD
1000
TREAT_AS_HARD
1070
     0
1000
TREAT_AS_HARD
1070
     0
1000
TREAT_AS_HARD
1070
     0
  0
DICTIONARY
  5
1A9
330
1F
100
AcDbDictionary
  3
ACAD_LAYOUTSELFREF
350
C18
  3
ACAD_SORTENTS
350
3F6
1001
ACAD
1000
TREAT_AS_HARD
1070
     1
1000
TREAT_AS_HARD
1070
     0
1000
TREAT_AS_HARD
1070
     0
  0
DICTIONARY
  5
1AB
330
50
100
AcDbDictionary
  3
ACAD_LAYOUTSELFREF
350
C19
1001
ACAD
1000
TREAT_AS_HARD
1070
     1
1000
TREAT_AS_HARD
1070
     0
1000
TREAT_AS_HARD
1070
     0
  0
DICTIONARY
  5
D
102
{ACAD_REACTORS
330
C
102
}
330
C
100
AcDbDictionary
1001
ACAD
1000
TREAT_AS_HARD
1070
     0
1000
TREAT_AS_HARD
1070
     0
1000
TREAT_AS_HARD
1070
     0
  0
DICTIONARY
  5
1A
102
{ACAD_REACTORS
330
C
102
}
330
C
100
AcDbDictionary
1001
ACAD
1000
TREAT_AS_HARD
1070
     0
1000
TREAT_AS_HARD
1070
     0
1000
TREAT_AS_HARD
1070
     0
  0
DICTIONARY
  5
17
102
{ACAD_REACTORS
330
C
102
}
330
C
100
AcDbDictionary
  3
STANDARD
350
18
1001
ACAD
1000
TREAT_AS_HARD
1070
     0
1000
TREAT_AS_HARD
1070
     0
1000
TREAT_AS_HARD
1070
     0
  0
DICTIONARY
  5
19
102
{ACAD_REACTORS
330
C
102
}
330
C
100
AcDbDictionary
1001
ACAD
1000
TREAT_AS_HARD
1070
     0
1000
TREAT_AS_HARD
1070
     0
1000
TREAT_AS_HARD
1070
     0
  0
XRECORD
  5
C18
102
{ACAD_REACTORS
330
1A9
102
}
330
1A9
100
AcDbXrecord
340
1F
  0
SORTENTSTABLE
  5
3F6
102
{ACAD_REACTORS
330
1A9
102
}
330
1A9
100
AcDbSortentsTable
330
1F
331
3C1
  5
3F5
331
3B0
  5
3C5
331
3AA
  5
3BF
331
373
  5
38A
331
3C6
  5
4BC
331
3B5
  5
3CA
331
394
  5
3A9
331
34C
  5
363
331
3AF
  5
3C4
331
4A7
  5
352
331
399
  5
3AE
331
378
  5
38F
331
362
  5
379
331
B11
  5
345
331
3CB
  5
54D
331
A22
  5
347
331
343
  5
356
331
7B3
  5
34C
331
39E
  5
3B3
331
37D
  5
394
331
354
  5
36B
331
4BC
  5
348
331
3D0
  5
7F6
331
367
  5
37E
331
3BA
  5
3CF
331
4C9
  5
349
331
53F
  5
351
331
36C
  5
383
331
3D5
  5
B23
331
414
  5
355
331
3BF
  5
3D4
331
3A0
  5
3B5
331
38A
  5
39F
331
3A5
  5
3BA
331
553
  5
34B
331
38F
  5
3A4
331
35B
  5
372
331
387
  5
39C
331
382
  5
399
331
3C0
  5
3D5
331
3A9
  5
3BE
331
372
  5
389
331
3C5
  5
4A7
331
3B4
  5
3C9
331
393
  5
3A8
331
34B
  5
362
331
3AE
  5
3C3
331
27D
  5
35C
331
398
  5
3AD
331
377
  5
38E
331
3CA
  5
546
331
361
  5
378
331
A78
  5
344
331
39D
  5
3B2
331
37C
  5
393
331
353
  5
36A
331
3CF
  5
7E2
331
366
  5
37D
331
3B9
  5
3CE
331
347
  5
35E
331
3D4
  5
B11
331
36B
  5
382
331
3BE
  5
3D3
331
386
  5
35B
331
389
  5
39E
331
3A4
  5
3B9
331
35A
  5
371
331
38E
  5
3A3
331
54D
  5
34F
331
B76
  5
27D
331
35F
  5
376
331
381
  5
398
331
3A8
  5
3BD
331
371
  5
388
331
3C4
  5
45D
331
3B3
  5
3C8
331
392
  5
3A7
331
34A
  5
361
331
3AD
  5
3C2
331
376
  5
38D
331
397
  5
3AC
331
34F
  5
366
331
3C9
  5
53F
331
360
  5
377
331
39C
  5
3B1
331
37B
  5
392
331
352
  5
369
331
3CE
  5
7CF
331
365
  5
37C
331
3B8
  5
3CD
331
357
  5
36E
331
346
  5
358
331
380
  5
397
331
3D3
  5
A78
331
3BD
  5
3D2
331
388
  5
39D
331
36F
  5
386
331
3A3
  5
3B8
331
359
  5
370
331
385
  5
35A
331
38D
  5
3A2
331
B23
  5
343
331
36A
  5
381
331
35E
  5
375
331
370
  5
387
331
3C3
  5
433
331
3B2
  5
3C7
331
391
  5
3A6
331
349
  5
360
331
3AC
  5
3C1
331
375
  5
38C
331
3B7
  5
3CC
331
396
  5
3AB
331
34E
  5
365
331
3C8
  5
518
331
7CF
  5
34A
331
37A
  5
391
331
351
  5
368
331
A60
  5
346
331
39B
  5
3B0
331
433
  5
354
331
3CD
  5
7B3
331
364
  5
37B
331
37F
  5
396
331
356
  5
36D
331
345
  5
357
331
3D2
  5
A60
331
3BC
  5
3D1
331
384
  5
39B
331
518
  5
B76
331
36E
  5
385
331
546
  5
350
331
3A2
  5
3B7
331
38C
  5
3A1
331
358
  5
36F
331
45D
  5
353
331
3A7
  5
3BC
331
35D
  5
374
331
369
  5
380
331
3C2
  5
414
331
3B1
  5
3C6
331
390
  5
3A5
331
348
  5
35F
331
3AB
  5
3C0
331
374
  5
38B
331
3C7
  5
4C9
331
3B6
  5
3CB
331
395
  5
3AA
331
34D
  5
364
331
3F5
  5
359
331
39A
  5
3AF
331
379
  5
390
331
350
  5
367
331
3CC
  5
553
331
363
  5
37A
331
355
  5
36C
331
344
  5
35D
331
39F
  5
3B4
331
37E
  5
395
331
7F6
  5
34E
331
3D1
  5
A22
331
368
  5
37F
331
3BB
  5
3D0
331
3A1
  5
3B6
331
36D
  5
384
331
38B
  5
3A0
331
7E2
  5
34D
331
3A6
  5
3BB
331
35C
  5
373
331
383
  5
39A
  0
XRECORD
  5
C19
102
{ACAD_REACTORS
330
1AB
102
}
330
1AB
100
AcDbXrecord
340
50
  0
MLINESTYLE
  5
18
102
{ACAD_REACTORS
330
17
102
}
330
17
100
AcDbMlineStyle
  2
STANDARD
 70
     0
  3

 62
   256
 51
90.0
 52
90.0
 71
     2
 49
0.5
 62
   256
  6
BYLAYER
 49
-0.5
 62
   256
  6
BYLAYER
  0
ENDSEC
  0
EOF
