  0
SECTION
  2
HEADER
  9
$ACADVER
  1
AC1012
  9
$DWGCODEPAGE
  3
ANSI_1252
  9
$INSBASE
 10
0.0
 20
0.0
 30
0.0
  9
$EXTMIN
 10
-310.9385947280498
 20
-310.7931829468925
 30
-0.0015258207003583
  9
$EXTMAX
 10
8813.630876240074
 20
4048.103333803624
 30
0.0000000349246037
  9
$LIMMIN
 10
0.0
 20
0.0
  9
$LIMMAX
 10
420.0
 20
297.0
  9
$ORTHOMODE
 70
     0
  9
$REGENMODE
 70
     1
  9
$FILLMODE
 70
     1
  9
$QTEXTMODE
 70
     0
  9
$MIRRTEXT
 70
     1
  9
$DRAGMODE
 70
     2
  9
$LTSCALE
 40
1.0
  9
$OSMODE
 70
  2559
  9
$ATTMODE
 70
     1
  9
$TEXTSIZE
 40
2.5
  9
$TRACEWID
 40
1.0
  9
$TEXTSTYLE
  7
STANDARD
  9
$CLAYER
  8
0
  9
$CELTYPE
  6
BYLAYER
  9
$CECOLOR
 62
   256
  9
$CELTSCALE
 40
1.0
  9
$DELOBJ
 70
     1
  9
$DISPSILH
 70
     0
  9
$DIMSCALE
 40
1.0
  9
$DIMASZ
 40
2.5
  9
$DIMEXO
 40
0.625
  9
$DIMDLI
 40
3.75
  9
$DIMRND
 40
0.0
  9
$DIMDLE
 40
0.0
  9
$DIMEXE
 40
1.25
  9
$DIMTP
 40
0.0
  9
$DIMTM
 40
0.0
  9
$DIMTXT
 40
2.5
  9
$DIMCEN
 40
2.5
  9
$DIMTSZ
 40
0.0
  9
$DIMTOL
 70
     0
  9
$DIMLIM
 70
     0
  9
$DIMTIH
 70
     0
  9
$DIMTOH
 70
     0
  9
$DIMSE1
 70
     0
  9
$DIMSE2
 70
     0
  9
$DIMTAD
 70
     1
  9
$DIMZIN
 70
     8
  9
$DIMBLK
  1

  9
$DIMASO
 70
     1
  9
$DIMSHO
 70
     1
  9
$DIMPOST
  1

  9
$DIMAPOST
  1

  9
$DIMALT
 70
     0
  9
$DIMALTD
 70
     3
  9
$DIMALTF
 40
0.03937007874016
  9
$DIMLFAC
 40
1.0
  9
$DIMTOFL
 70
     1
  9
$DIMTVP
 40
0.0
  9
$DIMTIX
 70
     0
  9
$DIMSOXD
 70
     0
  9
$DIMSAH
 70
     0
  9
$DIMBLK1
  1

  9
$DIMBLK2
  1

  9
$DIMSTYLE
  2
ISO-25
  9
$DIMCLRD
 70
     0
  9
$DIMCLRE
 70
     0
  9
$DIMCLRT
 70
     0
  9
$DIMTFAC
 40
1.0
  9
$DIMGAP
 40
0.625
  9
$DIMJUST
 70
     0
  9
$DIMSD1
 70
     0
  9
$DIMSD2
 70
     0
  9
$DIMTOLJ
 70
     0
  9
$DIMTZIN
 70
     8
  9
$DIMALTZ
 70
     0
  9
$DIMALTTZ
 70
     0
  9
$DIMFIT
 70
     3
  9
$DIMUPT
 70
     0
  9
$DIMUNIT
 70
     2
  9
$DIMDEC
 70
     2
  9
$DIMTDEC
 70
     2
  9
$DIMALTU
 70
     2
  9
$DIMALTTD
 70
     3
  9
$DIMTXSTY
  7
STANDARD
  9
$DIMAUNIT
 70
     0
  9
$LUNITS
 70
     2
  9
$LUPREC
 70
     4
  9
$SKETCHINC
 40
1.0
  9
$FILLETRAD
 40
10.0
  9
$AUNITS
 70
     0
  9
$AUPREC
 70
     0
  9
$MENU
  1
.
  9
$ELEVATION
 40
0.0
  9
$PELEVATION
 40
0.0
  9
$THICKNESS
 40
0.0
  9
$LIMCHECK
 70
     0
  9
$BLIPMODE
 70
     0
  9
$CHAMFERA
 40
10.0
  9
$CHAMFERB
 40
10.0
  9
$CHAMFERC
 40
20.0
  9
$CHAMFERD
 40
0.0
  9
$SKPOLY
 70
     0
  9
$TDCREATE
 40
2452626.600013310
  9
$TDUPDATE
 40
2452776.575114352
  9
$TDINDWG
 40
0.0063215278
  9
$TDUSRTIMER
 40
0.0063215278
  9
$USRTIMER
 70
     1
  9
$ANGBASE
 50
0.0
  9
$ANGDIR
 70
     0
  9
$PDMODE
 70
     0
  9
$PDSIZE
 40
0.0
  9
$PLINEWID
 40
0.0
  9
$COORDS
 70
     2
  9
$SPLFRAME
 70
     0
  9
$SPLINETYPE
 70
     6
  9
$SPLINESEGS
 70
     8
  9
$ATTDIA
 70
     0
  9
$ATTREQ
 70
     1
  9
$HANDLING
 70
-16383
  9
$HANDSEED
  5
4EB
  9
$SURFTAB1
 70
     6
  9
$SURFTAB2
 70
     6
  9
$SURFTYPE
 70
     6
  9
$SURFU
 70
     6
  9
$SURFV
 70
     6
  9
$UCSNAME
  2

  9
$UCSORG
 10
0.0
 20
0.0
 30
0.0
  9
$UCSXDIR
 10
1.0
 20
0.0
 30
0.0
  9
$UCSYDIR
 10
0.0
 20
1.0
 30
0.0
  9
$PUCSNAME
  2

  9
$PUCSORG
 10
0.0
 20
0.0
 30
0.0
  9
$PUCSXDIR
 10
1.0
 20
0.0
 30
0.0
  9
$PUCSYDIR
 10
0.0
 20
1.0
 30
0.0
  9
$USERI1
 70
     0
  9
$USERI2
 70
     0
  9
$USERI3
 70
     0
  9
$USERI4
 70
     0
  9
$USERI5
 70
     0
  9
$USERR1
 40
0.0
  9
$USERR2
 40
0.0
  9
$USERR3
 40
0.0
  9
$USERR4
 40
0.0
  9
$USERR5
 40
0.0
  9
$WORLDVIEW
 70
     1
  9
$SHADEDGE
 70
     3
  9
$SHADEDIF
 70
    70
  9
$TILEMODE
 70
     1
  9
$MAXACTVP
 70
    64
  9
$PINSBASE
 10
0.0
 20
0.0
 30
0.0
  9
$PLIMCHECK
 70
     0
  9
$PEXTMIN
 10
0.0
 20
0.0
 30
0.0
  9
$PEXTMAX
 10
0.0
 20
0.0
 30
0.0
  9
$PLIMMIN
 10
0.0
 20
0.0
  9
$PLIMMAX
 10
12.0
 20
9.0
  9
$UNITMODE
 70
     0
  9
$VISRETAIN
 70
     1
  9
$PLINEGEN
 70
     0
  9
$PSLTSCALE
 70
     1
  9
$TREEDEPTH
 70
  3020
  9
$PICKSTYLE
 70
     1
  9
$CMLSTYLE
  2
STANDARD
  9
$CMLJUST
 70
     0
  9
$CMLSCALE
 40
20.0
  9
$SAVEIMAGES
 70
     1
  0
ENDSEC
  0
SECTION
  2
CLASSES
  0
CLASS
  1
ACDBDICTIONARYWDFLT
  2
AcDbDictionaryWithDefault
  3
AutoCAD 2000
 90
    32768
280
     0
281
     0
  0
CLASS
  1
ACDBPLACEHOLDER
  2
AcDbPlaceHolder
  3
AutoCAD 2000
 90
    32768
280
     0
281
     0
  0
CLASS
  1
LAYOUT
  2
AcDbLayout
  3
AutoCAD 2000
 90
    32768
280
     0
281
     0
  0
CLASS
  1
LONG_TRANSACTION
  2
AcDbLongTransaction
  3
AutoCAD 2000
 90
    32768
280
     0
281
     0
  0
CLASS
  1
LWPOLYLINE
  2
AcDbPolyline
  3
AutoCAD 2000
 90
    32768
280
     0
281
     1
  0
CLASS
  1
HATCH
  2
AcDbHatch
  3
AutoCAD 2000
 90
    32768
280
     0
281
     1
  0
CLASS
  1
XRECORD
  2
AcDbXrecord
  3
AutoCAD 2000
 90
    32768
280
     0
281
     0
  0
CLASS
  1
LONG_TRANSACTION
  2
AcDbLongTransaction
  3
AutoCAD 2000
 90
    32768
280
     0
281
     0
  0
CLASS
  1
LWPOLYLINE
  2
AcDbPolyline
  3
AutoCAD 2000
 90
    32768
280
     0
281
     1
  0
CLASS
  1
HATCH
  2
AcDbHatch
  3
AutoCAD 2000
 90
    32768
280
     0
281
     1
  0
CLASS
  1
XRECORD
  2
AcDbXrecord
  3
AutoCAD 2000
 90
    32768
280
     0
281
     0
  0
CLASS
  1
LONG_TRANSACTION
  2
AcDbLongTransaction
  3
AutoCAD 2000
 90
    32768
280
     0
281
     0
  0
CLASS
  1
LWPOLYLINE
  2
AcDbPolyline
  3
AutoCAD 2000
 90
    32768
280
     0
281
     1
  0
CLASS
  1
HATCH
  2
AcDbHatch
  3
AutoCAD 2000
 90
    32768
280
     0
281
     1
  0
CLASS
  1
XRECORD
  2
AcDbXrecord
  3
AutoCAD 2000
 90
    32768
280
     0
281
     0
  0
CLASS
  1
DICTIONARYVAR
  2
AcDbDictionaryVar
  3
AutoCAD 2000
 90
    32768
280
     0
281
     0
  0
CLASS
  1
SORTENTSTABLE
  2
AcDbSortentsTable
  3
AutoCAD 2000
 90
    32768
280
     0
281
     0
  0
CLASS
  1
LONG_TRANSACTION
  2
AcDbLongTransaction
  3
AutoCAD 2000
 90
    32768
280
     0
281
     0
  0
CLASS
  1
LWPOLYLINE
  2
AcDbPolyline
  3
AutoCAD 2000
 90
    32768
280
     0
281
     1
  0
CLASS
  1
HATCH
  2
AcDbHatch
  3
AutoCAD 2000
 90
    32768
280
     0
281
     1
  0
CLASS
  1
XRECORD
  2
AcDbXrecord
  3
AutoCAD 2000
 90
    32768
280
     0
281
     0
  0
ENDSEC
  0
SECTION
  2
TABLES
  0
TABLE
  2
VPORT
  5
8
330
0
100
AcDbSymbolTable
 70
     2
  0
VPORT
  5
40D
330
8
100
AcDbSymbolTableRecord
100
AcDbViewportTableRecord
  2
*ACTIVE
 70
     0
 10
0.0
 20
0.0
 11
1.0
 21
1.0
 12
4572.258879168543
 22
2193.708405707382
 13
0.0
 23
0.0
 14
10.0
 24
10.0
 15
10.0
 25
10.0
 16
0.0
 26
0.0
 36
1.0
 17
0.0
 27
0.0
 37
0.0
 40
7430.283091311586
 41
1.558704453441295
 42
50.0
 43
0.0
 44
0.0
 50
0.0
 51
0.0
 71
     0
 72
   100
 73
     1
 74
     3
 75
     0
 76
     0
 77
     0
 78
     0
  0
ENDTAB
  0
TABLE
  2
LTYPE
  5
5
330
0
100
AcDbSymbolTable
 70
     1
  0
LTYPE
  5
14
330
5
100
AcDbSymbolTableRecord
100
AcDbLinetypeTableRecord
  2
BYBLOCK
 70
     0
  3

 72
    65
 73
     0
 40
0.0
  0
LTYPE
  5
15
330
5
100
AcDbSymbolTableRecord
100
AcDbLinetypeTableRecord
  2
BYLAYER
 70
     0
  3

 72
    65
 73
     0
 40
0.0
  0
LTYPE
  5
16
330
5
100
AcDbSymbolTableRecord
100
AcDbLinetypeTableRecord
  2
CONTINUOUS
 70
     0
  3
Solid line
 72
    65
 73
     0
 40
0.0
  0
ENDTAB
  0
TABLE
  2
LAYER
  5
2
330
0
100
AcDbSymbolTable
 70
     4
  0
LAYER
  5
10
330
2
100
AcDbSymbolTableRecord
100
AcDbLayerTableRecord
  2
0
 70
     0
 62
     7
  6
CONTINUOUS
  0
LAYER
  5
5D
330
2
100
AcDbSymbolTableRecord
100
AcDbLayerTableRecord
  2
SAFETY
 70
     0
 62
     7
  6
CONTINUOUS
  0
LAYER
  5
5E
330
2
100
AcDbSymbolTableRecord
100
AcDbLayerTableRecord
  2
OBJECT
 70
     0
 62
     7
  6
CONTINUOUS
  0
LAYER
  5
1FE
330
2
100
AcDbSymbolTableRecord
100
AcDbLayerTableRecord
  2
TEKST
 70
     0
 62
     7
  6
CONTINUOUS
  0
ENDTAB
  0
TABLE
  2
STYLE
  5
3
330
0
100
AcDbSymbolTable
 70
     1
  0
STYLE
  5
11
330
3
100
AcDbSymbolTableRecord
100
AcDbTextStyleTableRecord
  2
STANDARD
 70
     0
 40
0.0
 41
1.0
 50
0.0
 71
     0
 42
2.5
  3
txt
  4

  0
ENDTAB
  0
TABLE
  2
VIEW
  5
6
330
0
100
AcDbSymbolTable
 70
     0
  0
ENDTAB
  0
TABLE
  2
UCS
  5
7
330
0
100
AcDbSymbolTable
 70
     0
  0
ENDTAB
  0
TABLE
  2
APPID
  5
9
330
0
100
AcDbSymbolTable
 70
     2
  0
APPID
  5
12
330
9
100
AcDbSymbolTableRecord
100
AcDbRegAppTableRecord
  2
ACAD
 70
     0
  0
APPID
  5
1F7
330
9
100
AcDbSymbolTableRecord
100
AcDbRegAppTableRecord
  2
CONTENTBLOCKICON
 70
     0
  0
ENDTAB
  0
TABLE
  2
DIMSTYLE
  5
A
330
0
100
AcDbSymbolTable
 70
     1
  0
DIMSTYLE
105
27
330
A
100
AcDbSymbolTableRecord
100
AcDbDimStyleTableRecord
  2
ISO-25
 70
     0
  3

  4

  5

  6

  7

 40
1.0
 41
2.5
 42
0.625
 43
3.75
 44
1.25
 45
0.0
 46
0.0
 47
0.0
 48
0.0
140
2.5
141
2.5
142
0.0
143
0.03937007874016
144
1.0
145
0.0
146
1.0
147
0.625
 71
     0
 72
     0
 73
     0
 74
     0
 75
     0
 76
     0
 77
     1
 78
     8
170
     0
171
     3
172
     1
173
     0
174
     0
175
     0
176
     0
177
     0
178
     0
270
     2
271
     2
272
     2
273
     2
274
     3
340
11
275
     0
280
     0
281
     0
282
     0
283
     0
284
     8
285
     0
286
     0
287
     3
288
     0
  0
ENDTAB
  0
TABLE
  2
BLOCK_RECORD
  5
1
330
0
100
AcDbSymbolTable
 70
     6
  0
BLOCK_RECORD
  5
1F
102
{ACAD_XDICTIONARY
360
159
102
}
330
1
100
AcDbSymbolTableRecord
100
AcDbBlockTableRecord
  2
*MODEL_SPACE
  0
BLOCK_RECORD
  5
50
102
{ACAD_XDICTIONARY
360
15B
102
}
330
1
100
AcDbSymbolTableRecord
100
AcDbBlockTableRecord
  2
*PAPER_SPACE
  0
BLOCK_RECORD
  5
165
330
1
100
AcDbSymbolTableRecord
100
AcDbBlockTableRecord
  2
ADKG
1001
ACAD
1000
DesignCenter Data
1002
{
1070
     1
1070
     4
1002
}
1001
CONTENTBLOCKICON
1071
        0
1004
28000000200000002000000001000800000000000004000000000000000000000000000000000000000000004000000080000000FF000000002000004020000080200000FF200000004000004040000080400000FF400000006000004060000080600000FF600000008000004080000080800000FF80000000A0000040A000
1004
0080A00000FFA0000000C0000040C0000080C00000FFC0000000FF000040FF000080FF0000FFFF0000000020004000200080002000FF002000002020004020200080202000FF202000004020004040200080402000FF402000006020004060200080602000FF602000008020004080200080802000FF80200000A0200040A0
1004
200080A02000FFA0200000C0200040C0200080C02000FFC0200000FF200040FF200080FF2000FFFF2000000040004000400080004000FF004000002040004020400080204000FF204000004040004040400080404000FF404000006040004060400080604000FF604000008040004080400080804000FF80400000A0400040
1004
A0400080A04000FFA0400000C0400040C0400080C04000FFC0400000FF400040FF400080FF4000FFFF4000000060004000600080006000FF006000002060004020600080206000FF206000004060004040600080406000FF406000006060004060600080606000FF606000008060004080600080806000FF80600000A06000
1004
40A0600080A06000FFA0600000C0600040C0600080C06000FFC0600000FF600040FF600080FF6000FFFF6000000080004000800080008000FF008000002080004020800080208000FF208000004080004040800080408000FF408000006080004060800080608000FF608000008080004080800080808000FF80800000A080
1004
0040A0800080A08000FFA0800000C0800040C0800080C08000FFC0800000FF800040FF800080FF8000FFFF80000000A0004000A0008000A000FF00A0000020A0004020A0008020A000FF20A0000040A0004040A0008040A000FF40A0000060A0004060A0008060A000FF60A0000080A0004080A0008080A000FF80A00000A0
1004
A00040A0A00080A0A000FFA0A00000C0A00040C0A00080C0A000FFC0A00000FFA00040FFA00080FFA000FFFFA0000000C0004000C0008000C000FF00C0000020C0004020C0008020C000FF20C0000040C0004040C0008040C000FF40C0000060C0004060C0008060C000FF60C0000080C0004080C0008080C000FF80C00000
1004
A0C00040A0C00080A0C000FFA0C00000C0C00040C0C00080C0C000FFC0C00000FFC00040FFC00080FFC000FFFFC0000000FF004000FF008000FF00FF00FF000020FF004020FF008020FF00FF20FF000040FF004040FF008040FF00FF40FF000060FF004060FF008060FF00FF60FF000080FF004080FF008080FF00FF80FF00
1004
00A0FF0040A0FF0080A0FF00FFA0FF0000C0FF0040C0FF0080C0FF00FFC0FF0000FFFF0040FFFF0080FFFF00FFFFFF0000000000000000000000000000000000000000000000000000000000000000000000000000000000000000000000000000000000000000000000000000000000000000000000000000000000000000
1004
00000000000000000000000000000000000000000000000000000000000000000000000000000000000000000000000000000000000000000000000000000000000000000000000000000000000000000000000000000000000000000000000000000000000000000000000000000000000000000000000000000000000000
1004
00000000000000000000000000000000000000000000000000000000000000000000000000000000000000000000000000000000000000000000000000000000000000000000000000000000000000000000000000000000000000000000000000000000000000000000000000000000000000000000FFFFFFFFFFFFFFFFFF
1004
FFFFFFFFFFFFFFFFFF00000000000000000000000000FF000000000000000000000000000000000000FFFFFFFFFFFFFFFFFF000000FF000000000000000000000000000000000000000000000000000000FF000000FF000000000000000000000000000000000000000000000000000000FF0000FF000000FC1C1C1C494949
1004
49494949491C1C1C1C000000000000000000FF0000FF0000001C1C1C1C49494949494949491C1C1CFCFCFCFCFC0000000000FF0000FF0000001C1C1C1C49494949494949491C1C1CFCFCFCFCFC0000000000FF0000FF000000FC1C1C1C49494949494949491C1C1C1C000000000000000000FF000000FF0000000000000000
1004
00000000000000000000000000000000000000FF000000FF00000000000000FFFFFFFF00000000000000000000000000000000FF00000000FF000000000000FFFFFF00000000000000000000FFFFFFFFFFFFFFFF0000000000FFFFFFFFFFFFFFFFFFFFFFFFFFFFFFFFFFFFFF00000000000000000000000000000000000000
1004
00000000000000000000000000000000000000000000000000000000000000000000000000000000000000000000000000000000000000000000000000000000000000000000000000000000000000000000000000000000000000000000000000000000000000000000000000000000000000000000000000000000000000
1004
00000000000000000000000000000000000000000000000000000000000000000000000000000000000000000000000000000000000000000000000000000000000000000000000000000000000000000000000000000000000000000000000000000000000000000000000000000000000000000000000000000000000000
1004
0000000000000000000000000000000000000000000000000000000000000000000000000000000000000000000000000000000000000000
  0
BLOCK_RECORD
  5
411
330
1
100
AcDbSymbolTableRecord
100
AcDbBlockTableRecord
  2
*U1
  0
BLOCK_RECORD
  5
425
330
1
100
AcDbSymbolTableRecord
100
AcDbBlockTableRecord
  2
*U2
  0
BLOCK_RECORD
  5
42C
330
1
100
AcDbSymbolTableRecord
100
AcDbBlockTableRecord
  2
*U3
  0
BLOCK_RECORD
  5
451
330
1
100
AcDbSymbolTableRecord
100
AcDbBlockTableRecord
  2
*U4
  0
BLOCK_RECORD
  5
45A
330
1
100
AcDbSymbolTableRecord
100
AcDbBlockTableRecord
  2
*U5
  0
ENDTAB
  0
ENDSEC
  0
SECTION
  2
BLOCKS
  0
BLOCK
  5
20
330
1F
100
AcDbEntity
  8
0
100
AcDbBlockBegin
  2
*MODEL_SPACE
 70
     0
 10
0.0
 20
0.0
 30
0.0
  3
*MODEL_SPACE
  1

  0
ENDBLK
  5
21
330
1F
100
AcDbEntity
  8
0
100
AcDbBlockEnd
  0
BLOCK
  5
52
330
50
100
AcDbEntity
 67
     1
  8
0
100
AcDbBlockBegin
  2
*PAPER_SPACE
 70
     0
 10
0.0
 20
0.0
 30
0.0
  3
*PAPER_SPACE
  1

  0
ENDBLK
  5
53
330
50
100
AcDbEntity
 67
     1
  8
0
100
AcDbBlockEnd
  0
BLOCK
  5
166
330
165
100
AcDbEntity
  8
0
100
AcDbBlockBegin
  2
ADKG
 70
     0
 10
0.0
 20
0.0
 30
0.0
  3
ADKG
  1

  0
INSERT
  5
39C
330
165
100
AcDbEntity
  8
0
  6
CONTINUOUS
 62
     2
100
AcDbBlockReference
  2
*U1
 10
0.0
 20
0.0
 30
0.0
1001
ACAD
1002
{
1000
R14_HATCH_DATA
1000
39C
1011
1.0
1021
0.0
1031
0.0
1011
0.0
1021
1.0
1031
0.0
1011
0.0
1021
0.0
1031
1.0
1040
0.0
1010
0.0
1020
0.0
1030
1.0
1000
SOLID
1070
     1
1070
     0
1071
        5
1071
        7
1070
     0
1070
     1
1071
        4
1040
5814.983187137453
1040
2150.732128794277
1040
5814.983187137453
1040
2107.190400528943
1040
7166.653291331361
1040
2107.190400528943
1040
7166.653291331361
1040
2150.732128794277
1071
        0
1071
        7
1070
     0
1070
     1
1071
        5
1040
5814.983187137453
1040
2107.190400528943
1040
5814.983187137451
1040
2050.732128794277
1040
7036.155838457036
1040
2050.732128794277
1040
7046.839333249192
1040
2058.205943934233
1040
7084.961939359456
1040
2107.190400528943
1071
        0
1071
        7
1070
     0
1070
     1
1071
        9
1040
5814.983187137453
1040
2050.732128794277
1040
5814.983187137454
1040
1694.350841865441
1040
7037.905747515566
1040
1694.350841865441
1040
6992.378440795285
1040
1726.200220824959
1040
6970.594094446562
1040
1786.070101288529
1040
6970.594094446564
1040
1873.153574214144
1040
6970.594094446565
1040
1960.237047139761
1040
6992.378440795285
1040
2020.106927603328
1040
7036.155838457036
1040
2050.732128794277
1071
        0
1071
        7
1070
     0
1070
     1
1071
        5
1040
7085.914667022972
1040
1637.892570130776
1040
7046.839333249192
1040
1688.101204494053
1040
7037.905747515565
1040
1694.350841865441
1040
5814.983187137453
1040
1694.350841865441
1040
5814.983187137453
1040
1637.892570130775
1071
        0
1071
        7
1070
     0
1070
     1
1071
        4
1040
7166.653291331361
1040
1594.350841865441
1040
7166.653291331361
1040
1637.892570130776
1040
5814.983187137451
1040
1637.892570130775
1040
5814.983187137453
1040
1594.350841865441
1071
        0
1070
     0
1070
     1
1040
1.890143784058926
1071
        5
1040
6832.432322203444
1040
2133.972831351216
1040
0.0
1040
6821.083222884663
1040
2079.158643653332
1040
0.0
1040
6779.469931457686
1040
1918.496412816108
1040
0.0
1040
6700.02634533905
1040
1640.645282074772
1040
0.0
1040
6611.125240103923
1040
1616.073402417023
1040
0.0
1002
}
  0
INSERT
  5
39D
330
165
100
AcDbEntity
  8
0
  6
CONTINUOUS
 62
     2
100
AcDbBlockReference
  2
*U2
 10
0.0
 20
0.0
 30
0.0
1001
ACAD
1002
{
1000
R14_HATCH_DATA
1000
39D
1011
1.0
1021
0.0
1031
0.0
1011
0.0
1021
1.0
1031
0.0
1011
0.0
1021
0.0
1031
1.0
1040
0.0
1010
0.0
1020
0.0
1030
1.0
1000
SOLID
1070
     1
1070
     0
1071
        2
1071
        7
1070
     0
1070
     1
1071
        4
1040
1199.999998575488
1040
2202.112650712607
1040
1199.999998575487
1040
2182.112650712607
1040
1273.653291331363
1040
2182.112650712607
1040
1273.653291331363
1040
2202.112650712607
1071
        0
1071
        7
1070
     0
1070
     1
1071
        4
1040
1273.653291331363
1040
1532.507623345419
1040
1273.653291331362
1040
1552.507623345419
1040
1199.999998575488
1040
1552.507623345418
1040
1199.999998575488
1040
1532.507623345419
1071
        0
1070
     0
1070
     1
1040
1.542925554976711
1071
        2
1040
1247.805064234213
1040
2193.623930475442
1040
0.0
1040
1226.188446627747
1040
1540.966363445717
1040
0.0
1002
}
  0
INSERT
  5
39E
330
165
100
AcDbEntity
  8
0
  6
CONTINUOUS
 62
   251
100
AcDbBlockReference
  2
*U3
 10
0.0
 20
0.0
 30
0.0
1001
ACAD
1002
{
1000
R14_HATCH_DATA
1000
39E
1011
1.0
1021
0.0
1031
0.0
1011
0.0
1021
1.0
1031
0.0
1011
0.0
1021
0.0
1031
1.0
1040
0.0
1010
0.0
1020
0.0
1030
1.0
1000
SOLID
1070
     1
1070
     0
1071
       17
1071
        7
1070
     0
1070
     1
1071
        4
1040
2484.318239234408
1040
2167.310137029013
1040
2466.346705819614
1040
2167.310137029013
1040
2466.346705819614
1040
1567.310137029013
1040
2484.318239234408
1040
1567.310137029013
1071
        0
1071
        7
1070
     0
1070
     1
1071
        4
1040
2624.318239234407
1040
2167.310137029013
1040
2504.318239234407
1040
2167.310137029013
1040
2504.318239234407
1040
1567.310137029013
1040
2624.318239234407
1040
1567.310137029013
1071
        0
1071
        7
1070
     0
1070
     1
1071
        4
1040
2764.318239234408
1040
2167.310137029013
1040
2644.318239234408
1040
2167.310137029013
1040
2644.318239234408
1040
1567.310137029013
1040
2764.318239234408
1040
1567.310137029013
1071
        0
1071
        7
1070
     0
1070
     1
1071
        4
1040
2904.318239234408
1040
2167.310137029013
1040
2784.318239234408
1040
2167.310137029013
1040
2784.318239234408
1040
1567.310137029013
1040
2904.318239234408
1040
1567.310137029013
1071
        0
1071
        7
1070
     0
1070
     1
1071
        4
1040
3044.318239234408
1040
2167.310137029013
1040
2924.318239234406
1040
2167.310137029013
1040
2924.318239234406
1040
1567.310137029013
1040
3044.318239234408
1040
1567.310137029013
1071
        0
1071
        7
1070
     0
1070
     1
1071
        4
1040
3184.318239234408
1040
2167.310137029013
1040
3064.318239234407
1040
2167.310137029013
1040
3064.318239234408
1040
1567.310137029013
1040
3184.318239234408
1040
1567.310137029013
1071
        0
1071
        7
1070
     0
1070
     1
1071
        4
1040
3324.318239234408
1040
2167.310137029013
1040
3204.318239234408
1040
2167.310137029013
1040
3204.318239234408
1040
1567.310137029013
1040
3324.318239234408
1040
1567.310137029013
1071
        0
1071
        7
1070
     0
1070
     1
1071
        4
1040
3464.318239234406
1040
2167.310137029013
1040
3344.318239234406
1040
2167.310137029013
1040
3344.318239234406
1040
1567.310137029013
1040
3464.318239234407
1040
1567.310137029013
1071
        0
1071
        7
1070
     0
1070
     1
1071
        4
1040
3604.318239234406
1040
2167.310137029013
1040
3484.318239234408
1040
2167.310137029013
1040
3484.318239234407
1040
1567.310137029013
1040
3604.318239234405
1040
1567.310137029013
1071
        0
1071
        7
1070
     0
1070
     1
1071
        4
1040
3744.318239234408
1040
2167.310137029013
1040
3624.318239234408
1040
2167.310137029013
1040
3624.318239234408
1040
1567.310137029013
1040
3744.318239234408
1040
1567.310137029013
1071
        0
1071
        7
1070
     0
1070
     1
1071
        4
1040
3884.318239234408
1040
2167.310137029013
1040
3764.318239234409
1040
2167.310137029013
1040
3764.318239234409
1040
1567.310137029013
1040
3884.318239234408
1040
1567.310137029013
1071
        0
1071
        7
1070
     0
1070
     1
1071
        4
1040
4024.318239234408
1040
2167.310137029013
1040
3904.318239234408
1040
2167.310137029013
1040
3904.318239234408
1040
1567.310137029013
1040
4024.318239234408
1040
1567.310137029013
1071
        0
1071
        7
1070
     0
1070
     1
1071
        4
1040
4164.318239234408
1040
2167.310137029013
1040
4044.318239234406
1040
2167.310137029013
1040
4044.318239234406
1040
1567.310137029013
1040
4164.318239234408
1040
1567.310137029013
1071
        0
1071
        7
1070
     0
1070
     1
1071
        4
1040
4304.318239234407
1040
2167.310137029013
1040
4184.318239234409
1040
2167.310137029013
1040
4184.318239234408
1040
1567.310137029013
1040
4304.318239234407
1040
1567.310137029013
1071
        0
1071
        7
1070
     0
1070
     1
1071
        4
1040
4444.318239234408
1040
2167.310137029013
1040
4324.318239234408
1040
2167.310137029013
1040
4324.318239234408
1040
1567.310137029013
1040
4444.318239234408
1040
1567.310137029013
1071
        0
1071
        7
1070
     0
1070
     1
1071
        4
1040
4584.318239234408
1040
2167.310137029013
1040
4464.318239234407
1040
2167.310137029013
1040
4464.318239234407
1040
1567.310137029013
1040
4584.318239234408
1040
1567.310137029013
1071
        0
1071
        7
1070
     0
1070
     1
1071
        4
1040
4622.289772649202
1040
2167.310137029013
1040
4604.318239234408
1040
2167.310137029013
1040
4604.318239234408
1040
1567.310137029013
1040
4622.289772649202
1040
1567.310137029013
1071
        0
1070
     0
1070
     1
1040
9.639344404305472
1071
       17
1040
2481.70996654965
1040
1859.80847484064
1040
0.0
1040
2536.47381029147
1040
1859.80847484064
1040
0.0
1040
2724.2355680572
1040
1867.626222667611
1040
0.0
1040
2843.54249386744
1040
1867.626222667611
1040
0.0
1040
2968.717017230068
1040
1871.535079080531
1040
0.0
1040
3103.670724362877
1040
1869.580650874071
1040
0.0
1040
3266.006407923021
1040
1861.762903047099
1040
0.0
1040
3410.739462495272
1040
1853.945155220128
1040
0.0
1040
3548.767260238907
1040
1849.62031035409
1040
0.0
1040
3691.525590624435
1040
1842.112147539133
1040
0.0
1040
3819.256791508399
1040
1872.144798798944
1040
0.0
1040
3962.015176450353
1040
1902.177415057616
1040
0.0
1040
4127.314364757505
1040
1872.144798798944
1040
0.0
1040
4232.504707719853
1040
1872.144798798944
1040
0.0
1040
4420.344699392197
1040
1872.144798798944
1040
0.0
1040
4540.562280968952
1040
1879.652961613894
1040
0.0
1040
4612.496939632524
1040
1888.604361103309
1040
0.0
1002
}
  0
INSERT
  5
39F
330
165
100
AcDbEntity
  8
0
  6
CONTINUOUS
 62
   251
100
AcDbBlockReference
  2
*U4
 10
0.0
 20
0.0
 30
0.0
1001
ACAD
1002
{
1000
R14_HATCH_DATA
1000
39F
1011
1.0
1021
0.0
1031
0.0
1011
0.0
1021
1.0
1031
0.0
1011
0.0
1021
0.0
1031
1.0
1040
0.0
1010
0.0
1020
0.0
1030
1.0
1000
SOLID
1070
     1
1070
     1
1071
        2
1071
        7
1070
     0
1070
     1
1071
        5
1040
2466.346705819614
1040
2267.310137029013
1040
2466.346705819614
1040
2167.310137029013
1040
4622.289772649201
1040
2167.310137029013
1040
4622.289772649202
1040
2243.258313654324
1040
4622.289772649202
1040
2267.310137029013
1071
        5
1005
401
1005
3A5
1005
3AF
1005
3A8
1005
3E7
1071
        7
1070
     0
1070
     1
1071
        5
1040
2484.318239234408
1040
1567.310137029013
1040
2484.318239234408
1040
1467.310137029013
1040
2504.318239234407
1040
1467.310137029013
1040
4622.289772649202
1040
1467.310137029013
1040
4622.289772649202
1040
1567.310137029013
1071
        5
1005
3A7
1005
3B2
1005
3D1
1005
3A6
1005
3E7
1070
     0
1070
     1
1040
11.46239483673859
1071
        2
1040
3220.542033348283
1040
2223.477270936317
1040
0.0
1040
3289.366212268738
1040
1524.271173521126
1040
0.0
1002
}
  0
INSERT
  5
3A0
330
165
100
AcDbEntity
  8
0
  6
CONTINUOUS
 62
     3
100
AcDbBlockReference
  2
*U5
 10
0.0
 20
0.0
 30
0.0
1001
ACAD
1002
{
1000
R14_HATCH_DATA
1000
3A0
1011
1.0
1021
0.0
1031
0.0
1011
0.0
1021
1.0
1031
0.0
1011
0.0
1021
0.0
1031
1.0
1040
0.0
1010
0.0
1020
0.0
1030
1.0
1000
SOLID
1070
     1
1070
     1
1071
       16
1071
        7
1070
     0
1070
     1
1071
        5
1040
5514.983187137453
1040
1573.653286287134
1040
5814.983187137453
1040
1273.653286287135
1040
5814.983187137453
1040
2150.732128794277
1040
5814.983187137453
1040
2460.966987770889
1040
5514.983187137452
1040
2160.966987770889
1071
        5
1005
404
1005
400
1005
3EA
1005
3F4
1005
3E8
1071
        7
1070
     0
1070
     1
1071
        4
1040
5514.983187137453
1040
2160.96698777089
1040
5814.983187137453
1040
2460.966987770889
1040
4622.289772649201
1040
2460.966987770889
1040
4922.289772649203
1040
2160.96698777089
1071
        4
1005
3FF
1005
402
1005
403
1005
400
1071
        7
1070
     0
1070
     1
1071
        3
1040
5514.983187137453
1040
2160.96698777089
1040
4922.289772649204
1040
2160.96698777089
1040
5218.636479893328
1040
1867.310137029013
1071
        3
1005
403
1005
3EC
1005
3EB
1071
        7
1070
     0
1070
     1
1071
        3
1040
5514.983187137453
1040
2160.96698777089
1040
5218.636479893328
1040
1867.310137029013
1040
5514.983187137453
1040
1573.653286287135
1071
        3
1005
3EB
1005
3EC
1005
3EA
1071
        7
1070
     0
1070
     1
1071
        3
1040
4922.289772649204
1040
1573.653286287135
1040
5514.983187137453
1040
1573.653286287135
1040
5218.636479893327
1040
1867.310137029012
1071
        3
1005
3EB
1005
3F5
1005
3EC
1071
        7
1070
     0
1070
     1
1071
        4
1040
4922.289772649203
1040
1573.653286287135
1040
4622.289772649201
1040
1273.653286287135
1040
5814.983187137453
1040
1273.653286287135
1040
5514.983187137452
1040
1573.653286287135
1071
        4
1005
3F5
1005
3A2
1005
3A1
1005
3F4
1071
        7
1070
     0
1070
     1
1071
        3
1040
5218.636479893328
1040
1867.310137029013
1040
4922.289772649203
1040
2160.96698777089
1040
4922.289772649203
1040
1573.653286287135
1071
        3
1005
3EC
1005
3E9
1005
3EB
1071
        7
1070
     0
1070
     1
1071
        5
1040
4922.289772649204
1040
2160.966987770888
1040
4622.289772649202
1040
2460.966987770889
1040
4622.289772649202
1040
2243.258313654324
1040
4622.289772649202
1040
1273.653286287135
1040
4922.289772649203
1040
1573.653286287134
1071
        5
1005
402
1005
401
1005
3E7
1005
3A2
1005
3E9
1071
        7
1070
     0
1070
     1
1071
        4
1040
2166.346705819613
1040
2160.96698777089
1040
2466.346705819613
1040
2460.966987770889
1040
1273.653291331362
1040
2460.966987770889
1040
1573.653291331365
1040
2160.96698777089
1071
        4
1005
3AF
1005
3E0
1005
3DF
1005
3E4
1071
        7
1070
     0
1070
     1
1071
        4
1040
2166.346705819614
1040
1573.653286287135
1040
2466.346705819613
1040
1273.653286287134
1040
2466.346705819614
1040
2460.966987770889
1040
2166.346705819614
1040
2160.966987770889
1071
        4
1005
3E4
1005
3AC
1005
3D0
1005
3AF
1071
        7
1070
     0
1070
     1
1071
        3
1040
1573.653291331364
1040
2160.96698777089
1040
1869.999998575488
1040
1867.310137029013
1040
2166.346705819614
1040
2160.96698777089
1071
        3
1005
3DF
1005
3AE
1005
3AD
1071
        7
1070
     0
1070
     1
1071
        3
1040
1869.999998575488
1040
1867.310137029013
1040
2166.346705819614
1040
1573.653286287135
1040
2166.346705819614
1040
2160.96698777089
1071
        3
1005
3AD
1005
3AE
1005
3AC
1071
        7
1070
     0
1070
     1
1071
        3
1040
1573.653291331362
1040
1573.653286287135
1040
1869.999998575488
1040
1867.310137029013
1040
1573.653291331364
1040
2160.966987770889
1071
        3
1005
3AB
1005
3AD
1005
3AE
1071
        7
1070
     0
1070
     1
1071
        3
1040
2166.346705819614
1040
1573.653286287135
1040
1869.999998575488
1040
1867.310137029013
1040
1573.653291331362
1040
1573.653286287135
1071
        3
1005
3AD
1005
3CB
1005
3AE
1071
        7
1070
     0
1070
     1
1071
        4
1040
1573.653291331362
1040
1573.653286287135
1040
1273.653291331362
1040
1273.653286287135
1040
2466.346705819614
1040
1273.653286287135
1040
2166.346705819614
1040
1573.653286287135
1071
        4
1005
3CB
1005
3CC
1005
3AF
1005
3D0
1071
        7
1070
     0
1070
     1
1071
        4
1040
1573.653291331361
1040
1573.653286287134
1040
1573.653291331364
1040
2160.966987770889
1040
1273.653291331363
1040
2460.966987770888
1040
1273.653291331363
1040
1273.653286287135
1071
        4
1005
3E0
1005
3AF
1005
3CC
1005
3AB
1070
     0
1070
     1
1040
11.46239483673859
1071
       16
1040
5640.859928602906
1040
1936.917368552189
1040
0.0
1040
5434.387337285116
1040
2257.864448022046
1040
0.0
1040
5319.680336046738
1040
2074.466111896254
1040
0.0
1040
5422.916631705636
1040
1810.831040904122
1040
0.0
1040
5216.443985831421
1040
1719.131890341792
1040
0.0
1040
5101.736984593045
1040
1444.034403653662
1040
0.0
1040
5044.383511252068
1040
1764.981448122387
1040
0.0
1040
4826.440159798374
1040
1799.368660209256
1040
0.0
1040
2084.942617431166
1040
2292.251625107783
1040
0.0
1040
2222.591029828501
1040
2074.466111896254
1040
0.0
1040
1855.528560398001
1040
2120.315704677981
1040
0.0
1040
2016.118383954293
1040
1936.917368552189
1040
0.0
1040
1660.526674659682
1040
1948.379784248187
1040
0.0
1040
1844.057854818522
1040
1638.89512047432
1040
0.0
1040
1649.055969080203
1040
1478.421580739392
1040
0.0
1040
1488.466145523911
1040
1581.583146997727
1040
0.0
1002
}
  0
LINE
  5
3A1
330
165
100
AcDbEntity
  8
OBJECT
  6
CONTINUOUS
 62
     7
 48
5.0
100
AcDbLine
 10
4622.289772649202
 20
1273.653286287135
 30
0.0
 11
5814.983187137453
 21
1273.653286287135
 31
0.0
  0
LINE
  5
3A2
330
165
100
AcDbEntity
  8
OBJECT
  6
CONTINUOUS
 62
     7
 48
5.0
100
AcDbLine
 10
4922.289772649203
 20
1573.653286287135
 30
0.0
 11
4622.289772649202
 21
1273.653286287135
 31
0.0
  0
MTEXT
  5
3A3
330
165
100
AcDbEntity
  8
TEKST
100
AcDbMText
 10
2615.73043440983
 20
3154.977957819044
 30
0.0
 40
100.0
 41
1991.156099999999
 71
     1
 72
     1
  1
{\FIMPACT.TTF;Hoogte: 305 cm\PMax. valhoogte: 90 cm}
1001
ACAD
1000
MTEXTBEGIN
1070
    73
1070
     1
1070
    44
1040
1.0
1070
    74
1070
     0
1000
MTEXTEND
1000
MTEXTBEGIN
1070
    73
1070
     1
1070
    44
1040
1.0
1070
    74
1070
     0
1000
MTEXTEND
  0
POLYLINE
  5
3A4
330
165
100
AcDbEntity
  8
SAFETY
100
AcDb2dPolyline
 66
     1
 10
0.0
 20
0.0
 30
0.0
 70
     1
  0
VERTEX
  5
477
330
3A4
100
AcDbEntity
  8
SAFETY
100
AcDbVertex
100
AcDb2dVertex
 10
8813.352412229361
 20
594.3508418654419
 30
0.0
  0
VERTEX
  5
478
330
3A4
100
AcDbEntity
  8
SAFETY
100
AcDbVertex
100
AcDb2dVertex
 10
8813.352412229361
 20
3150.732128794277
 30
0.0
  0
VERTEX
  5
479
330
3A4
100
AcDbEntity
  8
SAFETY
100
AcDbVertex
100
AcDb2dVertex
 10
6778.451702925702
 20
3150.732128794277
 30
0.0
 42
0.2331053060144919
  0
VERTEX
  5
47A
330
3A4
100
AcDbEntity
  8
SAFETY
100
AcDbVertex
100
AcDb2dVertex
 10
5588.636479893327
 20
3737.310137029013
 30
0.0
  0
VERTEX
  5
47B
330
3A4
100
AcDbEntity
  8
SAFETY
100
AcDbVertex
100
AcDb2dVertex
 10
1499.999998575488
 20
3737.310137029013
 30
0.0
 42
0.4142135623730951
  0
VERTEX
  5
47C
330
3A4
100
AcDbEntity
  8
SAFETY
100
AcDbVertex
100
AcDb2dVertex
 10
-0.0000014245117654
 20
2237.310137029013
 30
0.0
  0
VERTEX
  5
47D
330
3A4
100
AcDbEntity
  8
SAFETY
100
AcDbVertex
100
AcDb2dVertex
 10
-0.0000014245117654
 20
1499.999993531261
 30
0.0
 42
0.4142135623730951
  0
VERTEX
  5
47E
330
3A4
100
AcDbEntity
  8
SAFETY
100
AcDbVertex
100
AcDb2dVertex
 10
1499.999998575488
 20
-0.0000064687387749
 30
0.0
  0
VERTEX
  5
47F
330
3A4
100
AcDbEntity
  8
SAFETY
100
AcDbVertex
100
AcDb2dVertex
 10
5588.636479893327
 20
-0.0000064687380927
 30
0.0
 42
0.2348236240490525
  0
VERTEX
  5
480
330
3A4
100
AcDbEntity
  8
SAFETY
100
AcDbVertex
100
AcDb2dVertex
 10
6784.378765708705
 20
594.3508418654413
 30
0.0
  0
SEQEND
  5
481
330
3A4
100
AcDbEntity
  8
SAFETY
  0
LINE
  5
3A5
330
165
100
AcDbEntity
  8
OBJECT
100
AcDbLine
 10
2466.346705819614
 20
2267.310137029013
 30
0.0
 11
4622.289772649202
 21
2267.310137029013
 31
0.0
  0
LINE
  5
3A6
330
165
100
AcDbEntity
  8
OBJECT
100
AcDbLine
 10
2466.346705819614
 20
1467.310137029013
 30
0.0
 11
4622.289772649202
 21
1467.310137029013
 31
0.0
  0
LINE
  5
3A7
330
165
100
AcDbEntity
  8
OBJECT
100
AcDbLine
 10
2466.346705819614
 20
1567.310137029013
 30
0.0
 11
4622.289772649202
 21
1567.310137029013
 31
0.0
  0
LINE
  5
3A8
330
165
100
AcDbEntity
  8
OBJECT
100
AcDbLine
 10
2466.346705819614
 20
2167.310137029013
 30
0.0
 11
4622.289772649202
 21
2167.310137029013
 31
0.0
  0
POLYLINE
  5
3A9
330
165
100
AcDbEntity
  8
OBJECT
100
AcDb2dPolyline
 66
     1
 10
0.0
 20
0.0
 30
0.0
  0
VERTEX
  5
482
330
3A9
100
AcDbEntity
  8
OBJECT
100
AcDbVertex
100
AcDb2dVertex
 10
4304.318239234407
 20
1567.310137029013
 30
0.0
  0
VERTEX
  5
483
330
3A9
100
AcDbEntity
  8
OBJECT
100
AcDbVertex
100
AcDb2dVertex
 10
4304.318239234407
 20
2167.310137029013
 30
0.0
  0
SEQEND
  5
484
330
3A9
100
AcDbEntity
  8
OBJECT
  0
POLYLINE
  5
3AA
330
165
100
AcDbEntity
  8
OBJECT
100
AcDb2dPolyline
 66
     1
 10
0.0
 20
0.0
 30
0.0
  0
VERTEX
  5
485
330
3AA
100
AcDbEntity
  8
OBJECT
100
AcDbVertex
100
AcDb2dVertex
 10
4324.318239234408
 20
2167.310137029013
 30
0.0
  0
VERTEX
  5
486
330
3AA
100
AcDbEntity
  8
OBJECT
100
AcDbVertex
100
AcDb2dVertex
 10
4324.318239234408
 20
1567.310137029013
 30
0.0
  0
SEQEND
  5
487
330
3AA
100
AcDbEntity
  8
OBJECT
  0
LINE
  5
3AB
330
165
100
AcDbEntity
  8
OBJECT
  6
CONTINUOUS
 62
     7
 48
5.0
100
AcDbLine
 10
1573.653291331364
 20
2160.96698777089
 30
0.0
 11
1573.653291331362
 21
1573.653286287135
 31
0.0
  0
LINE
  5
3AC
330
165
100
AcDbEntity
  8
OBJECT
  6
CONTINUOUS
 62
     7
 48
5.0
100
AcDbLine
 10
2166.346705819614
 20
2160.96698777089
 30
0.0
 11
2166.346705819614
 21
1573.653286287135
 31
0.0
  0
LINE
  5
3AD
330
165
100
AcDbEntity
  8
OBJECT
  6
CONTINUOUS
 62
     7
 48
5.0
100
AcDbLine
 10
2166.346705819614
 20
2160.96698777089
 30
0.0
 11
1573.653291331362
 21
1573.653286287135
 31
0.0
  0
LINE
  5
3AE
330
165
100
AcDbEntity
  8
OBJECT
  6
CONTINUOUS
 62
     7
 48
5.0
100
AcDbLine
 10
2166.346705819614
 20
1573.653286287135
 30
0.0
 11
1573.653291331364
 21
2160.96698777089
 31
0.0
  0
POLYLINE
  5
3AF
330
165
100
AcDbEntity
  8
OBJECT
  6
CONTINUOUS
 62
     0
100
AcDb2dPolyline
 66
     1
 10
0.0
 20
0.0
 30
0.0
 70
     1
  0
VERTEX
  5
488
330
3AF
100
AcDbEntity
  8
OBJECT
  6
CONTINUOUS
 62
     0
100
AcDbVertex
100
AcDb2dVertex
 10
1273.653291331363
 20
1273.653286287135
 30
0.0
  0
VERTEX
  5
489
330
3AF
100
AcDbEntity
  8
OBJECT
  6
CONTINUOUS
 62
     0
100
AcDbVertex
100
AcDb2dVertex
 10
2466.346705819614
 20
1273.653286287135
 30
0.0
  0
VERTEX
  5
48A
330
3AF
100
AcDbEntity
  8
OBJECT
  6
CONTINUOUS
 62
     0
100
AcDbVertex
100
AcDb2dVertex
 10
2466.346705819614
 20
2460.966987770889
 30
0.0
  0
VERTEX
  5
48B
330
3AF
100
AcDbEntity
  8
OBJECT
  6
CONTINUOUS
 62
     0
100
AcDbVertex
100
AcDb2dVertex
 10
1273.653291331363
 20
2460.966987770889
 30
0.0
  0
SEQEND
  5
48C
330
3AF
100
AcDbEntity
  8
OBJECT
  6
CONTINUOUS
 62
     0
  0
LINE
  5
3B0
330
165
100
AcDbEntity
  8
OBJECT
  6
CONTINUOUS
 62
     0
100
AcDbLine
 10
2466.346705819614
 20
2243.258313654324
 30
0.0
 11
2466.346705819614
 21
1532.782464761577
 31
0.0
  0
POLYLINE
  5
3B1
330
165
100
AcDbEntity
  8
OBJECT
100
AcDb2dPolyline
 66
     1
 10
0.0
 20
0.0
 30
0.0
  0
VERTEX
  5
48D
330
3B1
100
AcDbEntity
  8
OBJECT
100
AcDbVertex
100
AcDb2dVertex
 10
2624.318239234407
 20
1567.310137029013
 30
0.0
  0
VERTEX
  5
48E
330
3B1
100
AcDbEntity
  8
OBJECT
100
AcDbVertex
100
AcDb2dVertex
 10
2624.318239234407
 20
2167.310137029013
 30
0.0
  0
SEQEND
  5
48F
330
3B1
100
AcDbEntity
  8
OBJECT
  0
POLYLINE
  5
3B2
330
165
100
AcDbEntity
  8
OBJECT
100
AcDb2dPolyline
 66
     1
 10
0.0
 20
0.0
 30
0.0
  0
VERTEX
  5
490
330
3B2
100
AcDbEntity
  8
OBJECT
100
AcDbVertex
100
AcDb2dVertex
 10
2466.346705819614
 20
1467.310137029013
 30
0.0
  0
VERTEX
  5
491
330
3B2
100
AcDbEntity
  8
OBJECT
100
AcDbVertex
100
AcDb2dVertex
 10
2484.318239234408
 20
1467.310137029013
 30
0.0
  0
VERTEX
  5
492
330
3B2
100
AcDbEntity
  8
OBJECT
100
AcDbVertex
100
AcDb2dVertex
 10
2484.318239234408
 20
2167.310137029013
 30
0.0
  0
SEQEND
  5
493
330
3B2
100
AcDbEntity
  8
OBJECT
  0
POLYLINE
  5
3B3
330
165
100
AcDbEntity
  8
OBJECT
100
AcDb2dPolyline
 66
     1
 10
0.0
 20
0.0
 30
0.0
  0
VERTEX
  5
494
330
3B3
100
AcDbEntity
  8
OBJECT
100
AcDbVertex
100
AcDb2dVertex
 10
2904.318239234408
 20
1567.310137029013
 30
0.0
  0
VERTEX
  5
495
330
3B3
100
AcDbEntity
  8
OBJECT
100
AcDbVertex
100
AcDb2dVertex
 10
2904.318239234408
 20
2167.310137029013
 30
0.0
  0
SEQEND
  5
496
330
3B3
100
AcDbEntity
  8
OBJECT
  0
POLYLINE
  5
3B4
330
165
100
AcDbEntity
  8
OBJECT
100
AcDb2dPolyline
 66
     1
 10
0.0
 20
0.0
 30
0.0
  0
VERTEX
  5
497
330
3B4
100
AcDbEntity
  8
OBJECT
100
AcDbVertex
100
AcDb2dVertex
 10
2764.318239234408
 20
1567.310137029013
 30
0.0
  0
VERTEX
  5
498
330
3B4
100
AcDbEntity
  8
OBJECT
100
AcDbVertex
100
AcDb2dVertex
 10
2764.318239234408
 20
2167.310137029013
 30
0.0
  0
SEQEND
  5
499
330
3B4
100
AcDbEntity
  8
OBJECT
  0
POLYLINE
  5
3B5
330
165
100
AcDbEntity
  8
OBJECT
100
AcDb2dPolyline
 66
     1
 10
0.0
 20
0.0
 30
0.0
  0
VERTEX
  5
49A
330
3B5
100
AcDbEntity
  8
OBJECT
100
AcDbVertex
100
AcDb2dVertex
 10
3184.318239234408
 20
1567.310137029013
 30
0.0
  0
VERTEX
  5
49B
330
3B5
100
AcDbEntity
  8
OBJECT
100
AcDbVertex
100
AcDb2dVertex
 10
3184.318239234408
 20
2167.310137029013
 30
0.0
  0
SEQEND
  5
49C
330
3B5
100
AcDbEntity
  8
OBJECT
  0
POLYLINE
  5
3B6
330
165
100
AcDbEntity
  8
OBJECT
100
AcDb2dPolyline
 66
     1
 10
0.0
 20
0.0
 30
0.0
  0
VERTEX
  5
49D
330
3B6
100
AcDbEntity
  8
OBJECT
100
AcDbVertex
100
AcDb2dVertex
 10
3044.318239234408
 20
1567.310137029013
 30
0.0
  0
VERTEX
  5
49E
330
3B6
100
AcDbEntity
  8
OBJECT
100
AcDbVertex
100
AcDb2dVertex
 10
3044.318239234408
 20
2167.310137029013
 30
0.0
  0
SEQEND
  5
49F
330
3B6
100
AcDbEntity
  8
OBJECT
  0
POLYLINE
  5
3B7
330
165
100
AcDbEntity
  8
OBJECT
100
AcDb2dPolyline
 66
     1
 10
0.0
 20
0.0
 30
0.0
  0
VERTEX
  5
4A0
330
3B7
100
AcDbEntity
  8
OBJECT
100
AcDbVertex
100
AcDb2dVertex
 10
3464.318239234408
 20
1567.310137029013
 30
0.0
  0
VERTEX
  5
4A1
330
3B7
100
AcDbEntity
  8
OBJECT
100
AcDbVertex
100
AcDb2dVertex
 10
3464.318239234408
 20
2167.310137029013
 30
0.0
  0
SEQEND
  5
4A2
330
3B7
100
AcDbEntity
  8
OBJECT
  0
POLYLINE
  5
3B8
330
165
100
AcDbEntity
  8
OBJECT
100
AcDb2dPolyline
 66
     1
 10
0.0
 20
0.0
 30
0.0
  0
VERTEX
  5
4A3
330
3B8
100
AcDbEntity
  8
OBJECT
100
AcDbVertex
100
AcDb2dVertex
 10
3324.318239234408
 20
1567.310137029013
 30
0.0
  0
VERTEX
  5
4A4
330
3B8
100
AcDbEntity
  8
OBJECT
100
AcDbVertex
100
AcDb2dVertex
 10
3324.318239234408
 20
2167.310137029013
 30
0.0
  0
SEQEND
  5
4A5
330
3B8
100
AcDbEntity
  8
OBJECT
  0
POLYLINE
  5
3B9
330
165
100
AcDbEntity
  8
OBJECT
100
AcDb2dPolyline
 66
     1
 10
0.0
 20
0.0
 30
0.0
  0
VERTEX
  5
4A6
330
3B9
100
AcDbEntity
  8
OBJECT
100
AcDbVertex
100
AcDb2dVertex
 10
3744.318239234408
 20
1567.310137029013
 30
0.0
  0
VERTEX
  5
4A7
330
3B9
100
AcDbEntity
  8
OBJECT
100
AcDbVertex
100
AcDb2dVertex
 10
3744.318239234408
 20
2167.310137029013
 30
0.0
  0
SEQEND
  5
4A8
330
3B9
100
AcDbEntity
  8
OBJECT
  0
POLYLINE
  5
3BA
330
165
100
AcDbEntity
  8
OBJECT
100
AcDb2dPolyline
 66
     1
 10
0.0
 20
0.0
 30
0.0
  0
VERTEX
  5
4A9
330
3BA
100
AcDbEntity
  8
OBJECT
100
AcDbVertex
100
AcDb2dVertex
 10
3604.318239234406
 20
1567.310137029013
 30
0.0
  0
VERTEX
  5
4AA
330
3BA
100
AcDbEntity
  8
OBJECT
100
AcDbVertex
100
AcDb2dVertex
 10
3604.318239234406
 20
2167.310137029013
 30
0.0
  0
SEQEND
  5
4AB
330
3BA
100
AcDbEntity
  8
OBJECT
  0
POLYLINE
  5
3BB
330
165
100
AcDbEntity
  8
OBJECT
100
AcDb2dPolyline
 66
     1
 10
0.0
 20
0.0
 30
0.0
  0
VERTEX
  5
4AC
330
3BB
100
AcDbEntity
  8
OBJECT
100
AcDbVertex
100
AcDb2dVertex
 10
4024.318239234408
 20
1567.310137029013
 30
0.0
  0
VERTEX
  5
4AD
330
3BB
100
AcDbEntity
  8
OBJECT
100
AcDbVertex
100
AcDb2dVertex
 10
4024.318239234408
 20
2167.310137029013
 30
0.0
  0
SEQEND
  5
4AE
330
3BB
100
AcDbEntity
  8
OBJECT
  0
POLYLINE
  5
3BC
330
165
100
AcDbEntity
  8
OBJECT
100
AcDb2dPolyline
 66
     1
 10
0.0
 20
0.0
 30
0.0
  0
VERTEX
  5
4AF
330
3BC
100
AcDbEntity
  8
OBJECT
100
AcDbVertex
100
AcDb2dVertex
 10
3884.318239234408
 20
1567.310137029013
 30
0.0
  0
VERTEX
  5
4B0
330
3BC
100
AcDbEntity
  8
OBJECT
100
AcDbVertex
100
AcDb2dVertex
 10
3884.318239234408
 20
2167.310137029013
 30
0.0
  0
SEQEND
  5
4B1
330
3BC
100
AcDbEntity
  8
OBJECT
  0
POLYLINE
  5
3BD
330
165
100
AcDbEntity
  8
OBJECT
100
AcDb2dPolyline
 66
     1
 10
0.0
 20
0.0
 30
0.0
  0
VERTEX
  5
4B2
330
3BD
100
AcDbEntity
  8
OBJECT
100
AcDbVertex
100
AcDb2dVertex
 10
4164.318239234408
 20
1567.310137029013
 30
0.0
  0
VERTEX
  5
4B3
330
3BD
100
AcDbEntity
  8
OBJECT
100
AcDbVertex
100
AcDb2dVertex
 10
4164.318239234408
 20
2167.310137029013
 30
0.0
  0
SEQEND
  5
4B4
330
3BD
100
AcDbEntity
  8
OBJECT
  0
POLYLINE
  5
3BE
330
165
100
AcDbEntity
  8
OBJECT
100
AcDb2dPolyline
 66
     1
 10
0.0
 20
0.0
 30
0.0
  0
VERTEX
  5
4B5
330
3BE
100
AcDbEntity
  8
OBJECT
100
AcDbVertex
100
AcDb2dVertex
 10
2504.318239234407
 20
2167.310137029013
 30
0.0
  0
VERTEX
  5
4B6
330
3BE
100
AcDbEntity
  8
OBJECT
100
AcDbVertex
100
AcDb2dVertex
 10
2504.318239234407
 20
1567.310137029013
 30
0.0
  0
SEQEND
  5
4B7
330
3BE
100
AcDbEntity
  8
OBJECT
  0
POLYLINE
  5
3BF
330
165
100
AcDbEntity
  8
OBJECT
100
AcDb2dPolyline
 66
     1
 10
0.0
 20
0.0
 30
0.0
  0
VERTEX
  5
4B8
330
3BF
100
AcDbEntity
  8
OBJECT
100
AcDbVertex
100
AcDb2dVertex
 10
2644.318239234408
 20
2167.310137029013
 30
0.0
  0
VERTEX
  5
4B9
330
3BF
100
AcDbEntity
  8
OBJECT
100
AcDbVertex
100
AcDb2dVertex
 10
2644.318239234408
 20
1567.310137029013
 30
0.0
  0
SEQEND
  5
4BA
330
3BF
100
AcDbEntity
  8
OBJECT
  0
POLYLINE
  5
3C0
330
165
100
AcDbEntity
  8
OBJECT
100
AcDb2dPolyline
 66
     1
 10
0.0
 20
0.0
 30
0.0
  0
VERTEX
  5
4BB
330
3C0
100
AcDbEntity
  8
OBJECT
100
AcDbVertex
100
AcDb2dVertex
 10
2784.318239234408
 20
2167.310137029013
 30
0.0
  0
VERTEX
  5
4BC
330
3C0
100
AcDbEntity
  8
OBJECT
100
AcDbVertex
100
AcDb2dVertex
 10
2784.318239234408
 20
1567.310137029013
 30
0.0
  0
SEQEND
  5
4BD
330
3C0
100
AcDbEntity
  8
OBJECT
  0
POLYLINE
  5
3C1
330
165
100
AcDbEntity
  8
OBJECT
100
AcDb2dPolyline
 66
     1
 10
0.0
 20
0.0
 30
0.0
  0
VERTEX
  5
4BE
330
3C1
100
AcDbEntity
  8
OBJECT
100
AcDbVertex
100
AcDb2dVertex
 10
2924.318239234406
 20
2167.310137029013
 30
0.0
  0
VERTEX
  5
4BF
330
3C1
100
AcDbEntity
  8
OBJECT
100
AcDbVertex
100
AcDb2dVertex
 10
2924.318239234406
 20
1567.310137029013
 30
0.0
  0
SEQEND
  5
4C0
330
3C1
100
AcDbEntity
  8
OBJECT
  0
POLYLINE
  5
3C2
330
165
100
AcDbEntity
  8
OBJECT
100
AcDb2dPolyline
 66
     1
 10
0.0
 20
0.0
 30
0.0
  0
VERTEX
  5
4C1
330
3C2
100
AcDbEntity
  8
OBJECT
100
AcDbVertex
100
AcDb2dVertex
 10
3064.318239234408
 20
2167.310137029013
 30
0.0
  0
VERTEX
  5
4C2
330
3C2
100
AcDbEntity
  8
OBJECT
100
AcDbVertex
100
AcDb2dVertex
 10
3064.318239234408
 20
1567.310137029013
 30
0.0
  0
SEQEND
  5
4C3
330
3C2
100
AcDbEntity
  8
OBJECT
  0
POLYLINE
  5
3C3
330
165
100
AcDbEntity
  8
OBJECT
100
AcDb2dPolyline
 66
     1
 10
0.0
 20
0.0
 30
0.0
  0
VERTEX
  5
4C4
330
3C3
100
AcDbEntity
  8
OBJECT
100
AcDbVertex
100
AcDb2dVertex
 10
3204.318239234408
 20
2167.310137029013
 30
0.0
  0
VERTEX
  5
4C5
330
3C3
100
AcDbEntity
  8
OBJECT
100
AcDbVertex
100
AcDb2dVertex
 10
3204.318239234408
 20
1567.310137029013
 30
0.0
  0
SEQEND
  5
4C6
330
3C3
100
AcDbEntity
  8
OBJECT
  0
POLYLINE
  5
3C4
330
165
100
AcDbEntity
  8
OBJECT
100
AcDb2dPolyline
 66
     1
 10
0.0
 20
0.0
 30
0.0
  0
VERTEX
  5
4C7
330
3C4
100
AcDbEntity
  8
OBJECT
100
AcDbVertex
100
AcDb2dVertex
 10
3344.318239234406
 20
2167.310137029013
 30
0.0
  0
VERTEX
  5
4C8
330
3C4
100
AcDbEntity
  8
OBJECT
100
AcDbVertex
100
AcDb2dVertex
 10
3344.318239234406
 20
1567.310137029013
 30
0.0
  0
SEQEND
  5
4C9
330
3C4
100
AcDbEntity
  8
OBJECT
  0
POLYLINE
  5
3C5
330
165
100
AcDbEntity
  8
OBJECT
100
AcDb2dPolyline
 66
     1
 10
0.0
 20
0.0
 30
0.0
  0
VERTEX
  5
4CA
330
3C5
100
AcDbEntity
  8
OBJECT
100
AcDbVertex
100
AcDb2dVertex
 10
3484.318239234408
 20
2167.310137029013
 30
0.0
  0
VERTEX
  5
4CB
330
3C5
100
AcDbEntity
  8
OBJECT
100
AcDbVertex
100
AcDb2dVertex
 10
3484.318239234408
 20
1567.310137029013
 30
0.0
  0
SEQEND
  5
4CC
330
3C5
100
AcDbEntity
  8
OBJECT
  0
POLYLINE
  5
3C6
330
165
100
AcDbEntity
  8
OBJECT
100
AcDb2dPolyline
 66
     1
 10
0.0
 20
0.0
 30
0.0
  0
VERTEX
  5
4CD
330
3C6
100
AcDbEntity
  8
OBJECT
100
AcDbVertex
100
AcDb2dVertex
 10
3764.318239234409
 20
2167.310137029013
 30
0.0
  0
VERTEX
  5
4CE
330
3C6
100
AcDbEntity
  8
OBJECT
100
AcDbVertex
100
AcDb2dVertex
 10
3764.318239234409
 20
1567.310137029013
 30
0.0
  0
SEQEND
  5
4CF
330
3C6
100
AcDbEntity
  8
OBJECT
  0
POLYLINE
  5
3C7
330
165
100
AcDbEntity
  8
OBJECT
100
AcDb2dPolyline
 66
     1
 10
0.0
 20
0.0
 30
0.0
  0
VERTEX
  5
4D0
330
3C7
100
AcDbEntity
  8
OBJECT
100
AcDbVertex
100
AcDb2dVertex
 10
3624.318239234408
 20
2167.310137029013
 30
0.0
  0
VERTEX
  5
4D1
330
3C7
100
AcDbEntity
  8
OBJECT
100
AcDbVertex
100
AcDb2dVertex
 10
3624.318239234408
 20
1567.310137029013
 30
0.0
  0
SEQEND
  5
4D2
330
3C7
100
AcDbEntity
  8
OBJECT
  0
POLYLINE
  5
3C8
330
165
100
AcDbEntity
  8
OBJECT
100
AcDb2dPolyline
 66
     1
 10
0.0
 20
0.0
 30
0.0
  0
VERTEX
  5
4D3
330
3C8
100
AcDbEntity
  8
OBJECT
100
AcDbVertex
100
AcDb2dVertex
 10
3904.318239234408
 20
2167.310137029013
 30
0.0
  0
VERTEX
  5
4D4
330
3C8
100
AcDbEntity
  8
OBJECT
100
AcDbVertex
100
AcDb2dVertex
 10
3904.318239234408
 20
1567.310137029013
 30
0.0
  0
SEQEND
  5
4D5
330
3C8
100
AcDbEntity
  8
OBJECT
  0
POLYLINE
  5
3C9
330
165
100
AcDbEntity
  8
OBJECT
100
AcDb2dPolyline
 66
     1
 10
0.0
 20
0.0
 30
0.0
  0
VERTEX
  5
4D6
330
3C9
100
AcDbEntity
  8
OBJECT
100
AcDbVertex
100
AcDb2dVertex
 10
4044.318239234406
 20
2167.310137029013
 30
0.0
  0
VERTEX
  5
4D7
330
3C9
100
AcDbEntity
  8
OBJECT
100
AcDbVertex
100
AcDb2dVertex
 10
4044.318239234406
 20
1567.310137029013
 30
0.0
  0
SEQEND
  5
4D8
330
3C9
100
AcDbEntity
  8
OBJECT
  0
POLYLINE
  5
3CA
330
165
100
AcDbEntity
  8
OBJECT
100
AcDb2dPolyline
 66
     1
 10
0.0
 20
0.0
 30
0.0
  0
VERTEX
  5
4D9
330
3CA
100
AcDbEntity
  8
OBJECT
100
AcDbVertex
100
AcDb2dVertex
 10
4184.318239234408
 20
2167.310137029013
 30
0.0
  0
VERTEX
  5
4DA
330
3CA
100
AcDbEntity
  8
OBJECT
100
AcDbVertex
100
AcDb2dVertex
 10
4184.318239234408
 20
1567.310137029013
 30
0.0
  0
SEQEND
  5
4DB
330
3CA
100
AcDbEntity
  8
OBJECT
  0
LINE
  5
3CB
330
165
100
AcDbEntity
  8
OBJECT
  6
CONTINUOUS
 62
     7
 48
5.0
100
AcDbLine
 10
1573.653291331362
 20
1573.653286287135
 30
0.0
 11
2166.346705819614
 21
1573.653286287135
 31
0.0
  0
LINE
  5
3CC
330
165
100
AcDbEntity
  8
OBJECT
  6
CONTINUOUS
 62
     7
 48
5.0
100
AcDbLine
 10
1573.653291331362
 20
1573.653286287135
 30
0.0
 11
1273.653291331363
 21
1273.653286287135
 31
0.0
  0
LINE
  5
3CD
330
165
100
AcDbEntity
  8
OBJECT
  6
CONTINUOUS
 62
     0
100
AcDbLine
 10
1273.653291331362
 20
1532.507623345419
 30
0.0
 11
1199.999998575488
 21
1532.507623345419
 31
0.0
  0
LINE
  5
3CE
330
165
100
AcDbEntity
  8
OBJECT
  6
CONTINUOUS
 62
     0
100
AcDbLine
 10
1273.653291331362
 20
1552.507623345419
 30
0.0
 11
1199.999998575488
 21
1552.507623345419
 31
0.0
  0
LINE
  5
3CF
330
165
100
AcDbEntity
  8
OBJECT
100
AcDbLine
 10
1199.999998575488
 20
1552.507623345419
 30
0.0
 11
1199.999998575488
 21
1532.507623345419
 31
0.0
  0
LINE
  5
3D0
330
165
100
AcDbEntity
  8
OBJECT
  6
CONTINUOUS
 62
     7
 48
5.0
100
AcDbLine
 10
2466.346705819614
 20
1273.653286287135
 30
0.0
 11
2166.346705819614
 21
1573.653286287135
 31
0.0
  0
LINE
  5
3D1
330
165
100
AcDbEntity
  8
OBJECT
100
AcDbLine
 10
2504.318239234407
 20
1467.310137029013
 30
0.0
 11
2484.318239234408
 21
1467.310137029013
 31
0.0
  0
LINE
  5
3D2
330
165
100
AcDbEntity
  8
OBJECT
100
AcDbLine
 10
2644.318239234408
 20
1467.310137029013
 30
0.0
 11
2624.318239234407
 21
1467.310137029013
 31
0.0
  0
LINE
  5
3D3
330
165
100
AcDbEntity
  8
OBJECT
100
AcDbLine
 10
2784.318239234408
 20
1467.310137029013
 30
0.0
 11
2764.318239234408
 21
1467.310137029013
 31
0.0
  0
LINE
  5
3D4
330
165
100
AcDbEntity
  8
OBJECT
100
AcDbLine
 10
2924.318239234406
 20
1467.310137029013
 30
0.0
 11
2904.318239234408
 21
1467.310137029013
 31
0.0
  0
LINE
  5
3D5
330
165
100
AcDbEntity
  8
OBJECT
100
AcDbLine
 10
3204.318239234408
 20
1467.310137029013
 30
0.0
 11
3184.318239234408
 21
1467.310137029013
 31
0.0
  0
LINE
  5
3D6
330
165
100
AcDbEntity
  8
OBJECT
100
AcDbLine
 10
3064.318239234408
 20
1467.310137029013
 30
0.0
 11
3044.318239234408
 21
1467.310137029013
 31
0.0
  0
LINE
  5
3D7
330
165
100
AcDbEntity
  8
OBJECT
100
AcDbLine
 10
3344.318239234406
 20
1467.310137029013
 30
0.0
 11
3324.318239234408
 21
1467.310137029013
 31
0.0
  0
LINE
  5
3D8
330
165
100
AcDbEntity
  8
OBJECT
100
AcDbLine
 10
3484.318239234408
 20
1467.310137029013
 30
0.0
 11
3464.318239234408
 21
1467.310137029013
 31
0.0
  0
LINE
  5
3D9
330
165
100
AcDbEntity
  8
OBJECT
100
AcDbLine
 10
3624.318239234408
 20
1467.310137029013
 30
0.0
 11
3604.318239234406
 21
1467.310137029013
 31
0.0
  0
LINE
  5
3DA
330
165
100
AcDbEntity
  8
OBJECT
100
AcDbLine
 10
3904.318239234408
 20
1467.310137029013
 30
0.0
 11
3884.318239234408
 21
1467.310137029013
 31
0.0
  0
LINE
  5
3DB
330
165
100
AcDbEntity
  8
OBJECT
100
AcDbLine
 10
3764.318239234409
 20
1467.310137029013
 30
0.0
 11
3744.318239234408
 21
1467.310137029013
 31
0.0
  0
LINE
  5
3DC
330
165
100
AcDbEntity
  8
OBJECT
100
AcDbLine
 10
4044.318239234406
 20
1467.310137029013
 30
0.0
 11
4024.318239234408
 21
1467.310137029013
 31
0.0
  0
LINE
  5
3DD
330
165
100
AcDbEntity
  8
OBJECT
100
AcDbLine
 10
4184.318239234408
 20
1467.310137029013
 30
0.0
 11
4164.318239234408
 21
1467.310137029013
 31
0.0
  0
LINE
  5
3DE
330
165
100
AcDbEntity
  8
OBJECT
100
AcDbLine
 10
4324.318239234408
 20
1467.310137029013
 30
0.0
 11
4304.318239234407
 21
1467.310137029013
 31
0.0
  0
LINE
  5
3DF
330
165
100
AcDbEntity
  8
OBJECT
  6
CONTINUOUS
 62
     7
 48
5.0
100
AcDbLine
 10
2166.346705819614
 20
2160.96698777089
 30
0.0
 11
1573.653291331364
 21
2160.96698777089
 31
0.0
  0
LINE
  5
3E0
330
165
100
AcDbEntity
  8
OBJECT
  6
CONTINUOUS
 62
     7
 48
5.0
100
AcDbLine
 10
1273.653291331363
 20
2460.966987770889
 30
0.0
 11
1573.653291331364
 21
2160.96698777089
 31
0.0
  0
LINE
  5
3E1
330
165
100
AcDbEntity
  8
OBJECT
  6
CONTINUOUS
 62
     0
100
AcDbLine
 10
1273.653291331362
 20
2202.112650712607
 30
0.0
 11
1199.999998575488
 21
2202.112650712607
 31
0.0
  0
LINE
  5
3E2
330
165
100
AcDbEntity
  8
OBJECT
  6
CONTINUOUS
 62
     0
100
AcDbLine
 10
1273.653291331362
 20
2182.112650712607
 30
0.0
 11
1199.999998575488
 21
2182.112650712607
 31
0.0
  0
LINE
  5
3E3
330
165
100
AcDbEntity
  8
OBJECT
100
AcDbLine
 10
1199.999998575488
 20
2182.112650712607
 30
0.0
 11
1199.999998575488
 21
2202.112650712607
 31
0.0
  0
LINE
  5
3E4
330
165
100
AcDbEntity
  8
OBJECT
  6
CONTINUOUS
 62
     7
 48
5.0
100
AcDbLine
 10
2466.346705819614
 20
2460.966987770889
 30
0.0
 11
2166.346705819614
 21
2160.96698777089
 31
0.0
  0
POLYLINE
  5
3E5
330
165
100
AcDbEntity
  8
OBJECT
100
AcDb2dPolyline
 66
     1
 10
0.0
 20
0.0
 30
0.0
  0
VERTEX
  5
4DC
330
3E5
100
AcDbEntity
  8
OBJECT
100
AcDbVertex
100
AcDb2dVertex
 10
2484.318239234408
 20
2267.310137029013
 30
0.0
  0
VERTEX
  5
4DD
330
3E5
100
AcDbEntity
  8
OBJECT
100
AcDbVertex
100
AcDb2dVertex
 10
2466.346705819614
 20
2267.310137029013
 30
0.0
  0
SEQEND
  5
4DE
330
3E5
100
AcDbEntity
  8
OBJECT
  0
LINE
  5
3E6
330
165
100
AcDbEntity
  8
OBJECT
  6
CONTINUOUS
 62
     7
 48
5.0
100
AcDbLine
 10
6970.594094446564
 20
1873.153574214144
 30
0.0
 11
6970.594094446564
 21
1786.070101288532
 31
0.0
  0
LINE
  5
3E7
330
165
100
AcDbEntity
  8
OBJECT
  6
CONTINUOUS
 62
     7
 48
5.0
100
AcDbLine
 10
4622.289772649202
 20
2243.258313654324
 30
0.0
 11
4622.289772649202
 21
1273.653286287135
 31
0.0
  0
LINE
  5
3E8
330
165
100
AcDbEntity
  8
OBJECT
  6
CONTINUOUS
 62
     7
 48
5.0
100
AcDbLine
 10
5814.983187137453
 20
2150.732128794277
 30
0.0
 11
5814.983187137453
 21
1273.653286287135
 31
0.0
  0
LINE
  5
3E9
330
165
100
AcDbEntity
  8
OBJECT
  6
CONTINUOUS
 62
     7
 48
5.0
100
AcDbLine
 10
4922.289772649203
 20
2160.96698777089
 30
0.0
 11
4922.289772649203
 21
1573.653286287135
 31
0.0
  0
LINE
  5
3EA
330
165
100
AcDbEntity
  8
OBJECT
  6
CONTINUOUS
 62
     7
 48
5.0
100
AcDbLine
 10
5514.983187137453
 20
2160.96698777089
 30
0.0
 11
5514.983187137453
 21
1573.653286287135
 31
0.0
  0
LINE
  5
3EB
330
165
100
AcDbEntity
  8
OBJECT
  6
CONTINUOUS
 62
     7
 48
5.0
100
AcDbLine
 10
5514.983187137453
 20
2160.96698777089
 30
0.0
 11
4922.289772649203
 21
1573.653286287135
 31
0.0
  0
LINE
  5
3EC
330
165
100
AcDbEntity
  8
OBJECT
  6
CONTINUOUS
 62
     7
 48
5.0
100
AcDbLine
 10
5514.983187137453
 20
1573.653286287135
 30
0.0
 11
4922.289772649203
 21
2160.96698777089
 31
0.0
  0
POLYLINE
  5
3ED
330
165
100
AcDbEntity
  8
OBJECT
100
AcDb2dPolyline
 66
     1
 10
0.0
 20
0.0
 30
0.0
  0
VERTEX
  5
4DF
330
3ED
100
AcDbEntity
  8
OBJECT
100
AcDbVertex
100
AcDb2dVertex
 10
4584.318239234408
 20
1567.310137029013
 30
0.0
  0
VERTEX
  5
4E0
330
3ED
100
AcDbEntity
  8
OBJECT
100
AcDbVertex
100
AcDb2dVertex
 10
4584.318239234408
 20
2167.310137029013
 30
0.0
  0
SEQEND
  5
4E1
330
3ED
100
AcDbEntity
  8
OBJECT
  0
POLYLINE
  5
3EE
330
165
100
AcDbEntity
  8
OBJECT
100
AcDb2dPolyline
 66
     1
 10
0.0
 20
0.0
 30
0.0
  0
VERTEX
  5
4E2
330
3EE
100
AcDbEntity
  8
OBJECT
100
AcDbVertex
100
AcDb2dVertex
 10
4444.318239234408
 20
1567.310137029013
 30
0.0
  0
VERTEX
  5
4E3
330
3EE
100
AcDbEntity
  8
OBJECT
100
AcDbVertex
100
AcDb2dVertex
 10
4444.318239234408
 20
2167.310137029013
 30
0.0
  0
SEQEND
  5
4E4
330
3EE
100
AcDbEntity
  8
OBJECT
  0
POLYLINE
  5
3EF
330
165
100
AcDbEntity
  8
OBJECT
100
AcDb2dPolyline
 66
     1
 10
0.0
 20
0.0
 30
0.0
  0
VERTEX
  5
4E5
330
3EF
100
AcDbEntity
  8
OBJECT
100
AcDbVertex
100
AcDb2dVertex
 10
4604.318239234408
 20
2167.310137029013
 30
0.0
  0
VERTEX
  5
4E6
330
3EF
100
AcDbEntity
  8
OBJECT
100
AcDbVertex
100
AcDb2dVertex
 10
4604.318239234408
 20
1567.310137029013
 30
0.0
  0
SEQEND
  5
4E7
330
3EF
100
AcDbEntity
  8
OBJECT
  0
POLYLINE
  5
3F0
330
165
100
AcDbEntity
  8
OBJECT
100
AcDb2dPolyline
 66
     1
 10
0.0
 20
0.0
 30
0.0
  0
VERTEX
  5
4E8
330
3F0
100
AcDbEntity
  8
OBJECT
100
AcDbVertex
100
AcDb2dVertex
 10
4464.318239234407
 20
2167.310137029013
 30
0.0
  0
VERTEX
  5
4E9
330
3F0
100
AcDbEntity
  8
OBJECT
100
AcDbVertex
100
AcDb2dVertex
 10
4464.318239234407
 20
1567.310137029013
 30
0.0
  0
SEQEND
  5
4EA
330
3F0
100
AcDbEntity
  8
OBJECT
  0
LINE
  5
3F1
330
165
100
AcDbEntity
  8
OBJECT
  6
CONTINUOUS
 62
     7
 48
5.0
100
AcDbLine
 10
5814.983187137453
 20
1594.350841865441
 30
0.0
 11
7166.653291331361
 21
1594.350841865441
 31
0.0
  0
LINE
  5
3F2
330
165
100
AcDbEntity
  8
OBJECT
  6
CONTINUOUS
 62
     7
 48
5.0
100
AcDbLine
 10
7166.653291331361
 20
1637.892570130776
 30
0.0
 11
5814.983187137453
 21
1637.892570130775
 31
0.0
  0
LINE
  5
3F3
330
165
100
AcDbEntity
  8
SAFETY
  6
CONTINUOUS
 62
     7
 48
5.0
100
AcDbLine
 10
6784.378765708705
 20
594.3508418654415
 30
0.0
 11
6813.352412229363
 21
594.3508418654415
 31
0.0
  0
LINE
  5
3F4
330
165
100
AcDbEntity
  8
OBJECT
  6
CONTINUOUS
 62
     7
 48
5.0
100
AcDbLine
 10
5814.983187137453
 20
1273.653286287135
 30
0.0
 11
5514.983187137453
 21
1573.653286287135
 31
0.0
  0
LINE
  5
3F5
330
165
100
AcDbEntity
  8
OBJECT
  6
CONTINUOUS
 62
     7
 48
5.0
100
AcDbLine
 10
4922.289772649203
 20
1573.653286287135
 30
0.0
 11
5514.983187137453
 21
1573.653286287135
 31
0.0
  0
LINE
  5
3F6
330
165
100
AcDbEntity
  8
OBJECT
100
AcDbLine
 10
4464.318239234407
 20
1467.310137029013
 30
0.0
 11
4444.318239234408
 21
1467.310137029013
 31
0.0
  0
LINE
  5
3F7
330
165
100
AcDbEntity
  8
OBJECT
100
AcDbLine
 10
4604.318239234408
 20
1467.310137029013
 30
0.0
 11
4584.318239234408
 21
1467.310137029013
 31
0.0
  0
LINE
  5
3F8
330
165
100
AcDbEntity
  8
OBJECT
  6
CONTINUOUS
 62
     7
 48
5.0
100
AcDbLine
 10
5814.983187137453
 20
1694.350841865441
 30
0.0
 11
7037.905747515566
 21
1694.350841865441
 31
0.0
  0
LINE
  5
3F9
330
165
100
AcDbEntity
  8
OBJECT
  6
CONTINUOUS
 62
     7
 48
5.0
100
AcDbLine
 10
6992.378440795285
 20
1726.20022082496
 30
0.0
 11
7046.839333249192
 21
1688.101204494056
 31
0.0
  0
LINE
  5
3FA
330
165
100
AcDbEntity
  8
OBJECT
  6
CONTINUOUS
 62
     7
 48
5.0
100
AcDbLine
 10
7046.839333249192
 20
1688.101204494056
 30
0.0
 11
7085.914667022972
 21
1637.892570130775
 31
0.0
  0
LINE
  5
3FB
330
165
100
AcDbEntity
  8
OBJECT
  6
CONTINUOUS
 62
     7
 48
5.0
100
AcDbLine
 10
6970.594094446564
 20
1786.070101288532
 30
0.0
 11
6992.378440795285
 21
1726.20022082496
 31
0.0
  0
LINE
  5
3FC
330
165
100
AcDbEntity
  8
OBJECT
  6
CONTINUOUS
 62
     0
100
AcDbLine
 10
7166.653291331361
 20
1637.892570130776
 30
0.0
 11
7166.653291331361
 21
1594.350841865441
 31
0.0
  0
LINE
  5
3FD
330
165
100
AcDbEntity
  8
OBJECT
  6
CONTINUOUS
 62
     7
 48
5.0
100
AcDbLine
 10
7166.653291331361
 20
2150.732128794277
 30
0.0
 11
5814.983187137453
 21
2150.732128794277
 31
0.0
  0
LINE
  5
3FE
330
165
100
AcDbEntity
  8
OBJECT
  6
CONTINUOUS
 62
     7
 48
5.0
100
AcDbLine
 10
5814.983187137453
 20
2107.190400528943
 30
0.0
 11
7166.653291331361
 21
2107.190400528943
 31
0.0
  0
LINE
  5
3FF
330
165
100
AcDbEntity
  8
OBJECT
  6
CONTINUOUS
 62
     7
 48
5.0
100
AcDbLine
 10
5814.983187137453
 20
2460.966987770889
 30
0.0
 11
4622.289772649202
 21
2460.966987770889
 31
0.0
  0
LINE
  5
400
330
165
100
AcDbEntity
  8
OBJECT
  6
CONTINUOUS
 62
     7
 48
5.0
100
AcDbLine
 10
5814.983187137453
 20
2460.966987770889
 30
0.0
 11
5514.983187137453
 21
2160.96698777089
 31
0.0
  0
LINE
  5
401
330
165
100
AcDbEntity
  8
OBJECT
  6
CONTINUOUS
 62
     7
 48
5.0
100
AcDbLine
 10
4622.289772649202
 20
2460.966987770889
 30
0.0
 11
4622.289772649202
 21
2243.258313654324
 31
0.0
  0
LINE
  5
402
330
165
100
AcDbEntity
  8
OBJECT
  6
CONTINUOUS
 62
     7
 48
5.0
100
AcDbLine
 10
4622.289772649202
 20
2460.966987770889
 30
0.0
 11
4922.289772649203
 21
2160.96698777089
 31
0.0
  0
LINE
  5
403
330
165
100
AcDbEntity
  8
OBJECT
  6
CONTINUOUS
 62
     7
 48
5.0
100
AcDbLine
 10
5514.983187137453
 20
2160.96698777089
 30
0.0
 11
4922.289772649203
 21
2160.96698777089
 31
0.0
  0
LINE
  5
404
330
165
100
AcDbEntity
  8
OBJECT
  6
CONTINUOUS
 62
     7
 48
5.0
100
AcDbLine
 10
5814.983187137453
 20
2150.732128794277
 30
0.0
 11
5814.983187137453
 21
2460.966987770889
 31
0.0
  0
LINE
  5
405
330
165
100
AcDbEntity
  8
OBJECT
  6
CONTINUOUS
 62
     7
 48
5.0
100
AcDbLine
 10
7036.155838457038
 20
2050.732128794277
 30
0.0
 11
5814.983187137453
 21
2050.732128794277
 31
0.0
  0
LINE
  5
406
330
165
100
AcDbEntity
  8
OBJECT
  6
CONTINUOUS
 62
     7
 48
5.0
100
AcDbLine
 10
6970.594094446564
 20
1960.237047139758
 30
0.0
 11
6992.378440795285
 21
2020.106927603328
 31
0.0
  0
LINE
  5
407
330
165
100
AcDbEntity
  8
OBJECT
  6
CONTINUOUS
 62
     7
 48
5.0
100
AcDbLine
 10
6970.594094446564
 20
1873.153574214144
 30
0.0
 11
6970.594094446564
 21
1960.237047139758
 31
0.0
  0
LINE
  5
408
330
165
100
AcDbEntity
  8
OBJECT
  6
CONTINUOUS
 62
     7
 48
5.0
100
AcDbLine
 10
7046.839333249192
 20
2058.205943934233
 30
0.0
 11
7084.961939359456
 21
2107.190400528943
 31
0.0
  0
LINE
  5
409
330
165
100
AcDbEntity
  8
OBJECT
  6
CONTINUOUS
 62
     7
 48
5.0
100
AcDbLine
 10
6992.378440795285
 20
2020.106927603328
 30
0.0
 11
7046.839333249192
 21
2058.205943934233
 31
0.0
  0
LINE
  5
40A
330
165
100
AcDbEntity
  8
SAFETY
  6
CONTINUOUS
 62
     7
 48
5.0
100
AcDbLine
 10
6813.352412229363
 20
3150.732128794277
 30
0.0
 11
6778.451702925702
 21
3150.732128794277
 31
0.0
  0
LINE
  5
40B
330
165
100
AcDbEntity
  8
OBJECT
  6
CONTINUOUS
 62
     7
 48
5.0
100
AcDbLine
 10
7166.653291331361
 20
2107.190400528943
 30
0.0
 11
7166.653291331361
 21
2150.732128794277
 31
0.0
  0
ENDBLK
  5
167
330
165
100
AcDbEntity
  8
0
100
AcDbBlockEnd
  0
BLOCK
  5
423
330
411
100
AcDbEntity
  8
0
100
AcDbBlockBegin
  2
*U1
 70
     1
 10
0.0
 20
0.0
 30
0.0
  3
*U1
  1

  0
SOLID
  5
412
330
411
100
AcDbEntity
  8
0
  6
CONTINUOUS
 62
     2
100
AcDbTrace
 10
5814.983187137453
 20
2150.732128794277
 30
0.0
 11
5814.983187137453
 21
2107.190400528943
 31
0.0
 12
7166.653291331361
 22
2150.732128794277
 32
0.0
 13
7166.653291331361
 23
2150.732128794277
 33
0.0
210
0.0
220
0.0
230
1.0
  0
SOLID
  5
413
330
411
100
AcDbEntity
  8
0
  6
CONTINUOUS
 62
     2
100
AcDbTrace
 10
7166.653291331361
 20
2107.190400528943
 30
0.0
 11
7166.653291331361
 21
2150.732128794277
 31
0.0
 12
5814.983187137453
 22
2107.190400528943
 32
0.0
 13
5814.983187137453
 23
2107.190400528943
 33
0.0
210
0.0
220
0.0
230
1.0
  0
SOLID
  5
414
330
411
100
AcDbEntity
  8
0
  6
CONTINUOUS
 62
     2
100
AcDbTrace
 10
5814.983187137453
 20
2107.190400528943
 30
0.0
 11
5814.983187137451
 21
2050.732128794277
 31
0.0
 12
7084.961939359456
 22
2107.190400528943
 32
0.0
 13
7084.961939359456
 23
2107.190400528943
 33
0.0
210
0.0
220
0.0
230
1.0
  0
SOLID
  5
415
330
411
100
AcDbEntity
  8
0
  6
CONTINUOUS
 62
     2
100
AcDbTrace
 10
7036.155838457036
 20
2050.732128794277
 30
0.0
 11
7084.961939359456
 21
2107.190400528943
 31
0.0
 12
5814.983187137451
 22
2050.732128794277
 32
0.0
 13
5814.983187137451
 23
2050.732128794277
 33
0.0
  0
SOLID
  5
416
330
411
100
AcDbEntity
  8
0
  6
CONTINUOUS
 62
     2
100
AcDbTrace
 10
7084.961939359456
 20
2107.190400528943
 30
0.0
 11
7036.155838457036
 21
2050.732128794277
 31
0.0
 12
7046.839333249192
 22
2058.205943934233
 32
0.0
 13
7046.839333249192
 23
2058.205943934233
 33
0.0
  0
SOLID
  5
417
330
411
100
AcDbEntity
  8
0
  6
CONTINUOUS
 62
     2
100
AcDbTrace
 10
6992.378440795285
 20
1726.200220824959
 30
0.0
 11
5814.983187137454
 21
1694.350841865441
 31
0.0
 12
7037.905747515566
 22
1694.350841865441
 32
0.0
 13
7037.905747515566
 23
1694.350841865441
 33
0.0
210
0.0
220
0.0
230
1.0
  0
SOLID
  5
418
330
411
100
AcDbEntity
  8
0
  6
CONTINUOUS
 62
     2
100
AcDbTrace
 10
6970.594094446562
 20
1786.070101288529
 30
0.0
 11
5814.983187137454
 21
1694.350841865441
 31
0.0
 12
6992.378440795285
 22
1726.200220824959
 32
0.0
 13
6992.378440795285
 23
1726.200220824959
 33
0.0
210
0.0
220
0.0
230
1.0
  0
SOLID
  5
419
330
411
100
AcDbEntity
  8
0
  6
CONTINUOUS
 62
     2
100
AcDbTrace
 10
6970.594094446564
 20
1873.153574214144
 30
0.0
 11
5814.983187137454
 21
1694.350841865441
 31
0.0
 12
6970.594094446562
 22
1786.070101288529
 32
0.0
 13
6970.594094446562
 23
1786.070101288529
 33
0.0
210
0.0
220
0.0
230
1.0
  0
SOLID
  5
41A
330
411
100
AcDbEntity
  8
0
  6
CONTINUOUS
 62
     2
100
AcDbTrace
 10
6970.594094446565
 20
1960.237047139761
 30
0.0
 11
5814.983187137454
 21
1694.350841865441
 31
0.0
 12
6970.594094446564
 22
1873.153574214144
 32
0.0
 13
6970.594094446564
 23
1873.153574214144
 33
0.0
210
0.0
220
0.0
230
1.0
  0
SOLID
  5
41B
330
411
100
AcDbEntity
  8
0
  6
CONTINUOUS
 62
     2
100
AcDbTrace
 10
6992.378440795285
 20
2020.106927603328
 30
0.0
 11
5814.983187137454
 21
1694.350841865441
 31
0.0
 12
6970.594094446565
 22
1960.237047139761
 32
0.0
 13
6970.594094446565
 23
1960.237047139761
 33
0.0
  0
SOLID
  5
41C
330
411
100
AcDbEntity
  8
0
  6
CONTINUOUS
 62
     2
100
AcDbTrace
 10
6992.378440795285
 20
2020.106927603328
 30
0.0
 11
7036.155838457036
 21
2050.732128794277
 31
0.0
 12
5814.983187137453
 22
2050.732128794277
 32
0.0
 13
5814.983187137453
 23
2050.732128794277
 33
0.0
210
0.0
220
0.0
230
1.0
  0
SOLID
  5
41D
330
411
100
AcDbEntity
  8
0
  6
CONTINUOUS
 62
     2
100
AcDbTrace
 10
5814.983187137453
 20
2050.732128794277
 30
0.0
 11
5814.983187137454
 21
1694.350841865441
 31
0.0
 12
6992.378440795285
 22
2020.106927603328
 32
0.0
 13
6992.378440795285
 23
2020.106927603328
 33
0.0
210
0.0
220
0.0
230
1.0
  0
SOLID
  5
41E
330
411
100
AcDbEntity
  8
0
  6
CONTINUOUS
 62
     2
100
AcDbTrace
 10
7085.914667022972
 20
1637.892570130776
 30
0.0
 11
7046.839333249192
 21
1688.101204494053
 31
0.0
 12
5814.983187137453
 22
1637.892570130775
 32
0.0
 13
5814.983187137453
 23
1637.892570130775
 33
0.0
210
0.0
220
0.0
230
1.0
  0
SOLID
  5
41F
330
411
100
AcDbEntity
  8
0
  6
CONTINUOUS
 62
     2
100
AcDbTrace
 10
7037.905747515565
 20
1694.350841865441
 30
0.0
 11
5814.983187137453
 21
1637.892570130775
 31
0.0
 12
7046.839333249192
 22
1688.101204494053
 32
0.0
 13
7046.839333249192
 23
1688.101204494053
 33
0.0
210
0.0
220
0.0
230
1.0
  0
SOLID
  5
420
330
411
100
AcDbEntity
  8
0
  6
CONTINUOUS
 62
     2
100
AcDbTrace
 10
5814.983187137453
 20
1637.892570130775
 30
0.0
 11
7037.905747515565
 21
1694.350841865441
 31
0.0
 12
5814.983187137453
 22
1694.350841865441
 32
0.0
 13
5814.983187137453
 23
1694.350841865441
 33
0.0
210
0.0
220
0.0
230
1.0
  0
SOLID
  5
421
330
411
100
AcDbEntity
  8
0
  6
CONTINUOUS
 62
     2
100
AcDbTrace
 10
7166.653291331361
 20
1594.350841865441
 30
0.0
 11
7166.653291331361
 21
1637.892570130776
 31
0.0
 12
5814.983187137453
 22
1594.350841865441
 32
0.0
 13
5814.983187137453
 23
1594.350841865441
 33
0.0
  0
SOLID
  5
422
330
411
100
AcDbEntity
  8
0
  6
CONTINUOUS
 62
     2
100
AcDbTrace
 10
5814.983187137451
 20
1637.892570130775
 30
0.0
 11
5814.983187137453
 21
1594.350841865441
 31
0.0
 12
7166.653291331361
 22
1637.892570130776
 32
0.0
 13
7166.653291331361
 23
1637.892570130776
 33
0.0
  0
ENDBLK
  5
424
330
411
100
AcDbEntity
  8
0
100
AcDbBlockEnd
  0
BLOCK
  5
42A
330
425
100
AcDbEntity
  8
0
100
AcDbBlockBegin
  2
*U2
 70
     1
 10
0.0
 20
0.0
 30
0.0
  3
*U2
  1

  0
SOLID
  5
426
330
425
100
AcDbEntity
  8
0
  6
CONTINUOUS
 62
     2
100
AcDbTrace
 10
1199.999998575488
 20
1552.507623345418
 30
0.0
 11
1199.999998575488
 21
1532.507623345419
 31
0.0
 12
1273.653291331363
 22
1532.507623345419
 32
0.0
 13
1273.653291331363
 23
1532.507623345419
 33
0.0
210
0.0
220
0.0
230
1.0
  0
SOLID
  5
427
330
425
100
AcDbEntity
  8
0
  6
CONTINUOUS
 62
     2
100
AcDbTrace
 10
1273.653291331362
 20
1552.507623345419
 30
0.0
 11
1199.999998575488
 21
1552.507623345418
 31
0.0
 12
1273.653291331363
 22
1532.507623345419
 32
0.0
 13
1273.653291331363
 23
1532.507623345419
 33
0.0
210
0.0
220
0.0
230
1.0
  0
SOLID
  5
428
330
425
100
AcDbEntity
  8
0
  6
CONTINUOUS
 62
     2
100
AcDbTrace
 10
1199.999998575488
 20
2202.112650712607
 30
0.0
 11
1199.999998575487
 21
2182.112650712607
 31
0.0
 12
1273.653291331363
 22
2182.112650712607
 32
0.0
 13
1273.653291331363
 23
2182.112650712607
 33
0.0
210
0.0
220
0.0
230
1.0
  0
SOLID
  5
429
330
425
100
AcDbEntity
  8
0
  6
CONTINUOUS
 62
     2
100
AcDbTrace
 10
1273.653291331363
 20
2202.112650712607
 30
0.0
 11
1199.999998575488
 21
2202.112650712607
 31
0.0
 12
1273.653291331363
 22
2182.112650712607
 32
0.0
 13
1273.653291331363
 23
2182.112650712607
 33
0.0
210
0.0
220
0.0
230
1.0
  0
ENDBLK
  5
42B
330
425
100
AcDbEntity
  8
0
100
AcDbBlockEnd
  0
BLOCK
  5
44F
330
42C
100
AcDbEntity
  8
0
100
AcDbBlockBegin
  2
*U3
 70
     1
 10
0.0
 20
0.0
 30
0.0
  3
*U3
  1

  0
SOLID
  5
42D
330
42C
100
AcDbEntity
  8
0
  6
CONTINUOUS
 62
   251
100
AcDbTrace
 10
3484.318239234408
 20
2167.310137029013
 30
0.0
 11
3484.318239234407
 21
1567.310137029013
 31
0.0
 12
3604.318239234405
 22
1567.310137029013
 32
0.0
 13
3604.318239234405
 23
1567.310137029013
 33
0.0
210
0.0
220
0.0
230
1.0
  0
SOLID
  5
42E
330
42C
100
AcDbEntity
  8
0
  6
CONTINUOUS
 62
   251
100
AcDbTrace
 10
3344.318239234406
 20
2167.310137029013
 30
0.0
 11
3344.318239234406
 21
1567.310137029013
 31
0.0
 12
3464.318239234407
 22
1567.310137029013
 32
0.0
 13
3464.318239234407
 23
1567.310137029013
 33
0.0
210
0.0
220
0.0
230
1.0
  0
SOLID
  5
42F
330
42C
100
AcDbEntity
  8
0
  6
CONTINUOUS
 62
   251
100
AcDbTrace
 10
2624.318239234407
 20
1567.310137029013
 30
0.0
 11
2624.318239234407
 21
2167.310137029013
 31
0.0
 12
2504.318239234407
 22
2167.310137029013
 32
0.0
 13
2504.318239234407
 23
2167.310137029013
 33
0.0
210
0.0
220
0.0
230
1.0
  0
SOLID
  5
430
330
42C
100
AcDbEntity
  8
0
  6
CONTINUOUS
 62
   251
100
AcDbTrace
 10
2504.318239234407
 20
2167.310137029013
 30
0.0
 11
2504.318239234407
 21
1567.310137029013
 31
0.0
 12
2624.318239234407
 22
1567.310137029013
 32
0.0
 13
2624.318239234407
 23
1567.310137029013
 33
0.0
210
0.0
220
0.0
230
1.0
  0
SOLID
  5
431
330
42C
100
AcDbEntity
  8
0
  6
CONTINUOUS
 62
   251
100
AcDbTrace
 10
3184.318239234408
 20
1567.310137029013
 30
0.0
 11
3184.318239234408
 21
2167.310137029013
 31
0.0
 12
3064.318239234407
 22
2167.310137029013
 32
0.0
 13
3064.318239234407
 23
2167.310137029013
 33
0.0
210
0.0
220
0.0
230
1.0
  0
SOLID
  5
432
330
42C
100
AcDbEntity
  8
0
  6
CONTINUOUS
 62
   251
100
AcDbTrace
 10
3064.318239234407
 20
2167.310137029013
 30
0.0
 11
3064.318239234408
 21
1567.310137029013
 31
0.0
 12
3184.318239234408
 22
1567.310137029013
 32
0.0
 13
3184.318239234408
 23
1567.310137029013
 33
0.0
210
0.0
220
0.0
230
1.0
  0
SOLID
  5
433
330
42C
100
AcDbEntity
  8
0
  6
CONTINUOUS
 62
   251
100
AcDbTrace
 10
2764.318239234408
 20
1567.310137029013
 30
0.0
 11
2764.318239234408
 21
2167.310137029013
 31
0.0
 12
2644.318239234408
 22
2167.310137029013
 32
0.0
 13
2644.318239234408
 23
2167.310137029013
 33
0.0
210
0.0
220
0.0
230
1.0
  0
SOLID
  5
434
330
42C
100
AcDbEntity
  8
0
  6
CONTINUOUS
 62
   251
100
AcDbTrace
 10
2644.318239234408
 20
2167.310137029013
 30
0.0
 11
2644.318239234408
 21
1567.310137029013
 31
0.0
 12
2764.318239234408
 22
1567.310137029013
 32
0.0
 13
2764.318239234408
 23
1567.310137029013
 33
0.0
210
0.0
220
0.0
230
1.0
  0
SOLID
  5
435
330
42C
100
AcDbEntity
  8
0
  6
CONTINUOUS
 62
   251
100
AcDbTrace
 10
2904.318239234408
 20
1567.310137029013
 30
0.0
 11
2904.318239234408
 21
2167.310137029013
 31
0.0
 12
2784.318239234408
 22
2167.310137029013
 32
0.0
 13
2784.318239234408
 23
2167.310137029013
 33
0.0
210
0.0
220
0.0
230
1.0
  0
SOLID
  5
436
330
42C
100
AcDbEntity
  8
0
  6
CONTINUOUS
 62
   251
100
AcDbTrace
 10
2784.318239234408
 20
2167.310137029013
 30
0.0
 11
2784.318239234408
 21
1567.310137029013
 31
0.0
 12
2904.318239234408
 22
1567.310137029013
 32
0.0
 13
2904.318239234408
 23
1567.310137029013
 33
0.0
210
0.0
220
0.0
230
1.0
  0
SOLID
  5
437
330
42C
100
AcDbEntity
  8
0
  6
CONTINUOUS
 62
   251
100
AcDbTrace
 10
2484.318239234408
 20
1567.310137029013
 30
0.0
 11
2484.318239234408
 21
2167.310137029013
 31
0.0
 12
2466.346705819614
 22
2167.310137029013
 32
0.0
 13
2466.346705819614
 23
2167.310137029013
 33
0.0
210
0.0
220
0.0
230
1.0
  0
SOLID
  5
438
330
42C
100
AcDbEntity
  8
0
  6
CONTINUOUS
 62
   251
100
AcDbTrace
 10
2466.346705819614
 20
2167.310137029013
 30
0.0
 11
2466.346705819614
 21
1567.310137029013
 31
0.0
 12
2484.318239234408
 22
1567.310137029013
 32
0.0
 13
2484.318239234408
 23
1567.310137029013
 33
0.0
210
0.0
220
0.0
230
1.0
  0
SOLID
  5
439
330
42C
100
AcDbEntity
  8
0
  6
CONTINUOUS
 62
   251
100
AcDbTrace
 10
4304.318239234407
 20
1567.310137029013
 30
0.0
 11
4304.318239234407
 21
2167.310137029013
 31
0.0
 12
4184.318239234409
 22
2167.310137029013
 32
0.0
 13
4184.318239234409
 23
2167.310137029013
 33
0.0
210
0.0
220
0.0
230
1.0
  0
SOLID
  5
43A
330
42C
100
AcDbEntity
  8
0
  6
CONTINUOUS
 62
   251
100
AcDbTrace
 10
4184.318239234409
 20
2167.310137029013
 30
0.0
 11
4184.318239234408
 21
1567.310137029013
 31
0.0
 12
4304.318239234407
 22
1567.310137029013
 32
0.0
 13
4304.318239234407
 23
1567.310137029013
 33
0.0
210
0.0
220
0.0
230
1.0
  0
SOLID
  5
43B
330
42C
100
AcDbEntity
  8
0
  6
CONTINUOUS
 62
   251
100
AcDbTrace
 10
4164.318239234408
 20
1567.310137029013
 30
0.0
 11
4164.318239234408
 21
2167.310137029013
 31
0.0
 12
4044.318239234406
 22
2167.310137029013
 32
0.0
 13
4044.318239234406
 23
2167.310137029013
 33
0.0
210
0.0
220
0.0
230
1.0
  0
SOLID
  5
43C
330
42C
100
AcDbEntity
  8
0
  6
CONTINUOUS
 62
   251
100
AcDbTrace
 10
4044.318239234406
 20
2167.310137029013
 30
0.0
 11
4044.318239234406
 21
1567.310137029013
 31
0.0
 12
4164.318239234408
 22
1567.310137029013
 32
0.0
 13
4164.318239234408
 23
1567.310137029013
 33
0.0
210
0.0
220
0.0
230
1.0
  0
SOLID
  5
43D
330
42C
100
AcDbEntity
  8
0
  6
CONTINUOUS
 62
   251
100
AcDbTrace
 10
4024.318239234408
 20
1567.310137029013
 30
0.0
 11
4024.318239234408
 21
2167.310137029013
 31
0.0
 12
3904.318239234408
 22
2167.310137029013
 32
0.0
 13
3904.318239234408
 23
2167.310137029013
 33
0.0
210
0.0
220
0.0
230
1.0
  0
SOLID
  5
43E
330
42C
100
AcDbEntity
  8
0
  6
CONTINUOUS
 62
   251
100
AcDbTrace
 10
3904.318239234408
 20
2167.310137029013
 30
0.0
 11
3904.318239234408
 21
1567.310137029013
 31
0.0
 12
4024.318239234408
 22
1567.310137029013
 32
0.0
 13
4024.318239234408
 23
1567.310137029013
 33
0.0
210
0.0
220
0.0
230
1.0
  0
SOLID
  5
43F
330
42C
100
AcDbEntity
  8
0
  6
CONTINUOUS
 62
   251
100
AcDbTrace
 10
4622.289772649202
 20
1567.310137029013
 30
0.0
 11
4622.289772649202
 21
2167.310137029013
 31
0.0
 12
4604.318239234408
 22
2167.310137029013
 32
0.0
 13
4604.318239234408
 23
2167.310137029013
 33
0.0
210
0.0
220
0.0
230
1.0
  0
SOLID
  5
440
330
42C
100
AcDbEntity
  8
0
  6
CONTINUOUS
 62
   251
100
AcDbTrace
 10
4604.318239234408
 20
2167.310137029013
 30
0.0
 11
4604.318239234408
 21
1567.310137029013
 31
0.0
 12
4622.289772649202
 22
1567.310137029013
 32
0.0
 13
4622.289772649202
 23
1567.310137029013
 33
0.0
210
0.0
220
0.0
230
1.0
  0
SOLID
  5
441
330
42C
100
AcDbEntity
  8
0
  6
CONTINUOUS
 62
   251
100
AcDbTrace
 10
4444.318239234408
 20
1567.310137029013
 30
0.0
 11
4444.318239234408
 21
2167.310137029013
 31
0.0
 12
4324.318239234408
 22
2167.310137029013
 32
0.0
 13
4324.318239234408
 23
2167.310137029013
 33
0.0
210
0.0
220
0.0
230
1.0
  0
SOLID
  5
442
330
42C
100
AcDbEntity
  8
0
  6
CONTINUOUS
 62
   251
100
AcDbTrace
 10
4324.318239234408
 20
2167.310137029013
 30
0.0
 11
4324.318239234408
 21
1567.310137029013
 31
0.0
 12
4444.318239234408
 22
1567.310137029013
 32
0.0
 13
4444.318239234408
 23
1567.310137029013
 33
0.0
210
0.0
220
0.0
230
1.0
  0
SOLID
  5
443
330
42C
100
AcDbEntity
  8
0
  6
CONTINUOUS
 62
   251
100
AcDbTrace
 10
4584.318239234408
 20
1567.310137029013
 30
0.0
 11
4584.318239234408
 21
2167.310137029013
 31
0.0
 12
4464.318239234407
 22
2167.310137029013
 32
0.0
 13
4464.318239234407
 23
2167.310137029013
 33
0.0
210
0.0
220
0.0
230
1.0
  0
SOLID
  5
444
330
42C
100
AcDbEntity
  8
0
  6
CONTINUOUS
 62
   251
100
AcDbTrace
 10
4464.318239234407
 20
2167.310137029013
 30
0.0
 11
4464.318239234407
 21
1567.310137029013
 31
0.0
 12
4584.318239234408
 22
1567.310137029013
 32
0.0
 13
4584.318239234408
 23
1567.310137029013
 33
0.0
210
0.0
220
0.0
230
1.0
  0
SOLID
  5
445
330
42C
100
AcDbEntity
  8
0
  6
CONTINUOUS
 62
   251
100
AcDbTrace
 10
3324.318239234408
 20
1567.310137029013
 30
0.0
 11
3324.318239234408
 21
2167.310137029013
 31
0.0
 12
3204.318239234408
 22
2167.310137029013
 32
0.0
 13
3204.318239234408
 23
2167.310137029013
 33
0.0
210
0.0
220
0.0
230
1.0
  0
SOLID
  5
446
330
42C
100
AcDbEntity
  8
0
  6
CONTINUOUS
 62
   251
100
AcDbTrace
 10
3204.318239234408
 20
2167.310137029013
 30
0.0
 11
3204.318239234408
 21
1567.310137029013
 31
0.0
 12
3324.318239234408
 22
1567.310137029013
 32
0.0
 13
3324.318239234408
 23
1567.310137029013
 33
0.0
210
0.0
220
0.0
230
1.0
  0
SOLID
  5
447
330
42C
100
AcDbEntity
  8
0
  6
CONTINUOUS
 62
   251
100
AcDbTrace
 10
3604.318239234406
 20
2167.310137029013
 30
0.0
 11
3484.318239234408
 21
2167.310137029013
 31
0.0
 12
3604.318239234405
 22
1567.310137029013
 32
0.0
 13
3604.318239234405
 23
1567.310137029013
 33
0.0
210
0.0
220
0.0
230
1.0
  0
SOLID
  5
448
330
42C
100
AcDbEntity
  8
0
  6
CONTINUOUS
 62
   251
100
AcDbTrace
 10
3464.318239234406
 20
2167.310137029013
 30
0.0
 11
3344.318239234406
 21
2167.310137029013
 31
0.0
 12
3464.318239234407
 22
1567.310137029013
 32
0.0
 13
3464.318239234407
 23
1567.310137029013
 33
0.0
210
0.0
220
0.0
230
1.0
  0
SOLID
  5
449
330
42C
100
AcDbEntity
  8
0
  6
CONTINUOUS
 62
   251
100
AcDbTrace
 10
3884.318239234408
 20
1567.310137029013
 30
0.0
 11
3884.318239234408
 21
2167.310137029013
 31
0.0
 12
3764.318239234409
 22
2167.310137029013
 32
0.0
 13
3764.318239234409
 23
2167.310137029013
 33
0.0
210
0.0
220
0.0
230
1.0
  0
SOLID
  5
44A
330
42C
100
AcDbEntity
  8
0
  6
CONTINUOUS
 62
   251
100
AcDbTrace
 10
3764.318239234409
 20
2167.310137029013
 30
0.0
 11
3764.318239234409
 21
1567.310137029013
 31
0.0
 12
3884.318239234408
 22
1567.310137029013
 32
0.0
 13
3884.318239234408
 23
1567.310137029013
 33
0.0
210
0.0
220
0.0
230
1.0
  0
SOLID
  5
44B
330
42C
100
AcDbEntity
  8
0
  6
CONTINUOUS
 62
   251
100
AcDbTrace
 10
3744.318239234408
 20
1567.310137029013
 30
0.0
 11
3744.318239234408
 21
2167.310137029013
 31
0.0
 12
3624.318239234408
 22
2167.310137029013
 32
0.0
 13
3624.318239234408
 23
2167.310137029013
 33
0.0
210
0.0
220
0.0
230
1.0
  0
SOLID
  5
44C
330
42C
100
AcDbEntity
  8
0
  6
CONTINUOUS
 62
   251
100
AcDbTrace
 10
3624.318239234408
 20
2167.310137029013
 30
0.0
 11
3624.318239234408
 21
1567.310137029013
 31
0.0
 12
3744.318239234408
 22
1567.310137029013
 32
0.0
 13
3744.318239234408
 23
1567.310137029013
 33
0.0
210
0.0
220
0.0
230
1.0
  0
SOLID
  5
44D
330
42C
100
AcDbEntity
  8
0
  6
CONTINUOUS
 62
   251
100
AcDbTrace
 10
3044.318239234408
 20
2167.310137029013
 30
0.0
 11
2924.318239234406
 21
1567.310137029013
 31
0.0
 12
3044.318239234408
 22
1567.310137029013
 32
0.0
 13
3044.318239234408
 23
1567.310137029013
 33
0.0
  0
SOLID
  5
44E
330
42C
100
AcDbEntity
  8
0
  6
CONTINUOUS
 62
   251
100
AcDbTrace
 10
2924.318239234406
 20
2167.310137029013
 30
0.0
 11
2924.318239234406
 21
1567.310137029013
 31
0.0
 12
3044.318239234408
 22
2167.310137029013
 32
0.0
 13
3044.318239234408
 23
2167.310137029013
 33
0.0
  0
ENDBLK
  5
450
330
42C
100
AcDbEntity
  8
0
100
AcDbBlockEnd
  0
BLOCK
  5
458
330
451
100
AcDbEntity
  8
0
100
AcDbBlockBegin
  2
*U4
 70
     1
 10
0.0
 20
0.0
 30
0.0
  3
*U4
  1

  0
SOLID
  5
452
330
451
100
AcDbEntity
  8
0
  6
CONTINUOUS
 62
   251
100
AcDbTrace
 10
4622.289772649202
 20
1467.310137029013
 30
0.0
 11
2484.318239234408
 21
1467.310137029013
 31
0.0
 12
2504.318239234407
 22
1467.310137029013
 32
0.0
 13
2504.318239234407
 23
1467.310137029013
 33
0.0
210
0.0
220
0.0
230
1.0
  0
SOLID
  5
453
330
451
100
AcDbEntity
  8
0
  6
CONTINUOUS
 62
   251
100
AcDbTrace
 10
4622.289772649202
 20
1467.310137029013
 30
0.0
 11
4622.289772649202
 21
1567.310137029013
 31
0.0
 12
2484.318239234408
 22
1567.310137029013
 32
0.0
 13
2484.318239234408
 23
1567.310137029013
 33
0.0
210
0.0
220
0.0
230
1.0
  0
SOLID
  5
454
330
451
100
AcDbEntity
  8
0
  6
CONTINUOUS
 62
   251
100
AcDbTrace
 10
2484.318239234408
 20
1567.310137029013
 30
0.0
 11
2484.318239234408
 21
1467.310137029013
 31
0.0
 12
4622.289772649202
 22
1467.310137029013
 32
0.0
 13
4622.289772649202
 23
1467.310137029013
 33
0.0
210
0.0
220
0.0
230
1.0
  0
SOLID
  5
455
330
451
100
AcDbEntity
  8
0
  6
CONTINUOUS
 62
   251
100
AcDbTrace
 10
4622.289772649202
 20
2243.258313654324
 30
0.0
 11
2466.346705819614
 21
2167.310137029013
 31
0.0
 12
4622.289772649201
 22
2167.310137029013
 32
0.0
 13
4622.289772649201
 23
2167.310137029013
 33
0.0
210
0.0
220
0.0
230
1.0
  0
SOLID
  5
456
330
451
100
AcDbEntity
  8
0
  6
CONTINUOUS
 62
   251
100
AcDbTrace
 10
4622.289772649202
 20
2243.258313654324
 30
0.0
 11
4622.289772649202
 21
2267.310137029013
 31
0.0
 12
2466.346705819614
 22
2267.310137029013
 32
0.0
 13
2466.346705819614
 23
2267.310137029013
 33
0.0
210
0.0
220
0.0
230
1.0
  0
SOLID
  5
457
330
451
100
AcDbEntity
  8
0
  6
CONTINUOUS
 62
   251
100
AcDbTrace
 10
2466.346705819614
 20
2267.310137029013
 30
0.0
 11
2466.346705819614
 21
2167.310137029013
 31
0.0
 12
4622.289772649202
 22
2243.258313654324
 32
0.0
 13
4622.289772649202
 23
2243.258313654324
 33
0.0
210
0.0
220
0.0
230
1.0
  0
ENDBLK
  5
459
330
451
100
AcDbEntity
  8
0
100
AcDbBlockEnd
  0
BLOCK
  5
475
330
45A
100
AcDbEntity
  8
0
100
AcDbBlockBegin
  2
*U5
 70
     1
 10
0.0
 20
0.0
 30
0.0
  3
*U5
  1

  0
SOLID
  5
45B
330
45A
100
AcDbEntity
  8
0
  6
CONTINUOUS
 62
     3
100
AcDbTrace
 10
5514.983187137453
 20
1573.653286287134
 30
0.0
 11
5814.983187137453
 21
1273.653286287135
 31
0.0
 12
5514.983187137452
 22
2160.966987770889
 32
0.0
 13
5514.983187137452
 23
2160.966987770889
 33
0.0
210
0.0
220
0.0
230
1.0
  0
SOLID
  5
45C
330
45A
100
AcDbEntity
  8
0
  6
CONTINUOUS
 62
     3
100
AcDbTrace
 10
5814.983187137453
 20
2150.732128794277
 30
0.0
 11
5514.983187137452
 21
2160.966987770889
 31
0.0
 12
5814.983187137453
 22
1273.653286287135
 32
0.0
 13
5814.983187137453
 23
1273.653286287135
 33
0.0
210
0.0
220
0.0
230
1.0
  0
SOLID
  5
45D
330
45A
100
AcDbEntity
  8
0
  6
CONTINUOUS
 62
     3
100
AcDbTrace
 10
5514.983187137452
 20
2160.966987770889
 30
0.0
 11
5814.983187137453
 21
2150.732128794277
 31
0.0
 12
5814.983187137453
 22
2460.966987770889
 32
0.0
 13
5814.983187137453
 23
2460.966987770889
 33
0.0
210
0.0
220
0.0
230
1.0
  0
SOLID
  5
45E
330
45A
100
AcDbEntity
  8
0
  6
CONTINUOUS
 62
     3
100
AcDbTrace
 10
5514.983187137453
 20
2160.96698777089
 30
0.0
 11
5814.983187137453
 21
2460.966987770889
 31
0.0
 12
4922.289772649203
 22
2160.96698777089
 32
0.0
 13
4922.289772649203
 23
2160.96698777089
 33
0.0
210
0.0
220
0.0
230
1.0
  0
SOLID
  5
45F
330
45A
100
AcDbEntity
  8
0
  6
CONTINUOUS
 62
     3
100
AcDbTrace
 10
4622.289772649201
 20
2460.966987770889
 30
0.0
 11
4922.289772649203
 21
2160.96698777089
 31
0.0
 12
5814.983187137453
 22
2460.966987770889
 32
0.0
 13
5814.983187137453
 23
2460.966987770889
 33
0.0
210
0.0
220
0.0
230
1.0
  0
SOLID
  5
460
330
45A
100
AcDbEntity
  8
0
  6
CONTINUOUS
 62
     3
100
AcDbTrace
 10
5514.983187137453
 20
2160.96698777089
 30
0.0
 11
4922.289772649204
 21
2160.96698777089
 31
0.0
 12
5218.636479893328
 22
1867.310137029013
 32
0.0
 13
5218.636479893328
 23
1867.310137029013
 33
0.0
210
0.0
220
0.0
230
1.0
  0
SOLID
  5
461
330
45A
100
AcDbEntity
  8
0
  6
CONTINUOUS
 62
     3
100
AcDbTrace
 10
5514.983187137453
 20
2160.96698777089
 30
0.0
 11
5218.636479893328
 21
1867.310137029013
 31
0.0
 12
5514.983187137453
 22
1573.653286287135
 32
0.0
 13
5514.983187137453
 23
1573.653286287135
 33
0.0
210
0.0
220
0.0
230
1.0
  0
SOLID
  5
462
330
45A
100
AcDbEntity
  8
0
  6
CONTINUOUS
 62
     3
100
AcDbTrace
 10
4922.289772649204
 20
1573.653286287135
 30
0.0
 11
5514.983187137453
 21
1573.653286287135
 31
0.0
 12
5218.636479893327
 22
1867.310137029012
 32
0.0
 13
5218.636479893327
 23
1867.310137029012
 33
0.0
  0
SOLID
  5
463
330
45A
100
AcDbEntity
  8
0
  6
CONTINUOUS
 62
     3
100
AcDbTrace
 10
4922.289772649203
 20
1573.653286287135
 30
0.0
 11
4622.289772649201
 21
1273.653286287135
 31
0.0
 12
5514.983187137452
 22
1573.653286287135
 32
0.0
 13
5514.983187137452
 23
1573.653286287135
 33
0.0
  0
SOLID
  5
464
330
45A
100
AcDbEntity
  8
0
  6
CONTINUOUS
 62
     3
100
AcDbTrace
 10
5814.983187137453
 20
1273.653286287135
 30
0.0
 11
5514.983187137452
 21
1573.653286287135
 31
0.0
 12
4622.289772649201
 22
1273.653286287135
 32
0.0
 13
4622.289772649201
 23
1273.653286287135
 33
0.0
210
0.0
220
0.0
230
1.0
  0
SOLID
  5
465
330
45A
100
AcDbEntity
  8
0
  6
CONTINUOUS
 62
     3
100
AcDbTrace
 10
5218.636479893328
 20
1867.310137029013
 30
0.0
 11
4922.289772649203
 21
2160.96698777089
 31
0.0
 12
4922.289772649203
 22
1573.653286287135
 32
0.0
 13
4922.289772649203
 23
1573.653286287135
 33
0.0
210
0.0
220
0.0
230
1.0
  0
SOLID
  5
466
330
45A
100
AcDbEntity
  8
0
  6
CONTINUOUS
 62
     3
100
AcDbTrace
 10
4922.289772649204
 20
2160.966987770888
 30
0.0
 11
4622.289772649202
 21
1273.653286287135
 31
0.0
 12
4922.289772649203
 22
1573.653286287134
 32
0.0
 13
4922.289772649203
 23
1573.653286287134
 33
0.0
210
0.0
220
0.0
230
1.0
  0
SOLID
  5
467
330
45A
100
AcDbEntity
  8
0
  6
CONTINUOUS
 62
     3
100
AcDbTrace
 10
4622.289772649202
 20
2243.258313654324
 30
0.0
 11
4622.289772649202
 21
1273.653286287135
 31
0.0
 12
4922.289772649204
 22
2160.966987770888
 32
0.0
 13
4922.289772649204
 23
2160.966987770888
 33
0.0
210
0.0
220
0.0
230
1.0
  0
SOLID
  5
468
330
45A
100
AcDbEntity
  8
0
  6
CONTINUOUS
 62
     3
100
AcDbTrace
 10
1573.653291331365
 20
2160.96698777089
 30
0.0
 11
2466.346705819613
 21
2460.966987770889
 31
0.0
 12
1273.653291331362
 22
2460.966987770889
 32
0.0
 13
1273.653291331362
 23
2460.966987770889
 33
0.0
210
0.0
220
0.0
230
1.0
  0
SOLID
  5
469
330
45A
100
AcDbEntity
  8
0
  6
CONTINUOUS
 62
     3
100
AcDbTrace
 10
2466.346705819613
 20
2460.966987770889
 30
0.0
 11
1573.653291331365
 21
2160.96698777089
 31
0.0
 12
2166.346705819613
 22
2160.96698777089
 32
0.0
 13
2166.346705819613
 23
2160.96698777089
 33
0.0
210
0.0
220
0.0
230
1.0
  0
SOLID
  5
46A
330
45A
100
AcDbEntity
  8
0
  6
CONTINUOUS
 62
     3
100
AcDbTrace
 10
4622.289772649202
 20
2460.966987770889
 30
0.0
 11
4622.289772649202
 21
2243.258313654324
 31
0.0
 12
4922.289772649204
 22
2160.966987770888
 32
0.0
 13
4922.289772649204
 23
2160.966987770888
 33
0.0
  0
SOLID
  5
46B
330
45A
100
AcDbEntity
  8
0
  6
CONTINUOUS
 62
     3
100
AcDbTrace
 10
2166.346705819614
 20
1573.653286287135
 30
0.0
 11
2466.346705819613
 21
1273.653286287134
 31
0.0
 12
2166.346705819614
 22
2160.966987770889
 32
0.0
 13
2166.346705819614
 23
2160.966987770889
 33
0.0
210
0.0
220
0.0
230
1.0
  0
SOLID
  5
46C
330
45A
100
AcDbEntity
  8
0
  6
CONTINUOUS
 62
     3
100
AcDbTrace
 10
2466.346705819614
 20
2460.966987770889
 30
0.0
 11
2166.346705819614
 21
2160.966987770889
 31
0.0
 12
2466.346705819613
 22
1273.653286287134
 32
0.0
 13
2466.346705819613
 23
1273.653286287134
 33
0.0
210
0.0
220
0.0
230
1.0
  0
SOLID
  5
46D
330
45A
100
AcDbEntity
  8
0
  6
CONTINUOUS
 62
     3
100
AcDbTrace
 10
1573.653291331364
 20
2160.96698777089
 30
0.0
 11
1869.999998575488
 21
1867.310137029013
 31
0.0
 12
2166.346705819614
 22
2160.96698777089
 32
0.0
 13
2166.346705819614
 23
2160.96698777089
 33
0.0
210
0.0
220
0.0
230
1.0
  0
SOLID
  5
46E
330
45A
100
AcDbEntity
  8
0
  6
CONTINUOUS
 62
     3
100
AcDbTrace
 10
1869.999998575488
 20
1867.310137029013
 30
0.0
 11
2166.346705819614
 21
1573.653286287135
 31
0.0
 12
2166.346705819614
 22
2160.96698777089
 32
0.0
 13
2166.346705819614
 23
2160.96698777089
 33
0.0
210
0.0
220
0.0
230
1.0
  0
SOLID
  5
46F
330
45A
100
AcDbEntity
  8
0
  6
CONTINUOUS
 62
     3
100
AcDbTrace
 10
1573.653291331362
 20
1573.653286287135
 30
0.0
 11
1869.999998575488
 21
1867.310137029013
 31
0.0
 12
1573.653291331364
 22
2160.966987770889
 32
0.0
 13
1573.653291331364
 23
2160.966987770889
 33
0.0
  0
SOLID
  5
470
330
45A
100
AcDbEntity
  8
0
  6
CONTINUOUS
 62
     3
100
AcDbTrace
 10
2166.346705819614
 20
1573.653286287135
 30
0.0
 11
1869.999998575488
 21
1867.310137029013
 31
0.0
 12
1573.653291331362
 22
1573.653286287135
 32
0.0
 13
1573.653291331362
 23
1573.653286287135
 33
0.0
210
0.0
220
0.0
230
1.0
  0
SOLID
  5
471
330
45A
100
AcDbEntity
  8
0
  6
CONTINUOUS
 62
     3
100
AcDbTrace
 10
1573.653291331362
 20
1573.653286287135
 30
0.0
 11
1273.653291331362
 21
1273.653286287135
 31
0.0
 12
2166.346705819614
 22
1573.653286287135
 32
0.0
 13
2166.346705819614
 23
1573.653286287135
 33
0.0
210
0.0
220
0.0
230
1.0
  0
SOLID
  5
472
330
45A
100
AcDbEntity
  8
0
  6
CONTINUOUS
 62
     3
100
AcDbTrace
 10
2466.346705819614
 20
1273.653286287135
 30
0.0
 11
2166.346705819614
 21
1573.653286287135
 31
0.0
 12
1273.653291331362
 22
1273.653286287135
 32
0.0
 13
1273.653291331362
 23
1273.653286287135
 33
0.0
  0
SOLID
  5
473
330
45A
100
AcDbEntity
  8
0
  6
CONTINUOUS
 62
     3
100
AcDbTrace
 10
1573.653291331361
 20
1573.653286287134
 30
0.0
 11
1573.653291331364
 21
2160.966987770889
 31
0.0
 12
1273.653291331363
 22
1273.653286287135
 32
0.0
 13
1273.653291331363
 23
1273.653286287135
 33
0.0
210
0.0
220
0.0
230
1.0
  0
SOLID
  5
474
330
45A
100
AcDbEntity
  8
0
  6
CONTINUOUS
 62
     3
100
AcDbTrace
 10
1273.653291331363
 20
2460.966987770888
 30
0.0
 11
1273.653291331363
 21
1273.653286287135
 31
0.0
 12
1573.653291331364
 22
2160.966987770889
 32
0.0
 13
1573.653291331364
 23
2160.966987770889
 33
0.0
210
0.0
220
0.0
230
1.0
  0
ENDBLK
  5
476
330
45A
100
AcDbEntity
  8
0
100
AcDbBlockEnd
  0
ENDSEC
  0
SECTION
  2
ENTITIES
  0
INSERT
  5
40C
330
1F
100
AcDbEntity
  8
0
100
AcDbBlockReference
  2
ADKG
 10
0.0
 20
0.0
 30
0.0
  0
ENDSEC
  0
SECTION
  2
OBJECTS
  0
DICTIONARY
  5
C
330
0
100
AcDbDictionary
  3
ACAD_GROUP
350
D
  3
ACAD_LAYOUT
350
1A
  3
ACAD_MLINESTYLE
350
17
  3
ACAD_PLOTSETTINGS
350
19
1001
ACAD
1000
TREAT_AS_HARD
1070
     0
1000
TREAT_AS_HARD
1070
     0
  0
DICTIONARY
  5
159
330
1F
100
AcDbDictionary
  3
ACAD_LAYOUTSELFREF
350
40E
  3
ACAD_SORTENTS
350
32B
1001
ACAD
1000
TREAT_AS_HARD
1070
     1
1000
TREAT_AS_HARD
1070
     0
  0
DICTIONARY
  5
15B
330
50
100
AcDbDictionary
  3
ACAD_LAYOUTSELFREF
350
40F
1001
ACAD
1000
TREAT_AS_HARD
1070
     1
1000
TREAT_AS_HARD
1070
     0
  0
DICTIONARY
  5
D
102
{ACAD_REACTORS
330
C
102
}
330
C
100
AcDbDictionary
1001
ACAD
1000
TREAT_AS_HARD
1070
     0
1000
TREAT_AS_HARD
1070
     0
  0
DICTIONARY
  5
1A
102
{ACAD_REACTORS
330
C
102
}
330
C
100
AcDbDictionary
1001
ACAD
1000
TREAT_AS_HARD
1070
     0
1000
TREAT_AS_HARD
1070
     0
  0
DICTIONARY
  5
17
102
{ACAD_REACTORS
330
C
102
}
330
C
100
AcDbDictionary
  3
STANDARD
350
18
1001
ACAD
1000
TREAT_AS_HARD
1070
     0
1000
TREAT_AS_HARD
1070
     0
  0
DICTIONARY
  5
19
102
{ACAD_REACTORS
330
C
102
}
330
C
100
AcDbDictionary
1001
ACAD
1000
TREAT_AS_HARD
1070
     0
1000
TREAT_AS_HARD
1070
     0
  0
XRECORD
  5
40E
102
{ACAD_REACTORS
330
159
102
}
330
159
100
AcDbXrecord
340
1F
  0
SORTENTSTABLE
  5
32B
102
{ACAD_REACTORS
330
159
102
}
330
159
100
AcDbSortentsTable
330
1F
331
2EA
  5
2EF
331
2C8
  5
2CF
331
2B7
  5
2BE
331
29E
  5
2A5
331
28D
  5
294
331
2D9
  5
28C
331
2E8
  5
2ED
331
2C6
  5
2CD
331
37B
  5
288
331
2B5
  5
2BC
331
29C
  5
2A3
331
28B
  5
292
331
2D7
  5
28B
331
2E6
  5
2EB
331
2C4
  5
2CB
331
2D5
  5
2DC
331
2B3
  5
2BA
331
29A
  5
2A1
331
289
  5
290
331
2E4
  5
2E9
331
2C2
  5
2C9
331
2D3
  5
2DA
331
2B1
  5
2B8
331
298
  5
29F
331
287
  5
28E
331
2E2
  5
2E7
331
2C0
  5
2C7
331
2D1
  5
2D8
331
2AF
  5
2B6
331
296
  5
29D
331
2A7
  5
2AE
331
2E0
  5
2E5
331
2CF
  5
2D6
331
2AD
  5
2B4
331
294
  5
29B
331
2BE
  5
2C5
331
2A5
  5
2AC
331
2EF
  5
37F
331
2CD
  5
2D4
331
2AB
  5
2B2
331
292
  5
299
331
2DE
  5
2E3
331
2BC
  5
2C3
331
2A3
  5
2AA
331
2CB
  5
2D2
331
2A9
  5
2B0
331
290
  5
297
331
2ED
  5
336
331
2DC
  5
2E1
331
2BA
  5
2C1
331
2A1
  5
2A8
331
39B
  5
205
331
2EB
  5
2F0
331
2C9
  5
2D0
331
2DA
  5
2DF
331
2B8
  5
2BF
331
29F
  5
2A6
331
28E
  5
295
331
2E9
  5
2EE
331
2C7
  5
2CE
331
2D8
  5
2DE
331
2B6
  5
2BD
331
29D
  5
2A4
331
28C
  5
293
331
2E7
  5
2EC
331
2C5
  5
2CC
331
2D6
  5
2DD
331
2B4
  5
2BB
331
29B
  5
2A2
331
28A
  5
291
331
336
  5
289
331
2E5
  5
2EA
331
2C3
  5
2CA
331
2D4
  5
2DB
331
2B2
  5
2B9
331
299
  5
2A0
331
288
  5
28F
331
205
  5
28D
331
2E3
  5
2E8
331
2C1
  5
2C8
331
2D2
  5
2D9
331
2B0
  5
2B7
331
297
  5
29E
331
2E1
  5
2E6
331
2D0
  5
2D7
331
2AE
  5
2B5
331
295
  5
29C
331
2BF
  5
2C6
331
2A6
  5
2AD
331
2F0
  5
39B
331
2CE
  5
2D5
331
2AC
  5
2B3
331
293
  5
29A
331
2DF
  5
2E4
331
2BD
  5
2C4
331
2A4
  5
2AB
331
2EE
  5
37B
331
2CC
  5
2D3
331
2AA
  5
2B1
331
291
  5
298
331
2DD
  5
2E2
331
2BB
  5
2C2
331
2A2
  5
2A9
331
2EC
  5
32A
331
2CA
  5
2D1
331
2A8
  5
2AF
331
37F
  5
287
331
2A0
  5
2A7
331
2DB
  5
2E0
331
2B9
  5
2C0
331
32A
  5
28A
331
28F
  5
296
  0
XRECORD
  5
40F
102
{ACAD_REACTORS
330
15B
102
}
330
15B
100
AcDbXrecord
340
50
  0
MLINESTYLE
  5
18
102
{ACAD_REACTORS
330
17
102
}
330
17
100
AcDbMlineStyle
  2
STANDARD
 70
     0
  3

 62
   256
 51
90.0
 52
90.0
 71
     2
 49
0.5
 62
   256
  6
BYLAYER
 49
-0.5
 62
   256
  6
BYLAYER
  0
ENDSEC
  0
EOF
