  0
SECTION
  2
HEADER
  9
$ACADVER
  1
AC1012
  9
$DWGCODEPAGE
  3
ANSI_1252
  9
$INSBASE
 10
0.0
 20
0.0
 30
0.0
  9
$EXTMIN
 10
-3.117639391977718
 20
-4.880882745552298
 30
-0.0003051524985409
  9
$EXTMAX
 10
10292.76832445287
 20
6969.5209926714
 30
10.00030519906467
  9
$LIMMIN
 10
0.0
 20
0.0
  9
$LIMMAX
 10
420.0
 20
297.0
  9
$ORTHOMODE
 70
     0
  9
$REGENMODE
 70
     1
  9
$FILLMODE
 70
     1
  9
$QTEXTMODE
 70
     0
  9
$MIRRTEXT
 70
     1
  9
$DRAGMODE
 70
     2
  9
$LTSCALE
 40
1.0
  9
$OSMODE
 70
  2559
  9
$ATTMODE
 70
     1
  9
$TEXTSIZE
 40
2.5
  9
$TRACEWID
 40
1.0
  9
$TEXTSTYLE
  7
STANDARD
  9
$CLAYER
  8
0
  9
$CELTYPE
  6
BYLAYER
  9
$CECOLOR
 62
   256
  9
$CELTSCALE
 40
1.0
  9
$DELOBJ
 70
     1
  9
$DISPSILH
 70
     0
  9
$DIMSCALE
 40
1.0
  9
$DIMASZ
 40
2.5
  9
$DIMEXO
 40
0.625
  9
$DIMDLI
 40
3.75
  9
$DIMRND
 40
0.0
  9
$DIMDLE
 40
0.0
  9
$DIMEXE
 40
1.25
  9
$DIMTP
 40
0.0
  9
$DIMTM
 40
0.0
  9
$DIMTXT
 40
2.5
  9
$DIMCEN
 40
2.5
  9
$DIMTSZ
 40
0.0
  9
$DIMTOL
 70
     0
  9
$DIMLIM
 70
     0
  9
$DIMTIH
 70
     0
  9
$DIMTOH
 70
     0
  9
$DIMSE1
 70
     0
  9
$DIMSE2
 70
     0
  9
$DIMTAD
 70
     1
  9
$DIMZIN
 70
     8
  9
$DIMBLK
  1

  9
$DIMASO
 70
     1
  9
$DIMSHO
 70
     1
  9
$DIMPOST
  1

  9
$DIMAPOST
  1

  9
$DIMALT
 70
     0
  9
$DIMALTD
 70
     3
  9
$DIMALTF
 40
0.03937007874016
  9
$DIMLFAC
 40
1.0
  9
$DIMTOFL
 70
     1
  9
$DIMTVP
 40
0.0
  9
$DIMTIX
 70
     0
  9
$DIMSOXD
 70
     0
  9
$DIMSAH
 70
     0
  9
$DIMBLK1
  1

  9
$DIMBLK2
  1

  9
$DIMSTYLE
  2
ISO-25
  9
$DIMCLRD
 70
     0
  9
$DIMCLRE
 70
     0
  9
$DIMCLRT
 70
     0
  9
$DIMTFAC
 40
1.0
  9
$DIMGAP
 40
0.625
  9
$DIMJUST
 70
     0
  9
$DIMSD1
 70
     0
  9
$DIMSD2
 70
     0
  9
$DIMTOLJ
 70
     0
  9
$DIMTZIN
 70
     8
  9
$DIMALTZ
 70
     0
  9
$DIMALTTZ
 70
     0
  9
$DIMFIT
 70
     3
  9
$DIMUPT
 70
     0
  9
$DIMUNIT
 70
     2
  9
$DIMDEC
 70
     2
  9
$DIMTDEC
 70
     2
  9
$DIMALTU
 70
     2
  9
$DIMALTTD
 70
     3
  9
$DIMTXSTY
  7
STANDARD
  9
$DIMAUNIT
 70
     0
  9
$LUNITS
 70
     2
  9
$LUPREC
 70
     4
  9
$SKETCHINC
 40
1.0
  9
$FILLETRAD
 40
10.0
  9
$AUNITS
 70
     0
  9
$AUPREC
 70
     0
  9
$MENU
  1
.
  9
$ELEVATION
 40
0.0
  9
$PELEVATION
 40
0.0
  9
$THICKNESS
 40
0.0
  9
$LIMCHECK
 70
     0
  9
$BLIPMODE
 70
     0
  9
$CHAMFERA
 40
10.0
  9
$CHAMFERB
 40
10.0
  9
$CHAMFERC
 40
20.0
  9
$CHAMFERD
 40
0.0
  9
$SKPOLY
 70
     0
  9
$TDCREATE
 40
2452626.588642940
  9
$TDUPDATE
 40
2452776.554566203
  9
$TDINDWG
 40
0.0044862269
  9
$TDUSRTIMER
 40
0.0044862269
  9
$USRTIMER
 70
     1
  9
$ANGBASE
 50
0.0
  9
$ANGDIR
 70
     0
  9
$PDMODE
 70
     0
  9
$PDSIZE
 40
0.0
  9
$PLINEWID
 40
0.0
  9
$COORDS
 70
     2
  9
$SPLFRAME
 70
     0
  9
$SPLINETYPE
 70
     6
  9
$SPLINESEGS
 70
     8
  9
$ATTDIA
 70
     0
  9
$ATTREQ
 70
     1
  9
$HANDLING
 70
-16383
  9
$HANDSEED
  5
515
  9
$SURFTAB1
 70
     6
  9
$SURFTAB2
 70
     6
  9
$SURFTYPE
 70
     6
  9
$SURFU
 70
     6
  9
$SURFV
 70
     6
  9
$UCSNAME
  2

  9
$UCSORG
 10
0.0
 20
0.0
 30
0.0
  9
$UCSXDIR
 10
1.0
 20
0.0
 30
0.0
  9
$UCSYDIR
 10
0.0
 20
1.0
 30
0.0
  9
$PUCSNAME
  2

  9
$PUCSORG
 10
0.0
 20
0.0
 30
0.0
  9
$PUCSXDIR
 10
1.0
 20
0.0
 30
0.0
  9
$PUCSYDIR
 10
0.0
 20
1.0
 30
0.0
  9
$USERI1
 70
     0
  9
$USERI2
 70
     0
  9
$USERI3
 70
     0
  9
$USERI4
 70
     0
  9
$USERI5
 70
     0
  9
$USERR1
 40
0.0
  9
$USERR2
 40
0.0
  9
$USERR3
 40
0.0
  9
$USERR4
 40
0.0
  9
$USERR5
 40
0.0
  9
$WORLDVIEW
 70
     1
  9
$SHADEDGE
 70
     3
  9
$SHADEDIF
 70
    70
  9
$TILEMODE
 70
     1
  9
$MAXACTVP
 70
    64
  9
$PINSBASE
 10
0.0
 20
0.0
 30
0.0
  9
$PLIMCHECK
 70
     0
  9
$PEXTMIN
 10
0.0
 20
0.0
 30
0.0
  9
$PEXTMAX
 10
0.0
 20
0.0
 30
0.0
  9
$PLIMMIN
 10
0.0
 20
0.0
  9
$PLIMMAX
 10
12.0
 20
9.0
  9
$UNITMODE
 70
     0
  9
$VISRETAIN
 70
     1
  9
$PLINEGEN
 70
     0
  9
$PSLTSCALE
 70
     1
  9
$TREEDEPTH
 70
  3020
  9
$PICKSTYLE
 70
     1
  9
$CMLSTYLE
  2
STANDARD
  9
$CMLJUST
 70
     0
  9
$CMLSCALE
 40
20.0
  9
$SAVEIMAGES
 70
     1
  0
ENDSEC
  0
SECTION
  2
CLASSES
  0
CLASS
  1
ACDBDICTIONARYWDFLT
  2
AcDbDictionaryWithDefault
  3
AutoCAD 2000
 90
    32768
280
     0
281
     0
  0
CLASS
  1
ACDBPLACEHOLDER
  2
AcDbPlaceHolder
  3
AutoCAD 2000
 90
    32768
280
     0
281
     0
  0
CLASS
  1
LAYOUT
  2
AcDbLayout
  3
AutoCAD 2000
 90
    32768
280
     0
281
     0
  0
CLASS
  1
LONG_TRANSACTION
  2
AcDbLongTransaction
  3
AutoCAD 2000
 90
    32768
280
     0
281
     0
  0
CLASS
  1
LWPOLYLINE
  2
AcDbPolyline
  3
AutoCAD 2000
 90
    32768
280
     0
281
     1
  0
CLASS
  1
HATCH
  2
AcDbHatch
  3
AutoCAD 2000
 90
    32768
280
     0
281
     1
  0
CLASS
  1
XRECORD
  2
AcDbXrecord
  3
AutoCAD 2000
 90
    32768
280
     0
281
     0
  0
CLASS
  1
LONG_TRANSACTION
  2
AcDbLongTransaction
  3
AutoCAD 2000
 90
    32768
280
     0
281
     0
  0
CLASS
  1
LWPOLYLINE
  2
AcDbPolyline
  3
AutoCAD 2000
 90
    32768
280
     0
281
     1
  0
CLASS
  1
HATCH
  2
AcDbHatch
  3
AutoCAD 2000
 90
    32768
280
     0
281
     1
  0
CLASS
  1
XRECORD
  2
AcDbXrecord
  3
AutoCAD 2000
 90
    32768
280
     0
281
     0
  0
CLASS
  1
LONG_TRANSACTION
  2
AcDbLongTransaction
  3
AutoCAD 2000
 90
    32768
280
     0
281
     0
  0
CLASS
  1
LWPOLYLINE
  2
AcDbPolyline
  3
AutoCAD 2000
 90
    32768
280
     0
281
     1
  0
CLASS
  1
HATCH
  2
AcDbHatch
  3
AutoCAD 2000
 90
    32768
280
     0
281
     1
  0
CLASS
  1
XRECORD
  2
AcDbXrecord
  3
AutoCAD 2000
 90
    32768
280
     0
281
     0
  0
CLASS
  1
DICTIONARYVAR
  2
AcDbDictionaryVar
  3
AutoCAD 2000
 90
    32768
280
     0
281
     0
  0
CLASS
  1
SORTENTSTABLE
  2
AcDbSortentsTable
  3
AutoCAD 2000
 90
    32768
280
     0
281
     0
  0
CLASS
  1
LONG_TRANSACTION
  2
AcDbLongTransaction
  3
AutoCAD 2000
 90
    32768
280
     0
281
     0
  0
CLASS
  1
LWPOLYLINE
  2
AcDbPolyline
  3
AutoCAD 2000
 90
    32768
280
     0
281
     1
  0
CLASS
  1
HATCH
  2
AcDbHatch
  3
AutoCAD 2000
 90
    32768
280
     0
281
     1
  0
CLASS
  1
XRECORD
  2
AcDbXrecord
  3
AutoCAD 2000
 90
    32768
280
     0
281
     0
  0
ENDSEC
  0
SECTION
  2
TABLES
  0
TABLE
  2
VPORT
  5
8
330
0
100
AcDbSymbolTable
 70
     2
  0
VPORT
  5
386
330
8
100
AcDbSymbolTableRecord
100
AcDbViewportTableRecord
  2
*ACTIVE
 70
     0
 10
0.0
 20
0.0
 11
1.0
 21
1.0
 12
5144.825342530446
 22
3482.320054962923
 13
0.0
 23
0.0
 14
10.0
 24
10.0
 15
10.0
 25
10.0
 16
0.0
 26
0.0
 36
1.0
 17
0.0
 27
0.0
 37
0.0
 40
7054.261438875925
 41
1.81453154875717
 42
50.0
 43
0.0
 44
0.0
 50
0.0
 51
0.0
 71
     0
 72
   100
 73
     1
 74
     3
 75
     0
 76
     0
 77
     0
 78
     0
  0
ENDTAB
  0
TABLE
  2
LTYPE
  5
5
330
0
100
AcDbSymbolTable
 70
     1
  0
LTYPE
  5
14
330
5
100
AcDbSymbolTableRecord
100
AcDbLinetypeTableRecord
  2
BYBLOCK
 70
     0
  3

 72
    65
 73
     0
 40
0.0
  0
LTYPE
  5
15
330
5
100
AcDbSymbolTableRecord
100
AcDbLinetypeTableRecord
  2
BYLAYER
 70
     0
  3

 72
    65
 73
     0
 40
0.0
  0
LTYPE
  5
16
330
5
100
AcDbSymbolTableRecord
100
AcDbLinetypeTableRecord
  2
CONTINUOUS
 70
     0
  3
Solid line
 72
    65
 73
     0
 40
0.0
  0
ENDTAB
  0
TABLE
  2
LAYER
  5
2
330
0
100
AcDbSymbolTable
 70
     5
  0
LAYER
  5
10
330
2
100
AcDbSymbolTableRecord
100
AcDbLayerTableRecord
  2
0
 70
     0
 62
     7
  6
CONTINUOUS
  0
LAYER
  5
5D
330
2
100
AcDbSymbolTableRecord
100
AcDbLayerTableRecord
  2
SAFETY
 70
     0
 62
     7
  6
CONTINUOUS
  0
LAYER
  5
5E
330
2
100
AcDbSymbolTableRecord
100
AcDbLayerTableRecord
  2
OBJECT
 70
     0
 62
     7
  6
CONTINUOUS
  0
LAYER
  5
1E7
330
2
100
AcDbSymbolTableRecord
100
AcDbLayerTableRecord
  2
TEKST
 70
     0
 62
     7
  6
CONTINUOUS
  0
LAYER
  5
26C
330
2
100
AcDbSymbolTableRecord
100
AcDbLayerTableRecord
  2
HATCH
 70
     0
 62
     7
  6
CONTINUOUS
  0
ENDTAB
  0
TABLE
  2
STYLE
  5
3
330
0
100
AcDbSymbolTable
 70
     3
  0
STYLE
  5
11
330
3
100
AcDbSymbolTableRecord
100
AcDbTextStyleTableRecord
  2
STANDARD
 70
     0
 40
0.0
 41
1.0
 50
0.0
 71
     0
 42
2.5
  3
txt
  4

  0
STYLE
  5
5F
330
3
100
AcDbSymbolTableRecord
100
AcDbTextStyleTableRecord
  2
STYLE1
 70
     0
 40
5.0
 41
1.0
 50
0.0
 71
     0
 42
2.5
  3
romans.shx
  4

  0
STYLE
  5
60
330
3
100
AcDbSymbolTableRecord
100
AcDbTextStyleTableRecord
  2
STYLE2
 70
     0
 40
3.0
 41
1.0
 50
0.0
 71
     0
 42
1.5
  3
romand.shx
  4

  0
ENDTAB
  0
TABLE
  2
VIEW
  5
6
330
0
100
AcDbSymbolTable
 70
     0
  0
ENDTAB
  0
TABLE
  2
UCS
  5
7
330
0
100
AcDbSymbolTable
 70
     0
  0
ENDTAB
  0
TABLE
  2
APPID
  5
9
330
0
100
AcDbSymbolTable
 70
     3
  0
APPID
  5
12
330
9
100
AcDbSymbolTableRecord
100
AcDbRegAppTableRecord
  2
ACAD
 70
     0
  0
APPID
  5
62
330
9
100
AcDbSymbolTableRecord
100
AcDbRegAppTableRecord
  2
AVE_FINISH
 70
     0
  0
APPID
  5
1DE
330
9
100
AcDbSymbolTableRecord
100
AcDbRegAppTableRecord
  2
CONTENTBLOCKICON
 70
     0
  0
ENDTAB
  0
TABLE
  2
DIMSTYLE
  5
A
330
0
100
AcDbSymbolTable
 70
     2
  0
DIMSTYLE
105
27
330
A
100
AcDbSymbolTableRecord
100
AcDbDimStyleTableRecord
  2
ISO-25
 70
     0
  3

  4

  5

  6

  7

 40
1.0
 41
2.5
 42
0.625
 43
3.75
 44
1.25
 45
0.0
 46
0.0
 47
0.0
 48
0.0
140
2.5
141
2.5
142
0.0
143
0.03937007874016
144
1.0
145
0.0
146
1.0
147
0.625
 71
     0
 72
     0
 73
     0
 74
     0
 75
     0
 76
     0
 77
     1
 78
     8
170
     0
171
     3
172
     1
173
     0
174
     0
175
     0
176
     0
177
     0
178
     0
270
     2
271
     2
272
     2
273
     2
274
     3
340
11
275
     0
280
     0
281
     0
282
     0
283
     0
284
     8
285
     0
286
     0
287
     3
288
     0
  0
DIMSTYLE
105
61
330
A
100
AcDbSymbolTableRecord
100
AcDbDimStyleTableRecord
  2
STANDARD
 70
     0
  3

  4

  5

  6

  7

 40
1.0
 41
4.0
 42
2.0
 43
7.0
 44
2.0
 45
0.0
 46
0.0
 47
0.0
 48
0.0
140
5.0
141
0.09
142
0.0
143
25.4
144
1.0
145
0.0
146
1.0
147
2.0
 71
     0
 72
     0
 73
     0
 74
     0
 75
     0
 76
     0
 77
     1
 78
     8
170
     0
171
     2
172
     1
173
     0
174
     0
175
     0
176
     1
177
     1
178
     1
270
     2
271
     1
272
     0
273
     2
274
     2
340
5F
275
     0
280
     0
281
     0
282
     0
283
     1
284
     0
285
     0
286
     0
287
     3
288
     0
  0
ENDTAB
  0
TABLE
  2
BLOCK_RECORD
  5
1
330
0
100
AcDbSymbolTable
 70
    21
  0
BLOCK_RECORD
  5
1F
102
{ACAD_XDICTIONARY
360
149
102
}
330
1
100
AcDbSymbolTableRecord
100
AcDbBlockTableRecord
  2
*MODEL_SPACE
  0
BLOCK_RECORD
  5
50
102
{ACAD_XDICTIONARY
360
14B
102
}
330
1
100
AcDbSymbolTableRecord
100
AcDbBlockTableRecord
  2
*PAPER_SPACE
  0
BLOCK_RECORD
  5
157
330
1
100
AcDbSymbolTableRecord
100
AcDbBlockTableRecord
  2
ADKD1
1001
ACAD
1000
DesignCenter Data
1002
{
1070
     1
1070
     4
1002
}
1001
CONTENTBLOCKICON
1071
        0
1004
28000000200000002000000001000800000000000004000000000000000000000000000000000000000000004000000080000000FF000000002000004020000080200000FF200000004000004040000080400000FF400000006000004060000080600000FF600000008000004080000080800000FF80000000A0000040A000
1004
0080A00000FFA0000000C0000040C0000080C00000FFC0000000FF000040FF000080FF0000FFFF0000000020004000200080002000FF002000002020004020200080202000FF202000004020004040200080402000FF402000006020004060200080602000FF602000008020004080200080802000FF80200000A0200040A0
1004
200080A02000FFA0200000C0200040C0200080C02000FFC0200000FF200040FF200080FF2000FFFF2000000040004000400080004000FF004000002040004020400080204000FF204000004040004040400080404000FF404000006040004060400080604000FF604000008040004080400080804000FF80400000A0400040
1004
A0400080A04000FFA0400000C0400040C0400080C04000FFC0400000FF400040FF400080FF4000FFFF4000000060004000600080006000FF006000002060004020600080206000FF206000004060004040600080406000FF406000006060004060600080606000FF606000008060004080600080806000FF80600000A06000
1004
40A0600080A06000FFA0600000C0600040C0600080C06000FFC0600000FF600040FF600080FF6000FFFF6000000080004000800080008000FF008000002080004020800080208000FF208000004080004040800080408000FF408000006080004060800080608000FF608000008080004080800080808000FF80800000A080
1004
0040A0800080A08000FFA0800000C0800040C0800080C08000FFC0800000FF800040FF800080FF8000FFFF80000000A0004000A0008000A000FF00A0000020A0004020A0008020A000FF20A0000040A0004040A0008040A000FF40A0000060A0004060A0008060A000FF60A0000080A0004080A0008080A000FF80A00000A0
1004
A00040A0A00080A0A000FFA0A00000C0A00040C0A00080C0A000FFC0A00000FFA00040FFA00080FFA000FFFFA0000000C0004000C0008000C000FF00C0000020C0004020C0008020C000FF20C0000040C0004040C0008040C000FF40C0000060C0004060C0008060C000FF60C0000080C0004080C0008080C000FF80C00000
1004
A0C00040A0C00080A0C000FFA0C00000C0C00040C0C00080C0C000FFC0C00000FFC00040FFC00080FFC000FFFFC0000000FF004000FF008000FF00FF00FF000020FF004020FF008020FF00FF20FF000040FF004040FF008040FF00FF40FF000060FF004060FF008060FF00FF60FF000080FF004080FF008080FF00FF80FF00
1004
00A0FF0040A0FF0080A0FF00FFA0FF0000C0FF0040C0FF0080C0FF00FFC0FF0000FFFF0040FFFF0080FFFF00FFFFFF0000000000000000000000000000000000000000000000000000000000000000000000000000000000000000000000000000000000000000000000000000000000000000000000000000000000000000
1004
00000000000000000000000000000000000000000000000000000000000000000000000000000000000000000000000000000000000000000000000000000000000000000000000000000000000000000000000000000000000000000000000000000000000000000000000000000000000000000000000000000000000000
1004
00FF00000000000000000000000000000000000000000000000000000000FFFFFF00FFFFFF0000000000000000000000000000000000000000000000FFFF00000000000000FFFFFF00000000000000000000000000000000000000FF000000000000000000000000FFFFFFFFFFFFFFFFFF000000000000000000FF00000000
1004
001C1C1C00000000000000000000000000FF0000000000000000FF00000000001C1C001C1C1C1C00000000000000000000FF00000000000000FF000000001C1C1C1C001C1C1C1CFCFCFCFCFC0000000000FF000000000000FF00000000001C000000001C1C1C1CFCFCFCFCFC0000000000FF0000000000FF0000000000001C
1004
1C1C1C1C1C1C1C1CFCFCFCFCFC0000000000FF00000000FF0000000000000000490000001C1C1C1C00000000000000000000FF000000FF000000000000000000490000000000000000000000FFFFFFFFFFFFFF0000FF0000000000000000000049000000000000000000FFFF000000000000000000FF000000E00000000000
1004
FC49FC00000000E0000000FF00000000000000000000FF00000000E0E000FCFC0000FCFCFCE0E000000000FF0000000000000000000000FF0000000000E0E000000000FCE00000000000FF00000000000000000000000000FF0000000000000000000000000000000000FF0000000000000000000000000000FF0000000000
1004
00000000000000000000FF00000000000000000000000000000000FF00000000000000000000000000FF000000000000000000000000000000000000FFFF000000000000000000FFFF000000000000000000000000000000000000000000FFFFFFFFFFFFFFFFFF000000000000000000000000000000000000000000000000
1004
00000000000000000000000000000000000000000000000000000000000000000000000000000000000000000000000000000000000000000000000000000000000000000000000000000000000000000000000000000000000000000000000000000000000000000000000000000000000000000000000000000000000000
1004
0000000000000000000000000000000000000000000000000000000000000000000000000000000000000000000000000000000000000000
  0
BLOCK_RECORD
  5
217
330
1
100
AcDbSymbolTableRecord
100
AcDbBlockTableRecord
  2
ADKD0
1001
ACAD
1000
DesignCenter Data
1002
{
1070
     1
1070
     4
1002
}
1001
CONTENTBLOCKICON
1071
        0
1004
28000000200000002000000001000800000000000004000000000000000000000000000000000000000000004000000080000000FF000000002000004020000080200000FF200000004000004040000080400000FF400000006000004060000080600000FF600000008000004080000080800000FF80000000A0000040A000
1004
0080A00000FFA0000000C0000040C0000080C00000FFC0000000FF000040FF000080FF0000FFFF0000000020004000200080002000FF002000002020004020200080202000FF202000004020004040200080402000FF402000006020004060200080602000FF602000008020004080200080802000FF80200000A0200040A0
1004
200080A02000FFA0200000C0200040C0200080C02000FFC0200000FF200040FF200080FF2000FFFF2000000040004000400080004000FF004000002040004020400080204000FF204000004040004040400080404000FF404000006040004060400080604000FF604000008040004080400080804000FF80400000A0400040
1004
A0400080A04000FFA0400000C0400040C0400080C04000FFC0400000FF400040FF400080FF4000FFFF4000000060004000600080006000FF006000002060004020600080206000FF206000004060004040600080406000FF406000006060004060600080606000FF606000008060004080600080806000FF80600000A06000
1004
40A0600080A06000FFA0600000C0600040C0600080C06000FFC0600000FF600040FF600080FF6000FFFF6000000080004000800080008000FF008000002080004020800080208000FF208000004080004040800080408000FF408000006080004060800080608000FF608000008080004080800080808000FF80800000A080
1004
0040A0800080A08000FFA0800000C0800040C0800080C08000FFC0800000FF800040FF800080FF8000FFFF80000000A0004000A0008000A000FF00A0000020A0004020A0008020A000FF20A0000040A0004040A0008040A000FF40A0000060A0004060A0008060A000FF60A0000080A0004080A0008080A000FF80A00000A0
1004
A00040A0A00080A0A000FFA0A00000C0A00040C0A00080C0A000FFC0A00000FFA00040FFA00080FFA000FFFFA0000000C0004000C0008000C000FF00C0000020C0004020C0008020C000FF20C0000040C0004040C0008040C000FF40C0000060C0004060C0008060C000FF60C0000080C0004080C0008080C000FF80C00000
1004
A0C00040A0C00080A0C000FFA0C00000C0C00040C0C00080C0C000FFC0C00000FFC00040FFC00080FFC000FFFFC0000000FF004000FF008000FF00FF00FF000020FF004020FF008020FF00FF20FF000040FF004040FF008040FF00FF40FF000060FF004060FF008060FF00FF60FF000080FF004080FF008080FF00FF80FF00
1004
00A0FF0040A0FF0080A0FF00FFA0FF0000C0FF0040C0FF0080C0FF00FFC0FF0000FFFF0040FFFF0080FFFF00FFFFFF0000000000000000000000000000000000000000000000000000000000000000000000000000000000000000000000000000000000000000000000000000000000000000000000000000000000000000
1004
00000000000000000000000000000000000000000000000000000000000000000000000000000000000000000000000000000000000000000000000000000000000000000000000000000000000000000000000000000000000000000000FFFFFF000000000000000000000000000000000000000000000000000000FFFF00
1004
0000FFFFFF00000000000000000000000000000000000000000000FFFF0000000000000000FF00000000000000000000000000000000000000FFFF0000000000000000000000FF0000000000000000000000000000000000FF0000000000000000000000000000FFFFFFFFFFFFFFFFFFFF00000000000000FF000000000000
1004
1C1C1C1C00000000000000000000000000FF00000000000000FF0000001C1C1C1C001C1C1C1C0000000000000000000000FF000000000000FF000000001C1C1C1C001C1C1C1CFCFCFCFCFCFC0000000000FF000000000000FF000000001C1C1C1C1C1C1C1C1CFCFCFCFCFCFC0000000000FF0000000000FF00000000001C1C
1004
1C1C1C1C1C1C1C0000000000000000000000FF0000000000FF00000000000049000000000000000000000000000000000000FF00000000FF000000000000004900000000000000000000FFFFFFFFFFFFFFFFFF00000000FF000000000000004900000000000000000000FF0000000000000000000000FF00000000000000FC
1004
49FC0000000000000000FF0000000000000000000000FFFF0000000000FCFC0000FCFCFC000000000000FF0000000000000000000000FF0000000000E0E000000000FCE0000000000000FF0000000000000000000000FFFF0000000000000000000000000000000000FF00000000000000000000000000FF00000000000000
1004
00000000000000000000FF00000000000000000000000000FF00000000000000000000000000000000FF000000000000000000000000000000FFFF00000000000000000000000000FFFF00000000000000000000000000000000FFFF00000000000000000000FFFF00000000000000000000000000000000000000FFFFFFFF
1004
FFFFFFFFFFFFFFFF0000000000000000000000000000000000000000000000000000000000000000000000000000000000000000000000000000000000000000000000000000000000000000000000000000000000000000000000000000000000000000000000000000000000000000000000000000000000000000000000
1004
0000000000000000000000000000000000000000000000000000000000000000000000000000000000000000000000000000000000000000
  0
BLOCK_RECORD
  5
223
330
1
100
AcDbSymbolTableRecord
100
AcDbBlockTableRecord
  2
1
1001
CONTENTBLOCKICON
1071
        0
1004
28000000200000002000000001000800000000000004000000000000000000000000000000000000000000004000000080000000FF000000002000004020000080200000FF200000004000004040000080400000FF400000006000004060000080600000FF600000008000004080000080800000FF80000000A0000040A000
1004
0080A00000FFA0000000C0000040C0000080C00000FFC0000000FF000040FF000080FF0000FFFF0000000020004000200080002000FF002000002020004020200080202000FF202000004020004040200080402000FF402000006020004060200080602000FF602000008020004080200080802000FF80200000A0200040A0
1004
200080A02000FFA0200000C0200040C0200080C02000FFC0200000FF200040FF200080FF2000FFFF2000000040004000400080004000FF004000002040004020400080204000FF204000004040004040400080404000FF404000006040004060400080604000FF604000008040004080400080804000FF80400000A0400040
1004
A0400080A04000FFA0400000C0400040C0400080C04000FFC0400000FF400040FF400080FF4000FFFF4000000060004000600080006000FF006000002060004020600080206000FF206000004060004040600080406000FF406000006060004060600080606000FF606000008060004080600080806000FF80600000A06000
1004
40A0600080A06000FFA0600000C0600040C0600080C06000FFC0600000FF600040FF600080FF6000FFFF6000000080004000800080008000FF008000002080004020800080208000FF208000004080004040800080408000FF408000006080004060800080608000FF608000008080004080800080808000FF80800000A080
1004
0040A0800080A08000FFA0800000C0800040C0800080C08000FFC0800000FF800040FF800080FF8000FFFF80000000A0004000A0008000A000FF00A0000020A0004020A0008020A000FF20A0000040A0004040A0008040A000FF40A0000060A0004060A0008060A000FF60A0000080A0004080A0008080A000FF80A00000A0
1004
A00040A0A00080A0A000FFA0A00000C0A00040C0A00080C0A000FFC0A00000FFA00040FFA00080FFA000FFFFA0000000C0004000C0008000C000FF00C0000020C0004020C0008020C000FF20C0000040C0004040C0008040C000FF40C0000060C0004060C0008060C000FF60C0000080C0004080C0008080C000FF80C00000
1004
A0C00040A0C00080A0C000FFA0C00000C0C00040C0C00080C0C000FFC0C00000FFC00040FFC00080FFC000FFFFC0000000FF004000FF008000FF00FF00FF000020FF004020FF008020FF00FF20FF000040FF004040FF008040FF00FF40FF000060FF004060FF008060FF00FF60FF000080FF004080FF008080FF00FF80FF00
1004
00A0FF0040A0FF0080A0FF00FFA0FF0000C0FF0040C0FF0080C0FF00FFC0FF0000FFFF0040FFFF0080FFFF00FFFFFF0000000000000000000000000000000000000000000000000000000000000000000000000000000000000000000000000000000000000000000000000000000000000000000000000000000000000000
1004
00000000000000000000000000000000000000000000000000000000000000000000000000000000000000000000000000000000000000000000000000000000000000000000000000000000000000000000000000000000000000000000FFFFFFFF0000000000000000000000000000000000000000000000000000FFFF00
1004
000000FFFF00000000000000000000000000000000000000000000FFFF0000000000000000FF0000000000000000000000000000000000000000FF0000000000000000000000FF000000000000000000000000000000000000FF00000000000000000000000000FFFFFFFFFFFFFFFFFFFF00000000000000FF000000000000
1004
FFFFFFFF00000000000000000000000000FF00000000000000FF000000FFFFFFFF00FFFFFFFF0000000000000000000000FF000000000000FF00000000FFFFFFFF00FFFFFFFFFFFFFFFFFFFF0000000000FF000000000000FF00000000FFFFFFFFFFFFFFFFFFFFFFFFFFFFFF0000000000FF0000000000FF0000000000FFFF
1004
FFFFFFFFFFFFFF0000000000000000000000FF0000000000FF000000000000FF000000000000000000000000000000000000FF00000000FF00000000000000FF00000000000000000000FFFFFFFFFFFFFFFFFF00000000FF00000000000000FF00000000000000000000FF0000000000000000000000FF00000000000000FF
1004
FFFF0000000000000000FF000000000000000000000000FF0000000000FFFF0000FFFFFF000000000000FF0000000000000000000000FF0000000000FFFF00000000FFFF000000000000FF000000000000000000000000FF0000000000000000000000000000000000FF00000000000000000000000000FF00000000000000
1004
00000000000000000000FF0000000000000000000000000000FF000000000000000000000000000000FF000000000000000000000000000000FFFF0000000000000000000000000000FF0000000000000000000000000000000000FF00000000000000000000FFFFFF00000000000000000000000000000000000000FFFFFF
1004
FFFFFFFFFFFFFF000000000000000000000000000000000000000000000000000000000000000000000000000000000000000000000000000000000000000000000000000000000000000000000000000000000000000000000000000000000000000000000000000000000000000000000000000000000000000000000000
1004
0000000000000000000000000000000000000000000000000000000000000000000000000000000000000000000000000000000000000000
  0
BLOCK_RECORD
  5
38B
330
1
100
AcDbSymbolTableRecord
100
AcDbBlockTableRecord
  2
*U4
  0
BLOCK_RECORD
  5
3B0
330
1
100
AcDbSymbolTableRecord
100
AcDbBlockTableRecord
  2
*U5
  0
BLOCK_RECORD
  5
3C1
330
1
100
AcDbSymbolTableRecord
100
AcDbBlockTableRecord
  2
*U6
  0
BLOCK_RECORD
  5
3D5
330
1
100
AcDbSymbolTableRecord
100
AcDbBlockTableRecord
  2
*U7
  0
BLOCK_RECORD
  5
3DC
330
1
100
AcDbSymbolTableRecord
100
AcDbBlockTableRecord
  2
*U8
  0
BLOCK_RECORD
  5
3EC
330
1
100
AcDbSymbolTableRecord
100
AcDbBlockTableRecord
  2
*U9
  0
BLOCK_RECORD
  5
3F3
330
1
100
AcDbSymbolTableRecord
100
AcDbBlockTableRecord
  2
*U10
  0
BLOCK_RECORD
  5
3FA
330
1
100
AcDbSymbolTableRecord
100
AcDbBlockTableRecord
  2
*U11
  0
BLOCK_RECORD
  5
44B
330
1
100
AcDbSymbolTableRecord
100
AcDbBlockTableRecord
  2
*U12
  0
BLOCK_RECORD
  5
465
330
1
100
AcDbSymbolTableRecord
100
AcDbBlockTableRecord
  2
*U13
  0
BLOCK_RECORD
  5
48A
330
1
100
AcDbSymbolTableRecord
100
AcDbBlockTableRecord
  2
*U14
  0
BLOCK_RECORD
  5
49B
330
1
100
AcDbSymbolTableRecord
100
AcDbBlockTableRecord
  2
*U15
  0
BLOCK_RECORD
  5
4AF
330
1
100
AcDbSymbolTableRecord
100
AcDbBlockTableRecord
  2
*U16
  0
BLOCK_RECORD
  5
4B6
330
1
100
AcDbSymbolTableRecord
100
AcDbBlockTableRecord
  2
*U17
  0
BLOCK_RECORD
  5
4C6
330
1
100
AcDbSymbolTableRecord
100
AcDbBlockTableRecord
  2
*U18
  0
BLOCK_RECORD
  5
4CD
330
1
100
AcDbSymbolTableRecord
100
AcDbBlockTableRecord
  2
*U19
  0
BLOCK_RECORD
  5
4D4
330
1
100
AcDbSymbolTableRecord
100
AcDbBlockTableRecord
  2
*U20
  0
ENDTAB
  0
ENDSEC
  0
SECTION
  2
BLOCKS
  0
BLOCK
  5
20
330
1F
100
AcDbEntity
  8
0
100
AcDbBlockBegin
  2
*MODEL_SPACE
 70
     0
 10
0.0
 20
0.0
 30
0.0
  3
*MODEL_SPACE
  1

  0
ENDBLK
  5
21
330
1F
100
AcDbEntity
  8
0
100
AcDbBlockEnd
  0
BLOCK
  5
52
330
50
100
AcDbEntity
 67
     1
  8
0
100
AcDbBlockBegin
  2
*PAPER_SPACE
 70
     0
 10
0.0
 20
0.0
 30
0.0
  3
*PAPER_SPACE
  1

  0
ENDBLK
  5
53
330
50
100
AcDbEntity
 67
     1
  8
0
100
AcDbBlockEnd
  0
BLOCK
  5
158
330
157
100
AcDbEntity
  8
0
100
AcDbBlockBegin
  2
ADKD1
 70
     0
 10
0.0
 20
0.0
 30
0.0
  3
ADKD1
  1

  0
INSERT
  5
330
330
157
100
AcDbEntity
  8
0
  6
CONTINUOUS
 62
     1
100
AcDbBlockReference
  2
*U12
 10
0.0
 20
0.0
 30
0.0
1001
ACAD
1002
{
1000
R14_HATCH_DATA
1000
330
1011
1.0
1021
0.0
1031
0.0
1011
0.0
1021
1.0
1031
0.0
1011
0.0
1021
0.0
1031
1.0
1040
0.0
1010
0.0
1020
0.0
1030
1.0
1000
SOLID
1070
     1
1070
     1
1071
        2
1071
        7
1070
     0
1070
     1
1071
        4
1040
1449.385827342315
1040
4404.171550181311
1040
1487.508460034678
1040
4338.85894138836
1040
2611.879539336343
1040
4979.407959445426
1040
2567.349749580643
1040
5043.379906755038
1071
        4
1005
380
1005
335
1005
336
1005
334
1071
        7
1070
     0
1070
     1
1071
        4
1040
5031.438245543737
1040
5060.960334628095
1040
4986.876796469274
1040
4996.942905220251
1040
6142.027387331411
1040
4338.85894138836
1040
6180.150020023774
1040
4404.171550181309
1071
        4
1005
37F
1005
332
1005
337
1005
331
1070
     0
1070
     1
1040
5.376591881958963
1071
        2
1040
2286.666470699004
1040
4840.335088094434
1040
0.0
1040
5359.332770635978
1040
4829.581887695472
1040
0.0
1002
}
  0
LINE
  5
331
330
157
100
AcDbEntity
  8
OBJECT
  6
CONTINUOUS
 62
     7
 48
5.0
100
AcDbLine
 10
5031.438245543738
 20
5060.960334628095
 30
0.0
 11
6180.150020023774
 21
4404.171550181309
 31
0.0
  0
LINE
  5
332
330
157
100
AcDbEntity
  8
OBJECT
  6
CONTINUOUS
 62
     7
 48
5.0
100
AcDbLine
 10
6142.027387331411
 20
4338.85894138836
 30
0.0
 11
4986.876796469274
 21
4996.942905220252
 31
0.0
  0
POLYLINE
  5
333
330
157
100
AcDbEntity
  8
SAFETY
 62
     7
 48
5.0
100
AcDb2dPolyline
 66
     1
 10
0.0
 20
0.0
 30
10.0
 70
     1
1001
AVE_FINISH
1002
{
1070
     0
1005
0
1002
}
  0
VERTEX
  5
452
330
333
100
AcDbEntity
  8
SAFETY
 62
     7
 48
5.0
100
AcDbVertex
100
AcDb2dVertex
 10
448.8320667387833
 20
5454.459930793079
 30
10.0
 42
0.4179616491050945
  0
VERTEX
  5
453
330
333
100
AcDbEntity
  8
SAFETY
 62
     7
 48
5.0
100
AcDbVertex
100
AcDb2dVertex
 10
443.3339862684331
 20
3319.635052683155
 30
10.0
  0
VERTEX
  5
454
330
333
100
AcDbEntity
  8
SAFETY
 62
     7
 48
5.0
100
AcDbVertex
100
AcDb2dVertex
 10
2706.350480335672
 20
1073.817481613597
 30
10.0
 42
0.076139048256835
  0
VERTEX
  5
455
330
333
100
AcDbEntity
  8
SAFETY
 62
     7
 48
5.0
100
AcDbVertex
100
AcDb2dVertex
 10
3073.464875513131
 20
806.3744700720381
 30
10.0
  0
VERTEX
  5
456
330
333
100
AcDbEntity
  8
SAFETY
 62
     7
 48
5.0
100
AcDbVertex
100
AcDb2dVertex
 10
4307.18137720189
 20
167.8251652424975
 30
10.0
 42
0.2469956783719942
  0
VERTEX
  5
457
330
333
100
AcDbEntity
  8
SAFETY
 62
     7
 48
5.0
100
AcDbVertex
100
AcDb2dVertex
 10
5703.912174260654
 20
177.1612927924325
 30
10.0
  0
VERTEX
  5
458
330
333
100
AcDbEntity
  8
SAFETY
 62
     7
 48
5.0
100
AcDbVertex
100
AcDb2dVertex
 10
6712.159820347854
 20
716.2215017989764
 30
10.0
  0
VERTEX
  5
459
330
333
100
AcDbEntity
  8
SAFETY
 62
     7
 48
5.0
100
AcDbVertex
100
AcDb2dVertex
 10
8292.45411415413
 20
1199.015840224314
 30
10.0
  0
VERTEX
  5
45A
330
333
100
AcDbEntity
  8
SAFETY
 62
     7
 48
5.0
100
AcDbVertex
100
AcDb2dVertex
 10
10292.45411415413
 20
1199.015840224314
 30
10.0
  0
VERTEX
  5
45B
330
333
100
AcDbEntity
  8
SAFETY
 62
     7
 48
5.0
100
AcDbVertex
100
AcDb2dVertex
 10
10292.45411415413
 20
3735.015789996676
 30
10.0
  0
VERTEX
  5
45C
330
333
100
AcDbEntity
  8
SAFETY
 62
     7
 48
5.0
100
AcDbVertex
100
AcDb2dVertex
 10
8292.45411415413
 20
3735.015789996676
 30
10.0
  0
VERTEX
  5
45D
330
333
100
AcDbEntity
  8
SAFETY
 62
     7
 48
5.0
100
AcDbVertex
100
AcDb2dVertex
 10
7622.973576751293
 20
3939.548188499819
 30
10.0
  0
VERTEX
  5
45E
330
333
100
AcDbEntity
  8
SAFETY
 62
     7
 48
5.0
100
AcDbVertex
100
AcDb2dVertex
 10
7622.973576751293
 20
4384.333361066234
 30
10.0
 42
0.2012434196824126
  0
VERTEX
  5
45F
330
333
100
AcDbEntity
  8
SAFETY
 62
     7
 48
5.0
100
AcDbVertex
100
AcDb2dVertex
 10
7174.0820986293
 20
5454.459930793117
 30
10.0
  0
VERTEX
  5
460
330
333
100
AcDbEntity
  8
SAFETY
 62
     7
 48
5.0
100
AcDbVertex
100
AcDb2dVertex
 10
6290.466042918164
 20
6322.372561411427
 30
10.0
 42
0.1965833926506792
  0
VERTEX
  5
461
330
333
100
AcDbEntity
  8
SAFETY
 62
     7
 48
5.0
100
AcDbVertex
100
AcDb2dVertex
 10
5015.12103637285
 20
6843.952323476139
 30
10.0
  0
VERTEX
  5
462
330
333
100
AcDbEntity
  8
SAFETY
 62
     7
 48
5.0
100
AcDbVertex
100
AcDb2dVertex
 10
2607.793128995272
 20
6843.952323476139
 30
10.0
 42
0.1965833926506792
  0
VERTEX
  5
463
330
333
100
AcDbEntity
  8
SAFETY
 62
     7
 48
5.0
100
AcDbVertex
100
AcDb2dVertex
 10
1332.448122449958
 20
6322.372561411427
 30
10.0
  0
SEQEND
  5
464
330
333
100
AcDbEntity
  8
SAFETY
 62
     7
 48
5.0
  0
LINE
  5
334
330
157
100
AcDbEntity
  8
OBJECT
  6
CONTINUOUS
 62
     7
 48
5.0
100
AcDbLine
 10
1487.508460034678
 20
4338.85894138836
 30
0.0
 11
2611.879539336343
 21
4979.407959445426
 31
0.0
  0
LINE
  5
335
330
157
100
AcDbEntity
  8
OBJECT
  6
CONTINUOUS
 62
     7
 48
5.0
100
AcDbLine
 10
2567.349749580643
 20
5043.379906755036
 30
0.0
 11
1449.385827342315
 21
4404.171550181309
 31
0.0
  0
LINE
  5
336
330
157
100
AcDbEntity
  8
OBJECT
  6
CONTINUOUS
 62
     7
 48
5.0
100
AcDbLine
 10
1449.385827342315
 20
4404.171550181309
 30
0.0
 11
1487.508460034678
 21
4338.85894138836
 31
0.0
  0
LINE
  5
337
330
157
100
AcDbEntity
  8
OBJECT
  6
CONTINUOUS
 62
     7
 48
5.0
100
AcDbLine
 10
6180.150020023774
 20
4404.171550181309
 30
0.0
 11
6142.027387331411
 21
4338.85894138836
 31
0.0
  0
INSERT
  5
338
330
157
100
AcDbEntity
  8
HATCH
  6
CONTINUOUS
 62
     3
100
AcDbBlockReference
  2
*U13
 10
0.0
 20
0.0
 30
0.0
1001
ACAD
1002
{
1000
R14_HATCH_DATA
1000
338
1011
1.0
1021
0.0
1031
0.0
1011
0.0
1021
1.0
1031
0.0
1011
0.0
1021
0.0
1031
1.0
1040
10.0
1010
0.0
1020
0.0
1030
1.0
1000
SOLID
1070
     1
1070
     0
1071
        1
1071
        7
1070
     1
1070
     1
1071
       18
1040
3853.891924093834
1040
2847.923312013196
1040
0.0
1040
3508.299029264184
1040
2847.923312013196
1040
0.0
1040
3508.299029264184
1040
2768.722086078629
1040
0.0
1040
3508.299029264184
1040
2188.553143622619
1040
0.0
1040
3508.299029264184
1040
2117.797822895238
1040
0.0
1040
3720.625804118265
1040
2117.797822895239
1040
0.0
1040
3720.625804118266
1040
2079.698806564338
1040
0.0
1040
3873.11630830562
1040
2079.698806564338
1040
0.0
1040
3873.11630830562
1040
2112.35511096081
1040
0.0
1040
4346.926000882932
1040
2112.35511096081
1040
0.844652822925266
1040
5561.403735137814
1040
1878.318284646009
1040
0.0
1040
5453.156331416667
1040
1878.318284646009
1040
-0.8990080223738463
1040
4459.243833091048
1040
2212.35511096081
1040
0.0
1040
4432.907839738894
1040
2212.35511096081
1040
0.0
1040
3608.299029264184
1040
2212.35511096081
1040
0.0
1040
3608.299029264184
1040
2747.923312013196
1040
0.0
1040
5248.090595471971
1040
2747.923312013195
1040
0.0
1040
5248.09059547197
1040
2847.923312013196
1040
0.0
1071
        0
1070
     0
1070
     1
1040
3.446947199435031
1071
        1
1040
5020.266942337276
1040
2810.197482511345
1040
10.0
1002
}
  0
INSERT
  5
339
330
157
100
AcDbEntity
  8
HATCH
  6
CONTINUOUS
 62
     3
100
AcDbBlockReference
  2
*U14
 10
0.0
 20
0.0
 30
0.0
1001
ACAD
1002
{
1000
R14_HATCH_DATA
1000
339
1011
1.0
1021
0.0
1031
0.0
1011
0.0
1021
1.0
1031
0.0
1011
0.0
1021
0.0
1031
1.0
1040
10.0
1010
0.0
1020
0.0
1030
1.0
1000
SOLID
1070
     1
1070
     0
1071
        8
1071
        7
1070
     0
1070
     1
1071
        5
1040
6140.78400996022
1040
2765.631986129762
1040
6140.78400996022
1040
2178.31828464601
1040
6440.784009960222
1040
1878.318284646008
1040
6440.784009960222
1040
2755.397127153152
1040
6440.784009960222
1040
3065.631986129762
1071
        0
1071
        7
1070
     0
1070
     1
1071
        4
1040
6140.784009960221
1040
2765.631986129763
1040
6440.784009960221
1040
3065.631986129762
1040
5248.09059547197
1040
3065.631986129762
1040
5548.09059547197
1040
2765.631986129763
1071
        0
1071
        7
1070
     0
1070
     1
1071
        3
1040
6140.784009960222
1040
2765.631986129763
1040
5548.09059547197
1040
2765.631986129763
1040
5844.437302716096
1040
2471.975135387886
1071
        0
1071
        7
1070
     0
1070
     1
1071
        3
1040
5844.437302716095
1040
2471.975135387886
1040
6140.784009960221
1040
2178.31828464601
1040
6140.784009960221
1040
2765.631986129763
1071
        0
1071
        7
1070
     0
1070
     1
1071
        3
1040
5548.09059547197
1040
2178.318284646008
1040
6140.78400996022
1040
2178.318284646008
1040
5844.437302716095
1040
2471.975135387885
1071
        0
1071
        7
1070
     0
1070
     1
1071
        3
1040
5548.090595471971
1040
2178.318284646008
1040
5844.437302716095
1040
2471.975135387885
1040
5548.090595471971
1040
2765.631986129761
1071
        0
1071
        7
1070
     0
1070
     1
1071
        5
1040
5248.090595471971
1040
1878.318284646009
1040
5548.090595471971
1040
2178.318284646008
1040
5548.090595471971
1040
2765.631986129763
1040
5248.090595471971
1040
3065.631986129764
1040
5248.090595471971
1040
2847.923312013196
1071
        0
1071
        7
1070
     0
1070
     1
1071
        4
1040
6440.784009960222
1040
1878.318284646009
1040
6140.784009960221
1040
2178.318284646009
1040
5548.090595471971
1040
2178.318284646008
1040
5248.090595471972
1040
1878.318284646009
1071
        0
1070
     0
1070
     1
1040
2.755480430891326
1071
        8
1040
6263.352448344471
1040
2810.384232960545
1040
10.0
1040
6089.650842914827
1040
2840.694513441084
1040
10.0
1040
5968.33543116702
1040
2689.143092439595
1040
10.0
1040
6031.750298644103
1040
2523.814264456481
1040
10.0
1040
5811.176822738992
1040
2328.175155992832
1040
10.0
1040
5645.746743192696
1040
2457.682733263236
1040
10.0
1040
5397.601569108178
1040
2496.259469092025
1040
10.0
1040
5593.360522128328
1040
2008.539421892148
1040
10.0
1002
}
  0
INSERT
  5
33A
330
157
100
AcDbEntity
  8
HATCH
  6
CONTINUOUS
 62
     2
100
AcDbBlockReference
  2
*U15
 10
0.0
 20
0.0
 30
0.0
1001
ACAD
1002
{
1000
R14_HATCH_DATA
1000
33A
1011
1.0
1021
0.0
1031
0.0
1011
0.0
1021
1.0
1031
0.0
1011
0.0
1021
0.0
1031
1.0
1040
10.0
1010
0.0
1020
0.0
1030
1.0
1000
SOLID
1070
     1
1070
     0
1071
        5
1071
        7
1070
     0
1070
     1
1071
        4
1040
8292.45411415413
1040
2711.855398887818
1040
8292.45411415413
1040
2755.397127153152
1040
6440.784009960222
1040
2755.397127153152
1040
6440.784009960222
1040
2711.855398887817
1071
        0
1071
        7
1070
     0
1070
     1
1071
        5
1040
6440.784009960222
1040
2711.855398887818
1040
6440.784009960222
1040
2655.39712715315
1040
8161.956661279804
1040
2655.39712715315
1040
8172.64015607196
1040
2662.870942293104
1040
8210.762762182225
1040
2711.855398887818
1071
        0
1071
        7
1070
     0
1070
     1
1071
        9
1040
6440.784009960222
1040
2655.397127153151
1040
6440.784009960221
1040
2299.015840224314
1040
8163.706570338336
1040
2299.015840224313
1040
8118.179263618051
1040
2330.865219183835
1040
8096.394917269334
1040
2390.735099647407
1040
8096.394917269334
1040
2477.818572573017
1040
8096.394917269334
1040
2564.90204549863
1040
8118.179263618051
1040
2624.771925962202
1040
8161.956661279804
1040
2655.39712715315
1071
        0
1071
        7
1070
     0
1070
     1
1071
        5
1040
8211.715489845742
1040
2242.557568489648
1040
8172.64015607196
1040
2292.766202852931
1040
8163.706570338336
1040
2299.015840224314
1040
6440.784009960222
1040
2299.015840224314
1040
6440.784009960222
1040
2242.557568489647
1071
        0
1071
        7
1070
     0
1070
     1
1071
        4
1040
6440.784009960222
1040
2242.557568489647
1040
6440.784009960222
1040
2199.015840224313
1040
8282.306505478187
1040
2199.015840224314
1040
8282.306505478187
1040
2242.557568489647
1071
        0
1070
     0
1070
     1
1040
2.959461949037637
1071
        5
1040
7651.865964964436
1040
2729.928211381315
1040
10.0
1040
7645.943422857782
1040
2691.455201003694
1040
10.0
1040
7634.098311261936
1040
2596.752413381398
1040
10.0
1040
7598.563031239475
1040
2247.535899135693
1040
10.0
1040
7598.563031239475
1040
2226.819674223921
1040
10.0
1002
}
  0
INSERT
  5
33B
330
157
100
AcDbEntity
  8
HATCH
  6
CONTINUOUS
 62
     1
100
AcDbBlockReference
  2
*U16
 10
0.0
 20
0.0
 30
0.0
1001
ACAD
1002
{
1000
R14_HATCH_DATA
1000
33B
1011
1.0
1021
0.0
1031
0.0
1011
0.0
1021
1.0
1031
0.0
1011
0.0
1021
0.0
1031
1.0
1040
10.0
1010
0.0
1020
0.0
1030
1.0
1000
SOLID
1070
     1
1070
     0
1071
        2
1071
        7
1070
     0
1070
     1
1071
        4
1040
4922.39526757605
1040
5152.632028307132
1040
4851.411287876453
1040
5050.655723588832
1040
4971.225219376531
1040
4974.457690927025
1040
5042.209199076125
1040
5076.433995645325
1071
        0
1071
        7
1070
     0
1070
     1
1071
        4
1040
2615.325337465511
1040
4974.457690927024
1040
2735.139268965586
1040
5050.655723588832
1040
2664.155289265989
1040
5152.632028307134
1040
2544.341357765913
1040
5076.433995645326
1071
        0
1070
     0
1070
     1
1040
4.095125391011505
1071
        2
1040
4953.497083961283
1040
5065.255802350822
1040
10.0
1040
2605.552885384041
1040
5061.160664998375
1040
10.0
1002
}
  0
INSERT
  5
33C
330
157
100
AcDbEntity
  8
HATCH
  6
CONTINUOUS
 62
   251
100
AcDbBlockReference
  2
*U17
 10
0.0
 20
0.0
 30
0.0
1001
ACAD
1002
{
1000
R14_HATCH_DATA
1000
33C
1011
1.0
1021
0.0
1031
0.0
1011
0.0
1021
1.0
1031
0.0
1011
0.0
1021
0.0
1031
1.0
1040
10.0
1010
0.0
1020
0.0
1030
1.0
1000
SOLID
1070
     1
1070
     0
1071
        1
1071
        7
1070
     1
1070
     1
1071
        7
1040
4459.243833091062
1040
2212.355110960876
1040
0.8990080223739047
1040
5453.156331416667
1040
1878.318284646009
1040
0.0
1040
5248.090595471971
1040
1878.318284646009
1040
0.0
1040
5248.090595471971
1040
2747.923312013196
1040
0.0
1040
3608.299029264184
1040
2747.923312013196
1040
0.0
1040
3608.299029264184
1040
2212.35511096081
1040
0.0
1040
4432.907839738894
1040
2212.35511096081
1040
0.0
1071
        0
1070
     0
1070
     1
1040
5.57951830939697
1071
        1
1040
4468.438588031299
1040
2474.772863704578
1040
10.0
1002
}
  0
INSERT
  5
33D
330
157
100
AcDbEntity
  8
HATCH
  6
CONTINUOUS
 62
     2
100
AcDbBlockReference
  2
*U18
 10
0.0
 20
0.0
 30
0.0
1001
ACAD
1002
{
1000
R14_HATCH_DATA
1000
33D
1011
1.0
1021
0.0
1031
0.0
1011
0.0
1021
1.0
1031
0.0
1011
0.0
1021
0.0
1031
1.0
1040
10.0
1010
0.0
1020
0.0
1030
1.0
1000
SOLID
1070
     1
1070
     0
1071
        2
1071
        7
1070
     0
1070
     1
1071
        4
1040
3508.299029264184
1040
2847.923312013196
1040
3459.213568187294
1040
2847.923312013196
1040
3459.213568187294
1040
2768.722086078629
1040
3508.299029264184
1040
2768.722086078629
1071
        0
1071
        7
1070
     0
1070
     1
1071
        4
1040
3508.299029264184
1040
2188.553143622619
1040
3459.213568187294
1040
2188.553143622619
1040
3459.213568187294
1040
2117.797822895238
1040
3508.299029264184
1040
2117.797822895238
1071
        0
1070
     0
1070
     1
1040
2.417081411970823
1071
        2
1040
3473.169939458868
1040
2805.460482321302
1040
10.0
1040
3478.008242527685
1040
2143.180172175862
1040
10.0
1002
}
  0
INSERT
  5
33E
330
157
100
AcDbEntity
  8
HATCH
  6
CONTINUOUS
 62
   251
100
AcDbBlockReference
  2
*U19
 10
0.0
 20
0.0
 30
0.0
1001
ACAD
1002
{
1000
R14_HATCH_DATA
1000
33E
1011
1.0
1021
0.0
1031
0.0
1011
0.0
1021
1.0
1031
0.0
1011
0.0
1021
0.0
1031
1.0
1040
10.0
1010
0.0
1020
0.0
1030
1.0
1000
SOLID
1070
     1
1070
     0
1071
        1
1071
        7
1070
     0
1070
     1
1071
        4
1040
3853.891924093834
1040
4483.116225160181
1040
3732.014823604421
1040
4483.116225160181
1040
3732.014823604421
1040
2847.923312013196
1040
3853.891924093834
1040
2847.923312013197
1071
        0
1070
     0
1070
     1
1040
4.319881211133888
1071
        1
1040
3780.26230062509
1040
3914.388778594612
1040
10.0
1002
}
  0
INSERT
  5
33F
330
157
100
AcDbEntity
  8
HATCH
  6
CONTINUOUS
 62
     2
100
AcDbBlockReference
  2
*U20
 10
0.0
 20
0.0
 30
0.0
1001
ACAD
1002
{
1000
R14_HATCH_DATA
1000
33F
1011
1.0
1021
0.0
1031
0.0
1011
0.0
1021
1.0
1031
0.0
1011
0.0
1021
0.0
1031
1.0
1040
10.0
1010
0.0
1020
0.0
1030
1.0
1000
SOLID
1070
     1
1070
     0
1071
        2
1071
        7
1070
     1
1070
     1
1071
       11
1040
4793.520145548952
1040
4819.797986217641
1040
0.1103683208211134
1040
4889.894876598191
1040
4908.302998178153
1040
0.0
1040
4945.099702007337
1040
4987.610809907906
1040
0.0
1040
4887.509851004516
1040
5027.698130445547
1040
0.0
1040
4850.559746832246
1040
4974.615236271529
1040
-0.1124445043418377
1040
4752.048092992967
1040
4884.88979810349
1040
0.0
1040
4021.321760936249
1040
4471.527195994308
1040
-0.1461747253261146
1040
3853.891924093834
1040
4433.292281753142
1040
0.0
1040
3853.891924093833
1040
4363.438092832067
1040
0.0
1040
3921.716133588542
1040
4363.438092832068
1040
0.1315028299852904
1040
4071.563215462933
1040
4403.54224435863
1040
0.0
1071
        0
1071
        7
1070
     1
1070
     1
1071
       11
1040
3514.987341379131
1040
4403.542244358625
1040
0.1315028299852927
1040
3664.834423253511
1040
4363.438092832068
1040
0.0
1040
3732.014823604421
1040
4363.438092832068
1040
0.0
1040
3732.014823604421
1040
4433.250566222639
1040
-0.1456256480237513
1040
3565.228795905788
1040
4471.52719599431
1040
0.0
1040
2834.502463849071
1040
4884.889798103491
1040
-0.1124445043418253
1040
2735.990810009801
1040
4974.615236271519
1040
0.0
1040
2697.370362948181
1040
5030.097761970691
1040
0.0
1040
2639.780511945366
1040
4990.010441433049
1040
0.0
1040
2696.655680243873
1040
4908.302998178132
1040
0.1103683208211018
1040
2793.030411293131
1040
4819.797986217609
1040
0.0
1071
        0
1070
     0
1070
     1
1040
3.819941570429333
1071
        2
1040
4476.321041994964
1040
4660.594564298873
1040
10.0
1040
3424.936411093022
1040
4488.697178764538
1040
10.0
1002
}
  0
LINE
  5
340
330
157
100
AcDbEntity
  8
OBJECT
  6
CONTINUOUS
 62
     7
 48
5.0
100
AcDbLine
 10
5548.090595471971
 20
2765.631986129763
 30
10.0
 11
5548.090595471971
 21
2178.318284646008
 31
10.0
  0
LINE
  5
341
330
157
100
AcDbEntity
  8
OBJECT
  6
CONTINUOUS
 62
     7
 48
5.0
100
AcDbLine
 10
6140.784009960221
 20
2765.631986129763
 30
10.0
 11
5548.090595471971
 21
2178.318284646008
 31
10.0
  0
LINE
  5
342
330
157
100
AcDbEntity
  8
OBJECT
  6
CONTINUOUS
 62
     7
 48
5.0
100
AcDbLine
 10
6140.784009960221
 20
2178.318284646008
 30
10.0
 11
5548.090595471971
 21
2765.631986129763
 31
10.0
  0
LINE
  5
343
330
157
100
AcDbEntity
  8
OBJECT
  6
CONTINUOUS
 62
     7
 48
5.0
100
AcDbLine
 10
5248.090595471971
 20
3065.631986129762
 30
10.0
 11
5548.090595471971
 21
2765.631986129763
 31
10.0
  0
LINE
  5
344
330
157
100
AcDbEntity
  8
OBJECT
  6
CONTINUOUS
 62
     7
 48
5.0
100
AcDbLine
 10
6440.784009960222
 20
3065.631986129762
 30
10.0
 11
5248.090595471971
 21
3065.631986129762
 31
10.0
  0
LINE
  5
345
330
157
100
AcDbEntity
  8
OBJECT
  6
CONTINUOUS
 62
     7
 48
5.0
100
AcDbLine
 10
5248.090595471971
 20
1878.318284646009
 30
10.0
 11
6440.784009960222
 21
1878.318284646009
 31
10.0
  0
LINE
  5
346
330
157
100
AcDbEntity
  8
OBJECT
  6
CONTINUOUS
 62
     7
 48
5.0
100
AcDbLine
 10
5548.090595471971
 20
2178.318284646008
 30
10.0
 11
5248.090595471971
 21
1878.318284646009
 31
10.0
  0
ARC
  5
347
330
157
100
AcDbEntity
  8
OBJECT
  6
CONTINUOUS
 62
     7
 48
5.0
100
AcDbCircle
 10
4974.015026450988
 20
2098.344313430242
 30
10.0
 40
627.2455248428131
100
AcDbArc
 50
178.7200764222861
 51
339.4648869002398
  0
ARC
  5
348
330
157
100
AcDbEntity
  8
OBJECT
  6
CONTINUOUS
 62
     7
 48
5.0
100
AcDbCircle
 10
4974.015026450988
 20
2098.344313430242
 30
10.0
 40
527.2455248428131
100
AcDbArc
 50
167.5118006900442
 51
335.3349839908247
  0
LINE
  5
349
330
157
100
AcDbEntity
  8
OBJECT
  6
CONTINUOUS
 62
     7
 48
5.0
100
AcDbLine
 10
3853.891924093834
 20
2847.923312013196
 30
10.0
 11
3853.891924093834
 21
4483.116225160181
 31
10.0
  0
LINE
  5
34A
330
157
100
AcDbEntity
  8
OBJECT
  6
CONTINUOUS
 62
     7
 48
5.0
100
AcDbLine
 10
3732.014823604421
 20
4483.116225160181
 30
10.0
 11
3732.014823604421
 21
2847.923312013196
 31
10.0
  0
LINE
  5
34B
330
157
100
AcDbEntity
  8
OBJECT
  6
CONTINUOUS
 62
     7
 48
5.0
100
AcDbLine
 10
3608.299029264184
 20
2212.35511096081
 30
10.0
 11
4432.907839738894
 21
2212.35511096081
 31
10.0
  0
LINE
  5
34C
330
157
100
AcDbEntity
  8
OBJECT
  6
CONTINUOUS
 62
     7
 48
5.0
100
AcDbLine
 10
3873.116308305619
 20
2112.35511096081
 30
10.0
 11
4346.926000882933
 21
2112.35511096081
 31
10.0
  0
LINE
  5
34D
330
157
100
AcDbEntity
  8
OBJECT
  6
CONTINUOUS
 62
     7
 48
5.0
100
AcDbLine
 10
5248.090595471971
 20
2847.923312013196
 30
10.0
 11
3853.891924093834
 21
2847.923312013196
 31
10.0
  0
LINE
  5
34E
330
157
100
AcDbEntity
  8
OBJECT
  6
CONTINUOUS
 62
     7
 48
5.0
100
AcDbLine
 10
5248.090595471971
 20
2747.923312013196
 30
10.0
 11
3608.299029264184
 21
2747.923312013196
 31
10.0
  0
LINE
  5
34F
330
157
100
AcDbEntity
  8
OBJECT
  6
CONTINUOUS
 62
     7
 48
5.0
100
AcDbLine
 10
3608.299029264184
 20
2747.923312013196
 30
10.0
 11
3608.299029264184
 21
2212.35511096081
 31
10.0
  0
LINE
  5
350
330
157
100
AcDbEntity
  8
OBJECT
  6
CONTINUOUS
 62
     7
 48
5.0
100
AcDbLine
 10
3508.299029264184
 20
2188.553143622619
 30
10.0
 11
3508.299029264184
 21
2768.722086078629
 31
10.0
  0
LINE
  5
351
330
157
100
AcDbEntity
  8
OBJECT
  6
CONTINUOUS
 62
     7
 48
5.0
100
AcDbLine
 10
3508.299029264184
 20
2768.722086078629
 30
10.0
 11
3508.299029264184
 21
2188.553143622619
 31
10.0
  0
LINE
  5
352
330
157
100
AcDbEntity
  8
OBJECT
  6
CONTINUOUS
 62
     7
 48
5.0
100
AcDbLine
 10
3459.213568187294
 20
2117.797822895238
 30
10.0
 11
3720.625804118265
 21
2117.797822895238
 31
10.0
  0
LINE
  5
353
330
157
100
AcDbEntity
  8
OBJECT
  6
CONTINUOUS
 62
     7
 48
5.0
100
AcDbLine
 10
3459.213568187294
 20
2188.553143622619
 30
10.0
 11
3459.213568187294
 21
2117.797822895238
 31
10.0
  0
LINE
  5
354
330
157
100
AcDbEntity
  8
OBJECT
  6
CONTINUOUS
 62
     7
 48
5.0
100
AcDbLine
 10
3508.299029264184
 20
2188.553143622619
 30
10.0
 11
3459.213568187294
 21
2188.553143622619
 31
10.0
  0
LINE
  5
355
330
157
100
AcDbEntity
  8
OBJECT
  6
CONTINUOUS
 62
     7
 48
5.0
100
AcDbLine
 10
3720.625804118265
 20
2079.698806564338
 30
10.0
 11
3873.116308305619
 21
2079.698806564338
 31
10.0
  0
LINE
  5
356
330
157
100
AcDbEntity
  8
OBJECT
  6
CONTINUOUS
 62
     7
 48
5.0
100
AcDbLine
 10
3720.625804118265
 20
2117.797822895238
 30
10.0
 11
3720.625804118265
 21
2079.698806564338
 31
10.0
  0
LINE
  5
357
330
157
100
AcDbEntity
  8
OBJECT
  6
CONTINUOUS
 62
     7
 48
5.0
100
AcDbLine
 10
3873.116308305619
 20
2079.698806564338
 30
10.0
 11
3873.116308305619
 21
2112.35511096081
 31
10.0
  0
LINE
  5
358
330
157
100
AcDbEntity
  8
OBJECT
  6
CONTINUOUS
 62
     7
 48
5.0
100
AcDbLine
 10
3853.891924093834
 20
2847.923312013196
 30
10.0
 11
3459.213568187294
 21
2847.923312013196
 31
10.0
  0
LINE
  5
359
330
157
100
AcDbEntity
  8
OBJECT
  6
CONTINUOUS
 62
     7
 48
5.0
100
AcDbLine
 10
3459.213568187294
 20
2768.722086078629
 30
10.0
 11
3459.213568187294
 21
2847.923312013196
 31
10.0
  0
LINE
  5
35A
330
157
100
AcDbEntity
  8
OBJECT
  6
CONTINUOUS
 62
     7
 48
5.0
100
AcDbLine
 10
3508.299029264184
 20
2768.722086078629
 30
10.0
 11
3459.213568187294
 21
2768.722086078629
 31
10.0
  0
LINE
  5
35B
330
157
100
AcDbEntity
  8
OBJECT
  6
CONTINUOUS
 62
     7
 48
5.0
100
AcDbLine
 10
3459.213568187294
 20
2768.722086078629
 30
10.0
 11
3508.299029264184
 21
2768.722086078629
 31
10.0
  0
LINE
  5
35C
330
157
100
AcDbEntity
  8
OBJECT
  6
CONTINUOUS
 62
     7
 48
5.0
100
AcDbLine
 10
5248.090595471971
 20
2847.923312013196
 30
10.0
 11
5248.090595471971
 21
1878.318284646009
 31
10.0
  0
LINE
  5
35D
330
157
100
AcDbEntity
  8
OBJECT
  6
CONTINUOUS
 62
     7
 48
5.0
100
AcDbLine
 10
4432.907839738894
 20
2212.35511096081
 30
10.0
 11
4459.243833091048
 21
2212.35511096081
 31
10.0
  0
LINE
  5
35E
330
157
100
AcDbEntity
  8
OBJECT
  6
CONTINUOUS
 62
     7
 48
5.0
100
AcDbLine
 10
5248.090595471971
 20
3065.631986129762
 30
10.0
 11
5248.090595471971
 21
2847.923312013196
 31
10.0
  0
LINE
  5
35F
330
157
100
AcDbEntity
  8
OBJECT
  6
CONTINUOUS
 62
     7
 48
5.0
100
AcDbLine
 10
3853.891924093834
 20
4483.116225160181
 30
10.0
 11
3732.014823604421
 21
4483.116225160181
 31
10.0
  0
LINE
  5
360
330
157
100
AcDbEntity
  8
OBJECT
  6
CONTINUOUS
 62
     7
 48
5.0
100
AcDbLine
 10
2664.15528926599
 20
5152.632028307133
 30
10.0
 11
2735.139268965587
 21
5050.655723588832
 31
10.0
  0
LINE
  5
361
330
157
100
AcDbEntity
  8
OBJECT
  6
CONTINUOUS
 62
     7
 48
5.0
100
AcDbLine
 10
2664.15528926599
 20
5152.632028307133
 30
10.0
 11
2544.341357765913
 21
5076.433995645326
 31
10.0
  0
LINE
  5
362
330
157
100
AcDbEntity
  8
OBJECT
  6
CONTINUOUS
 62
     7
 48
5.0
100
AcDbLine
 10
2544.341357765913
 20
5076.433995645326
 30
10.0
 11
2615.325337465511
 21
4974.457690927025
 31
10.0
  0
LINE
  5
363
330
157
100
AcDbEntity
  8
OBJECT
  6
CONTINUOUS
 62
     7
 48
5.0
100
AcDbLine
 10
2735.139268965587
 20
5050.655723588832
 30
10.0
 11
2615.316236893351
 21
4974.451903238682
 31
10.0
  0
LINE
  5
364
330
157
100
AcDbEntity
  8
OBJECT
  6
CONTINUOUS
 62
     7
 48
5.0
100
AcDbLine
 10
4922.39526757605
 20
5152.632028307133
 30
10.0
 11
4851.411287876453
 21
5050.655723588832
 31
10.0
  0
LINE
  5
365
330
157
100
AcDbEntity
  8
OBJECT
  6
CONTINUOUS
 62
     7
 48
5.0
100
AcDbLine
 10
4922.39526757605
 20
5152.632028307133
 30
10.0
 11
5042.209199076126
 21
5076.433995645326
 31
10.0
  0
LINE
  5
366
330
157
100
AcDbEntity
  8
OBJECT
  6
CONTINUOUS
 62
     7
 48
5.0
100
AcDbLine
 10
4851.411287876453
 20
5050.655723588832
 30
10.0
 11
4971.23431994869
 21
4974.451903238682
 31
10.0
  0
LINE
  5
367
330
157
100
AcDbEntity
  8
OBJECT
  6
CONTINUOUS
 62
     7
 48
5.0
100
AcDbLine
 10
5042.209199076126
 20
5076.433995645326
 30
10.0
 11
4971.225219376531
 21
4974.457690927025
 31
10.0
  0
LINE
  5
368
330
157
100
AcDbEntity
  8
OBJECT
  6
CONTINUOUS
 62
     7
 48
5.0
100
AcDbLine
 10
6440.784009960222
 20
2199.015840224314
 30
10.0
 11
8282.306505478187
 21
2199.015840224314
 31
10.0
  0
LINE
  5
369
330
157
100
AcDbEntity
  8
OBJECT
  6
CONTINUOUS
 62
     7
 48
5.0
100
AcDbLine
 10
8292.45411415413
 20
2755.397127153152
 30
10.0
 11
6440.784009960222
 21
2755.397127153152
 31
10.0
  0
LINE
  5
36A
330
157
100
AcDbEntity
  8
OBJECT
  6
CONTINUOUS
 62
     7
 48
5.0
100
AcDbLine
 10
8282.306505478187
 20
2242.557568489647
 30
10.0
 11
6440.784009960222
 21
2242.557568489647
 31
10.0
  0
LINE
  5
36B
330
157
100
AcDbEntity
  8
OBJECT
  6
CONTINUOUS
 62
     7
 48
5.0
100
AcDbLine
 10
6440.784009960222
 20
2711.855398887818
 30
10.0
 11
8292.45411415413
 21
2711.855398887818
 31
10.0
  0
LINE
  5
36C
330
157
100
AcDbEntity
  8
OBJECT
  6
CONTINUOUS
 62
     7
 48
5.0
100
AcDbLine
 10
8161.956661279807
 20
2655.39712715315
 30
10.0
 11
6440.784009960222
 21
2655.39712715315
 31
10.0
  0
LINE
  5
36D
330
157
100
AcDbEntity
  8
OBJECT
  6
CONTINUOUS
 62
     7
 48
5.0
100
AcDbLine
 10
6440.784009960222
 20
2299.015840224314
 30
10.0
 11
8163.706570338336
 21
2299.015840224314
 31
10.0
  0
LINE
  5
36E
330
157
100
AcDbEntity
  8
OBJECT
  6
CONTINUOUS
 62
     7
 48
5.0
100
AcDbLine
 10
6140.784009960221
 20
2765.631986129763
 30
10.0
 11
6140.784009960221
 21
2178.318284646008
 31
10.0
  0
LINE
  5
36F
330
157
100
AcDbEntity
  8
OBJECT
  6
CONTINUOUS
 62
     7
 48
5.0
100
AcDbLine
 10
6440.784009960222
 20
2755.397127153152
 30
10.0
 11
6440.784009960222
 21
1878.318284646009
 31
10.0
  0
LINE
  5
370
330
157
100
AcDbEntity
  8
OBJECT
  6
CONTINUOUS
 62
     7
 48
5.0
100
AcDbLine
 10
6440.784009960222
 20
1878.318284646009
 30
10.0
 11
6140.784009960221
 21
2178.318284646008
 31
10.0
  0
LINE
  5
371
330
157
100
AcDbEntity
  8
OBJECT
  6
CONTINUOUS
 62
     7
 48
5.0
100
AcDbLine
 10
5548.090595471971
 20
2178.318284646008
 30
10.0
 11
6140.784009960221
 21
2178.318284646008
 31
10.0
  0
LINE
  5
372
330
157
100
AcDbEntity
  8
OBJECT
  6
CONTINUOUS
 62
     7
 48
5.0
100
AcDbLine
 10
6440.784009960222
 20
3065.631986129762
 30
10.0
 11
6140.784009960221
 21
2765.631986129763
 31
10.0
  0
LINE
  5
373
330
157
100
AcDbEntity
  8
OBJECT
  6
CONTINUOUS
 62
     7
 48
5.0
100
AcDbLine
 10
6140.784009960221
 20
2765.631986129763
 30
10.0
 11
5548.090595471971
 21
2765.631986129763
 31
10.0
  0
LINE
  5
374
330
157
100
AcDbEntity
  8
OBJECT
  6
CONTINUOUS
 62
     7
 48
5.0
100
AcDbLine
 10
6440.784009960222
 20
2755.397127153152
 30
10.0
 11
6440.784009960222
 21
3065.631986129762
 31
10.0
  0
LINE
  5
375
330
157
100
AcDbEntity
  8
OBJECT
  6
CONTINUOUS
 62
     7
 48
5.0
100
AcDbLine
 10
8096.394917269334
 20
2477.818572573017
 30
10.0
 11
8096.394917269334
 21
2390.735099647405
 31
10.0
  0
LINE
  5
376
330
157
100
AcDbEntity
  8
OBJECT
  6
CONTINUOUS
 62
     7
 48
5.0
100
AcDbLine
 10
8172.640156071961
 20
2292.766202852929
 30
10.0
 11
8211.715489845742
 21
2242.557568489647
 31
10.0
  0
LINE
  5
377
330
157
100
AcDbEntity
  8
OBJECT
  6
CONTINUOUS
 62
     7
 48
5.0
100
AcDbLine
 10
8282.306505478187
 20
2199.015840224314
 30
10.0
 11
8282.306505478187
 21
2242.557568489647
 31
10.0
  0
LINE
  5
378
330
157
100
AcDbEntity
  8
OBJECT
  6
CONTINUOUS
 62
     7
 48
5.0
100
AcDbLine
 10
8096.394917269334
 20
2390.735099647405
 30
10.0
 11
8118.179263618051
 21
2330.865219183833
 31
10.0
  0
LINE
  5
379
330
157
100
AcDbEntity
  8
OBJECT
  6
CONTINUOUS
 62
     7
 48
5.0
100
AcDbLine
 10
8118.179263618051
 20
2330.865219183833
 30
10.0
 11
8172.640156071961
 21
2292.766202852929
 31
10.0
  0
LINE
  5
37A
330
157
100
AcDbEntity
  8
OBJECT
  6
CONTINUOUS
 62
     7
 48
5.0
100
AcDbLine
 10
8172.640156071961
 20
2662.870942293106
 30
10.0
 11
8210.762762182225
 21
2711.855398887818
 31
10.0
  0
LINE
  5
37B
330
157
100
AcDbEntity
  8
OBJECT
  6
CONTINUOUS
 62
     7
 48
5.0
100
AcDbLine
 10
8096.394917269334
 20
2477.818572573017
 30
10.0
 11
8096.394917269334
 21
2564.902045498631
 31
10.0
  0
LINE
  5
37C
330
157
100
AcDbEntity
  8
OBJECT
  6
CONTINUOUS
 62
     7
 48
5.0
100
AcDbLine
 10
8096.394917269334
 20
2564.902045498631
 30
10.0
 11
8118.179263618051
 21
2624.771925962203
 31
10.0
  0
LINE
  5
37D
330
157
100
AcDbEntity
  8
OBJECT
  6
CONTINUOUS
 62
     7
 48
5.0
100
AcDbLine
 10
8118.179263618051
 20
2624.771925962203
 30
10.0
 11
8172.640156071961
 21
2662.870942293106
 31
10.0
  0
LINE
  5
37E
330
157
100
AcDbEntity
  8
OBJECT
  6
CONTINUOUS
 62
     7
 48
5.0
100
AcDbLine
 10
8292.45411415413
 20
2711.855398887818
 30
10.0
 11
8292.45411415413
 21
2755.397127153152
 31
10.0
  0
POLYLINE
  5
37F
330
157
100
AcDbEntity
  8
OBJECT
100
AcDb2dPolyline
 66
     1
 10
0.0
 20
0.0
 30
10.0
 70
     1
  0
VERTEX
  5
4F1
330
37F
100
AcDbEntity
  8
OBJECT
100
AcDbVertex
100
AcDb2dVertex
 10
4971.225219376531
 20
4974.457690927025
 30
10.0
  0
VERTEX
  5
4F2
330
37F
100
AcDbEntity
  8
OBJECT
100
AcDbVertex
100
AcDb2dVertex
 10
4851.411287876453
 20
5050.655723588832
 30
10.0
  0
VERTEX
  5
4F3
330
37F
100
AcDbEntity
  8
OBJECT
100
AcDbVertex
100
AcDb2dVertex
 10
4922.39526757605
 20
5152.632028307133
 30
10.0
  0
VERTEX
  5
4F4
330
37F
100
AcDbEntity
  8
OBJECT
100
AcDbVertex
100
AcDb2dVertex
 10
5042.209199076126
 20
5076.433995645326
 30
10.0
  0
SEQEND
  5
4F5
330
37F
100
AcDbEntity
  8
OBJECT
  0
POLYLINE
  5
380
330
157
100
AcDbEntity
  8
OBJECT
100
AcDb2dPolyline
 66
     1
 10
0.0
 20
0.0
 30
10.0
 70
     1
  0
VERTEX
  5
4F6
330
380
100
AcDbEntity
  8
OBJECT
100
AcDbVertex
100
AcDb2dVertex
 10
2735.139268965587
 20
5050.655723588832
 30
10.0
  0
VERTEX
  5
4F7
330
380
100
AcDbEntity
  8
OBJECT
100
AcDbVertex
100
AcDb2dVertex
 10
2615.325337465511
 20
4974.457690927025
 30
10.0
  0
VERTEX
  5
4F8
330
380
100
AcDbEntity
  8
OBJECT
100
AcDbVertex
100
AcDb2dVertex
 10
2544.341357765913
 20
5076.433995645326
 30
10.0
  0
VERTEX
  5
4F9
330
380
100
AcDbEntity
  8
OBJECT
100
AcDbVertex
100
AcDb2dVertex
 10
2664.15528926599
 20
5152.632028307133
 30
10.0
  0
SEQEND
  5
4FA
330
380
100
AcDbEntity
  8
OBJECT
  0
LINE
  5
381
330
157
100
AcDbEntity
  8
OBJECT
100
AcDbLine
 10
3508.299029264184
 20
2768.722086078629
 30
10.0
 11
3508.299029264184
 21
2847.923312013196
 31
10.0
  0
LINE
  5
382
330
157
100
AcDbEntity
  8
OBJECT
100
AcDbLine
 10
3508.299029264184
 20
2188.553143622619
 30
10.0
 11
3508.299029264184
 21
2117.797822895238
 31
10.0
  0
POLYLINE
  5
383
330
157
100
AcDbEntity
  8
OBJECT
100
AcDb2dPolyline
 66
     1
 10
0.0
 20
0.0
 30
10.0
  0
VERTEX
  5
4FB
330
383
100
AcDbEntity
  8
OBJECT
100
AcDbVertex
100
AcDb2dVertex
 10
2697.370362948181
 20
5030.09776197069
 30
10.0
  0
VERTEX
  5
4FC
330
383
100
AcDbEntity
  8
OBJECT
100
AcDbVertex
100
AcDb2dVertex
 10
2735.990810009804
 20
4974.615236271515
 30
10.0
 42
0.1124445043418361
  0
VERTEX
  5
4FD
330
383
100
AcDbEntity
  8
OBJECT
100
AcDbVertex
100
AcDb2dVertex
 10
2834.502463849087
 20
4884.889798103483
 30
10.0
  0
VERTEX
  5
4FE
330
383
100
AcDbEntity
  8
OBJECT
100
AcDbVertex
100
AcDb2dVertex
 10
3565.228795905822
 20
4471.527195994291
 30
10.0
 42
0.1456256480237181
  0
VERTEX
  5
4FF
330
383
100
AcDbEntity
  8
OBJECT
100
AcDbVertex
100
AcDb2dVertex
 10
3732.014823604421
 20
4433.250566222639
 30
10.0
  0
VERTEX
  5
500
330
383
100
AcDbEntity
  8
OBJECT
100
AcDbVertex
100
AcDb2dVertex
 10
3732.014823604421
 20
4363.438092832068
 30
10.0
  0
VERTEX
  5
501
330
383
100
AcDbEntity
  8
OBJECT
100
AcDbVertex
100
AcDb2dVertex
 10
3664.834423253506
 20
4363.438092832068
 30
10.0
 42
-0.1315028299853057
  0
VERTEX
  5
502
330
383
100
AcDbEntity
  8
OBJECT
100
AcDbVertex
100
AcDb2dVertex
 10
3514.987341379113
 20
4403.542244358635
 30
10.0
  0
VERTEX
  5
503
330
383
100
AcDbEntity
  8
OBJECT
100
AcDbVertex
100
AcDb2dVertex
 10
2793.030411293084
 20
4819.797986217636
 30
10.0
 42
-0.1103683208210596
  0
VERTEX
  5
504
330
383
100
AcDbEntity
  8
OBJECT
100
AcDbVertex
100
AcDb2dVertex
 10
2696.65568024387
 20
4908.302998178136
 30
10.0
  0
VERTEX
  5
505
330
383
100
AcDbEntity
  8
OBJECT
100
AcDbVertex
100
AcDb2dVertex
 10
2639.780511945365
 20
4990.010441433049
 30
10.0
  0
VERTEX
  5
506
330
383
100
AcDbEntity
  8
OBJECT
100
AcDbVertex
100
AcDb2dVertex
 10
2697.370362948181
 20
5030.09776197069
 30
10.0
  0
SEQEND
  5
507
330
383
100
AcDbEntity
  8
OBJECT
  0
POLYLINE
  5
384
330
157
100
AcDbEntity
  8
OBJECT
100
AcDb2dPolyline
 66
     1
 10
0.0
 20
0.0
 30
10.0
 70
     1
  0
VERTEX
  5
508
330
384
100
AcDbEntity
  8
OBJECT
100
AcDbVertex
100
AcDb2dVertex
 10
4945.099702007336
 20
4987.610809907907
 30
10.0
  0
VERTEX
  5
509
330
384
100
AcDbEntity
  8
OBJECT
100
AcDbVertex
100
AcDb2dVertex
 10
4887.509851004516
 20
5027.698130445547
 30
10.0
  0
VERTEX
  5
50A
330
384
100
AcDbEntity
  8
OBJECT
100
AcDbVertex
100
AcDb2dVertex
 10
4850.559746832235
 20
4974.615236271515
 30
10.0
 42
-0.1124445043418352
  0
VERTEX
  5
50B
330
384
100
AcDbEntity
  8
OBJECT
100
AcDbVertex
100
AcDb2dVertex
 10
4752.048092992954
 20
4884.889798103483
 30
10.0
  0
VERTEX
  5
50C
330
384
100
AcDbEntity
  8
OBJECT
100
AcDbVertex
100
AcDb2dVertex
 10
4021.321760936219
 20
4471.527195994291
 30
10.0
 42
-0.1461747253260849
  0
VERTEX
  5
50D
330
384
100
AcDbEntity
  8
OBJECT
100
AcDbVertex
100
AcDb2dVertex
 10
3853.891924093834
 20
4433.292281753143
 30
10.0
  0
VERTEX
  5
50E
330
384
100
AcDbEntity
  8
OBJECT
100
AcDbVertex
100
AcDb2dVertex
 10
3853.891924093834
 20
4363.438092832068
 30
10.0
  0
VERTEX
  5
50F
330
384
100
AcDbEntity
  8
OBJECT
100
AcDbVertex
100
AcDb2dVertex
 10
3921.716133588535
 20
4363.438092832068
 30
10.0
 42
0.1315028299853055
  0
VERTEX
  5
510
330
384
100
AcDbEntity
  8
OBJECT
100
AcDbVertex
100
AcDb2dVertex
 10
4071.563215462943
 20
4403.542244358635
 30
10.0
  0
VERTEX
  5
511
330
384
100
AcDbEntity
  8
OBJECT
100
AcDbVertex
100
AcDb2dVertex
 10
4793.520145548945
 20
4819.797986217636
 30
10.0
 42
0.1103683208210589
  0
VERTEX
  5
512
330
384
100
AcDbEntity
  8
OBJECT
100
AcDbVertex
100
AcDb2dVertex
 10
4889.894876598148
 20
4908.302998178093
 30
10.0
  0
VERTEX
  5
513
330
384
100
AcDbEntity
  8
OBJECT
100
AcDbVertex
100
AcDb2dVertex
 10
4945.099702007338
 20
4987.610809907907
 30
10.0
  0
SEQEND
  5
514
330
384
100
AcDbEntity
  8
OBJECT
  0
ENDBLK
  5
159
330
157
100
AcDbEntity
  8
0
100
AcDbBlockEnd
  0
BLOCK
  5
221
330
217
100
AcDbEntity
  8
0
100
AcDbBlockBegin
  2
ADKD0
 70
     0
 10
0.0
 20
0.0
 30
0.0
  3
ADKD0
  1

  0
INSERT
  5
218
330
217
100
AcDbEntity
  8
HATCH
  6
CONTINUOUS
 62
     3
100
AcDbBlockReference
  2
*U4
 10
0.0
 20
0.0
 30
0.0
1001
ACAD
1002
{
1000
R14_HATCH_DATA
1000
218
1011
1.0
1021
0.0
1031
0.0
1011
0.0
1021
1.0
1031
0.0
1011
0.0
1021
0.0
1031
1.0
1040
0.0
1010
0.0
1020
0.0
1030
1.0
1000
SOLID
1070
     1
1070
     0
1071
        1
1071
        7
1070
     1
1070
     1
1071
       18
1040
3259.532972689751
1040
2876.782443143616
1040
0.0
1040
2913.9400778601
1040
2876.782443143616
1040
0.0
1040
2913.9400778601
1040
2797.581217209048
1040
0.0
1040
2913.9400778601
1040
2217.412274753038
1040
0.0
1040
2913.9400778601
1040
2146.656954025657
1040
0.0
1040
3126.266852714183
1040
2146.656954025658
1040
0.0
1040
3126.266852714183
1040
2108.557937694757
1040
0.0
1040
3278.757356901536
1040
2108.557937694757
1040
0.0
1040
3278.757356901536
1040
2141.214242091229
1040
0.0
1040
3752.567049478849
1040
2141.214242091229
1040
0.844652822925266
1040
4967.04478373373
1040
1907.177415776428
1040
0.0
1040
4858.797380012584
1040
1907.177415776428
1040
-0.8990080223738463
1040
3864.884881686965
1040
2241.214242091229
1040
0.0
1040
3838.548888334811
1040
2241.214242091229
1040
0.0
1040
3013.9400778601
1040
2241.214242091229
1040
0.0
1040
3013.9400778601
1040
2776.782443143615
1040
0.0
1040
4653.731644067888
1040
2776.782443143614
1040
0.0
1040
4653.731644067887
1040
2876.782443143616
1040
0.0
1071
        0
1070
     0
1070
     1
1040
3.446947199435031
1071
        1
1040
4425.907990933192
1040
2839.056613641764
1040
0.0
1002
}
  0
INSERT
  5
219
330
217
100
AcDbEntity
  8
HATCH
  6
CONTINUOUS
 62
     3
100
AcDbBlockReference
  2
*U5
 10
0.0
 20
0.0
 30
0.0
1001
ACAD
1002
{
1000
R14_HATCH_DATA
1000
219
1011
1.0
1021
0.0
1031
0.0
1011
0.0
1021
1.0
1031
0.0
1011
0.0
1021
0.0
1031
1.0
1040
0.0
1010
0.0
1020
0.0
1030
1.0
1000
SOLID
1070
     1
1070
     0
1071
        8
1071
        7
1070
     0
1070
     1
1071
        5
1040
5546.425058556136
1040
2794.491117260181
1040
5546.425058556136
1040
2207.177415776429
1040
5846.425058556139
1040
1907.177415776427
1040
5846.425058556139
1040
2784.256258283571
1040
5846.425058556139
1040
3094.491117260181
1071
        0
1071
        7
1070
     0
1070
     1
1071
        4
1040
5546.425058556138
1040
2794.491117260182
1040
5846.425058556138
1040
3094.491117260182
1040
4653.731644067887
1040
3094.491117260182
1040
4953.731644067887
1040
2794.491117260182
1071
        0
1071
        7
1070
     0
1070
     1
1071
        3
1040
5546.425058556138
1040
2794.491117260182
1040
4953.731644067887
1040
2794.491117260182
1040
5250.078351312013
1040
2500.834266518305
1071
        0
1071
        7
1070
     0
1070
     1
1071
        3
1040
5250.078351312012
1040
2500.834266518305
1040
5546.425058556138
1040
2207.177415776429
1040
5546.425058556138
1040
2794.491117260182
1071
        0
1071
        7
1070
     0
1070
     1
1071
        3
1040
4953.731644067887
1040
2207.177415776428
1040
5546.425058556136
1040
2207.177415776428
1040
5250.078351312012
1040
2500.834266518304
1071
        0
1071
        7
1070
     0
1070
     1
1071
        3
1040
4953.731644067888
1040
2207.177415776427
1040
5250.078351312012
1040
2500.834266518304
1040
4953.731644067888
1040
2794.49111726018
1071
        0
1071
        7
1070
     0
1070
     1
1071
        5
1040
4653.731644067888
1040
1907.177415776429
1040
4953.731644067888
1040
2207.177415776428
1040
4953.731644067888
1040
2794.491117260182
1040
4653.731644067888
1040
3094.491117260182
1040
4653.731644067888
1040
2876.782443143616
1071
        0
1071
        7
1070
     0
1070
     1
1071
        4
1040
5846.425058556139
1040
1907.177415776428
1040
5546.425058556138
1040
2207.177415776428
1040
4953.731644067888
1040
2207.177415776428
1040
4653.731644067888
1040
1907.177415776428
1071
        0
1070
     0
1070
     1
1040
2.755480430891326
1071
        8
1040
5668.993496940387
1040
2839.243364090964
1040
0.0
1040
5495.291891510744
1040
2869.553644571502
1040
0.0
1040
5373.976479762936
1040
2718.002223570014
1040
0.0
1040
5437.39134724002
1040
2552.6733955869
1040
0.0
1040
5216.817871334908
1040
2357.034287123251
1040
0.0
1040
5051.387791788613
1040
2486.541864393655
1040
0.0
1040
4803.242617704094
1040
2525.118600222444
1040
0.0
1040
4999.001570724246
1040
2037.398553022567
1040
0.0
1002
}
  0
INSERT
  5
21A
330
217
100
AcDbEntity
  8
HATCH
  6
CONTINUOUS
 62
     2
100
AcDbBlockReference
  2
*U6
 10
0.0
 20
0.0
 30
0.0
1001
ACAD
1002
{
1000
R14_HATCH_DATA
1000
21A
1011
1.0
1021
0.0
1031
0.0
1011
0.0
1021
1.0
1031
0.0
1011
0.0
1021
0.0
1031
1.0
1040
0.0
1010
0.0
1020
0.0
1030
1.0
1000
SOLID
1070
     1
1070
     0
1071
        5
1071
        7
1070
     0
1070
     1
1071
        4
1040
7698.095162750047
1040
2740.714530018237
1040
7698.095162750047
1040
2784.256258283571
1040
5846.425058556139
1040
2784.256258283571
1040
5846.425058556139
1040
2740.714530018236
1071
        0
1071
        7
1070
     0
1070
     1
1071
        5
1040
5846.425058556139
1040
2740.714530018237
1040
5846.425058556139
1040
2684.25625828357
1040
7567.59770987572
1040
2684.256258283569
1040
7578.281204667877
1040
2691.730073423523
1040
7616.403810778142
1040
2740.714530018237
1071
        0
1071
        7
1070
     0
1070
     1
1071
        9
1040
5846.425058556139
1040
2684.25625828357
1040
5846.425058556138
1040
2327.874971354733
1040
7569.347618934251
1040
2327.874971354732
1040
7523.820312213967
1040
2359.724350314253
1040
7502.035965865251
1040
2419.594230777826
1040
7502.035965865251
1040
2506.677703703436
1040
7502.035965865251
1040
2593.761176629048
1040
7523.820312213968
1040
2653.631057092622
1040
7567.59770987572
1040
2684.25625828357
1071
        0
1071
        7
1070
     0
1070
     1
1071
        5
1040
7617.356538441658
1040
2271.416699620067
1040
7578.281204667876
1040
2321.62533398335
1040
7569.347618934253
1040
2327.874971354733
1040
5846.425058556139
1040
2327.874971354733
1040
5846.425058556139
1040
2271.416699620067
1071
        0
1071
        7
1070
     0
1070
     1
1071
        4
1040
5846.425058556139
1040
2271.416699620067
1040
5846.425058556139
1040
2227.874971354733
1040
7687.947554074104
1040
2227.874971354733
1040
7687.947554074104
1040
2271.416699620067
1071
        0
1070
     0
1070
     1
1040
2.959461949037637
1071
        5
1040
7057.507013560353
1040
2758.787342511734
1040
0.0
1040
7051.584471453698
1040
2720.314332134114
1040
0.0
1040
7039.739359857853
1040
2625.611544511817
1040
0.0
1040
7004.204079835393
1040
2276.395030266112
1040
0.0
1040
7004.204079835393
1040
2255.67880535434
1040
0.0
1002
}
  0
INSERT
  5
21B
330
217
100
AcDbEntity
  8
HATCH
  6
CONTINUOUS
 62
     1
100
AcDbBlockReference
  2
*U7
 10
0.0
 20
0.0
 30
0.0
1001
ACAD
1002
{
1000
R14_HATCH_DATA
1000
21B
1011
1.0
1021
0.0
1031
0.0
1011
0.0
1021
1.0
1031
0.0
1011
0.0
1021
0.0
1031
1.0
1040
0.0
1010
0.0
1020
0.0
1030
1.0
1000
SOLID
1070
     1
1070
     0
1071
        2
1071
        7
1070
     0
1070
     1
1071
        4
1040
4328.036316171966
1040
5181.491159437551
1040
4257.05233647237
1040
5079.514854719251
1040
4376.866267972448
1040
5003.316822057444
1040
4447.850247672042
1040
5105.293126775745
1071
        0
1071
        7
1070
     0
1070
     1
1071
        4
1040
2020.966386061427
1040
5003.316822057442
1040
2140.780317561503
1040
5079.514854719251
1040
2069.796337861906
1040
5181.491159437553
1040
1949.982406361829
1040
5105.293126775745
1071
        0
1070
     0
1070
     1
1040
4.095125391011505
1071
        2
1040
4359.1381325572
1040
5094.114933481241
1040
0.0
1040
2011.193933979957
1040
5090.019796128794
1040
0.0
1002
}
  0
INSERT
  5
21C
330
217
100
AcDbEntity
  8
HATCH
  6
CONTINUOUS
 62
   251
100
AcDbBlockReference
  2
*U8
 10
0.0
 20
0.0
 30
0.0
1001
ACAD
1002
{
1000
R14_HATCH_DATA
1000
21C
1011
1.0
1021
0.0
1031
0.0
1011
0.0
1021
1.0
1031
0.0
1011
0.0
1021
0.0
1031
1.0
1040
0.0
1010
0.0
1020
0.0
1030
1.0
1000
SOLID
1070
     1
1070
     0
1071
        1
1071
        7
1070
     1
1070
     1
1071
        7
1040
3864.884881686979
1040
2241.214242091295
1040
0.8990080223739047
1040
4858.797380012584
1040
1907.177415776428
1040
0.0
1040
4653.731644067888
1040
1907.177415776428
1040
0.0
1040
4653.731644067888
1040
2776.782443143615
1040
0.0
1040
3013.9400778601
1040
2776.782443143615
1040
0.0
1040
3013.9400778601
1040
2241.214242091229
1040
0.0
1040
3838.548888334811
1040
2241.214242091229
1040
0.0
1071
        0
1070
     0
1070
     1
1040
5.57951830939697
1071
        1
1040
3874.079636627214
1040
2503.631994834997
1040
0.0
1002
}
  0
INSERT
  5
21D
330
217
100
AcDbEntity
  8
HATCH
  6
CONTINUOUS
 62
     2
100
AcDbBlockReference
  2
*U9
 10
0.0
 20
0.0
 30
0.0
1001
ACAD
1002
{
1000
R14_HATCH_DATA
1000
21D
1011
1.0
1021
0.0
1031
0.0
1011
0.0
1021
1.0
1031
0.0
1011
0.0
1021
0.0
1031
1.0
1040
0.0
1010
0.0
1020
0.0
1030
1.0
1000
SOLID
1070
     1
1070
     0
1071
        2
1071
        7
1070
     0
1070
     1
1071
        4
1040
2913.9400778601
1040
2876.782443143616
1040
2864.85461678321
1040
2876.782443143616
1040
2864.85461678321
1040
2797.581217209048
1040
2913.9400778601
1040
2797.581217209048
1071
        0
1071
        7
1070
     0
1070
     1
1071
        4
1040
2913.9400778601
1040
2217.412274753038
1040
2864.85461678321
1040
2217.412274753038
1040
2864.85461678321
1040
2146.656954025657
1040
2913.9400778601
1040
2146.656954025657
1071
        0
1070
     0
1070
     1
1040
2.417081411970823
1071
        2
1040
2878.810988054785
1040
2834.319613451722
1040
0.0
1040
2883.649291123601
1040
2172.03930330628
1040
0.0
1002
}
  0
INSERT
  5
21E
330
217
100
AcDbEntity
  8
HATCH
  6
CONTINUOUS
 62
   251
100
AcDbBlockReference
  2
*U10
 10
0.0
 20
0.0
 30
0.0
1001
ACAD
1002
{
1000
R14_HATCH_DATA
1000
21E
1011
1.0
1021
0.0
1031
0.0
1011
0.0
1021
1.0
1031
0.0
1011
0.0
1021
0.0
1031
1.0
1040
0.0
1010
0.0
1020
0.0
1030
1.0
1000
SOLID
1070
     1
1070
     0
1071
        1
1071
        7
1070
     0
1070
     1
1071
        4
1040
3259.532972689751
1040
4511.975356290601
1040
3137.655872200339
1040
4511.975356290601
1040
3137.655872200339
1040
2876.782443143616
1040
3259.532972689751
1040
2876.782443143616
1071
        0
1070
     0
1070
     1
1040
4.319881211133888
1071
        1
1040
3185.903349221007
1040
3943.24790972503
1040
0.0
1002
}
  0
INSERT
  5
21F
330
217
100
AcDbEntity
  8
HATCH
  6
CONTINUOUS
 62
     2
100
AcDbBlockReference
  2
*U11
 10
0.0
 20
0.0
 30
0.0
1001
ACAD
1002
{
1000
R14_HATCH_DATA
1000
21F
1011
1.0
1021
0.0
1031
0.0
1011
0.0
1021
1.0
1031
0.0
1011
0.0
1021
0.0
1031
1.0
1040
0.0
1010
0.0
1020
0.0
1030
1.0
1000
SOLID
1070
     1
1070
     0
1071
        2
1071
        7
1070
     1
1070
     1
1071
       11
1040
4199.161194144869
1040
4848.65711734806
1040
0.1103683208211134
1040
4295.535925194108
1040
4937.162129308571
1040
0.0
1040
4350.740750603254
1040
5016.469941038325
1040
0.0
1040
4293.150899600433
1040
5056.557261575966
1040
0.0
1040
4256.200795428163
1040
5003.474367401948
1040
-0.1124445043418377
1040
4157.689141588884
1040
4913.748929233909
1040
0.0
1040
3426.962809532165
1040
4500.386327124727
1040
-0.1461747253261146
1040
3259.532972689751
1040
4462.151412883561
1040
0.0
1040
3259.53297268975
1040
4392.297223962486
1040
0.0
1040
3327.357182184459
1040
4392.297223962486
1040
0.1315028299852904
1040
3477.204264058851
1040
4432.401375489049
1040
0.0
1071
        0
1071
        7
1070
     1
1070
     1
1071
       11
1040
2920.628389975048
1040
4432.401375489045
1040
0.1315028299852927
1040
3070.475471849428
1040
4392.297223962486
1040
0.0
1040
3137.655872200339
1040
4392.297223962487
1040
0.0
1040
3137.655872200339
1040
4462.109697353058
1040
-0.1456256480237513
1040
2970.869844501705
1040
4500.386327124728
1040
0.0
1040
2240.143512444988
1040
4913.748929233911
1040
-0.1124445043418253
1040
2141.631858605717
1040
5003.474367401938
1040
0.0
1040
2103.011411544097
1040
5058.95689310111
1040
0.0
1040
2045.421560541282
1040
5018.869572563468
1040
0.0
1040
2102.296728839789
1040
4937.162129308552
1040
0.1103683208211018
1040
2198.671459889047
1040
4848.657117348028
1040
0.0
1071
        0
1070
     0
1070
     1
1040
3.819941570429333
1071
        2
1040
3881.962090590881
1040
4689.453695429292
1040
0.0
1040
2830.577459688939
1040
4517.556309894956
1040
0.0
1002
}
  0
INSERT
  5
220
330
217
100
AcDbEntity
  8
OBJECT
100
AcDbBlockReference
  2
1
 10
0.0
 20
0.0
 30
0.0
  0
ENDBLK
  5
222
330
217
100
AcDbEntity
  8
0
100
AcDbBlockEnd
  0
BLOCK
  5
26A
330
223
100
AcDbEntity
  8
0
100
AcDbBlockBegin
  2
1
 70
     0
 10
0.0
 20
0.0
 30
0.0
  3
1
  1

  0
LINE
  5
224
330
223
100
AcDbEntity
  8
OBJECT
  6
CONTINUOUS
 62
     7
 48
5.0
100
AcDbLine
 10
4953.731644067888
 20
2794.491117260182
 30
0.0
 11
4953.731644067888
 21
2207.177415776428
 31
0.0
  0
LINE
  5
225
330
223
100
AcDbEntity
  8
OBJECT
  6
CONTINUOUS
 62
     7
 48
5.0
100
AcDbLine
 10
5546.425058556138
 20
2794.491117260182
 30
0.0
 11
4953.731644067888
 21
2207.177415776428
 31
0.0
  0
LINE
  5
226
330
223
100
AcDbEntity
  8
OBJECT
  6
CONTINUOUS
 62
     7
 48
5.0
100
AcDbLine
 10
5546.425058556138
 20
2207.177415776428
 30
0.0
 11
4953.731644067888
 21
2794.491117260182
 31
0.0
  0
LINE
  5
227
330
223
100
AcDbEntity
  8
OBJECT
  6
CONTINUOUS
 62
     7
 48
5.0
100
AcDbLine
 10
4653.731644067888
 20
3094.491117260182
 30
0.0
 11
4953.731644067888
 21
2794.491117260182
 31
0.0
  0
LINE
  5
228
330
223
100
AcDbEntity
  8
OBJECT
  6
CONTINUOUS
 62
     7
 48
5.0
100
AcDbLine
 10
5846.425058556139
 20
3094.491117260182
 30
0.0
 11
4653.731644067888
 21
3094.491117260182
 31
0.0
  0
LINE
  5
229
330
223
100
AcDbEntity
  8
OBJECT
  6
CONTINUOUS
 62
     7
 48
5.0
100
AcDbLine
 10
4653.731644067888
 20
1907.177415776428
 30
0.0
 11
5846.425058556139
 21
1907.177415776428
 31
0.0
  0
LINE
  5
22A
330
223
100
AcDbEntity
  8
OBJECT
  6
CONTINUOUS
 62
     7
 48
5.0
100
AcDbLine
 10
4953.731644067888
 20
2207.177415776428
 30
0.0
 11
4653.731644067888
 21
1907.177415776428
 31
0.0
  0
ARC
  5
22B
330
223
100
AcDbEntity
  8
OBJECT
  6
CONTINUOUS
 62
     7
 48
5.0
100
AcDbCircle
 10
4379.656075046905
 20
2127.203444560661
 30
0.0
 40
627.2455248428131
100
AcDbArc
 50
178.7200764222861
 51
339.4648869002396
  0
ARC
  5
22C
330
223
100
AcDbEntity
  8
OBJECT
  6
CONTINUOUS
 62
     7
 48
5.0
100
AcDbCircle
 10
4379.656075046905
 20
2127.203444560661
 30
0.0
 40
527.2455248428131
100
AcDbArc
 50
167.5118006900444
 51
335.334983990824
  0
POLYLINE
  5
22D
330
223
100
AcDbEntity
  8
SAFETY
  6
CONTINUOUS
 62
     0
100
AcDb2dPolyline
 66
     1
 10
0.0
 20
0.0
 30
0.0
  0
VERTEX
  5
418
330
22D
100
AcDbEntity
  8
SAFETY
  6
CONTINUOUS
 62
     0
100
AcDbVertex
100
AcDb2dVertex
 10
174.251700951183
 20
4299.513714118783
 30
0.0
  0
VERTEX
  5
419
330
22D
100
AcDbEntity
  8
SAFETY
  6
CONTINUOUS
 62
     0
100
AcDbVertex
100
AcDb2dVertex
 10
1491.164241980148
 20
1544.183092208049
 30
0.0
 42
0.1579382655114341
  0
VERTEX
  5
41A
330
22D
100
AcDbEntity
  8
SAFETY
  6
CONTINUOUS
 62
     0
100
AcDbVertex
100
AcDb2dVertex
 10
2105.387643452337
 20
853.130797962458
 30
0.0
  0
VERTEX
  5
41B
330
22D
100
AcDbEntity
  8
SAFETY
  6
CONTINUOUS
 62
     0
100
AcDbVertex
100
AcDb2dVertex
 10
3466.164198128513
 20
206.0823880501957
 30
0.0
 42
0.2637696024970626
  0
VERTEX
  5
41C
330
22D
100
AcDbEntity
  8
SAFETY
  6
CONTINUOUS
 62
     0
100
AcDbVertex
100
AcDb2dVertex
 10
5559.152018254735
 20
356.9032319074385
 30
0.0
  0
VERTEX
  5
41D
330
22D
100
AcDbEntity
  8
SAFETY
  6
CONTINUOUS
 62
     0
100
AcDbVertex
100
AcDb2dVertex
 10
6373.654179849583
 20
822.9384408034951
 30
0.0
 42
0.1028800283091593
  0
VERTEX
  5
41E
330
22D
100
AcDbEntity
  8
SAFETY
  6
CONTINUOUS
 62
     0
100
AcDbVertex
100
AcDb2dVertex
 10
6830.95224034254
 20
1227.874971354733
 30
0.0
  0
VERTEX
  5
41F
330
22D
100
AcDbEntity
  8
SAFETY
  6
CONTINUOUS
 62
     0
100
AcDbVertex
100
AcDb2dVertex
 10
9698.095162750048
 20
1227.874971354733
 30
0.0
  0
VERTEX
  5
420
330
22D
100
AcDbEntity
  8
SAFETY
  6
CONTINUOUS
 62
     0
100
AcDbVertex
100
AcDb2dVertex
 10
9698.095162750048
 20
3784.256258283571
 30
0.0
  0
VERTEX
  5
421
330
22D
100
AcDbEntity
  8
SAFETY
  6
CONTINUOUS
 62
     0
100
AcDbVertex
100
AcDb2dVertex
 10
6913.885734240311
 20
3784.256258283571
 30
0.0
  0
VERTEX
  5
422
330
22D
100
AcDbEntity
  8
SAFETY
  6
CONTINUOUS
 62
     0
100
AcDbVertex
100
AcDb2dVertex
 10
6326.594440095425
 20
5627.615115050616
 30
0.0
 42
0.3368441498398841
  0
VERTEX
  5
423
330
22D
100
AcDbEntity
  8
SAFETY
  6
CONTINUOUS
 62
     0
100
AcDbVertex
100
AcDb2dVertex
 10
4447.850247672042
 20
7055.293126775743
 30
0.0
  0
VERTEX
  5
424
330
22D
100
AcDbEntity
  8
SAFETY
  6
CONTINUOUS
 62
     0
100
AcDbVertex
100
AcDb2dVertex
 10
1949.98240636183
 20
7055.293126775743
 30
0.0
 42
0.5582154982251294
  0
VERTEX
  5
425
330
22D
100
AcDbEntity
  8
SAFETY
  6
CONTINUOUS
 62
     0
100
AcDbVertex
100
AcDb2dVertex
 10
207.659427308903
 20
4229.61588220208
 30
0.0
  0
SEQEND
  5
426
330
22D
100
AcDbEntity
  8
SAFETY
  6
CONTINUOUS
 62
     0
  0
LINE
  5
22E
330
223
100
AcDbEntity
  8
OBJECT
  6
CONTINUOUS
 62
     7
 48
5.0
100
AcDbLine
 10
3259.532972689751
 20
2876.782443143616
 30
0.0
 11
3259.532972689751
 21
4511.975356290601
 31
0.0
  0
LINE
  5
22F
330
223
100
AcDbEntity
  8
OBJECT
  6
CONTINUOUS
 62
     7
 48
5.0
100
AcDbLine
 10
3137.655872200339
 20
4511.975356290601
 30
0.0
 11
3137.655872200339
 21
2876.782443143616
 31
0.0
  0
LINE
  5
230
330
223
100
AcDbEntity
  8
OBJECT
  6
CONTINUOUS
 62
     7
 48
5.0
100
AcDbLine
 10
3013.9400778601
 20
2241.214242091229
 30
0.0
 11
3838.548888334811
 21
2241.214242091229
 31
0.0
  0
LINE
  5
231
330
223
100
AcDbEntity
  8
OBJECT
  6
CONTINUOUS
 62
     7
 48
5.0
100
AcDbLine
 10
3278.757356901536
 20
2141.214242091229
 30
0.0
 11
3752.56704947885
 21
2141.214242091229
 31
0.0
  0
LINE
  5
232
330
223
100
AcDbEntity
  8
OBJECT
  6
CONTINUOUS
 62
     7
 48
5.0
100
AcDbLine
 10
4653.731644067888
 20
2876.782443143616
 30
0.0
 11
3259.532972689751
 21
2876.782443143616
 31
0.0
  0
LINE
  5
233
330
223
100
AcDbEntity
  8
OBJECT
  6
CONTINUOUS
 62
     7
 48
5.0
100
AcDbLine
 10
4653.731644067888
 20
2776.782443143615
 30
0.0
 11
3013.9400778601
 21
2776.782443143615
 31
0.0
  0
LINE
  5
234
330
223
100
AcDbEntity
  8
OBJECT
  6
CONTINUOUS
 62
     7
 48
5.0
100
AcDbLine
 10
3013.9400778601
 20
2776.782443143615
 30
0.0
 11
3013.9400778601
 21
2241.214242091229
 31
0.0
  0
LINE
  5
235
330
223
100
AcDbEntity
  8
OBJECT
  6
CONTINUOUS
 62
     7
 48
5.0
100
AcDbLine
 10
2913.9400778601
 20
2217.412274753038
 30
0.0
 11
2913.9400778601
 21
2797.581217209048
 31
0.0
  0
LINE
  5
236
330
223
100
AcDbEntity
  8
OBJECT
  6
CONTINUOUS
 62
     7
 48
5.0
100
AcDbLine
 10
2913.9400778601
 20
2797.581217209048
 30
0.0
 11
2913.9400778601
 21
2217.412274753038
 31
0.0
  0
LINE
  5
237
330
223
100
AcDbEntity
  8
OBJECT
  6
CONTINUOUS
 62
     7
 48
5.0
100
AcDbLine
 10
2864.85461678321
 20
2146.656954025658
 30
0.0
 11
3126.266852714183
 21
2146.656954025658
 31
0.0
  0
LINE
  5
238
330
223
100
AcDbEntity
  8
OBJECT
  6
CONTINUOUS
 62
     7
 48
5.0
100
AcDbLine
 10
2864.85461678321
 20
2217.412274753038
 30
0.0
 11
2864.85461678321
 21
2146.656954025658
 31
0.0
  0
LINE
  5
239
330
223
100
AcDbEntity
  8
OBJECT
  6
CONTINUOUS
 62
     7
 48
5.0
100
AcDbLine
 10
2913.9400778601
 20
2217.412274753038
 30
0.0
 11
2864.85461678321
 21
2217.412274753038
 31
0.0
  0
LINE
  5
23A
330
223
100
AcDbEntity
  8
OBJECT
  6
CONTINUOUS
 62
     7
 48
5.0
100
AcDbLine
 10
3126.266852714183
 20
2108.557937694757
 30
0.0
 11
3278.757356901536
 21
2108.557937694757
 31
0.0
  0
LINE
  5
23B
330
223
100
AcDbEntity
  8
OBJECT
  6
CONTINUOUS
 62
     7
 48
5.0
100
AcDbLine
 10
3126.266852714183
 20
2146.656954025658
 30
0.0
 11
3126.266852714183
 21
2108.557937694757
 31
0.0
  0
LINE
  5
23C
330
223
100
AcDbEntity
  8
OBJECT
  6
CONTINUOUS
 62
     7
 48
5.0
100
AcDbLine
 10
3278.757356901536
 20
2108.557937694757
 30
0.0
 11
3278.757356901536
 21
2141.214242091229
 31
0.0
  0
LINE
  5
23D
330
223
100
AcDbEntity
  8
OBJECT
  6
CONTINUOUS
 62
     7
 48
5.0
100
AcDbLine
 10
3259.532972689751
 20
2876.782443143616
 30
0.0
 11
2864.85461678321
 21
2876.782443143616
 31
0.0
  0
LINE
  5
23E
330
223
100
AcDbEntity
  8
OBJECT
  6
CONTINUOUS
 62
     7
 48
5.0
100
AcDbLine
 10
2864.85461678321
 20
2797.581217209048
 30
0.0
 11
2864.85461678321
 21
2876.782443143616
 31
0.0
  0
LINE
  5
23F
330
223
100
AcDbEntity
  8
OBJECT
  6
CONTINUOUS
 62
     7
 48
5.0
100
AcDbLine
 10
2913.9400778601
 20
2797.581217209048
 30
0.0
 11
2864.85461678321
 21
2797.581217209048
 31
0.0
  0
LINE
  5
240
330
223
100
AcDbEntity
  8
OBJECT
  6
CONTINUOUS
 62
     7
 48
5.0
100
AcDbLine
 10
2864.85461678321
 20
2797.581217209048
 30
0.0
 11
2913.9400778601
 21
2797.581217209048
 31
0.0
  0
LINE
  5
241
330
223
100
AcDbEntity
  8
OBJECT
  6
CONTINUOUS
 62
     7
 48
5.0
100
AcDbLine
 10
4653.731644067888
 20
2876.782443143616
 30
0.0
 11
4653.731644067888
 21
1907.177415776428
 31
0.0
  0
LINE
  5
242
330
223
100
AcDbEntity
  8
OBJECT
  6
CONTINUOUS
 62
     7
 48
5.0
100
AcDbLine
 10
3838.548888334811
 20
2241.214242091229
 30
0.0
 11
3864.884881686965
 21
2241.214242091229
 31
0.0
  0
LINE
  5
243
330
223
100
AcDbEntity
  8
OBJECT
  6
CONTINUOUS
 62
     7
 48
5.0
100
AcDbLine
 10
4653.731644067888
 20
3094.491117260182
 30
0.0
 11
4653.731644067888
 21
2876.782443143616
 31
0.0
  0
LINE
  5
244
330
223
100
AcDbEntity
  8
OBJECT
  6
CONTINUOUS
 62
     7
 48
5.0
100
AcDbLine
 10
3259.532972689751
 20
4511.975356290601
 30
0.0
 11
3137.655872200339
 21
4511.975356290601
 31
0.0
  0
LINE
  5
245
330
223
100
AcDbEntity
  8
OBJECT
  6
CONTINUOUS
 62
     7
 48
5.0
100
AcDbLine
 10
2069.796337861907
 20
5181.491159437552
 30
0.0
 11
2140.780317561504
 21
5079.51485471925
 31
0.0
  0
LINE
  5
246
330
223
100
AcDbEntity
  8
OBJECT
  6
CONTINUOUS
 62
     7
 48
5.0
100
AcDbLine
 10
2069.796337861907
 20
5181.491159437552
 30
0.0
 11
1949.98240636183
 21
5105.293126775745
 31
0.0
  0
LINE
  5
247
330
223
100
AcDbEntity
  8
OBJECT
  6
CONTINUOUS
 62
     7
 48
5.0
100
AcDbLine
 10
1949.98240636183
 20
5105.293126775745
 30
0.0
 11
2020.966386061428
 21
5003.316822057444
 31
0.0
  0
LINE
  5
248
330
223
100
AcDbEntity
  8
OBJECT
  6
CONTINUOUS
 62
     7
 48
5.0
100
AcDbLine
 10
2140.780317561504
 20
5079.51485471925
 30
0.0
 11
2020.957285489268
 21
5003.311034369101
 31
0.0
  0
LINE
  5
249
330
223
100
AcDbEntity
  8
OBJECT
  6
CONTINUOUS
 62
     7
 48
5.0
100
AcDbLine
 10
4328.036316171966
 20
5181.491159437552
 30
0.0
 11
4257.05233647237
 21
5079.51485471925
 31
0.0
  0
LINE
  5
24A
330
223
100
AcDbEntity
  8
OBJECT
  6
CONTINUOUS
 62
     7
 48
5.0
100
AcDbLine
 10
4328.036316171966
 20
5181.491159437552
 30
0.0
 11
4447.850247672043
 21
5105.293126775745
 31
0.0
  0
LINE
  5
24B
330
223
100
AcDbEntity
  8
OBJECT
  6
CONTINUOUS
 62
     7
 48
5.0
100
AcDbLine
 10
4257.05233647237
 20
5079.51485471925
 30
0.0
 11
4376.875368544607
 21
5003.311034369101
 31
0.0
  0
LINE
  5
24C
330
223
100
AcDbEntity
  8
OBJECT
  6
CONTINUOUS
 62
     7
 48
5.0
100
AcDbLine
 10
4447.850247672043
 20
5105.293126775745
 30
0.0
 11
4376.866267972448
 21
5003.316822057444
 31
0.0
  0
LINE
  5
24D
330
223
100
AcDbEntity
  8
OBJECT
  6
CONTINUOUS
 62
     7
 48
5.0
100
AcDbLine
 10
5846.425058556139
 20
2227.874971354733
 30
0.0
 11
7687.947554074104
 21
2227.874971354733
 31
0.0
  0
LINE
  5
24E
330
223
100
AcDbEntity
  8
OBJECT
  6
CONTINUOUS
 62
     7
 48
5.0
100
AcDbLine
 10
7698.095162750047
 20
2784.256258283571
 30
0.0
 11
5846.425058556139
 21
2784.256258283571
 31
0.0
  0
LINE
  5
24F
330
223
100
AcDbEntity
  8
OBJECT
  6
CONTINUOUS
 62
     7
 48
5.0
100
AcDbLine
 10
7687.947554074104
 20
2271.416699620067
 30
0.0
 11
5846.425058556139
 21
2271.416699620067
 31
0.0
  0
LINE
  5
250
330
223
100
AcDbEntity
  8
OBJECT
  6
CONTINUOUS
 62
     7
 48
5.0
100
AcDbLine
 10
5846.425058556139
 20
2740.714530018237
 30
0.0
 11
7698.095162750047
 21
2740.714530018237
 31
0.0
  0
LINE
  5
251
330
223
100
AcDbEntity
  8
OBJECT
  6
CONTINUOUS
 62
     7
 48
5.0
100
AcDbLine
 10
7567.597709875723
 20
2684.25625828357
 30
0.0
 11
5846.425058556139
 21
2684.25625828357
 31
0.0
  0
LINE
  5
252
330
223
100
AcDbEntity
  8
OBJECT
  6
CONTINUOUS
 62
     7
 48
5.0
100
AcDbLine
 10
5846.425058556139
 20
2327.874971354733
 30
0.0
 11
7569.347618934253
 21
2327.874971354733
 31
0.0
  0
LINE
  5
253
330
223
100
AcDbEntity
  8
OBJECT
  6
CONTINUOUS
 62
     7
 48
5.0
100
AcDbLine
 10
5546.425058556138
 20
2794.491117260182
 30
0.0
 11
5546.425058556138
 21
2207.177415776428
 31
0.0
  0
LINE
  5
254
330
223
100
AcDbEntity
  8
OBJECT
  6
CONTINUOUS
 62
     7
 48
5.0
100
AcDbLine
 10
5846.425058556139
 20
2784.256258283571
 30
0.0
 11
5846.425058556139
 21
1907.177415776428
 31
0.0
  0
LINE
  5
255
330
223
100
AcDbEntity
  8
OBJECT
  6
CONTINUOUS
 62
     7
 48
5.0
100
AcDbLine
 10
5846.425058556139
 20
1907.177415776428
 30
0.0
 11
5546.425058556138
 21
2207.177415776428
 31
0.0
  0
LINE
  5
256
330
223
100
AcDbEntity
  8
OBJECT
  6
CONTINUOUS
 62
     7
 48
5.0
100
AcDbLine
 10
4953.731644067888
 20
2207.177415776428
 30
0.0
 11
5546.425058556138
 21
2207.177415776428
 31
0.0
  0
LINE
  5
257
330
223
100
AcDbEntity
  8
OBJECT
  6
CONTINUOUS
 62
     7
 48
5.0
100
AcDbLine
 10
5846.425058556139
 20
3094.491117260182
 30
0.0
 11
5546.425058556138
 21
2794.491117260182
 31
0.0
  0
LINE
  5
258
330
223
100
AcDbEntity
  8
OBJECT
  6
CONTINUOUS
 62
     7
 48
5.0
100
AcDbLine
 10
5546.425058556138
 20
2794.491117260182
 30
0.0
 11
4953.731644067888
 21
2794.491117260182
 31
0.0
  0
LINE
  5
259
330
223
100
AcDbEntity
  8
OBJECT
  6
CONTINUOUS
 62
     7
 48
5.0
100
AcDbLine
 10
5846.425058556139
 20
2784.256258283571
 30
0.0
 11
5846.425058556139
 21
3094.491117260182
 31
0.0
  0
LINE
  5
25A
330
223
100
AcDbEntity
  8
OBJECT
  6
CONTINUOUS
 62
     7
 48
5.0
100
AcDbLine
 10
7502.035965865251
 20
2506.677703703436
 30
0.0
 11
7502.035965865251
 21
2419.594230777824
 31
0.0
  0
LINE
  5
25B
330
223
100
AcDbEntity
  8
OBJECT
  6
CONTINUOUS
 62
     7
 48
5.0
100
AcDbLine
 10
7578.281204667877
 20
2321.625333983349
 30
0.0
 11
7617.356538441658
 21
2271.416699620067
 31
0.0
  0
LINE
  5
25C
330
223
100
AcDbEntity
  8
OBJECT
  6
CONTINUOUS
 62
     7
 48
5.0
100
AcDbLine
 10
7687.947554074104
 20
2227.874971354733
 30
0.0
 11
7687.947554074104
 21
2271.416699620067
 31
0.0
  0
LINE
  5
25D
330
223
100
AcDbEntity
  8
OBJECT
  6
CONTINUOUS
 62
     7
 48
5.0
100
AcDbLine
 10
7502.035965865251
 20
2419.594230777824
 30
0.0
 11
7523.820312213968
 21
2359.724350314252
 31
0.0
  0
LINE
  5
25E
330
223
100
AcDbEntity
  8
OBJECT
  6
CONTINUOUS
 62
     7
 48
5.0
100
AcDbLine
 10
7523.820312213968
 20
2359.724350314252
 30
0.0
 11
7578.281204667877
 21
2321.625333983349
 31
0.0
  0
LINE
  5
25F
330
223
100
AcDbEntity
  8
OBJECT
  6
CONTINUOUS
 62
     7
 48
5.0
100
AcDbLine
 10
7578.281204667877
 20
2691.730073423525
 30
0.0
 11
7616.403810778142
 21
2740.714530018237
 31
0.0
  0
LINE
  5
260
330
223
100
AcDbEntity
  8
OBJECT
  6
CONTINUOUS
 62
     7
 48
5.0
100
AcDbLine
 10
7502.035965865251
 20
2506.677703703436
 30
0.0
 11
7502.035965865251
 21
2593.76117662905
 31
0.0
  0
LINE
  5
261
330
223
100
AcDbEntity
  8
OBJECT
  6
CONTINUOUS
 62
     7
 48
5.0
100
AcDbLine
 10
7502.035965865251
 20
2593.76117662905
 30
0.0
 11
7523.820312213968
 21
2653.631057092622
 31
0.0
  0
LINE
  5
262
330
223
100
AcDbEntity
  8
OBJECT
  6
CONTINUOUS
 62
     7
 48
5.0
100
AcDbLine
 10
7523.820312213968
 20
2653.631057092622
 30
0.0
 11
7578.281204667877
 21
2691.730073423525
 31
0.0
  0
LINE
  5
263
330
223
100
AcDbEntity
  8
OBJECT
  6
CONTINUOUS
 62
     7
 48
5.0
100
AcDbLine
 10
7698.095162750047
 20
2740.714530018237
 30
0.0
 11
7698.095162750047
 21
2784.256258283571
 31
0.0
  0
POLYLINE
  5
264
330
223
100
AcDbEntity
  8
OBJECT
100
AcDb2dPolyline
 66
     1
 10
0.0
 20
0.0
 30
0.0
 70
     1
  0
VERTEX
  5
427
330
264
100
AcDbEntity
  8
OBJECT
100
AcDbVertex
100
AcDb2dVertex
 10
4376.866267972448
 20
5003.316822057444
 30
0.0
  0
VERTEX
  5
428
330
264
100
AcDbEntity
  8
OBJECT
100
AcDbVertex
100
AcDb2dVertex
 10
4257.05233647237
 20
5079.51485471925
 30
0.0
  0
VERTEX
  5
429
330
264
100
AcDbEntity
  8
OBJECT
100
AcDbVertex
100
AcDb2dVertex
 10
4328.036316171966
 20
5181.491159437552
 30
0.0
  0
VERTEX
  5
42A
330
264
100
AcDbEntity
  8
OBJECT
100
AcDbVertex
100
AcDb2dVertex
 10
4447.850247672043
 20
5105.293126775745
 30
0.0
  0
SEQEND
  5
42B
330
264
100
AcDbEntity
  8
OBJECT
  0
POLYLINE
  5
265
330
223
100
AcDbEntity
  8
OBJECT
100
AcDb2dPolyline
 66
     1
 10
0.0
 20
0.0
 30
0.0
 70
     1
  0
VERTEX
  5
42C
330
265
100
AcDbEntity
  8
OBJECT
100
AcDbVertex
100
AcDb2dVertex
 10
2140.780317561504
 20
5079.51485471925
 30
0.0
  0
VERTEX
  5
42D
330
265
100
AcDbEntity
  8
OBJECT
100
AcDbVertex
100
AcDb2dVertex
 10
2020.966386061428
 20
5003.316822057444
 30
0.0
  0
VERTEX
  5
42E
330
265
100
AcDbEntity
  8
OBJECT
100
AcDbVertex
100
AcDb2dVertex
 10
1949.98240636183
 20
5105.293126775745
 30
0.0
  0
VERTEX
  5
42F
330
265
100
AcDbEntity
  8
OBJECT
100
AcDbVertex
100
AcDb2dVertex
 10
2069.796337861907
 20
5181.491159437552
 30
0.0
  0
SEQEND
  5
430
330
265
100
AcDbEntity
  8
OBJECT
  0
LINE
  5
266
330
223
100
AcDbEntity
  8
OBJECT
100
AcDbLine
 10
2913.9400778601
 20
2797.581217209048
 30
0.0
 11
2913.9400778601
 21
2876.782443143616
 31
0.0
  0
LINE
  5
267
330
223
100
AcDbEntity
  8
OBJECT
100
AcDbLine
 10
2913.9400778601
 20
2217.412274753038
 30
0.0
 11
2913.9400778601
 21
2146.656954025658
 31
0.0
  0
POLYLINE
  5
268
330
223
100
AcDbEntity
  8
OBJECT
100
AcDb2dPolyline
 66
     1
 10
0.0
 20
0.0
 30
0.0
  0
VERTEX
  5
431
330
268
100
AcDbEntity
  8
OBJECT
100
AcDbVertex
100
AcDb2dVertex
 10
2103.011411544098
 20
5058.956893101109
 30
0.0
  0
VERTEX
  5
432
330
268
100
AcDbEntity
  8
OBJECT
100
AcDbVertex
100
AcDb2dVertex
 10
2141.631858605721
 20
5003.474367401934
 30
0.0
 42
0.1124445043418361
  0
VERTEX
  5
433
330
268
100
AcDbEntity
  8
OBJECT
100
AcDbVertex
100
AcDb2dVertex
 10
2240.143512445004
 20
4913.748929233901
 30
0.0
  0
VERTEX
  5
434
330
268
100
AcDbEntity
  8
OBJECT
100
AcDbVertex
100
AcDb2dVertex
 10
2970.869844501739
 20
4500.38632712471
 30
0.0
 42
0.1456256480237181
  0
VERTEX
  5
435
330
268
100
AcDbEntity
  8
OBJECT
100
AcDbVertex
100
AcDb2dVertex
 10
3137.655872200339
 20
4462.109697353058
 30
0.0
  0
VERTEX
  5
436
330
268
100
AcDbEntity
  8
OBJECT
100
AcDbVertex
100
AcDb2dVertex
 10
3137.655872200339
 20
4392.297223962486
 30
0.0
  0
VERTEX
  5
437
330
268
100
AcDbEntity
  8
OBJECT
100
AcDbVertex
100
AcDb2dVertex
 10
3070.475471849423
 20
4392.297223962486
 30
0.0
 42
-0.1315028299853057
  0
VERTEX
  5
438
330
268
100
AcDbEntity
  8
OBJECT
100
AcDbVertex
100
AcDb2dVertex
 10
2920.62838997503
 20
4432.401375489055
 30
0.0
  0
VERTEX
  5
439
330
268
100
AcDbEntity
  8
OBJECT
100
AcDbVertex
100
AcDb2dVertex
 10
2198.671459889
 20
4848.657117348055
 30
0.0
 42
-0.1103683208210596
  0
VERTEX
  5
43A
330
268
100
AcDbEntity
  8
OBJECT
100
AcDbVertex
100
AcDb2dVertex
 10
2102.296728839787
 20
4937.162129308555
 30
0.0
  0
VERTEX
  5
43B
330
268
100
AcDbEntity
  8
OBJECT
100
AcDbVertex
100
AcDb2dVertex
 10
2045.421560541282
 20
5018.869572563468
 30
0.0
  0
VERTEX
  5
43C
330
268
100
AcDbEntity
  8
OBJECT
100
AcDbVertex
100
AcDb2dVertex
 10
2103.011411544098
 20
5058.956893101109
 30
0.0
  0
SEQEND
  5
43D
330
268
100
AcDbEntity
  8
OBJECT
  0
POLYLINE
  5
269
330
223
100
AcDbEntity
  8
OBJECT
100
AcDb2dPolyline
 66
     1
 10
0.0
 20
0.0
 30
0.0
 70
     1
  0
VERTEX
  5
43E
330
269
100
AcDbEntity
  8
OBJECT
100
AcDbVertex
100
AcDb2dVertex
 10
4350.740750603252
 20
5016.469941038326
 30
0.0
  0
VERTEX
  5
43F
330
269
100
AcDbEntity
  8
OBJECT
100
AcDbVertex
100
AcDb2dVertex
 10
4293.150899600433
 20
5056.557261575966
 30
0.0
  0
VERTEX
  5
440
330
269
100
AcDbEntity
  8
OBJECT
100
AcDbVertex
100
AcDb2dVertex
 10
4256.200795428152
 20
5003.474367401934
 30
0.0
 42
-0.1124445043418352
  0
VERTEX
  5
441
330
269
100
AcDbEntity
  8
OBJECT
100
AcDbVertex
100
AcDb2dVertex
 10
4157.689141588871
 20
4913.748929233901
 30
0.0
  0
VERTEX
  5
442
330
269
100
AcDbEntity
  8
OBJECT
100
AcDbVertex
100
AcDb2dVertex
 10
3426.962809532136
 20
4500.38632712471
 30
0.0
 42
-0.1461747253260849
  0
VERTEX
  5
443
330
269
100
AcDbEntity
  8
OBJECT
100
AcDbVertex
100
AcDb2dVertex
 10
3259.532972689751
 20
4462.151412883563
 30
0.0
  0
VERTEX
  5
444
330
269
100
AcDbEntity
  8
OBJECT
100
AcDbVertex
100
AcDb2dVertex
 10
3259.532972689751
 20
4392.297223962486
 30
0.0
  0
VERTEX
  5
445
330
269
100
AcDbEntity
  8
OBJECT
100
AcDbVertex
100
AcDb2dVertex
 10
3327.357182184452
 20
4392.297223962486
 30
0.0
 42
0.1315028299853055
  0
VERTEX
  5
446
330
269
100
AcDbEntity
  8
OBJECT
100
AcDbVertex
100
AcDb2dVertex
 10
3477.20426405886
 20
4432.401375489055
 30
0.0
  0
VERTEX
  5
447
330
269
100
AcDbEntity
  8
OBJECT
100
AcDbVertex
100
AcDb2dVertex
 10
4199.161194144862
 20
4848.657117348055
 30
0.0
 42
0.1103683208210589
  0
VERTEX
  5
448
330
269
100
AcDbEntity
  8
OBJECT
100
AcDbVertex
100
AcDb2dVertex
 10
4295.535925194065
 20
4937.162129308512
 30
0.0
  0
VERTEX
  5
449
330
269
100
AcDbEntity
  8
OBJECT
100
AcDbVertex
100
AcDb2dVertex
 10
4350.740750603255
 20
5016.469941038326
 30
0.0
  0
SEQEND
  5
44A
330
269
100
AcDbEntity
  8
OBJECT
  0
ENDBLK
  5
26B
330
223
100
AcDbEntity
  8
0
100
AcDbBlockEnd
  0
BLOCK
  5
3AE
330
38B
100
AcDbEntity
  8
0
100
AcDbBlockBegin
  2
*U4
 70
     1
 10
0.0
 20
0.0
 30
0.0
  3
*U4
  1

  0
SOLID
  5
38C
330
38B
100
AcDbEntity
  8
HATCH
  6
CONTINUOUS
 62
     3
100
AcDbTrace
 10
4183.598757063851
 20
1531.385958663654
 30
0.0
 11
4340.260775551235
 21
1501.196289000132
 31
0.0
 12
4499.471573151952
 22
1511.507744681916
 32
0.0
 13
4499.471573151952
 23
1511.507744681916
 33
0.0
210
0.0
220
0.0
230
1.0
  0
SOLID
  5
38D
330
38B
100
AcDbEntity
  8
HATCH
  6
CONTINUOUS
 62
     3
100
AcDbTrace
 10
4650.930602320058
 20
1561.653199853734
 30
0.0
 11
4183.598757063851
 21
1531.385958663654
 31
0.0
 12
4499.471573151952
 22
1511.507744681916
 32
0.0
 13
4499.471573151952
 23
1511.507744681916
 33
0.0
210
0.0
220
0.0
230
1.0
  0
SOLID
  5
38E
330
38B
100
AcDbEntity
  8
HATCH
  6
CONTINUOUS
 62
     3
100
AcDbTrace
 10
4039.621165487509
 20
1600.123556198117
 30
0.0
 11
4183.598757063851
 21
1531.385958663654
 31
0.0
 12
4650.930602320058
 22
1561.653199853734
 32
0.0
 13
4650.930602320058
 23
1561.653199853734
 33
0.0
210
0.0
220
0.0
230
1.0
  0
SOLID
  5
38F
330
38B
100
AcDbEntity
  8
HATCH
  6
CONTINUOUS
 62
     3
100
AcDbTrace
 10
4294.877143949956
 20
1606.818609742396
 30
0.0
 11
4039.621165487509
 21
1600.123556198117
 31
0.0
 12
4650.930602320058
 22
1561.653199853734
 32
0.0
 13
4650.930602320058
 23
1561.653199853734
 33
0.0
210
0.0
220
0.0
230
1.0
  0
SOLID
  5
390
330
38B
100
AcDbEntity
  8
HATCH
  6
CONTINUOUS
 62
     3
100
AcDbTrace
 10
4465.713785568413
 20
1607.028556732952
 30
0.0
 11
4294.877143949956
 21
1606.818609742396
 31
0.0
 12
4650.930602320058
 22
1561.653199853734
 32
0.0
 13
4650.930602320058
 23
1561.653199853734
 33
0.0
210
0.0
220
0.0
230
1.0
  0
SOLID
  5
391
330
38B
100
AcDbEntity
  8
HATCH
  6
CONTINUOUS
 62
     3
100
AcDbTrace
 10
4784.838835887048
 20
1648.388366734891
 30
0.0
 11
4465.713785568413
 21
1607.028556732952
 31
0.0
 12
4650.930602320058
 22
1561.653199853734
 32
0.0
 13
4650.930602320058
 23
1561.653199853734
 33
0.0
210
0.0
220
0.0
230
1.0
  0
SOLID
  5
392
330
38B
100
AcDbEntity
  8
HATCH
  6
CONTINUOUS
 62
     3
100
AcDbTrace
 10
4132.94121617305
 20
1661.24247851562
 30
0.0
 11
4039.621165487509
 21
1600.123556198117
 31
0.0
 12
4294.877143949956
 22
1606.818609742396
 32
0.0
 13
4294.877143949956
 23
1606.818609742396
 33
0.0
210
0.0
220
0.0
230
1.0
  0
SOLID
  5
393
330
38B
100
AcDbEntity
  8
HATCH
  6
CONTINUOUS
 62
     3
100
AcDbTrace
 10
4627.515457704475
 20
1661.850277712748
 30
0.0
 11
4465.713785568413
 21
1607.028556732952
 31
0.0
 12
4784.838835887048
 22
1648.388366734891
 32
0.0
 13
4784.838835887048
 23
1648.388366734891
 33
0.0
  0
SOLID
  5
394
330
38B
100
AcDbEntity
  8
HATCH
  6
CONTINUOUS
 62
     3
100
AcDbTrace
 10
3917.64299735468
 20
1702.9619278786
 30
0.0
 11
4039.621165487509
 21
1600.123556198117
 31
0.0
 12
4132.94121617305
 22
1661.24247851562
 32
0.0
 13
4132.94121617305
 23
1661.24247851562
 33
0.0
210
0.0
220
0.0
230
1.0
  0
SOLID
  5
395
330
38B
100
AcDbEntity
  8
HATCH
  6
CONTINUOUS
 62
     3
100
AcDbTrace
 10
3996.907223356659
 20
1764.586346237137
 30
0.0
 11
3917.64299735468
 21
1702.9619278786
 31
0.0
 12
4132.94121617305
 22
1661.24247851562
 32
0.0
 13
4132.94121617305
 23
1661.24247851562
 33
0.0
210
0.0
220
0.0
230
1.0
  0
SOLID
  5
396
330
38B
100
AcDbEntity
  8
HATCH
  6
CONTINUOUS
 62
     3
100
AcDbTrace
 10
4763.295034380806
 20
1765.528186424338
 30
0.0
 11
4627.515457704475
 21
1661.850277712748
 31
0.0
 12
4784.838835887048
 22
1648.388366734891
 32
0.0
 13
4784.838835887048
 23
1648.388366734891
 33
0.0
210
0.0
220
0.0
230
1.0
  0
SOLID
  5
397
330
38B
100
AcDbEntity
  8
HATCH
  6
CONTINUOUS
 62
     3
100
AcDbTrace
 10
4892.532740050966
 20
1766.101693069962
 30
0.0
 11
4763.295034380806
 21
1765.528186424338
 31
0.0
 12
4784.838835887048
 22
1648.388366734891
 32
0.0
 13
4784.838835887048
 23
1648.388366734891
 33
0.0
210
0.0
220
0.0
230
1.0
  0
SOLID
  5
398
330
38B
100
AcDbEntity
  8
HATCH
  6
CONTINUOUS
 62
     3
100
AcDbTrace
 10
3825.55594053675
 20
1833.247683652381
 30
0.0
 11
3917.64299735468
 21
1702.9619278786
 31
0.0
 12
3996.907223356659
 22
1764.586346237137
 32
0.0
 13
3996.907223356659
 23
1764.586346237137
 33
0.0
210
0.0
220
0.0
230
1.0
  0
SOLID
  5
399
330
38B
100
AcDbEntity
  8
HATCH
  6
CONTINUOUS
 62
     3
100
AcDbTrace
 10
3901.057011557534
 20
1906.000415888198
 30
0.0
 11
3825.55594053675
 21
1833.247683652381
 31
0.0
 12
3996.907223356659
 22
1764.586346237137
 32
0.0
 13
3996.907223356659
 23
1764.586346237137
 33
0.0
  0
SOLID
  5
39A
330
38B
100
AcDbEntity
  8
HATCH
  6
CONTINUOUS
 62
     3
100
AcDbTrace
 10
4858.797380012584
 20
1907.177415776427
 30
0.0
 11
4763.295034380806
 21
1765.528186424338
 31
0.0
 12
4892.532740050966
 22
1766.101693069962
 32
0.0
 13
4892.532740050966
 23
1766.101693069962
 33
0.0
210
0.0
220
0.0
230
1.0
  0
SOLID
  5
39B
330
38B
100
AcDbEntity
  8
HATCH
  6
CONTINUOUS
 62
     3
100
AcDbTrace
 10
4967.04478373373
 20
1907.177415776428
 30
0.0
 11
4858.797380012584
 21
1907.177415776427
 31
0.0
 12
4892.532740050966
 22
1766.101693069962
 32
0.0
 13
4892.532740050966
 23
1766.101693069962
 33
0.0
210
0.0
220
0.0
230
1.0
  0
SOLID
  5
39C
330
38B
100
AcDbEntity
  8
HATCH
  6
CONTINUOUS
 62
     3
100
AcDbTrace
 10
3769.317801422569
 20
1982.551655133075
 30
0.0
 11
3825.55594053675
 21
1833.247683652381
 31
0.0
 12
3901.057011557534
 22
1906.000415888198
 32
0.0
 13
3901.057011557534
 23
1906.000415888198
 33
0.0
  0
SOLID
  5
39D
330
38B
100
AcDbEntity
  8
HATCH
  6
CONTINUOUS
 62
     3
100
AcDbTrace
 10
3855.453638847267
 20
2070.638001495679
 30
0.0
 11
3769.317801422569
 21
1982.551655133075
 31
0.0
 12
3901.057011557534
 22
1906.000415888198
 32
0.0
 13
3901.057011557534
 23
1906.000415888198
 33
0.0
  0
SOLID
  5
39E
330
38B
100
AcDbEntity
  8
HATCH
  6
CONTINUOUS
 62
     3
100
AcDbTrace
 10
3278.757356901536
 20
2141.214242091229
 30
0.0
 11
3126.266852714183
 21
2108.557937694757
 31
0.0
 12
3278.757356901536
 22
2108.557937694757
 32
0.0
 13
3278.757356901536
 23
2108.557937694757
 33
0.0
210
0.0
220
0.0
230
1.0
  0
SOLID
  5
39F
330
38B
100
AcDbEntity
  8
HATCH
  6
CONTINUOUS
 62
     3
100
AcDbTrace
 10
3752.567049478849
 20
2141.214242091229
 30
0.0
 11
3769.317801422569
 21
1982.551655133075
 31
0.0
 12
3855.453638847267
 22
2070.638001495679
 32
0.0
 13
3855.453638847267
 23
2070.638001495679
 33
0.0
210
0.0
220
0.0
230
1.0
  0
SOLID
  5
3A0
330
38B
100
AcDbEntity
  8
HATCH
  6
CONTINUOUS
 62
     3
100
AcDbTrace
 10
3126.266852714183
 20
2146.656954025658
 30
0.0
 11
3126.266852714183
 21
2108.557937694757
 31
0.0
 12
3278.757356901536
 22
2141.214242091229
 32
0.0
 13
3278.757356901536
 23
2141.214242091229
 33
0.0
210
0.0
220
0.0
230
1.0
  0
SOLID
  5
3A1
330
38B
100
AcDbEntity
  8
HATCH
  6
CONTINUOUS
 62
     3
100
AcDbTrace
 10
2913.9400778601
 20
2217.412274753038
 30
0.0
 11
2913.9400778601
 21
2146.656954025657
 31
0.0
 12
3126.266852714183
 22
2146.656954025658
 32
0.0
 13
3126.266852714183
 23
2146.656954025658
 33
0.0
210
0.0
220
0.0
230
1.0
  0
SOLID
  5
3A2
330
38B
100
AcDbEntity
  8
HATCH
  6
CONTINUOUS
 62
     3
100
AcDbTrace
 10
3864.884881686965
 20
2241.214242091229
 30
0.0
 11
2913.9400778601
 21
2217.412274753038
 31
0.0
 12
3126.266852714183
 22
2146.656954025658
 32
0.0
 13
3126.266852714183
 23
2146.656954025658
 33
0.0
210
0.0
220
0.0
230
1.0
  0
SOLID
  5
3A3
330
38B
100
AcDbEntity
  8
HATCH
  6
CONTINUOUS
 62
     3
100
AcDbTrace
 10
3864.884881686965
 20
2241.214242091229
 30
0.0
 11
3126.266852714183
 21
2146.656954025658
 31
0.0
 12
3278.757356901536
 22
2141.214242091229
 32
0.0
 13
3278.757356901536
 23
2141.214242091229
 33
0.0
210
0.0
220
0.0
230
1.0
  0
SOLID
  5
3A4
330
38B
100
AcDbEntity
  8
HATCH
  6
CONTINUOUS
 62
     3
100
AcDbTrace
 10
3864.884881686965
 20
2241.214242091229
 30
0.0
 11
3278.757356901536
 21
2141.214242091229
 31
0.0
 12
3752.567049478849
 22
2141.214242091229
 32
0.0
 13
3752.567049478849
 23
2141.214242091229
 33
0.0
210
0.0
220
0.0
230
1.0
  0
SOLID
  5
3A5
330
38B
100
AcDbEntity
  8
HATCH
  6
CONTINUOUS
 62
     3
100
AcDbTrace
 10
3864.884881686965
 20
2241.214242091229
 30
0.0
 11
3752.567049478849
 21
2141.214242091229
 31
0.0
 12
3855.453638847267
 22
2070.638001495679
 32
0.0
 13
3855.453638847267
 23
2070.638001495679
 33
0.0
210
0.0
220
0.0
230
1.0
  0
SOLID
  5
3A6
330
38B
100
AcDbEntity
  8
HATCH
  6
CONTINUOUS
 62
     3
100
AcDbTrace
 10
2913.9400778601
 20
2217.412274753038
 30
0.0
 11
3864.884881686965
 21
2241.214242091229
 31
0.0
 12
3838.548888334811
 22
2241.214242091229
 32
0.0
 13
3838.548888334811
 23
2241.214242091229
 33
0.0
  0
SOLID
  5
3A7
330
38B
100
AcDbEntity
  8
HATCH
  6
CONTINUOUS
 62
     3
100
AcDbTrace
 10
2913.9400778601
 20
2217.412274753038
 30
0.0
 11
3838.548888334811
 21
2241.214242091229
 31
0.0
 12
3013.9400778601
 22
2241.214242091229
 32
0.0
 13
3013.9400778601
 23
2241.214242091229
 33
0.0
210
0.0
220
0.0
230
1.0
  0
SOLID
  5
3A8
330
38B
100
AcDbEntity
  8
HATCH
  6
CONTINUOUS
 62
     3
100
AcDbTrace
 10
3013.9400778601
 20
2776.782443143615
 30
0.0
 11
2913.9400778601
 21
2217.412274753038
 31
0.0
 12
3013.9400778601
 22
2241.214242091229
 32
0.0
 13
3013.9400778601
 23
2241.214242091229
 33
0.0
210
0.0
220
0.0
230
1.0
  0
SOLID
  5
3A9
330
38B
100
AcDbEntity
  8
HATCH
  6
CONTINUOUS
 62
     3
100
AcDbTrace
 10
2913.9400778601
 20
2797.581217209048
 30
0.0
 11
2913.9400778601
 21
2217.412274753038
 31
0.0
 12
3013.9400778601
 22
2776.782443143615
 32
0.0
 13
3013.9400778601
 23
2776.782443143615
 33
0.0
210
0.0
220
0.0
230
1.0
  0
SOLID
  5
3AA
330
38B
100
AcDbEntity
  8
HATCH
  6
CONTINUOUS
 62
     3
100
AcDbTrace
 10
2913.9400778601
 20
2797.581217209048
 30
0.0
 11
4653.731644067887
 21
2876.782443143616
 31
0.0
 12
3259.532972689751
 22
2876.782443143616
 32
0.0
 13
3259.532972689751
 23
2876.782443143616
 33
0.0
210
0.0
220
0.0
230
1.0
  0
SOLID
  5
3AB
330
38B
100
AcDbEntity
  8
HATCH
  6
CONTINUOUS
 62
     3
100
AcDbTrace
 10
2913.9400778601
 20
2797.581217209048
 30
0.0
 11
3259.532972689751
 21
2876.782443143616
 31
0.0
 12
2913.9400778601
 22
2876.782443143616
 32
0.0
 13
2913.9400778601
 23
2876.782443143616
 33
0.0
210
0.0
220
0.0
230
1.0
  0
SOLID
  5
3AC
330
38B
100
AcDbEntity
  8
HATCH
  6
CONTINUOUS
 62
     3
100
AcDbTrace
 10
4653.731644067887
 20
2876.782443143616
 30
0.0
 11
2913.9400778601
 21
2797.581217209048
 31
0.0
 12
3013.9400778601
 22
2776.782443143615
 32
0.0
 13
3013.9400778601
 23
2776.782443143615
 33
0.0
210
0.0
220
0.0
230
1.0
  0
SOLID
  5
3AD
330
38B
100
AcDbEntity
  8
HATCH
  6
CONTINUOUS
 62
     3
100
AcDbTrace
 10
4653.731644067887
 20
2876.782443143616
 30
0.0
 11
3013.9400778601
 21
2776.782443143615
 31
0.0
 12
4653.731644067888
 22
2776.782443143614
 32
0.0
 13
4653.731644067888
 23
2776.782443143614
 33
0.0
  0
ENDBLK
  5
3AF
330
38B
100
AcDbEntity
  8
0
100
AcDbBlockEnd
  0
BLOCK
  5
3BF
330
3B0
100
AcDbEntity
  8
0
100
AcDbBlockBegin
  2
*U5
 70
     1
 10
0.0
 20
0.0
 30
0.0
  3
*U5
  1

  0
SOLID
  5
3B1
330
3B0
100
AcDbEntity
  8
HATCH
  6
CONTINUOUS
 62
     3
100
AcDbTrace
 10
5846.425058556139
 20
2784.256258283571
 30
0.0
 11
5546.425058556136
 21
2207.177415776429
 31
0.0
 12
5846.425058556139
 22
1907.177415776427
 32
0.0
 13
5846.425058556139
 23
1907.177415776427
 33
0.0
  0
SOLID
  5
3B2
330
3B0
100
AcDbEntity
  8
HATCH
  6
CONTINUOUS
 62
     3
100
AcDbTrace
 10
5546.425058556136
 20
2794.491117260181
 30
0.0
 11
5546.425058556136
 21
2207.177415776429
 31
0.0
 12
5846.425058556139
 22
2784.256258283571
 32
0.0
 13
5846.425058556139
 23
2784.256258283571
 33
0.0
210
0.0
220
0.0
230
1.0
  0
SOLID
  5
3B3
330
3B0
100
AcDbEntity
  8
HATCH
  6
CONTINUOUS
 62
     3
100
AcDbTrace
 10
5846.425058556139
 20
3094.491117260181
 30
0.0
 11
5546.425058556136
 21
2794.491117260181
 31
0.0
 12
5846.425058556139
 22
2784.256258283571
 32
0.0
 13
5846.425058556139
 23
2784.256258283571
 33
0.0
210
0.0
220
0.0
230
1.0
  0
SOLID
  5
3B4
330
3B0
100
AcDbEntity
  8
HATCH
  6
CONTINUOUS
 62
     3
100
AcDbTrace
 10
5546.425058556138
 20
2794.491117260182
 30
0.0
 11
5846.425058556138
 21
3094.491117260182
 31
0.0
 12
4953.731644067887
 22
2794.491117260182
 32
0.0
 13
4953.731644067887
 23
2794.491117260182
 33
0.0
210
0.0
220
0.0
230
1.0
  0
SOLID
  5
3B5
330
3B0
100
AcDbEntity
  8
HATCH
  6
CONTINUOUS
 62
     3
100
AcDbTrace
 10
4653.731644067887
 20
3094.491117260182
 30
0.0
 11
4953.731644067887
 21
2794.491117260182
 31
0.0
 12
5846.425058556138
 22
3094.491117260182
 32
0.0
 13
5846.425058556138
 23
3094.491117260182
 33
0.0
  0
SOLID
  5
3B6
330
3B0
100
AcDbEntity
  8
HATCH
  6
CONTINUOUS
 62
     3
100
AcDbTrace
 10
5546.425058556138
 20
2794.491117260182
 30
0.0
 11
4953.731644067887
 21
2794.491117260182
 31
0.0
 12
5250.078351312013
 22
2500.834266518305
 32
0.0
 13
5250.078351312013
 23
2500.834266518305
 33
0.0
210
0.0
220
0.0
230
1.0
  0
SOLID
  5
3B7
330
3B0
100
AcDbEntity
  8
HATCH
  6
CONTINUOUS
 62
     3
100
AcDbTrace
 10
5250.078351312012
 20
2500.834266518305
 30
0.0
 11
5546.425058556138
 21
2207.177415776429
 31
0.0
 12
5546.425058556138
 22
2794.491117260182
 32
0.0
 13
5546.425058556138
 23
2794.491117260182
 33
0.0
210
0.0
220
0.0
230
1.0
  0
SOLID
  5
3B8
330
3B0
100
AcDbEntity
  8
HATCH
  6
CONTINUOUS
 62
     3
100
AcDbTrace
 10
4953.731644067887
 20
2207.177415776428
 30
0.0
 11
5546.425058556136
 21
2207.177415776428
 31
0.0
 12
5250.078351312012
 22
2500.834266518304
 32
0.0
 13
5250.078351312012
 23
2500.834266518304
 33
0.0
210
0.0
220
0.0
230
1.0
  0
SOLID
  5
3B9
330
3B0
100
AcDbEntity
  8
HATCH
  6
CONTINUOUS
 62
     3
100
AcDbTrace
 10
4953.731644067888
 20
2207.177415776427
 30
0.0
 11
5250.078351312012
 21
2500.834266518304
 31
0.0
 12
4953.731644067888
 22
2794.49111726018
 32
0.0
 13
4953.731644067888
 23
2794.49111726018
 33
0.0
210
0.0
220
0.0
230
1.0
  0
SOLID
  5
3BA
330
3B0
100
AcDbEntity
  8
HATCH
  6
CONTINUOUS
 62
     3
100
AcDbTrace
 10
4653.731644067888
 20
1907.177415776429
 30
0.0
 11
4953.731644067888
 21
2207.177415776428
 31
0.0
 12
4653.731644067888
 22
2876.782443143616
 32
0.0
 13
4653.731644067888
 23
2876.782443143616
 33
0.0
  0
SOLID
  5
3BB
330
3B0
100
AcDbEntity
  8
HATCH
  6
CONTINUOUS
 62
     3
100
AcDbTrace
 10
4953.731644067888
 20
2794.491117260182
 30
0.0
 11
4653.731644067888
 21
2876.782443143616
 31
0.0
 12
4953.731644067888
 22
2207.177415776428
 32
0.0
 13
4953.731644067888
 23
2207.177415776428
 33
0.0
210
0.0
220
0.0
230
1.0
  0
SOLID
  5
3BC
330
3B0
100
AcDbEntity
  8
HATCH
  6
CONTINUOUS
 62
     3
100
AcDbTrace
 10
4653.731644067888
 20
2876.782443143616
 30
0.0
 11
4953.731644067888
 21
2794.491117260182
 31
0.0
 12
4653.731644067888
 22
3094.491117260182
 32
0.0
 13
4653.731644067888
 23
3094.491117260182
 33
0.0
210
0.0
220
0.0
230
1.0
  0
SOLID
  5
3BD
330
3B0
100
AcDbEntity
  8
HATCH
  6
CONTINUOUS
 62
     3
100
AcDbTrace
 10
5846.425058556139
 20
1907.177415776428
 30
0.0
 11
5546.425058556138
 21
2207.177415776428
 31
0.0
 12
4653.731644067888
 22
1907.177415776428
 32
0.0
 13
4653.731644067888
 23
1907.177415776428
 33
0.0
210
0.0
220
0.0
230
1.0
  0
SOLID
  5
3BE
330
3B0
100
AcDbEntity
  8
HATCH
  6
CONTINUOUS
 62
     3
100
AcDbTrace
 10
4953.731644067888
 20
2207.177415776428
 30
0.0
 11
4653.731644067888
 21
1907.177415776428
 31
0.0
 12
5546.425058556138
 22
2207.177415776428
 32
0.0
 13
5546.425058556138
 23
2207.177415776428
 33
0.0
210
0.0
220
0.0
230
1.0
  0
ENDBLK
  5
3C0
330
3B0
100
AcDbEntity
  8
0
100
AcDbBlockEnd
  0
BLOCK
  5
3D3
330
3C1
100
AcDbEntity
  8
0
100
AcDbBlockBegin
  2
*U6
 70
     1
 10
0.0
 20
0.0
 30
0.0
  3
*U6
  1

  0
SOLID
  5
3C2
330
3C1
100
AcDbEntity
  8
HATCH
  6
CONTINUOUS
 62
     2
100
AcDbTrace
 10
7698.095162750047
 20
2740.714530018237
 30
0.0
 11
7698.095162750047
 21
2784.256258283571
 31
0.0
 12
5846.425058556139
 22
2740.714530018236
 32
0.0
 13
5846.425058556139
 23
2740.714530018236
 33
0.0
  0
SOLID
  5
3C3
330
3C1
100
AcDbEntity
  8
HATCH
  6
CONTINUOUS
 62
     2
100
AcDbTrace
 10
5846.425058556139
 20
2784.256258283571
 30
0.0
 11
5846.425058556139
 21
2740.714530018236
 31
0.0
 12
7698.095162750047
 22
2784.256258283571
 32
0.0
 13
7698.095162750047
 23
2784.256258283571
 33
0.0
  0
SOLID
  5
3C4
330
3C1
100
AcDbEntity
  8
HATCH
  6
CONTINUOUS
 62
     2
100
AcDbTrace
 10
5846.425058556139
 20
2740.714530018237
 30
0.0
 11
5846.425058556139
 21
2684.25625828357
 31
0.0
 12
7616.403810778142
 22
2740.714530018237
 32
0.0
 13
7616.403810778142
 23
2740.714530018237
 33
0.0
210
0.0
220
0.0
230
1.0
  0
SOLID
  5
3C5
330
3C1
100
AcDbEntity
  8
HATCH
  6
CONTINUOUS
 62
     2
100
AcDbTrace
 10
7567.59770987572
 20
2684.256258283569
 30
0.0
 11
7616.403810778142
 21
2740.714530018237
 31
0.0
 12
5846.425058556139
 22
2684.25625828357
 32
0.0
 13
5846.425058556139
 23
2684.25625828357
 33
0.0
210
0.0
220
0.0
230
1.0
  0
SOLID
  5
3C6
330
3C1
100
AcDbEntity
  8
HATCH
  6
CONTINUOUS
 62
     2
100
AcDbTrace
 10
7616.403810778142
 20
2740.714530018237
 30
0.0
 11
7567.59770987572
 21
2684.256258283569
 31
0.0
 12
7578.281204667877
 22
2691.730073423523
 32
0.0
 13
7578.281204667877
 23
2691.730073423523
 33
0.0
  0
SOLID
  5
3C7
330
3C1
100
AcDbEntity
  8
HATCH
  6
CONTINUOUS
 62
     2
100
AcDbTrace
 10
7523.820312213967
 20
2359.724350314253
 30
0.0
 11
5846.425058556138
 21
2327.874971354733
 31
0.0
 12
7569.347618934251
 22
2327.874971354732
 32
0.0
 13
7569.347618934251
 23
2327.874971354732
 33
0.0
210
0.0
220
0.0
230
1.0
  0
SOLID
  5
3C8
330
3C1
100
AcDbEntity
  8
HATCH
  6
CONTINUOUS
 62
     2
100
AcDbTrace
 10
7502.035965865251
 20
2419.594230777826
 30
0.0
 11
5846.425058556138
 21
2327.874971354733
 31
0.0
 12
7523.820312213967
 22
2359.724350314253
 32
0.0
 13
7523.820312213967
 23
2359.724350314253
 33
0.0
  0
SOLID
  5
3C9
330
3C1
100
AcDbEntity
  8
HATCH
  6
CONTINUOUS
 62
     2
100
AcDbTrace
 10
7502.035965865251
 20
2506.677703703436
 30
0.0
 11
5846.425058556138
 21
2327.874971354733
 31
0.0
 12
7502.035965865251
 22
2419.594230777826
 32
0.0
 13
7502.035965865251
 23
2419.594230777826
 33
0.0
  0
SOLID
  5
3CA
330
3C1
100
AcDbEntity
  8
HATCH
  6
CONTINUOUS
 62
     2
100
AcDbTrace
 10
7502.035965865251
 20
2593.761176629048
 30
0.0
 11
5846.425058556138
 21
2327.874971354733
 31
0.0
 12
7502.035965865251
 22
2506.677703703436
 32
0.0
 13
7502.035965865251
 23
2506.677703703436
 33
0.0
210
0.0
220
0.0
230
1.0
  0
SOLID
  5
3CB
330
3C1
100
AcDbEntity
  8
HATCH
  6
CONTINUOUS
 62
     2
100
AcDbTrace
 10
7523.820312213968
 20
2653.631057092622
 30
0.0
 11
5846.425058556138
 21
2327.874971354733
 31
0.0
 12
7502.035965865251
 22
2593.761176629048
 32
0.0
 13
7502.035965865251
 23
2593.761176629048
 33
0.0
210
0.0
220
0.0
230
1.0
  0
SOLID
  5
3CC
330
3C1
100
AcDbEntity
  8
HATCH
  6
CONTINUOUS
 62
     2
100
AcDbTrace
 10
7567.59770987572
 20
2684.25625828357
 30
0.0
 11
5846.425058556138
 21
2327.874971354733
 31
0.0
 12
7523.820312213968
 22
2653.631057092622
 32
0.0
 13
7523.820312213968
 23
2653.631057092622
 33
0.0
210
0.0
220
0.0
230
1.0
  0
SOLID
  5
3CD
330
3C1
100
AcDbEntity
  8
HATCH
  6
CONTINUOUS
 62
     2
100
AcDbTrace
 10
5846.425058556139
 20
2684.25625828357
 30
0.0
 11
5846.425058556138
 21
2327.874971354733
 31
0.0
 12
7567.59770987572
 22
2684.25625828357
 32
0.0
 13
7567.59770987572
 23
2684.25625828357
 33
0.0
  0
SOLID
  5
3CE
330
3C1
100
AcDbEntity
  8
HATCH
  6
CONTINUOUS
 62
     2
100
AcDbTrace
 10
7617.356538441658
 20
2271.416699620067
 30
0.0
 11
7578.281204667876
 21
2321.62533398335
 31
0.0
 12
5846.425058556139
 22
2271.416699620067
 32
0.0
 13
5846.425058556139
 23
2271.416699620067
 33
0.0
210
0.0
220
0.0
230
1.0
  0
SOLID
  5
3CF
330
3C1
100
AcDbEntity
  8
HATCH
  6
CONTINUOUS
 62
     2
100
AcDbTrace
 10
7569.347618934253
 20
2327.874971354733
 30
0.0
 11
5846.425058556139
 21
2271.416699620067
 31
0.0
 12
7578.281204667876
 22
2321.62533398335
 32
0.0
 13
7578.281204667876
 23
2321.62533398335
 33
0.0
210
0.0
220
0.0
230
1.0
  0
SOLID
  5
3D0
330
3C1
100
AcDbEntity
  8
HATCH
  6
CONTINUOUS
 62
     2
100
AcDbTrace
 10
5846.425058556139
 20
2271.416699620067
 30
0.0
 11
7569.347618934253
 21
2327.874971354733
 31
0.0
 12
5846.425058556139
 22
2327.874971354733
 32
0.0
 13
5846.425058556139
 23
2327.874971354733
 33
0.0
210
0.0
220
0.0
230
1.0
  0
SOLID
  5
3D1
330
3C1
100
AcDbEntity
  8
HATCH
  6
CONTINUOUS
 62
     2
100
AcDbTrace
 10
5846.425058556139
 20
2271.416699620067
 30
0.0
 11
5846.425058556139
 21
2227.874971354733
 31
0.0
 12
7687.947554074104
 22
2271.416699620067
 32
0.0
 13
7687.947554074104
 23
2271.416699620067
 33
0.0
210
0.0
220
0.0
230
1.0
  0
SOLID
  5
3D2
330
3C1
100
AcDbEntity
  8
HATCH
  6
CONTINUOUS
 62
     2
100
AcDbTrace
 10
7687.947554074104
 20
2227.874971354733
 30
0.0
 11
7687.947554074104
 21
2271.416699620067
 31
0.0
 12
5846.425058556139
 22
2227.874971354733
 32
0.0
 13
5846.425058556139
 23
2227.874971354733
 33
0.0
210
0.0
220
0.0
230
1.0
  0
ENDBLK
  5
3D4
330
3C1
100
AcDbEntity
  8
0
100
AcDbBlockEnd
  0
BLOCK
  5
3DA
330
3D5
100
AcDbEntity
  8
0
100
AcDbBlockBegin
  2
*U7
 70
     1
 10
0.0
 20
0.0
 30
0.0
  3
*U7
  1

  0
SOLID
  5
3D6
330
3D5
100
AcDbEntity
  8
HATCH
  6
CONTINUOUS
 62
     1
100
AcDbTrace
 10
4447.850247672042
 20
5105.293126775745
 30
0.0
 11
4257.05233647237
 21
5079.514854719251
 31
0.0
 12
4376.866267972448
 22
5003.316822057444
 32
0.0
 13
4376.866267972448
 23
5003.316822057444
 33
0.0
210
0.0
220
0.0
230
1.0
  0
SOLID
  5
3D7
330
3D5
100
AcDbEntity
  8
HATCH
  6
CONTINUOUS
 62
     1
100
AcDbTrace
 10
1949.982406361829
 20
5105.293126775745
 30
0.0
 11
2020.966386061427
 21
5003.316822057442
 31
0.0
 12
2140.780317561503
 22
5079.514854719251
 32
0.0
 13
2140.780317561503
 23
5079.514854719251
 33
0.0
  0
SOLID
  5
3D8
330
3D5
100
AcDbEntity
  8
HATCH
  6
CONTINUOUS
 62
     1
100
AcDbTrace
 10
4328.036316171966
 20
5181.491159437551
 30
0.0
 11
4257.05233647237
 21
5079.514854719251
 31
0.0
 12
4447.850247672042
 22
5105.293126775745
 32
0.0
 13
4447.850247672042
 23
5105.293126775745
 33
0.0
210
0.0
220
0.0
230
1.0
  0
SOLID
  5
3D9
330
3D5
100
AcDbEntity
  8
HATCH
  6
CONTINUOUS
 62
     1
100
AcDbTrace
 10
2069.796337861906
 20
5181.491159437553
 30
0.0
 11
1949.982406361829
 21
5105.293126775745
 31
0.0
 12
2140.780317561503
 22
5079.514854719251
 32
0.0
 13
2140.780317561503
 23
5079.514854719251
 33
0.0
210
0.0
220
0.0
230
1.0
  0
ENDBLK
  5
3DB
330
3D5
100
AcDbEntity
  8
0
100
AcDbBlockEnd
  0
BLOCK
  5
3EA
330
3DC
100
AcDbEntity
  8
0
100
AcDbBlockBegin
  2
*U8
 70
     1
 10
0.0
 20
0.0
 30
0.0
  3
*U8
  1

  0
SOLID
  5
3DD
330
3DC
100
AcDbEntity
  8
HATCH
  6
CONTINUOUS
 62
   251
100
AcDbTrace
 10
4132.941216173017
 20
1661.242478515637
 30
0.0
 11
4294.877143949927
 21
1606.818609742401
 31
0.0
 12
4465.713785568392
 22
1607.028556732947
 32
0.0
 13
4465.713785568392
 23
1607.028556732947
 33
0.0
210
0.0
220
0.0
230
1.0
  0
SOLID
  5
3DE
330
3DC
100
AcDbEntity
  8
HATCH
  6
CONTINUOUS
 62
   251
100
AcDbTrace
 10
4627.515457704463
 20
1661.85027771274
 30
0.0
 11
4132.941216173017
 21
1661.242478515637
 31
0.0
 12
4465.713785568392
 22
1607.028556732947
 32
0.0
 13
4465.713785568392
 23
1607.028556732947
 33
0.0
210
0.0
220
0.0
230
1.0
  0
SOLID
  5
3DF
330
3DC
100
AcDbEntity
  8
HATCH
  6
CONTINUOUS
 62
   251
100
AcDbTrace
 10
3996.907223356629
 20
1764.586346237169
 30
0.0
 11
4132.941216173017
 21
1661.242478515637
 31
0.0
 12
4627.515457704463
 22
1661.85027771274
 32
0.0
 13
4627.515457704463
 23
1661.85027771274
 33
0.0
210
0.0
220
0.0
230
1.0
  0
SOLID
  5
3E0
330
3DC
100
AcDbEntity
  8
HATCH
  6
CONTINUOUS
 62
   251
100
AcDbTrace
 10
4763.2950343808
 20
1765.528186424333
 30
0.0
 11
3996.907223356629
 21
1764.586346237169
 31
0.0
 12
4627.515457704463
 22
1661.85027771274
 32
0.0
 13
4627.515457704463
 23
1661.85027771274
 33
0.0
  0
SOLID
  5
3E1
330
3DC
100
AcDbEntity
  8
HATCH
  6
CONTINUOUS
 62
   251
100
AcDbTrace
 10
3901.057011557512
 20
1906.000415888245
 30
0.0
 11
3996.907223356629
 21
1764.586346237169
 31
0.0
 12
4763.2950343808
 22
1765.528186424333
 32
0.0
 13
4763.2950343808
 23
1765.528186424333
 33
0.0
210
0.0
220
0.0
230
1.0
  0
SOLID
  5
3E2
330
3DC
100
AcDbEntity
  8
HATCH
  6
CONTINUOUS
 62
   251
100
AcDbTrace
 10
4858.797380012584
 20
1907.177415776428
 30
0.0
 11
3901.057011557512
 21
1906.000415888245
 31
0.0
 12
4763.2950343808
 22
1765.528186424333
 32
0.0
 13
4763.2950343808
 23
1765.528186424333
 33
0.0
210
0.0
220
0.0
230
1.0
  0
SOLID
  5
3E3
330
3DC
100
AcDbEntity
  8
HATCH
  6
CONTINUOUS
 62
   251
100
AcDbTrace
 10
3901.057011557512
 20
1906.000415888245
 30
0.0
 11
4858.797380012584
 21
1907.177415776428
 31
0.0
 12
4653.731644067888
 22
1907.177415776428
 32
0.0
 13
4653.731644067888
 23
1907.177415776428
 33
0.0
210
0.0
220
0.0
230
1.0
  0
SOLID
  5
3E4
330
3DC
100
AcDbEntity
  8
HATCH
  6
CONTINUOUS
 62
   251
100
AcDbTrace
 10
3855.45363884726
 20
2070.638001495738
 30
0.0
 11
3901.057011557512
 21
1906.000415888245
 31
0.0
 12
4653.731644067888
 22
1907.177415776428
 32
0.0
 13
4653.731644067888
 23
1907.177415776428
 33
0.0
  0
SOLID
  5
3E5
330
3DC
100
AcDbEntity
  8
HATCH
  6
CONTINUOUS
 62
   251
100
AcDbTrace
 10
3864.884881686979
 20
2241.214242091295
 30
0.0
 11
3013.9400778601
 21
2241.214242091229
 31
0.0
 12
3838.548888334811
 22
2241.214242091229
 32
0.0
 13
3838.548888334811
 23
2241.214242091229
 33
0.0
210
0.0
220
0.0
230
1.0
  0
SOLID
  5
3E6
330
3DC
100
AcDbEntity
  8
HATCH
  6
CONTINUOUS
 62
   251
100
AcDbTrace
 10
3864.884881686979
 20
2241.214242091295
 30
0.0
 11
3855.45363884726
 21
2070.638001495738
 31
0.0
 12
4653.731644067888
 22
1907.177415776428
 32
0.0
 13
4653.731644067888
 23
1907.177415776428
 33
0.0
210
0.0
220
0.0
230
1.0
  0
SOLID
  5
3E7
330
3DC
100
AcDbEntity
  8
HATCH
  6
CONTINUOUS
 62
   251
100
AcDbTrace
 10
4653.731644067888
 20
2776.782443143615
 30
0.0
 11
3864.884881686979
 21
2241.214242091295
 31
0.0
 12
4653.731644067888
 22
1907.177415776428
 32
0.0
 13
4653.731644067888
 23
1907.177415776428
 33
0.0
210
0.0
220
0.0
230
1.0
  0
SOLID
  5
3E8
330
3DC
100
AcDbEntity
  8
HATCH
  6
CONTINUOUS
 62
   251
100
AcDbTrace
 10
3013.9400778601
 20
2776.782443143615
 30
0.0
 11
3864.884881686979
 21
2241.214242091295
 31
0.0
 12
4653.731644067888
 22
2776.782443143615
 32
0.0
 13
4653.731644067888
 23
2776.782443143615
 33
0.0
210
0.0
220
0.0
230
1.0
  0
SOLID
  5
3E9
330
3DC
100
AcDbEntity
  8
HATCH
  6
CONTINUOUS
 62
   251
100
AcDbTrace
 10
3013.9400778601
 20
2776.782443143615
 30
0.0
 11
3013.9400778601
 21
2241.214242091229
 31
0.0
 12
3864.884881686979
 22
2241.214242091295
 32
0.0
 13
3864.884881686979
 23
2241.214242091295
 33
0.0
210
0.0
220
0.0
230
1.0
  0
ENDBLK
  5
3EB
330
3DC
100
AcDbEntity
  8
0
100
AcDbBlockEnd
  0
BLOCK
  5
3F1
330
3EC
100
AcDbEntity
  8
0
100
AcDbBlockBegin
  2
*U9
 70
     1
 10
0.0
 20
0.0
 30
0.0
  3
*U9
  1

  0
SOLID
  5
3ED
330
3EC
100
AcDbEntity
  8
HATCH
  6
CONTINUOUS
 62
     2
100
AcDbTrace
 10
2864.85461678321
 20
2217.412274753038
 30
0.0
 11
2864.85461678321
 21
2146.656954025657
 31
0.0
 12
2913.9400778601
 22
2146.656954025657
 32
0.0
 13
2913.9400778601
 23
2146.656954025657
 33
0.0
210
0.0
220
0.0
230
1.0
  0
SOLID
  5
3EE
330
3EC
100
AcDbEntity
  8
HATCH
  6
CONTINUOUS
 62
     2
100
AcDbTrace
 10
2913.9400778601
 20
2217.412274753038
 30
0.0
 11
2864.85461678321
 21
2217.412274753038
 31
0.0
 12
2913.9400778601
 22
2146.656954025657
 32
0.0
 13
2913.9400778601
 23
2146.656954025657
 33
0.0
210
0.0
220
0.0
230
1.0
  0
SOLID
  5
3EF
330
3EC
100
AcDbEntity
  8
HATCH
  6
CONTINUOUS
 62
     2
100
AcDbTrace
 10
2913.9400778601
 20
2797.581217209048
 30
0.0
 11
2913.9400778601
 21
2876.782443143616
 31
0.0
 12
2864.85461678321
 22
2876.782443143616
 32
0.0
 13
2864.85461678321
 23
2876.782443143616
 33
0.0
210
0.0
220
0.0
230
1.0
  0
SOLID
  5
3F0
330
3EC
100
AcDbEntity
  8
HATCH
  6
CONTINUOUS
 62
     2
100
AcDbTrace
 10
2864.85461678321
 20
2876.782443143616
 30
0.0
 11
2864.85461678321
 21
2797.581217209048
 31
0.0
 12
2913.9400778601
 22
2797.581217209048
 32
0.0
 13
2913.9400778601
 23
2797.581217209048
 33
0.0
210
0.0
220
0.0
230
1.0
  0
ENDBLK
  5
3F2
330
3EC
100
AcDbEntity
  8
0
100
AcDbBlockEnd
  0
BLOCK
  5
3F8
330
3F3
100
AcDbEntity
  8
0
100
AcDbBlockBegin
  2
*U10
 70
     1
 10
0.0
 20
0.0
 30
0.0
  3
*U10
  1

  0
SOLID
  5
3F4
330
3F3
100
AcDbEntity
  8
HATCH
  6
CONTINUOUS
 62
   251
100
AcDbTrace
 10
3198.594422445045
 20
3694.378899717108
 30
0.0
 11
3259.532972689751
 21
4511.975356290601
 31
0.0
 12
3137.655872200339
 22
4511.975356290601
 32
0.0
 13
3137.655872200339
 23
4511.975356290601
 33
0.0
210
0.0
220
0.0
230
1.0
  0
SOLID
  5
3F5
330
3F3
100
AcDbEntity
  8
HATCH
  6
CONTINUOUS
 62
   251
100
AcDbTrace
 10
3198.594422445045
 20
3694.378899717108
 30
0.0
 11
3137.655872200339
 21
4511.975356290601
 31
0.0
 12
3137.655872200339
 22
2876.782443143616
 32
0.0
 13
3137.655872200339
 23
2876.782443143616
 33
0.0
210
0.0
220
0.0
230
1.0
  0
SOLID
  5
3F6
330
3F3
100
AcDbEntity
  8
HATCH
  6
CONTINUOUS
 62
   251
100
AcDbTrace
 10
3198.594422445045
 20
3694.378899717108
 30
0.0
 11
3137.655872200339
 21
2876.782443143616
 31
0.0
 12
3259.532972689751
 22
2876.782443143616
 32
0.0
 13
3259.532972689751
 23
2876.782443143616
 33
0.0
210
0.0
220
0.0
230
1.0
  0
SOLID
  5
3F7
330
3F3
100
AcDbEntity
  8
HATCH
  6
CONTINUOUS
 62
   251
100
AcDbTrace
 10
3198.594422445045
 20
3694.378899717108
 30
0.0
 11
3259.532972689751
 21
2876.782443143616
 31
0.0
 12
3259.532972689751
 22
4511.975356290601
 32
0.0
 13
3259.532972689751
 23
4511.975356290601
 33
0.0
210
0.0
220
0.0
230
1.0
  0
ENDBLK
  5
3F9
330
3F3
100
AcDbEntity
  8
0
100
AcDbBlockEnd
  0
BLOCK
  5
415
330
3FA
100
AcDbEntity
  8
0
100
AcDbBlockBegin
  2
*U11
 70
     1
 10
0.0
 20
0.0
 30
0.0
  3
*U11
  1

  0
SOLID
  5
3FB
330
3FA
100
AcDbEntity
  8
HATCH
  6
CONTINUOUS
 62
     2
100
AcDbTrace
 10
2992.915026202287
 20
4402.496642060007
 30
0.0
 11
3070.475471849428
 21
4392.297223962486
 31
0.0
 12
3137.655872200339
 22
4392.297223962487
 32
0.0
 13
3137.655872200339
 23
4392.297223962487
 33
0.0
210
0.0
220
0.0
230
1.0
  0
SOLID
  5
3FC
330
3FA
100
AcDbEntity
  8
HATCH
  6
CONTINUOUS
 62
     2
100
AcDbTrace
 10
3404.917627831606
 20
4402.496642060008
 30
0.0
 11
3259.53297268975
 21
4392.297223962486
 31
0.0
 12
3327.357182184459
 22
4392.297223962486
 32
0.0
 13
3327.357182184459
 23
4392.297223962486
 33
0.0
210
0.0
220
0.0
230
1.0
  0
SOLID
  5
3FD
330
3FA
100
AcDbEntity
  8
HATCH
  6
CONTINUOUS
 62
     2
100
AcDbTrace
 10
2920.628389975048
 20
4432.401375489045
 30
0.0
 11
2992.915026202287
 21
4402.496642060007
 31
0.0
 12
3137.655872200339
 22
4392.297223962487
 32
0.0
 13
3137.655872200339
 23
4392.297223962487
 33
0.0
210
0.0
220
0.0
230
1.0
  0
SOLID
  5
3FE
330
3FA
100
AcDbEntity
  8
HATCH
  6
CONTINUOUS
 62
     2
100
AcDbTrace
 10
3477.204264058851
 20
4432.401375489049
 30
0.0
 11
3259.53297268975
 21
4392.297223962486
 31
0.0
 12
3404.917627831606
 22
4402.496642060008
 32
0.0
 13
3404.917627831606
 23
4402.496642060008
 33
0.0
  0
SOLID
  5
3FF
330
3FA
100
AcDbEntity
  8
HATCH
  6
CONTINUOUS
 62
     2
100
AcDbTrace
 10
3137.655872200339
 20
4462.109697353058
 30
0.0
 11
2920.628389975048
 21
4432.401375489045
 31
0.0
 12
3137.655872200339
 22
4392.297223962487
 32
0.0
 13
3137.655872200339
 23
4392.297223962487
 33
0.0
210
0.0
220
0.0
230
1.0
  0
SOLID
  5
400
330
3FA
100
AcDbEntity
  8
HATCH
  6
CONTINUOUS
 62
     2
100
AcDbTrace
 10
3259.532972689751
 20
4462.151412883561
 30
0.0
 11
3259.53297268975
 21
4392.297223962486
 31
0.0
 12
3477.204264058851
 22
4432.401375489049
 32
0.0
 13
3477.204264058851
 23
4432.401375489049
 33
0.0
210
0.0
220
0.0
230
1.0
  0
SOLID
  5
401
330
3FA
100
AcDbEntity
  8
HATCH
  6
CONTINUOUS
 62
     2
100
AcDbTrace
 10
3346.042380154493
 20
4469.031864798227
 30
0.0
 11
3259.532972689751
 21
4462.151412883561
 31
0.0
 12
3477.204264058851
 22
4432.401375489049
 32
0.0
 13
3477.204264058851
 23
4432.401375489049
 33
0.0
  0
SOLID
  5
402
330
3FA
100
AcDbEntity
  8
HATCH
  6
CONTINUOUS
 62
     2
100
AcDbTrace
 10
3051.47582884369
 20
4469.103850556433
 30
0.0
 11
2920.628389975048
 21
4432.401375489045
 31
0.0
 12
3137.655872200339
 22
4462.109697353058
 32
0.0
 13
3137.655872200339
 23
4462.109697353058
 33
0.0
210
0.0
220
0.0
230
1.0
  0
SOLID
  5
403
330
3FA
100
AcDbEntity
  8
HATCH
  6
CONTINUOUS
 62
     2
100
AcDbTrace
 10
3426.962809532165
 20
4500.386327124727
 30
0.0
 11
3346.042380154493
 21
4469.031864798227
 31
0.0
 12
3477.204264058851
 22
4432.401375489049
 32
0.0
 13
3477.204264058851
 23
4432.401375489049
 33
0.0
210
0.0
220
0.0
230
1.0
  0
SOLID
  5
404
330
3FA
100
AcDbEntity
  8
HATCH
  6
CONTINUOUS
 62
     2
100
AcDbTrace
 10
2970.869844501705
 20
4500.386327124728
 30
0.0
 11
2920.628389975048
 21
4432.401375489045
 31
0.0
 12
3051.47582884369
 22
4469.103850556433
 32
0.0
 13
3051.47582884369
 23
4469.103850556433
 33
0.0
210
0.0
220
0.0
230
1.0
  0
SOLID
  5
405
330
3FA
100
AcDbEntity
  8
HATCH
  6
CONTINUOUS
 62
     2
100
AcDbTrace
 10
2198.671459889047
 20
4848.657117348028
 30
0.0
 11
2920.628389975048
 21
4432.401375489045
 31
0.0
 12
2970.869844501705
 22
4500.386327124728
 32
0.0
 13
2970.869844501705
 23
4500.386327124728
 33
0.0
210
0.0
220
0.0
230
1.0
  0
SOLID
  5
406
330
3FA
100
AcDbEntity
  8
HATCH
  6
CONTINUOUS
 62
     2
100
AcDbTrace
 10
4199.161194144869
 20
4848.65711734806
 30
0.0
 11
3426.962809532165
 21
4500.386327124727
 31
0.0
 12
3477.204264058851
 22
4432.401375489049
 32
0.0
 13
3477.204264058851
 23
4432.401375489049
 33
0.0
210
0.0
220
0.0
230
1.0
  0
SOLID
  5
407
330
3FA
100
AcDbEntity
  8
HATCH
  6
CONTINUOUS
 62
     2
100
AcDbTrace
 10
2145.600019587251
 20
4887.591264710544
 30
0.0
 11
2198.671459889047
 21
4848.657117348028
 31
0.0
 12
2970.869844501705
 22
4500.386327124728
 32
0.0
 13
2970.869844501705
 23
4500.386327124728
 33
0.0
  0
SOLID
  5
408
330
3FA
100
AcDbEntity
  8
HATCH
  6
CONTINUOUS
 62
     2
100
AcDbTrace
 10
4252.232634446655
 20
4887.591264710571
 30
0.0
 11
3426.962809532165
 21
4500.386327124727
 31
0.0
 12
4199.161194144869
 22
4848.65711734806
 32
0.0
 13
4199.161194144869
 23
4848.65711734806
 33
0.0
210
0.0
220
0.0
230
1.0
  0
SOLID
  5
409
330
3FA
100
AcDbEntity
  8
HATCH
  6
CONTINUOUS
 62
     2
100
AcDbTrace
 10
4157.689141588884
 20
4913.748929233909
 30
0.0
 11
3426.962809532165
 21
4500.386327124727
 31
0.0
 12
4252.232634446655
 22
4887.591264710571
 32
0.0
 13
4252.232634446655
 23
4887.591264710571
 33
0.0
210
0.0
220
0.0
230
1.0
  0
SOLID
  5
40A
330
3FA
100
AcDbEntity
  8
HATCH
  6
CONTINUOUS
 62
     2
100
AcDbTrace
 10
2240.143512444988
 20
4913.748929233911
 30
0.0
 11
2145.600019587251
 21
4887.591264710544
 31
0.0
 12
2970.869844501705
 22
4500.386327124728
 32
0.0
 13
2970.869844501705
 23
4500.386327124728
 33
0.0
210
0.0
220
0.0
230
1.0
  0
SOLID
  5
40B
330
3FA
100
AcDbEntity
  8
HATCH
  6
CONTINUOUS
 62
     2
100
AcDbTrace
 10
2102.296728839789
 20
4937.162129308552
 30
0.0
 11
2145.600019587251
 21
4887.591264710544
 31
0.0
 12
2240.143512444988
 22
4913.748929233911
 32
0.0
 13
2240.143512444988
 23
4913.748929233911
 33
0.0
210
0.0
220
0.0
230
1.0
  0
SOLID
  5
40C
330
3FA
100
AcDbEntity
  8
HATCH
  6
CONTINUOUS
 62
     2
100
AcDbTrace
 10
4295.535925194108
 20
4937.162129308571
 30
0.0
 11
4157.689141588884
 21
4913.748929233909
 31
0.0
 12
4252.232634446655
 22
4887.591264710571
 32
0.0
 13
4252.232634446655
 23
4887.591264710571
 33
0.0
210
0.0
220
0.0
230
1.0
  0
SOLID
  5
40D
330
3FA
100
AcDbEntity
  8
HATCH
  6
CONTINUOUS
 62
     2
100
AcDbTrace
 10
2185.843119314524
 20
4953.073101273999
 30
0.0
 11
2102.296728839789
 21
4937.162129308552
 31
0.0
 12
2240.143512444988
 22
4913.748929233911
 32
0.0
 13
2240.143512444988
 23
4913.748929233911
 33
0.0
210
0.0
220
0.0
230
1.0
  0
SOLID
  5
40E
330
3FA
100
AcDbEntity
  8
HATCH
  6
CONTINUOUS
 62
     2
100
AcDbTrace
 10
4211.989534719353
 20
4953.073101274003
 30
0.0
 11
4157.689141588884
 21
4913.748929233909
 31
0.0
 12
4295.535925194108
 22
4937.162129308571
 32
0.0
 13
4295.535925194108
 23
4937.162129308571
 33
0.0
210
0.0
220
0.0
230
1.0
  0
SOLID
  5
40F
330
3FA
100
AcDbEntity
  8
HATCH
  6
CONTINUOUS
 62
     2
100
AcDbTrace
 10
2141.631858605717
 20
5003.474367401938
 30
0.0
 11
2102.296728839789
 21
4937.162129308552
 31
0.0
 12
2185.843119314524
 22
4953.073101273999
 32
0.0
 13
2185.843119314524
 23
4953.073101273999
 33
0.0
210
0.0
220
0.0
230
1.0
  0
SOLID
  5
410
330
3FA
100
AcDbEntity
  8
HATCH
  6
CONTINUOUS
 62
     2
100
AcDbTrace
 10
4256.200795428163
 20
5003.474367401948
 30
0.0
 11
4211.989534719353
 21
4953.073101274003
 31
0.0
 12
4295.535925194108
 22
4937.162129308571
 32
0.0
 13
4295.535925194108
 23
4937.162129308571
 33
0.0
210
0.0
220
0.0
230
1.0
  0
SOLID
  5
411
330
3FA
100
AcDbEntity
  8
HATCH
  6
CONTINUOUS
 62
     2
100
AcDbTrace
 10
4350.740750603254
 20
5016.469941038325
 30
0.0
 11
4256.200795428163
 21
5003.474367401948
 31
0.0
 12
4295.535925194108
 22
4937.162129308571
 32
0.0
 13
4295.535925194108
 23
4937.162129308571
 33
0.0
210
0.0
220
0.0
230
1.0
  0
SOLID
  5
412
330
3FA
100
AcDbEntity
  8
HATCH
  6
CONTINUOUS
 62
     2
100
AcDbTrace
 10
2045.421560541282
 20
5018.869572563468
 30
0.0
 11
2102.296728839789
 21
4937.162129308552
 31
0.0
 12
2141.631858605717
 22
5003.474367401938
 32
0.0
 13
2141.631858605717
 23
5003.474367401938
 33
0.0
  0
SOLID
  5
413
330
3FA
100
AcDbEntity
  8
HATCH
  6
CONTINUOUS
 62
     2
100
AcDbTrace
 10
4293.150899600433
 20
5056.557261575966
 30
0.0
 11
4256.200795428163
 21
5003.474367401948
 31
0.0
 12
4350.740750603254
 22
5016.469941038325
 32
0.0
 13
4350.740750603254
 23
5016.469941038325
 33
0.0
210
0.0
220
0.0
230
1.0
  0
SOLID
  5
414
330
3FA
100
AcDbEntity
  8
HATCH
  6
CONTINUOUS
 62
     2
100
AcDbTrace
 10
2103.011411544097
 20
5058.95689310111
 30
0.0
 11
2045.421560541282
 21
5018.869572563468
 31
0.0
 12
2141.631858605717
 22
5003.474367401938
 32
0.0
 13
2141.631858605717
 23
5003.474367401938
 33
0.0
  0
ENDBLK
  5
416
330
3FA
100
AcDbEntity
  8
0
100
AcDbBlockEnd
  0
BLOCK
  5
450
330
44B
100
AcDbEntity
  8
0
100
AcDbBlockBegin
  2
*U12
 70
     1
 10
0.0
 20
0.0
 30
0.0
  3
*U12
  1

  0
SOLID
  5
44C
330
44B
100
AcDbEntity
  8
0
  6
CONTINUOUS
 62
     1
100
AcDbTrace
 10
2611.879539336343
 20
4979.407959445426
 30
0.0
 11
1449.385827342315
 21
4404.171550181311
 31
0.0
 12
1487.508460034678
 22
4338.85894138836
 32
0.0
 13
1487.508460034678
 23
4338.85894138836
 33
0.0
210
0.0
220
0.0
230
1.0
  0
SOLID
  5
44D
330
44B
100
AcDbEntity
  8
0
  6
CONTINUOUS
 62
     1
100
AcDbTrace
 10
4986.876796469274
 20
4996.942905220251
 30
0.0
 11
6142.027387331411
 21
4338.85894138836
 31
0.0
 12
6180.150020023774
 22
4404.171550181309
 32
0.0
 13
6180.150020023774
 23
4404.171550181309
 33
0.0
  0
SOLID
  5
44E
330
44B
100
AcDbEntity
  8
0
  6
CONTINUOUS
 62
     1
100
AcDbTrace
 10
2567.349749580643
 20
5043.379906755038
 30
0.0
 11
1449.385827342315
 21
4404.171550181311
 31
0.0
 12
2611.879539336343
 22
4979.407959445426
 32
0.0
 13
2611.879539336343
 23
4979.407959445426
 33
0.0
210
0.0
220
0.0
230
1.0
  0
SOLID
  5
44F
330
44B
100
AcDbEntity
  8
0
  6
CONTINUOUS
 62
     1
100
AcDbTrace
 10
5031.438245543737
 20
5060.960334628095
 30
0.0
 11
4986.876796469274
 21
4996.942905220251
 31
0.0
 12
6180.150020023774
 22
4404.171550181309
 32
0.0
 13
6180.150020023774
 23
4404.171550181309
 33
0.0
  0
ENDBLK
  5
451
330
44B
100
AcDbEntity
  8
0
100
AcDbBlockEnd
  0
BLOCK
  5
488
330
465
100
AcDbEntity
  8
0
100
AcDbBlockBegin
  2
*U13
 70
     1
 10
0.0
 20
0.0
 30
0.0
  3
*U13
  1

  0
SOLID
  5
466
330
465
100
AcDbEntity
  8
HATCH
  6
CONTINUOUS
 62
     3
100
AcDbTrace
 10
4777.957708467935
 20
1502.526827533236
 30
10.0
 11
4934.619726955318
 21
1472.337157869713
 31
10.0
 12
5093.830524556035
 22
1482.648613551497
 32
10.0
 13
5093.830524556035
 23
1482.648613551497
 33
10.0
210
0.0
220
0.0
230
1.0
  0
SOLID
  5
467
330
465
100
AcDbEntity
  8
HATCH
  6
CONTINUOUS
 62
     3
100
AcDbTrace
 10
5245.289553724141
 20
1532.794068723315
 30
10.0
 11
4777.957708467935
 21
1502.526827533236
 31
10.0
 12
5093.830524556035
 22
1482.648613551497
 32
10.0
 13
5093.830524556035
 23
1482.648613551497
 33
10.0
210
0.0
220
0.0
230
1.0
  0
SOLID
  5
468
330
465
100
AcDbEntity
  8
HATCH
  6
CONTINUOUS
 62
     3
100
AcDbTrace
 10
4633.980116891592
 20
1571.264425067699
 30
10.0
 11
4777.957708467935
 21
1502.526827533236
 31
10.0
 12
5245.289553724141
 22
1532.794068723315
 32
10.0
 13
5245.289553724141
 23
1532.794068723315
 33
10.0
210
0.0
220
0.0
230
1.0
  0
SOLID
  5
469
330
465
100
AcDbEntity
  8
HATCH
  6
CONTINUOUS
 62
     3
100
AcDbTrace
 10
4889.236095354039
 20
1577.959478611977
 30
10.0
 11
4633.980116891592
 21
1571.264425067699
 31
10.0
 12
5245.289553724141
 22
1532.794068723315
 32
10.0
 13
5245.289553724141
 23
1532.794068723315
 33
10.0
210
0.0
220
0.0
230
1.0
  0
SOLID
  5
46A
330
465
100
AcDbEntity
  8
HATCH
  6
CONTINUOUS
 62
     3
100
AcDbTrace
 10
5060.072736972497
 20
1578.169425602533
 30
10.0
 11
4889.236095354039
 21
1577.959478611977
 31
10.0
 12
5245.289553724141
 22
1532.794068723315
 32
10.0
 13
5245.289553724141
 23
1532.794068723315
 33
10.0
210
0.0
220
0.0
230
1.0
  0
SOLID
  5
46B
330
465
100
AcDbEntity
  8
HATCH
  6
CONTINUOUS
 62
     3
100
AcDbTrace
 10
5379.197787291131
 20
1619.529235604472
 30
10.0
 11
5060.072736972497
 21
1578.169425602533
 31
10.0
 12
5245.289553724141
 22
1532.794068723315
 32
10.0
 13
5245.289553724141
 23
1532.794068723315
 33
10.0
210
0.0
220
0.0
230
1.0
  0
SOLID
  5
46C
330
465
100
AcDbEntity
  8
HATCH
  6
CONTINUOUS
 62
     3
100
AcDbTrace
 10
4727.300167577134
 20
1632.383347385201
 30
10.0
 11
4633.980116891592
 21
1571.264425067699
 31
10.0
 12
4889.236095354039
 22
1577.959478611977
 32
10.0
 13
4889.236095354039
 23
1577.959478611977
 33
10.0
210
0.0
220
0.0
230
1.0
  0
SOLID
  5
46D
330
465
100
AcDbEntity
  8
HATCH
  6
CONTINUOUS
 62
     3
100
AcDbTrace
 10
5221.874409108559
 20
1632.991146582329
 30
10.0
 11
5060.072736972497
 21
1578.169425602533
 31
10.0
 12
5379.197787291131
 22
1619.529235604472
 32
10.0
 13
5379.197787291131
 23
1619.529235604472
 33
10.0
  0
SOLID
  5
46E
330
465
100
AcDbEntity
  8
HATCH
  6
CONTINUOUS
 62
     3
100
AcDbTrace
 10
4512.001948758763
 20
1674.102796748181
 30
10.0
 11
4633.980116891592
 21
1571.264425067699
 31
10.0
 12
4727.300167577134
 22
1632.383347385201
 32
10.0
 13
4727.300167577134
 23
1632.383347385201
 33
10.0
210
0.0
220
0.0
230
1.0
  0
SOLID
  5
46F
330
465
100
AcDbEntity
  8
HATCH
  6
CONTINUOUS
 62
     3
100
AcDbTrace
 10
4591.266174760743
 20
1735.727215106718
 30
10.0
 11
4512.001948758763
 21
1674.102796748181
 31
10.0
 12
4727.300167577134
 22
1632.383347385201
 32
10.0
 13
4727.300167577134
 23
1632.383347385201
 33
10.0
210
0.0
220
0.0
230
1.0
  0
SOLID
  5
470
330
465
100
AcDbEntity
  8
HATCH
  6
CONTINUOUS
 62
     3
100
AcDbTrace
 10
5357.653985784889
 20
1736.66905529392
 30
10.0
 11
5221.874409108559
 21
1632.991146582329
 31
10.0
 12
5379.197787291131
 22
1619.529235604472
 32
10.0
 13
5379.197787291131
 23
1619.529235604472
 33
10.0
210
0.0
220
0.0
230
1.0
  0
SOLID
  5
471
330
465
100
AcDbEntity
  8
HATCH
  6
CONTINUOUS
 62
     3
100
AcDbTrace
 10
5486.891691455049
 20
1737.242561939543
 30
10.0
 11
5357.653985784889
 21
1736.66905529392
 31
10.0
 12
5379.197787291131
 22
1619.529235604472
 32
10.0
 13
5379.197787291131
 23
1619.529235604472
 33
10.0
210
0.0
220
0.0
230
1.0
  0
SOLID
  5
472
330
465
100
AcDbEntity
  8
HATCH
  6
CONTINUOUS
 62
     3
100
AcDbTrace
 10
4419.914891940833
 20
1804.388552521962
 30
10.0
 11
4512.001948758763
 21
1674.102796748181
 31
10.0
 12
4591.266174760743
 22
1735.727215106718
 32
10.0
 13
4591.266174760743
 23
1735.727215106718
 33
10.0
210
0.0
220
0.0
230
1.0
  0
SOLID
  5
473
330
465
100
AcDbEntity
  8
HATCH
  6
CONTINUOUS
 62
     3
100
AcDbTrace
 10
4495.415962961618
 20
1877.141284757779
 30
10.0
 11
4419.914891940833
 21
1804.388552521962
 31
10.0
 12
4591.266174760743
 22
1735.727215106718
 32
10.0
 13
4591.266174760743
 23
1735.727215106718
 33
10.0
210
0.0
220
0.0
230
1.0
  0
SOLID
  5
474
330
465
100
AcDbEntity
  8
HATCH
  6
CONTINUOUS
 62
     3
100
AcDbTrace
 10
5453.156331416667
 20
1878.318284646009
 30
10.0
 11
5357.653985784889
 21
1736.66905529392
 31
10.0
 12
5486.891691455049
 22
1737.242561939543
 32
10.0
 13
5486.891691455049
 23
1737.242561939543
 33
10.0
210
0.0
220
0.0
230
1.0
  0
SOLID
  5
475
330
465
100
AcDbEntity
  8
HATCH
  6
CONTINUOUS
 62
     3
100
AcDbTrace
 10
5561.403735137814
 20
1878.318284646009
 30
10.0
 11
5453.156331416667
 21
1878.318284646009
 31
10.0
 12
5486.891691455049
 22
1737.242561939543
 32
10.0
 13
5486.891691455049
 23
1737.242561939543
 33
10.0
210
0.0
220
0.0
230
1.0
  0
SOLID
  5
476
330
465
100
AcDbEntity
  8
HATCH
  6
CONTINUOUS
 62
     3
100
AcDbTrace
 10
4363.676752826653
 20
1953.692524002656
 30
10.0
 11
4419.914891940833
 21
1804.388552521962
 31
10.0
 12
4495.415962961618
 22
1877.141284757779
 32
10.0
 13
4495.415962961618
 23
1877.141284757779
 33
10.0
  0
SOLID
  5
477
330
465
100
AcDbEntity
  8
HATCH
  6
CONTINUOUS
 62
     3
100
AcDbTrace
 10
4449.81259025135
 20
2041.77887036526
 30
10.0
 11
4363.676752826653
 21
1953.692524002656
 31
10.0
 12
4495.415962961618
 22
1877.141284757779
 32
10.0
 13
4495.415962961618
 23
1877.141284757779
 33
10.0
210
0.0
220
0.0
230
1.0
  0
SOLID
  5
478
330
465
100
AcDbEntity
  8
HATCH
  6
CONTINUOUS
 62
     3
100
AcDbTrace
 10
3873.11630830562
 20
2112.35511096081
 30
10.0
 11
3720.625804118266
 21
2079.698806564338
 31
10.0
 12
3873.11630830562
 22
2079.698806564338
 32
10.0
 13
3873.11630830562
 23
2079.698806564338
 33
10.0
210
0.0
220
0.0
230
1.0
  0
SOLID
  5
479
330
465
100
AcDbEntity
  8
HATCH
  6
CONTINUOUS
 62
     3
100
AcDbTrace
 10
4346.926000882932
 20
2112.35511096081
 30
10.0
 11
4363.676752826653
 21
1953.692524002656
 31
10.0
 12
4449.81259025135
 22
2041.77887036526
 32
10.0
 13
4449.81259025135
 23
2041.77887036526
 33
10.0
210
0.0
220
0.0
230
1.0
  0
SOLID
  5
47A
330
465
100
AcDbEntity
  8
HATCH
  6
CONTINUOUS
 62
     3
100
AcDbTrace
 10
3720.625804118265
 20
2117.797822895239
 30
10.0
 11
3720.625804118266
 21
2079.698806564338
 31
10.0
 12
3873.11630830562
 22
2112.35511096081
 32
10.0
 13
3873.11630830562
 23
2112.35511096081
 33
10.0
210
0.0
220
0.0
230
1.0
  0
SOLID
  5
47B
330
465
100
AcDbEntity
  8
HATCH
  6
CONTINUOUS
 62
     3
100
AcDbTrace
 10
3508.299029264184
 20
2188.553143622619
 30
10.0
 11
3508.299029264184
 21
2117.797822895238
 31
10.0
 12
3720.625804118265
 22
2117.797822895239
 32
10.0
 13
3720.625804118265
 23
2117.797822895239
 33
10.0
210
0.0
220
0.0
230
1.0
  0
SOLID
  5
47C
330
465
100
AcDbEntity
  8
HATCH
  6
CONTINUOUS
 62
     3
100
AcDbTrace
 10
4459.243833091048
 20
2212.35511096081
 30
10.0
 11
3508.299029264184
 21
2188.553143622619
 31
10.0
 12
3720.625804118265
 22
2117.797822895239
 32
10.0
 13
3720.625804118265
 23
2117.797822895239
 33
10.0
210
0.0
220
0.0
230
1.0
  0
SOLID
  5
47D
330
465
100
AcDbEntity
  8
HATCH
  6
CONTINUOUS
 62
     3
100
AcDbTrace
 10
4459.243833091048
 20
2212.35511096081
 30
10.0
 11
3720.625804118265
 21
2117.797822895239
 31
10.0
 12
3873.11630830562
 22
2112.35511096081
 32
10.0
 13
3873.11630830562
 23
2112.35511096081
 33
10.0
210
0.0
220
0.0
230
1.0
  0
SOLID
  5
47E
330
465
100
AcDbEntity
  8
HATCH
  6
CONTINUOUS
 62
     3
100
AcDbTrace
 10
4459.243833091048
 20
2212.35511096081
 30
10.0
 11
3873.11630830562
 21
2112.35511096081
 31
10.0
 12
4346.926000882932
 22
2112.35511096081
 32
10.0
 13
4346.926000882932
 23
2112.35511096081
 33
10.0
210
0.0
220
0.0
230
1.0
  0
SOLID
  5
47F
330
465
100
AcDbEntity
  8
HATCH
  6
CONTINUOUS
 62
     3
100
AcDbTrace
 10
4459.243833091048
 20
2212.35511096081
 30
10.0
 11
4346.926000882932
 21
2112.35511096081
 31
10.0
 12
4449.81259025135
 22
2041.77887036526
 32
10.0
 13
4449.81259025135
 23
2041.77887036526
 33
10.0
210
0.0
220
0.0
230
1.0
  0
SOLID
  5
480
330
465
100
AcDbEntity
  8
HATCH
  6
CONTINUOUS
 62
     3
100
AcDbTrace
 10
3508.299029264184
 20
2188.553143622619
 30
10.0
 11
4459.243833091048
 21
2212.35511096081
 31
10.0
 12
4432.907839738894
 22
2212.35511096081
 32
10.0
 13
4432.907839738894
 23
2212.35511096081
 33
10.0
  0
SOLID
  5
481
330
465
100
AcDbEntity
  8
HATCH
  6
CONTINUOUS
 62
     3
100
AcDbTrace
 10
3508.299029264184
 20
2188.553143622619
 30
10.0
 11
4432.907839738894
 21
2212.35511096081
 31
10.0
 12
3608.299029264184
 22
2212.35511096081
 32
10.0
 13
3608.299029264184
 23
2212.35511096081
 33
10.0
210
0.0
220
0.0
230
1.0
  0
SOLID
  5
482
330
465
100
AcDbEntity
  8
HATCH
  6
CONTINUOUS
 62
     3
100
AcDbTrace
 10
3608.299029264184
 20
2747.923312013196
 30
10.0
 11
3508.299029264184
 21
2188.553143622619
 31
10.0
 12
3608.299029264184
 22
2212.35511096081
 32
10.0
 13
3608.299029264184
 23
2212.35511096081
 33
10.0
210
0.0
220
0.0
230
1.0
  0
SOLID
  5
483
330
465
100
AcDbEntity
  8
HATCH
  6
CONTINUOUS
 62
     3
100
AcDbTrace
 10
3508.299029264184
 20
2768.722086078629
 30
10.0
 11
3508.299029264184
 21
2188.553143622619
 31
10.0
 12
3608.299029264184
 22
2747.923312013196
 32
10.0
 13
3608.299029264184
 23
2747.923312013196
 33
10.0
210
0.0
220
0.0
230
1.0
  0
SOLID
  5
484
330
465
100
AcDbEntity
  8
HATCH
  6
CONTINUOUS
 62
     3
100
AcDbTrace
 10
3508.299029264184
 20
2768.722086078629
 30
10.0
 11
5248.09059547197
 21
2847.923312013196
 31
10.0
 12
3853.891924093834
 22
2847.923312013196
 32
10.0
 13
3853.891924093834
 23
2847.923312013196
 33
10.0
210
0.0
220
0.0
230
1.0
  0
SOLID
  5
485
330
465
100
AcDbEntity
  8
HATCH
  6
CONTINUOUS
 62
     3
100
AcDbTrace
 10
3508.299029264184
 20
2768.722086078629
 30
10.0
 11
3853.891924093834
 21
2847.923312013196
 31
10.0
 12
3508.299029264184
 22
2847.923312013196
 32
10.0
 13
3508.299029264184
 23
2847.923312013196
 33
10.0
210
0.0
220
0.0
230
1.0
  0
SOLID
  5
486
330
465
100
AcDbEntity
  8
HATCH
  6
CONTINUOUS
 62
     3
100
AcDbTrace
 10
5248.09059547197
 20
2847.923312013196
 30
10.0
 11
3508.299029264184
 21
2768.722086078629
 31
10.0
 12
3608.299029264184
 22
2747.923312013196
 32
10.0
 13
3608.299029264184
 23
2747.923312013196
 33
10.0
210
0.0
220
0.0
230
1.0
  0
SOLID
  5
487
330
465
100
AcDbEntity
  8
HATCH
  6
CONTINUOUS
 62
     3
100
AcDbTrace
 10
5248.09059547197
 20
2847.923312013196
 30
10.0
 11
3608.299029264184
 21
2747.923312013196
 31
10.0
 12
5248.090595471971
 22
2747.923312013195
 32
10.0
 13
5248.090595471971
 23
2747.923312013195
 33
10.0
  0
ENDBLK
  5
489
330
465
100
AcDbEntity
  8
0
100
AcDbBlockEnd
  0
BLOCK
  5
499
330
48A
100
AcDbEntity
  8
0
100
AcDbBlockBegin
  2
*U14
 70
     1
 10
0.0
 20
0.0
 30
0.0
  3
*U14
  1

  0
SOLID
  5
48B
330
48A
100
AcDbEntity
  8
HATCH
  6
CONTINUOUS
 62
     3
100
AcDbTrace
 10
6440.784009960222
 20
2755.397127153152
 30
10.0
 11
6140.78400996022
 21
2178.31828464601
 31
10.0
 12
6440.784009960222
 22
1878.318284646008
 32
10.0
 13
6440.784009960222
 23
1878.318284646008
 33
10.0
  0
SOLID
  5
48C
330
48A
100
AcDbEntity
  8
HATCH
  6
CONTINUOUS
 62
     3
100
AcDbTrace
 10
6140.78400996022
 20
2765.631986129762
 30
10.0
 11
6140.78400996022
 21
2178.31828464601
 31
10.0
 12
6440.784009960222
 22
2755.397127153152
 32
10.0
 13
6440.784009960222
 23
2755.397127153152
 33
10.0
210
0.0
220
0.0
230
1.0
  0
SOLID
  5
48D
330
48A
100
AcDbEntity
  8
HATCH
  6
CONTINUOUS
 62
     3
100
AcDbTrace
 10
6440.784009960222
 20
3065.631986129762
 30
10.0
 11
6140.78400996022
 21
2765.631986129762
 31
10.0
 12
6440.784009960222
 22
2755.397127153152
 32
10.0
 13
6440.784009960222
 23
2755.397127153152
 33
10.0
210
0.0
220
0.0
230
1.0
  0
SOLID
  5
48E
330
48A
100
AcDbEntity
  8
HATCH
  6
CONTINUOUS
 62
     3
100
AcDbTrace
 10
6140.784009960221
 20
2765.631986129763
 30
10.0
 11
6440.784009960221
 21
3065.631986129762
 31
10.0
 12
5548.09059547197
 22
2765.631986129763
 32
10.0
 13
5548.09059547197
 23
2765.631986129763
 33
10.0
210
0.0
220
0.0
230
1.0
  0
SOLID
  5
48F
330
48A
100
AcDbEntity
  8
HATCH
  6
CONTINUOUS
 62
     3
100
AcDbTrace
 10
5248.09059547197
 20
3065.631986129762
 30
10.0
 11
5548.09059547197
 21
2765.631986129763
 31
10.0
 12
6440.784009960221
 22
3065.631986129762
 32
10.0
 13
6440.784009960221
 23
3065.631986129762
 33
10.0
  0
SOLID
  5
490
330
48A
100
AcDbEntity
  8
HATCH
  6
CONTINUOUS
 62
     3
100
AcDbTrace
 10
6140.784009960222
 20
2765.631986129763
 30
10.0
 11
5548.09059547197
 21
2765.631986129763
 31
10.0
 12
5844.437302716096
 22
2471.975135387886
 32
10.0
 13
5844.437302716096
 23
2471.975135387886
 33
10.0
210
0.0
220
0.0
230
1.0
  0
SOLID
  5
491
330
48A
100
AcDbEntity
  8
HATCH
  6
CONTINUOUS
 62
     3
100
AcDbTrace
 10
5844.437302716095
 20
2471.975135387886
 30
10.0
 11
6140.784009960221
 21
2178.31828464601
 31
10.0
 12
6140.784009960221
 22
2765.631986129763
 32
10.0
 13
6140.784009960221
 23
2765.631986129763
 33
10.0
210
0.0
220
0.0
230
1.0
  0
SOLID
  5
492
330
48A
100
AcDbEntity
  8
HATCH
  6
CONTINUOUS
 62
     3
100
AcDbTrace
 10
5548.09059547197
 20
2178.318284646008
 30
10.0
 11
6140.78400996022
 21
2178.318284646008
 31
10.0
 12
5844.437302716095
 22
2471.975135387885
 32
10.0
 13
5844.437302716095
 23
2471.975135387885
 33
10.0
210
0.0
220
0.0
230
1.0
  0
SOLID
  5
493
330
48A
100
AcDbEntity
  8
HATCH
  6
CONTINUOUS
 62
     3
100
AcDbTrace
 10
5548.090595471971
 20
2178.318284646008
 30
10.0
 11
5844.437302716095
 21
2471.975135387885
 31
10.0
 12
5548.090595471971
 22
2765.631986129761
 32
10.0
 13
5548.090595471971
 23
2765.631986129761
 33
10.0
210
0.0
220
0.0
230
1.0
  0
SOLID
  5
494
330
48A
100
AcDbEntity
  8
HATCH
  6
CONTINUOUS
 62
     3
100
AcDbTrace
 10
5248.090595471971
 20
1878.318284646009
 30
10.0
 11
5548.090595471971
 21
2178.318284646008
 31
10.0
 12
5248.090595471971
 22
2847.923312013196
 32
10.0
 13
5248.090595471971
 23
2847.923312013196
 33
10.0
  0
SOLID
  5
495
330
48A
100
AcDbEntity
  8
HATCH
  6
CONTINUOUS
 62
     3
100
AcDbTrace
 10
5548.090595471971
 20
2765.631986129763
 30
10.0
 11
5248.090595471971
 21
2847.923312013196
 31
10.0
 12
5548.090595471971
 22
2178.318284646008
 32
10.0
 13
5548.090595471971
 23
2178.318284646008
 33
10.0
210
0.0
220
0.0
230
1.0
  0
SOLID
  5
496
330
48A
100
AcDbEntity
  8
HATCH
  6
CONTINUOUS
 62
     3
100
AcDbTrace
 10
5248.090595471971
 20
2847.923312013196
 30
10.0
 11
5548.090595471971
 21
2765.631986129763
 31
10.0
 12
5248.090595471971
 22
3065.631986129764
 32
10.0
 13
5248.090595471971
 23
3065.631986129764
 33
10.0
210
0.0
220
0.0
230
1.0
  0
SOLID
  5
497
330
48A
100
AcDbEntity
  8
HATCH
  6
CONTINUOUS
 62
     3
100
AcDbTrace
 10
6440.784009960222
 20
1878.318284646009
 30
10.0
 11
6140.784009960221
 21
2178.318284646009
 31
10.0
 12
5248.090595471972
 22
1878.318284646009
 32
10.0
 13
5248.090595471972
 23
1878.318284646009
 33
10.0
210
0.0
220
0.0
230
1.0
  0
SOLID
  5
498
330
48A
100
AcDbEntity
  8
HATCH
  6
CONTINUOUS
 62
     3
100
AcDbTrace
 10
5548.090595471971
 20
2178.318284646008
 30
10.0
 11
5248.090595471972
 21
1878.318284646009
 31
10.0
 12
6140.784009960221
 22
2178.318284646009
 32
10.0
 13
6140.784009960221
 23
2178.318284646009
 33
10.0
210
0.0
220
0.0
230
1.0
  0
ENDBLK
  5
49A
330
48A
100
AcDbEntity
  8
0
100
AcDbBlockEnd
  0
BLOCK
  5
4AD
330
49B
100
AcDbEntity
  8
0
100
AcDbBlockBegin
  2
*U15
 70
     1
 10
0.0
 20
0.0
 30
0.0
  3
*U15
  1

  0
SOLID
  5
49C
330
49B
100
AcDbEntity
  8
HATCH
  6
CONTINUOUS
 62
     2
100
AcDbTrace
 10
8292.45411415413
 20
2711.855398887818
 30
10.0
 11
8292.45411415413
 21
2755.397127153152
 31
10.0
 12
6440.784009960222
 22
2711.855398887817
 32
10.0
 13
6440.784009960222
 23
2711.855398887817
 33
10.0
  0
SOLID
  5
49D
330
49B
100
AcDbEntity
  8
HATCH
  6
CONTINUOUS
 62
     2
100
AcDbTrace
 10
6440.784009960222
 20
2755.397127153152
 30
10.0
 11
6440.784009960222
 21
2711.855398887817
 31
10.0
 12
8292.45411415413
 22
2755.397127153152
 32
10.0
 13
8292.45411415413
 23
2755.397127153152
 33
10.0
  0
SOLID
  5
49E
330
49B
100
AcDbEntity
  8
HATCH
  6
CONTINUOUS
 62
     2
100
AcDbTrace
 10
6440.784009960222
 20
2711.855398887818
 30
10.0
 11
6440.784009960222
 21
2655.39712715315
 31
10.0
 12
8210.762762182225
 22
2711.855398887818
 32
10.0
 13
8210.762762182225
 23
2711.855398887818
 33
10.0
210
0.0
220
0.0
230
1.0
  0
SOLID
  5
49F
330
49B
100
AcDbEntity
  8
HATCH
  6
CONTINUOUS
 62
     2
100
AcDbTrace
 10
8161.956661279804
 20
2655.39712715315
 30
10.0
 11
8210.762762182225
 21
2711.855398887818
 31
10.0
 12
6440.784009960222
 22
2655.39712715315
 32
10.0
 13
6440.784009960222
 23
2655.39712715315
 33
10.0
  0
SOLID
  5
4A0
330
49B
100
AcDbEntity
  8
HATCH
  6
CONTINUOUS
 62
     2
100
AcDbTrace
 10
8210.762762182225
 20
2711.855398887818
 30
10.0
 11
8161.956661279804
 21
2655.39712715315
 31
10.0
 12
8172.64015607196
 22
2662.870942293104
 32
10.0
 13
8172.64015607196
 23
2662.870942293104
 33
10.0
210
0.0
220
0.0
230
1.0
  0
SOLID
  5
4A1
330
49B
100
AcDbEntity
  8
HATCH
  6
CONTINUOUS
 62
     2
100
AcDbTrace
 10
8118.179263618051
 20
2330.865219183835
 30
10.0
 11
6440.784009960221
 21
2299.015840224314
 31
10.0
 12
8163.706570338336
 22
2299.015840224313
 32
10.0
 13
8163.706570338336
 23
2299.015840224313
 33
10.0
210
0.0
220
0.0
230
1.0
  0
SOLID
  5
4A2
330
49B
100
AcDbEntity
  8
HATCH
  6
CONTINUOUS
 62
     2
100
AcDbTrace
 10
8096.394917269334
 20
2390.735099647407
 30
10.0
 11
6440.784009960221
 21
2299.015840224314
 31
10.0
 12
8118.179263618051
 22
2330.865219183835
 32
10.0
 13
8118.179263618051
 23
2330.865219183835
 33
10.0
  0
SOLID
  5
4A3
330
49B
100
AcDbEntity
  8
HATCH
  6
CONTINUOUS
 62
     2
100
AcDbTrace
 10
8096.394917269334
 20
2477.818572573017
 30
10.0
 11
6440.784009960221
 21
2299.015840224314
 31
10.0
 12
8096.394917269334
 22
2390.735099647407
 32
10.0
 13
8096.394917269334
 23
2390.735099647407
 33
10.0
  0
SOLID
  5
4A4
330
49B
100
AcDbEntity
  8
HATCH
  6
CONTINUOUS
 62
     2
100
AcDbTrace
 10
8096.394917269334
 20
2564.90204549863
 30
10.0
 11
6440.784009960221
 21
2299.015840224314
 31
10.0
 12
8096.394917269334
 22
2477.818572573017
 32
10.0
 13
8096.394917269334
 23
2477.818572573017
 33
10.0
210
0.0
220
0.0
230
1.0
  0
SOLID
  5
4A5
330
49B
100
AcDbEntity
  8
HATCH
  6
CONTINUOUS
 62
     2
100
AcDbTrace
 10
8118.179263618051
 20
2624.771925962202
 30
10.0
 11
6440.784009960221
 21
2299.015840224314
 31
10.0
 12
8096.394917269334
 22
2564.90204549863
 32
10.0
 13
8096.394917269334
 23
2564.90204549863
 33
10.0
210
0.0
220
0.0
230
1.0
  0
SOLID
  5
4A6
330
49B
100
AcDbEntity
  8
HATCH
  6
CONTINUOUS
 62
     2
100
AcDbTrace
 10
8161.956661279804
 20
2655.39712715315
 30
10.0
 11
6440.784009960221
 21
2299.015840224314
 31
10.0
 12
8118.179263618051
 22
2624.771925962202
 32
10.0
 13
8118.179263618051
 23
2624.771925962202
 33
10.0
210
0.0
220
0.0
230
1.0
  0
SOLID
  5
4A7
330
49B
100
AcDbEntity
  8
HATCH
  6
CONTINUOUS
 62
     2
100
AcDbTrace
 10
6440.784009960222
 20
2655.397127153151
 30
10.0
 11
6440.784009960221
 21
2299.015840224314
 31
10.0
 12
8161.956661279804
 22
2655.39712715315
 32
10.0
 13
8161.956661279804
 23
2655.39712715315
 33
10.0
  0
SOLID
  5
4A8
330
49B
100
AcDbEntity
  8
HATCH
  6
CONTINUOUS
 62
     2
100
AcDbTrace
 10
8211.715489845742
 20
2242.557568489648
 30
10.0
 11
8172.64015607196
 21
2292.766202852931
 31
10.0
 12
6440.784009960222
 22
2242.557568489647
 32
10.0
 13
6440.784009960222
 23
2242.557568489647
 33
10.0
  0
SOLID
  5
4A9
330
49B
100
AcDbEntity
  8
HATCH
  6
CONTINUOUS
 62
     2
100
AcDbTrace
 10
8163.706570338336
 20
2299.015840224314
 30
10.0
 11
6440.784009960222
 21
2242.557568489647
 31
10.0
 12
8172.64015607196
 22
2292.766202852931
 32
10.0
 13
8172.64015607196
 23
2292.766202852931
 33
10.0
210
0.0
220
0.0
230
1.0
  0
SOLID
  5
4AA
330
49B
100
AcDbEntity
  8
HATCH
  6
CONTINUOUS
 62
     2
100
AcDbTrace
 10
6440.784009960222
 20
2242.557568489647
 30
10.0
 11
8163.706570338336
 21
2299.015840224314
 31
10.0
 12
6440.784009960222
 22
2299.015840224314
 32
10.0
 13
6440.784009960222
 23
2299.015840224314
 33
10.0
210
0.0
220
0.0
230
1.0
  0
SOLID
  5
4AB
330
49B
100
AcDbEntity
  8
HATCH
  6
CONTINUOUS
 62
     2
100
AcDbTrace
 10
6440.784009960222
 20
2242.557568489647
 30
10.0
 11
6440.784009960222
 21
2199.015840224313
 31
10.0
 12
8282.306505478187
 22
2242.557568489647
 32
10.0
 13
8282.306505478187
 23
2242.557568489647
 33
10.0
210
0.0
220
0.0
230
1.0
  0
SOLID
  5
4AC
330
49B
100
AcDbEntity
  8
HATCH
  6
CONTINUOUS
 62
     2
100
AcDbTrace
 10
8282.306505478187
 20
2199.015840224314
 30
10.0
 11
8282.306505478187
 21
2242.557568489647
 31
10.0
 12
6440.784009960222
 22
2199.015840224313
 32
10.0
 13
6440.784009960222
 23
2199.015840224313
 33
10.0
210
0.0
220
0.0
230
1.0
  0
ENDBLK
  5
4AE
330
49B
100
AcDbEntity
  8
0
100
AcDbBlockEnd
  0
BLOCK
  5
4B4
330
4AF
100
AcDbEntity
  8
0
100
AcDbBlockBegin
  2
*U16
 70
     1
 10
0.0
 20
0.0
 30
0.0
  3
*U16
  1

  0
SOLID
  5
4B0
330
4AF
100
AcDbEntity
  8
HATCH
  6
CONTINUOUS
 62
     1
100
AcDbTrace
 10
5042.209199076125
 20
5076.433995645325
 30
10.0
 11
4851.411287876453
 21
5050.655723588832
 31
10.0
 12
4971.225219376531
 22
4974.457690927025
 32
10.0
 13
4971.225219376531
 23
4974.457690927025
 33
10.0
210
0.0
220
0.0
230
1.0
  0
SOLID
  5
4B1
330
4AF
100
AcDbEntity
  8
HATCH
  6
CONTINUOUS
 62
     1
100
AcDbTrace
 10
2544.341357765913
 20
5076.433995645326
 30
10.0
 11
2615.325337465511
 21
4974.457690927024
 31
10.0
 12
2735.139268965586
 22
5050.655723588832
 32
10.0
 13
2735.139268965586
 23
5050.655723588832
 33
10.0
  0
SOLID
  5
4B2
330
4AF
100
AcDbEntity
  8
HATCH
  6
CONTINUOUS
 62
     1
100
AcDbTrace
 10
4922.39526757605
 20
5152.632028307132
 30
10.0
 11
4851.411287876453
 21
5050.655723588832
 31
10.0
 12
5042.209199076125
 22
5076.433995645325
 32
10.0
 13
5042.209199076125
 23
5076.433995645325
 33
10.0
210
0.0
220
0.0
230
1.0
  0
SOLID
  5
4B3
330
4AF
100
AcDbEntity
  8
HATCH
  6
CONTINUOUS
 62
     1
100
AcDbTrace
 10
2664.155289265989
 20
5152.632028307134
 30
10.0
 11
2544.341357765913
 21
5076.433995645326
 31
10.0
 12
2735.139268965586
 22
5050.655723588832
 32
10.0
 13
2735.139268965586
 23
5050.655723588832
 33
10.0
210
0.0
220
0.0
230
1.0
  0
ENDBLK
  5
4B5
330
4AF
100
AcDbEntity
  8
0
100
AcDbBlockEnd
  0
BLOCK
  5
4C4
330
4B6
100
AcDbEntity
  8
0
100
AcDbBlockBegin
  2
*U17
 70
     1
 10
0.0
 20
0.0
 30
0.0
  3
*U17
  1

  0
SOLID
  5
4B7
330
4B6
100
AcDbEntity
  8
HATCH
  6
CONTINUOUS
 62
   251
100
AcDbTrace
 10
4727.300167577101
 20
1632.383347385218
 30
10.0
 11
4889.236095354011
 21
1577.959478611981
 31
10.0
 12
5060.072736972475
 22
1578.169425602528
 32
10.0
 13
5060.072736972475
 23
1578.169425602528
 33
10.0
210
0.0
220
0.0
230
1.0
  0
SOLID
  5
4B8
330
4B6
100
AcDbEntity
  8
HATCH
  6
CONTINUOUS
 62
   251
100
AcDbTrace
 10
5221.874409108546
 20
1632.991146582321
 30
10.0
 11
4727.300167577101
 21
1632.383347385218
 31
10.0
 12
5060.072736972475
 22
1578.169425602528
 32
10.0
 13
5060.072736972475
 23
1578.169425602528
 33
10.0
210
0.0
220
0.0
230
1.0
  0
SOLID
  5
4B9
330
4B6
100
AcDbEntity
  8
HATCH
  6
CONTINUOUS
 62
   251
100
AcDbTrace
 10
4591.266174760711
 20
1735.72721510675
 30
10.0
 11
4727.300167577101
 21
1632.383347385218
 31
10.0
 12
5221.874409108546
 22
1632.991146582321
 32
10.0
 13
5221.874409108546
 23
1632.991146582321
 33
10.0
210
0.0
220
0.0
230
1.0
  0
SOLID
  5
4BA
330
4B6
100
AcDbEntity
  8
HATCH
  6
CONTINUOUS
 62
   251
100
AcDbTrace
 10
5357.653985784884
 20
1736.669055293914
 30
10.0
 11
4591.266174760711
 21
1735.72721510675
 31
10.0
 12
5221.874409108546
 22
1632.991146582321
 32
10.0
 13
5221.874409108546
 23
1632.991146582321
 33
10.0
  0
SOLID
  5
4BB
330
4B6
100
AcDbEntity
  8
HATCH
  6
CONTINUOUS
 62
   251
100
AcDbTrace
 10
4495.415962961595
 20
1877.141284757826
 30
10.0
 11
4591.266174760711
 21
1735.72721510675
 31
10.0
 12
5357.653985784884
 22
1736.669055293914
 32
10.0
 13
5357.653985784884
 23
1736.669055293914
 33
10.0
210
0.0
220
0.0
230
1.0
  0
SOLID
  5
4BC
330
4B6
100
AcDbEntity
  8
HATCH
  6
CONTINUOUS
 62
   251
100
AcDbTrace
 10
5453.156331416667
 20
1878.318284646009
 30
10.0
 11
4495.415962961595
 21
1877.141284757826
 31
10.0
 12
5357.653985784884
 22
1736.669055293914
 32
10.0
 13
5357.653985784884
 23
1736.669055293914
 33
10.0
210
0.0
220
0.0
230
1.0
  0
SOLID
  5
4BD
330
4B6
100
AcDbEntity
  8
HATCH
  6
CONTINUOUS
 62
   251
100
AcDbTrace
 10
4495.415962961595
 20
1877.141284757826
 30
10.0
 11
5453.156331416667
 21
1878.318284646009
 31
10.0
 12
5248.090595471971
 22
1878.318284646009
 32
10.0
 13
5248.090595471971
 23
1878.318284646009
 33
10.0
210
0.0
220
0.0
230
1.0
  0
SOLID
  5
4BE
330
4B6
100
AcDbEntity
  8
HATCH
  6
CONTINUOUS
 62
   251
100
AcDbTrace
 10
4449.812590251343
 20
2041.77887036532
 30
10.0
 11
4495.415962961595
 21
1877.141284757826
 31
10.0
 12
5248.090595471971
 22
1878.318284646009
 32
10.0
 13
5248.090595471971
 23
1878.318284646009
 33
10.0
  0
SOLID
  5
4BF
330
4B6
100
AcDbEntity
  8
HATCH
  6
CONTINUOUS
 62
   251
100
AcDbTrace
 10
4459.243833091062
 20
2212.355110960876
 30
10.0
 11
3608.299029264184
 21
2212.35511096081
 31
10.0
 12
4432.907839738894
 22
2212.35511096081
 32
10.0
 13
4432.907839738894
 23
2212.35511096081
 33
10.0
210
0.0
220
0.0
230
1.0
  0
SOLID
  5
4C0
330
4B6
100
AcDbEntity
  8
HATCH
  6
CONTINUOUS
 62
   251
100
AcDbTrace
 10
4459.243833091062
 20
2212.355110960876
 30
10.0
 11
4449.812590251343
 21
2041.77887036532
 31
10.0
 12
5248.090595471971
 22
1878.318284646009
 32
10.0
 13
5248.090595471971
 23
1878.318284646009
 33
10.0
210
0.0
220
0.0
230
1.0
  0
SOLID
  5
4C1
330
4B6
100
AcDbEntity
  8
HATCH
  6
CONTINUOUS
 62
   251
100
AcDbTrace
 10
5248.090595471971
 20
2747.923312013196
 30
10.0
 11
4459.243833091062
 21
2212.355110960876
 31
10.0
 12
5248.090595471971
 22
1878.318284646009
 32
10.0
 13
5248.090595471971
 23
1878.318284646009
 33
10.0
210
0.0
220
0.0
230
1.0
  0
SOLID
  5
4C2
330
4B6
100
AcDbEntity
  8
HATCH
  6
CONTINUOUS
 62
   251
100
AcDbTrace
 10
3608.299029264184
 20
2747.923312013196
 30
10.0
 11
4459.243833091062
 21
2212.355110960876
 31
10.0
 12
5248.090595471971
 22
2747.923312013196
 32
10.0
 13
5248.090595471971
 23
2747.923312013196
 33
10.0
210
0.0
220
0.0
230
1.0
  0
SOLID
  5
4C3
330
4B6
100
AcDbEntity
  8
HATCH
  6
CONTINUOUS
 62
   251
100
AcDbTrace
 10
3608.299029264184
 20
2747.923312013196
 30
10.0
 11
3608.299029264184
 21
2212.35511096081
 31
10.0
 12
4459.243833091062
 22
2212.355110960876
 32
10.0
 13
4459.243833091062
 23
2212.355110960876
 33
10.0
210
0.0
220
0.0
230
1.0
  0
ENDBLK
  5
4C5
330
4B6
100
AcDbEntity
  8
0
100
AcDbBlockEnd
  0
BLOCK
  5
4CB
330
4C6
100
AcDbEntity
  8
0
100
AcDbBlockBegin
  2
*U18
 70
     1
 10
0.0
 20
0.0
 30
0.0
  3
*U18
  1

  0
SOLID
  5
4C7
330
4C6
100
AcDbEntity
  8
HATCH
  6
CONTINUOUS
 62
     2
100
AcDbTrace
 10
3459.213568187294
 20
2188.553143622619
 30
10.0
 11
3459.213568187294
 21
2117.797822895238
 31
10.0
 12
3508.299029264184
 22
2117.797822895238
 32
10.0
 13
3508.299029264184
 23
2117.797822895238
 33
10.0
210
0.0
220
0.0
230
1.0
  0
SOLID
  5
4C8
330
4C6
100
AcDbEntity
  8
HATCH
  6
CONTINUOUS
 62
     2
100
AcDbTrace
 10
3508.299029264184
 20
2188.553143622619
 30
10.0
 11
3459.213568187294
 21
2188.553143622619
 31
10.0
 12
3508.299029264184
 22
2117.797822895238
 32
10.0
 13
3508.299029264184
 23
2117.797822895238
 33
10.0
210
0.0
220
0.0
230
1.0
  0
SOLID
  5
4C9
330
4C6
100
AcDbEntity
  8
HATCH
  6
CONTINUOUS
 62
     2
100
AcDbTrace
 10
3508.299029264184
 20
2768.722086078629
 30
10.0
 11
3508.299029264184
 21
2847.923312013196
 31
10.0
 12
3459.213568187294
 22
2847.923312013196
 32
10.0
 13
3459.213568187294
 23
2847.923312013196
 33
10.0
210
0.0
220
0.0
230
1.0
  0
SOLID
  5
4CA
330
4C6
100
AcDbEntity
  8
HATCH
  6
CONTINUOUS
 62
     2
100
AcDbTrace
 10
3459.213568187294
 20
2847.923312013196
 30
10.0
 11
3459.213568187294
 21
2768.722086078629
 31
10.0
 12
3508.299029264184
 22
2768.722086078629
 32
10.0
 13
3508.299029264184
 23
2768.722086078629
 33
10.0
210
0.0
220
0.0
230
1.0
  0
ENDBLK
  5
4CC
330
4C6
100
AcDbEntity
  8
0
100
AcDbBlockEnd
  0
BLOCK
  5
4D2
330
4CD
100
AcDbEntity
  8
0
100
AcDbBlockBegin
  2
*U19
 70
     1
 10
0.0
 20
0.0
 30
0.0
  3
*U19
  1

  0
SOLID
  5
4CE
330
4CD
100
AcDbEntity
  8
HATCH
  6
CONTINUOUS
 62
   251
100
AcDbTrace
 10
3792.953373849128
 20
3665.519768586689
 30
10.0
 11
3853.891924093834
 21
4483.116225160181
 31
10.0
 12
3732.014823604421
 22
4483.116225160181
 32
10.0
 13
3732.014823604421
 23
4483.116225160181
 33
10.0
210
0.0
220
0.0
230
1.0
  0
SOLID
  5
4CF
330
4CD
100
AcDbEntity
  8
HATCH
  6
CONTINUOUS
 62
   251
100
AcDbTrace
 10
3792.953373849128
 20
3665.519768586689
 30
10.0
 11
3732.014823604421
 21
4483.116225160181
 31
10.0
 12
3732.014823604421
 22
2847.923312013196
 32
10.0
 13
3732.014823604421
 23
2847.923312013196
 33
10.0
210
0.0
220
0.0
230
1.0
  0
SOLID
  5
4D0
330
4CD
100
AcDbEntity
  8
HATCH
  6
CONTINUOUS
 62
   251
100
AcDbTrace
 10
3792.953373849128
 20
3665.519768586689
 30
10.0
 11
3732.014823604421
 21
2847.923312013196
 31
10.0
 12
3853.891924093834
 22
2847.923312013197
 32
10.0
 13
3853.891924093834
 23
2847.923312013197
 33
10.0
210
0.0
220
0.0
230
1.0
  0
SOLID
  5
4D1
330
4CD
100
AcDbEntity
  8
HATCH
  6
CONTINUOUS
 62
   251
100
AcDbTrace
 10
3792.953373849128
 20
3665.519768586689
 30
10.0
 11
3853.891924093834
 21
2847.923312013197
 31
10.0
 12
3853.891924093834
 22
4483.116225160181
 32
10.0
 13
3853.891924093834
 23
4483.116225160181
 33
10.0
210
0.0
220
0.0
230
1.0
  0
ENDBLK
  5
4D3
330
4CD
100
AcDbEntity
  8
0
100
AcDbBlockEnd
  0
BLOCK
  5
4EF
330
4D4
100
AcDbEntity
  8
0
100
AcDbBlockBegin
  2
*U20
 70
     1
 10
0.0
 20
0.0
 30
0.0
  3
*U20
  1

  0
SOLID
  5
4D5
330
4D4
100
AcDbEntity
  8
HATCH
  6
CONTINUOUS
 62
     2
100
AcDbTrace
 10
3587.27397760637
 20
4373.637510929587
 30
10.0
 11
3664.834423253511
 21
4363.438092832068
 31
10.0
 12
3732.014823604421
 22
4363.438092832068
 32
10.0
 13
3732.014823604421
 23
4363.438092832068
 33
10.0
210
0.0
220
0.0
230
1.0
  0
SOLID
  5
4D6
330
4D4
100
AcDbEntity
  8
HATCH
  6
CONTINUOUS
 62
     2
100
AcDbTrace
 10
3999.276579235689
 20
4373.637510929589
 30
10.0
 11
3853.891924093833
 21
4363.438092832067
 31
10.0
 12
3921.716133588542
 22
4363.438092832068
 32
10.0
 13
3921.716133588542
 23
4363.438092832068
 33
10.0
210
0.0
220
0.0
230
1.0
  0
SOLID
  5
4D7
330
4D4
100
AcDbEntity
  8
HATCH
  6
CONTINUOUS
 62
     2
100
AcDbTrace
 10
3514.987341379131
 20
4403.542244358625
 30
10.0
 11
3587.27397760637
 21
4373.637510929587
 31
10.0
 12
3732.014823604421
 22
4363.438092832068
 32
10.0
 13
3732.014823604421
 23
4363.438092832068
 33
10.0
210
0.0
220
0.0
230
1.0
  0
SOLID
  5
4D8
330
4D4
100
AcDbEntity
  8
HATCH
  6
CONTINUOUS
 62
     2
100
AcDbTrace
 10
4071.563215462933
 20
4403.54224435863
 30
10.0
 11
3853.891924093833
 21
4363.438092832067
 31
10.0
 12
3999.276579235689
 22
4373.637510929589
 32
10.0
 13
3999.276579235689
 23
4373.637510929589
 33
10.0
  0
SOLID
  5
4D9
330
4D4
100
AcDbEntity
  8
HATCH
  6
CONTINUOUS
 62
     2
100
AcDbTrace
 10
3732.014823604421
 20
4433.250566222639
 30
10.0
 11
3514.987341379131
 21
4403.542244358625
 31
10.0
 12
3732.014823604421
 22
4363.438092832068
 32
10.0
 13
3732.014823604421
 23
4363.438092832068
 33
10.0
210
0.0
220
0.0
230
1.0
  0
SOLID
  5
4DA
330
4D4
100
AcDbEntity
  8
HATCH
  6
CONTINUOUS
 62
     2
100
AcDbTrace
 10
3853.891924093834
 20
4433.292281753142
 30
10.0
 11
3853.891924093833
 21
4363.438092832067
 31
10.0
 12
4071.563215462933
 22
4403.54224435863
 32
10.0
 13
4071.563215462933
 23
4403.54224435863
 33
10.0
210
0.0
220
0.0
230
1.0
  0
SOLID
  5
4DB
330
4D4
100
AcDbEntity
  8
HATCH
  6
CONTINUOUS
 62
     2
100
AcDbTrace
 10
3940.401331558576
 20
4440.172733667807
 30
10.0
 11
3853.891924093834
 21
4433.292281753142
 31
10.0
 12
4071.563215462933
 22
4403.54224435863
 32
10.0
 13
4071.563215462933
 23
4403.54224435863
 33
10.0
  0
SOLID
  5
4DC
330
4D4
100
AcDbEntity
  8
HATCH
  6
CONTINUOUS
 62
     2
100
AcDbTrace
 10
3645.834780247773
 20
4440.244719426014
 30
10.0
 11
3514.987341379131
 21
4403.542244358625
 31
10.0
 12
3732.014823604421
 22
4433.250566222639
 32
10.0
 13
3732.014823604421
 23
4433.250566222639
 33
10.0
210
0.0
220
0.0
230
1.0
  0
SOLID
  5
4DD
330
4D4
100
AcDbEntity
  8
HATCH
  6
CONTINUOUS
 62
     2
100
AcDbTrace
 10
4021.321760936249
 20
4471.527195994308
 30
10.0
 11
3940.401331558576
 21
4440.172733667807
 31
10.0
 12
4071.563215462933
 22
4403.54224435863
 32
10.0
 13
4071.563215462933
 23
4403.54224435863
 33
10.0
210
0.0
220
0.0
230
1.0
  0
SOLID
  5
4DE
330
4D4
100
AcDbEntity
  8
HATCH
  6
CONTINUOUS
 62
     2
100
AcDbTrace
 10
3565.228795905788
 20
4471.52719599431
 30
10.0
 11
3514.987341379131
 21
4403.542244358625
 31
10.0
 12
3645.834780247773
 22
4440.244719426014
 32
10.0
 13
3645.834780247773
 23
4440.244719426014
 33
10.0
210
0.0
220
0.0
230
1.0
  0
SOLID
  5
4DF
330
4D4
100
AcDbEntity
  8
HATCH
  6
CONTINUOUS
 62
     2
100
AcDbTrace
 10
2793.030411293131
 20
4819.797986217609
 30
10.0
 11
3514.987341379131
 21
4403.542244358625
 31
10.0
 12
3565.228795905788
 22
4471.52719599431
 32
10.0
 13
3565.228795905788
 23
4471.52719599431
 33
10.0
210
0.0
220
0.0
230
1.0
  0
SOLID
  5
4E0
330
4D4
100
AcDbEntity
  8
HATCH
  6
CONTINUOUS
 62
     2
100
AcDbTrace
 10
4793.520145548952
 20
4819.797986217641
 30
10.0
 11
4021.321760936249
 21
4471.527195994308
 31
10.0
 12
4071.563215462933
 22
4403.54224435863
 32
10.0
 13
4071.563215462933
 23
4403.54224435863
 33
10.0
210
0.0
220
0.0
230
1.0
  0
SOLID
  5
4E1
330
4D4
100
AcDbEntity
  8
HATCH
  6
CONTINUOUS
 62
     2
100
AcDbTrace
 10
2739.958970991334
 20
4858.732133580126
 30
10.0
 11
2793.030411293131
 21
4819.797986217609
 31
10.0
 12
3565.228795905788
 22
4471.52719599431
 32
10.0
 13
3565.228795905788
 23
4471.52719599431
 33
10.0
  0
SOLID
  5
4E2
330
4D4
100
AcDbEntity
  8
HATCH
  6
CONTINUOUS
 62
     2
100
AcDbTrace
 10
4846.591585850738
 20
4858.732133580152
 30
10.0
 11
4021.321760936249
 21
4471.527195994308
 31
10.0
 12
4793.520145548952
 22
4819.797986217641
 32
10.0
 13
4793.520145548952
 23
4819.797986217641
 33
10.0
210
0.0
220
0.0
230
1.0
  0
SOLID
  5
4E3
330
4D4
100
AcDbEntity
  8
HATCH
  6
CONTINUOUS
 62
     2
100
AcDbTrace
 10
4752.048092992967
 20
4884.88979810349
 30
10.0
 11
4021.321760936249
 21
4471.527195994308
 31
10.0
 12
4846.591585850738
 22
4858.732133580152
 32
10.0
 13
4846.591585850738
 23
4858.732133580152
 33
10.0
210
0.0
220
0.0
230
1.0
  0
SOLID
  5
4E4
330
4D4
100
AcDbEntity
  8
HATCH
  6
CONTINUOUS
 62
     2
100
AcDbTrace
 10
2834.502463849071
 20
4884.889798103491
 30
10.0
 11
2739.958970991334
 21
4858.732133580126
 31
10.0
 12
3565.228795905788
 22
4471.52719599431
 32
10.0
 13
3565.228795905788
 23
4471.52719599431
 33
10.0
210
0.0
220
0.0
230
1.0
  0
SOLID
  5
4E5
330
4D4
100
AcDbEntity
  8
HATCH
  6
CONTINUOUS
 62
     2
100
AcDbTrace
 10
2696.655680243873
 20
4908.302998178132
 30
10.0
 11
2739.958970991334
 21
4858.732133580126
 31
10.0
 12
2834.502463849071
 22
4884.889798103491
 32
10.0
 13
2834.502463849071
 23
4884.889798103491
 33
10.0
210
0.0
220
0.0
230
1.0
  0
SOLID
  5
4E6
330
4D4
100
AcDbEntity
  8
HATCH
  6
CONTINUOUS
 62
     2
100
AcDbTrace
 10
4889.894876598191
 20
4908.302998178153
 30
10.0
 11
4752.048092992967
 21
4884.88979810349
 31
10.0
 12
4846.591585850738
 22
4858.732133580152
 32
10.0
 13
4846.591585850738
 23
4858.732133580152
 33
10.0
210
0.0
220
0.0
230
1.0
  0
SOLID
  5
4E7
330
4D4
100
AcDbEntity
  8
HATCH
  6
CONTINUOUS
 62
     2
100
AcDbTrace
 10
2780.202070718607
 20
4924.21397014358
 30
10.0
 11
2696.655680243873
 21
4908.302998178132
 31
10.0
 12
2834.502463849071
 22
4884.889798103491
 32
10.0
 13
2834.502463849071
 23
4884.889798103491
 33
10.0
210
0.0
220
0.0
230
1.0
  0
SOLID
  5
4E8
330
4D4
100
AcDbEntity
  8
HATCH
  6
CONTINUOUS
 62
     2
100
AcDbTrace
 10
4806.348486123436
 20
4924.213970143584
 30
10.0
 11
4752.048092992967
 21
4884.88979810349
 31
10.0
 12
4889.894876598191
 22
4908.302998178153
 32
10.0
 13
4889.894876598191
 23
4908.302998178153
 33
10.0
210
0.0
220
0.0
230
1.0
  0
SOLID
  5
4E9
330
4D4
100
AcDbEntity
  8
HATCH
  6
CONTINUOUS
 62
     2
100
AcDbTrace
 10
2735.990810009801
 20
4974.615236271519
 30
10.0
 11
2696.655680243873
 21
4908.302998178132
 31
10.0
 12
2780.202070718607
 22
4924.21397014358
 32
10.0
 13
2780.202070718607
 23
4924.21397014358
 33
10.0
210
0.0
220
0.0
230
1.0
  0
SOLID
  5
4EA
330
4D4
100
AcDbEntity
  8
HATCH
  6
CONTINUOUS
 62
     2
100
AcDbTrace
 10
4850.559746832246
 20
4974.615236271529
 30
10.0
 11
4806.348486123436
 21
4924.213970143584
 31
10.0
 12
4889.894876598191
 22
4908.302998178153
 32
10.0
 13
4889.894876598191
 23
4908.302998178153
 33
10.0
210
0.0
220
0.0
230
1.0
  0
SOLID
  5
4EB
330
4D4
100
AcDbEntity
  8
HATCH
  6
CONTINUOUS
 62
     2
100
AcDbTrace
 10
4945.099702007337
 20
4987.610809907906
 30
10.0
 11
4850.559746832246
 21
4974.615236271529
 31
10.0
 12
4889.894876598191
 22
4908.302998178153
 32
10.0
 13
4889.894876598191
 23
4908.302998178153
 33
10.0
210
0.0
220
0.0
230
1.0
  0
SOLID
  5
4EC
330
4D4
100
AcDbEntity
  8
HATCH
  6
CONTINUOUS
 62
     2
100
AcDbTrace
 10
2639.780511945366
 20
4990.010441433049
 30
10.0
 11
2696.655680243873
 21
4908.302998178132
 31
10.0
 12
2735.990810009801
 22
4974.615236271519
 32
10.0
 13
2735.990810009801
 23
4974.615236271519
 33
10.0
  0
SOLID
  5
4ED
330
4D4
100
AcDbEntity
  8
HATCH
  6
CONTINUOUS
 62
     2
100
AcDbTrace
 10
4887.509851004516
 20
5027.698130445547
 30
10.0
 11
4850.559746832246
 21
4974.615236271529
 31
10.0
 12
4945.099702007337
 22
4987.610809907906
 32
10.0
 13
4945.099702007337
 23
4987.610809907906
 33
10.0
210
0.0
220
0.0
230
1.0
  0
SOLID
  5
4EE
330
4D4
100
AcDbEntity
  8
HATCH
  6
CONTINUOUS
 62
     2
100
AcDbTrace
 10
2697.370362948181
 20
5030.097761970691
 30
10.0
 11
2639.780511945366
 21
4990.010441433049
 31
10.0
 12
2735.990810009801
 22
4974.615236271519
 32
10.0
 13
2735.990810009801
 23
4974.615236271519
 33
10.0
  0
ENDBLK
  5
4F0
330
4D4
100
AcDbEntity
  8
0
100
AcDbBlockEnd
  0
ENDSEC
  0
SECTION
  2
ENTITIES
  0
MTEXT
  5
1F4
330
1F
100
AcDbEntity
  8
TEKST
100
AcDbMText
 10
3163.136110051032
 20
6155.180824839128
 30
0.0
 40
100.0
 41
1991.156099999999
 71
     1
 72
     1
  1
{\FIMPACT.TTF;Hoogte: 243 cm\PMax. valhoogte Klimgedeelte: 215 cm\PMax. valhoogte Glijgedeelte: 90 cm}
1001
ACAD
1000
MTEXTBEGIN
1070
    73
1070
     1
1070
    44
1040
1.0
1070
    74
1070
     0
1000
MTEXTEND
1000
MTEXTBEGIN
1070
    73
1070
     1
1070
    44
1040
1.0
1070
    74
1070
     0
1000
MTEXTEND
  0
INSERT
  5
385
330
1F
100
AcDbEntity
  8
0
100
AcDbBlockReference
  2
ADKD1
 10
0.0
 20
0.0
 30
0.0
  0
ENDSEC
  0
SECTION
  2
OBJECTS
  0
DICTIONARY
  5
C
330
0
100
AcDbDictionary
  3
ACAD_GROUP
350
D
  3
ACAD_LAYOUT
350
1A
  3
ACAD_MLINESTYLE
350
17
  3
ACAD_PLOTSETTINGS
350
19
1001
ACAD
1000
TREAT_AS_HARD
1070
     0
1000
TREAT_AS_HARD
1070
     0
  0
DICTIONARY
  5
149
330
1F
100
AcDbDictionary
  3
ACAD_LAYOUTSELFREF
350
387
  3
ACAD_SORTENTS
350
32F
1001
ACAD
1000
TREAT_AS_HARD
1070
     1
1000
TREAT_AS_HARD
1070
     0
  0
DICTIONARY
  5
14B
330
50
100
AcDbDictionary
  3
ACAD_LAYOUTSELFREF
350
388
1001
ACAD
1000
TREAT_AS_HARD
1070
     1
1000
TREAT_AS_HARD
1070
     0
  0
DICTIONARY
  5
D
102
{ACAD_REACTORS
330
C
102
}
330
C
100
AcDbDictionary
1001
ACAD
1000
TREAT_AS_HARD
1070
     0
1000
TREAT_AS_HARD
1070
     0
  0
DICTIONARY
  5
1A
102
{ACAD_REACTORS
330
C
102
}
330
C
100
AcDbDictionary
1001
ACAD
1000
TREAT_AS_HARD
1070
     0
1000
TREAT_AS_HARD
1070
     0
  0
DICTIONARY
  5
17
102
{ACAD_REACTORS
330
C
102
}
330
C
100
AcDbDictionary
  3
STANDARD
350
18
1001
ACAD
1000
TREAT_AS_HARD
1070
     0
1000
TREAT_AS_HARD
1070
     0
  0
DICTIONARY
  5
19
102
{ACAD_REACTORS
330
C
102
}
330
C
100
AcDbDictionary
1001
ACAD
1000
TREAT_AS_HARD
1070
     0
1000
TREAT_AS_HARD
1070
     0
  0
XRECORD
  5
387
102
{ACAD_REACTORS
330
149
102
}
330
149
100
AcDbXrecord
340
1F
  0
SORTENTSTABLE
  5
32F
102
{ACAD_REACTORS
330
149
102
}
330
149
100
AcDbSortentsTable
330
1F
331
308
  5
309
331
319
  5
31A
331
2FF
  5
300
331
2DD
  5
2DE
331
2EE
  5
2EF
331
317
  5
318
331
2FD
  5
2FE
331
2DB
  5
2DD
331
2EC
  5
2ED
331
315
  5
316
331
2FB
  5
2FC
331
2D9
  5
2DA
331
27B
  5
290
331
2EA
  5
2EB
331
313
  5
314
331
2F9
  5
2FA
331
2D7
  5
2D8
331
2E8
  5
2E9
331
322
  5
32E
331
311
  5
312
331
2F7
  5
2F8
331
2D5
  5
2D6
331
291
  5
292
331
277
  5
27B
331
30F
  5
310
331
2F5
  5
2F6
331
2D3
  5
2D4
331
320
  5
321
331
306
  5
307
331
2E4
  5
2E5
331
30D
  5
30E
331
2F3
  5
2F4
331
31E
  5
31F
331
304
  5
305
331
2E2
  5
2E3
331
30B
  5
30C
331
2F1
  5
2F2
331
31C
  5
31D
331
302
  5
303
331
2E0
  5
2E1
331
309
  5
30A
331
31A
  5
31B
331
300
  5
301
331
2DE
  5
2DF
331
1F4
  5
276
331
2EF
  5
2F0
331
318
  5
319
331
2FE
  5
2FF
331
2ED
  5
2EE
331
316
  5
317
331
2FC
  5
2FD
331
2DA
  5
2DB
331
2EB
  5
2EC
331
314
  5
315
331
2FA
  5
2FB
331
2D8
  5
2D9
331
2E9
  5
2EA
331
312
  5
313
331
2F8
  5
2F9
331
2D6
  5
2D7
331
292
  5
2D3
331
2E7
  5
2E8
331
310
  5
311
331
2F6
  5
2F7
331
2D4
  5
2D5
331
290
  5
291
331
321
  5
322
331
307
  5
308
331
276
  5
277
331
2E5
  5
2E7
331
30E
  5
30F
331
2F4
  5
2F5
331
31F
  5
320
331
305
  5
306
331
2E3
  5
2E4
331
30C
  5
30D
331
2F2
  5
2F3
331
31D
  5
31E
331
303
  5
304
331
2E1
  5
2E2
331
32E
  5
1F4
331
30A
  5
30B
331
2F0
  5
2F1
331
31B
  5
31C
331
301
  5
302
331
2DF
  5
2E0
  0
XRECORD
  5
388
102
{ACAD_REACTORS
330
14B
102
}
330
14B
100
AcDbXrecord
340
50
  0
MLINESTYLE
  5
18
102
{ACAD_REACTORS
330
17
102
}
330
17
100
AcDbMlineStyle
  2
STANDARD
 70
     0
  3

 62
   256
 51
90.0
 52
90.0
 71
     2
 49
0.5
 62
   256
  6
BYLAYER
 49
-0.5
 62
   256
  6
BYLAYER
  0
ENDSEC
  0
EOF
