  0
SECTION
  2
HEADER
  9
$ACADVER
  1
AC1014
  9
$ACADMAINTVER
 70
     9
  9
$DWGCODEPAGE
  3
ANSI_1252
  9
$INSBASE
 10
0.0
 20
0.0
 30
0.0
  9
$EXTMIN
 10
-299.5662876234
 20
-321.2219410108991
 30
-0.0015258207003583
  9
$EXTMAX
 10
7868.309656453144
 20
6443.529231632499
 30
0.0000000349246037
  9
$LIMMIN
 10
0.0
 20
0.0
  9
$LIMMAX
 10
420.0
 20
297.0
  9
$ORTHOMODE
 70
     0
  9
$REGENMODE
 70
     1
  9
$FILLMODE
 70
     1
  9
$QTEXTMODE
 70
     0
  9
$MIRRTEXT
 70
     1
  9
$DRAGMODE
 70
     2
  9
$LTSCALE
 40
1.0
  9
$OSMODE
 70
   511
  9
$ATTMODE
 70
     1
  9
$TEXTSIZE
 40
2.5
  9
$TRACEWID
 40
1.0
  9
$TEXTSTYLE
  7
STANDARD
  9
$CLAYER
  8
0
  9
$CELTYPE
  6
BYLAYER
  9
$CECOLOR
 62
   256
  9
$CELTSCALE
 40
1.0
  9
$DELOBJ
 70
     1
  9
$DISPSILH
 70
     0
  9
$DIMSCALE
 40
1.0
  9
$DIMASZ
 40
2.5
  9
$DIMEXO
 40
0.625
  9
$DIMDLI
 40
3.75
  9
$DIMRND
 40
0.0
  9
$DIMDLE
 40
0.0
  9
$DIMEXE
 40
1.25
  9
$DIMTP
 40
0.0
  9
$DIMTM
 40
0.0
  9
$DIMTXT
 40
2.5
  9
$DIMCEN
 40
2.5
  9
$DIMTSZ
 40
0.0
  9
$DIMTOL
 70
     0
  9
$DIMLIM
 70
     0
  9
$DIMTIH
 70
     0
  9
$DIMTOH
 70
     0
  9
$DIMSE1
 70
     0
  9
$DIMSE2
 70
     0
  9
$DIMTAD
 70
     1
  9
$DIMZIN
 70
     8
  9
$DIMBLK
  1

  9
$DIMASO
 70
     1
  9
$DIMSHO
 70
     1
  9
$DIMPOST
  1

  9
$DIMAPOST
  1

  9
$DIMALT
 70
     0
  9
$DIMALTD
 70
     3
  9
$DIMALTF
 40
0.03937007874016
  9
$DIMLFAC
 40
1.0
  9
$DIMTOFL
 70
     1
  9
$DIMTVP
 40
0.0
  9
$DIMTIX
 70
     0
  9
$DIMSOXD
 70
     0
  9
$DIMSAH
 70
     0
  9
$DIMBLK1
  1

  9
$DIMBLK2
  1

  9
$DIMSTYLE
  2
ISO-25
  9
$DIMCLRD
 70
     0
  9
$DIMCLRE
 70
     0
  9
$DIMCLRT
 70
     0
  9
$DIMTFAC
 40
1.0
  9
$DIMGAP
 40
0.625
  9
$DIMJUST
 70
     0
  9
$DIMSD1
 70
     0
  9
$DIMSD2
 70
     0
  9
$DIMTOLJ
 70
     0
  9
$DIMTZIN
 70
     8
  9
$DIMALTZ
 70
     0
  9
$DIMALTTZ
 70
     0
  9
$DIMFIT
 70
     3
  9
$DIMUPT
 70
     0
  9
$DIMUNIT
 70
     2
  9
$DIMDEC
 70
     2
  9
$DIMTDEC
 70
     2
  9
$DIMALTU
 70
     2
  9
$DIMALTTD
 70
     3
  9
$DIMTXSTY
  7
STANDARD
  9
$DIMAUNIT
 70
     0
  9
$LUNITS
 70
     2
  9
$LUPREC
 70
     4
  9
$SKETCHINC
 40
1.0
  9
$FILLETRAD
 40
10.0
  9
$AUNITS
 70
     0
  9
$AUPREC
 70
     0
  9
$MENU
  1
.
  9
$ELEVATION
 40
0.0
  9
$PELEVATION
 40
0.0
  9
$THICKNESS
 40
0.0
  9
$LIMCHECK
 70
     0
  9
$BLIPMODE
 70
     0
  9
$CHAMFERA
 40
10.0
  9
$CHAMFERB
 40
10.0
  9
$CHAMFERC
 40
20.0
  9
$CHAMFERD
 40
0.0
  9
$SKPOLY
 70
     0
  9
$TDCREATE
 40
2453129.375233796
  9
$TDUPDATE
 40
2453186.714671933
  9
$TDINDWG
 40
0.0012279398
  9
$TDUSRTIMER
 40
0.0012279398
  9
$USRTIMER
 70
     1
  9
$ANGBASE
 50
0.0
  9
$ANGDIR
 70
     0
  9
$PDMODE
 70
     0
  9
$PDSIZE
 40
0.0
  9
$PLINEWID
 40
0.0
  9
$COORDS
 70
     2
  9
$SPLFRAME
 70
     0
  9
$SPLINETYPE
 70
     6
  9
$SPLINESEGS
 70
     8
  9
$ATTDIA
 70
     0
  9
$ATTREQ
 70
     1
  9
$HANDLING
 70
-16383
  9
$HANDSEED
  5
6A3
  9
$SURFTAB1
 70
     6
  9
$SURFTAB2
 70
     6
  9
$SURFTYPE
 70
     6
  9
$SURFU
 70
     6
  9
$SURFV
 70
     6
  9
$UCSNAME
  2

  9
$UCSORG
 10
0.0
 20
0.0
 30
0.0
  9
$UCSXDIR
 10
1.0
 20
0.0
 30
0.0
  9
$UCSYDIR
 10
0.0
 20
1.0
 30
0.0
  9
$PUCSNAME
  2

  9
$PUCSORG
 10
0.0
 20
0.0
 30
0.0
  9
$PUCSXDIR
 10
1.0
 20
0.0
 30
0.0
  9
$PUCSYDIR
 10
0.0
 20
1.0
 30
0.0
  9
$USERI1
 70
     0
  9
$USERI2
 70
     0
  9
$USERI3
 70
     0
  9
$USERI4
 70
     0
  9
$USERI5
 70
     0
  9
$USERR1
 40
0.0
  9
$USERR2
 40
0.0
  9
$USERR3
 40
0.0
  9
$USERR4
 40
0.0
  9
$USERR5
 40
0.0
  9
$WORLDVIEW
 70
     1
  9
$SHADEDGE
 70
     3
  9
$SHADEDIF
 70
    70
  9
$TILEMODE
 70
     1
  9
$MAXACTVP
 70
    64
  9
$PINSBASE
 10
0.0
 20
0.0
 30
0.0
  9
$PLIMCHECK
 70
     0
  9
$PEXTMIN
 10
0.0
 20
0.0
 30
0.0
  9
$PEXTMAX
 10
0.0
 20
0.0
 30
0.0
  9
$PLIMMIN
 10
0.0
 20
0.0
  9
$PLIMMAX
 10
12.0
 20
9.0
  9
$UNITMODE
 70
     0
  9
$VISRETAIN
 70
     1
  9
$PLINEGEN
 70
     0
  9
$PSLTSCALE
 70
     1
  9
$TREEDEPTH
 70
  3020
  9
$PICKSTYLE
 70
     0
  9
$CMLSTYLE
  2
STANDARD
  9
$CMLJUST
 70
     0
  9
$CMLSCALE
 40
20.0
  9
$PROXYGRAPHICS
 70
     1
  9
$MEASUREMENT
 70
     1
  0
ENDSEC
  0
SECTION
  2
CLASSES
  0
CLASS
  1
ACDBDICTIONARYWDFLT
  2
AcDbDictionaryWithDefault
  3
AutoCAD 2000
 90
        0
280
     0
281
     0
  0
CLASS
  1
ACDBPLACEHOLDER
  2
AcDbPlaceHolder
  3
AutoCAD 2000
 90
        0
280
     0
281
     0
  0
CLASS
  1
LAYOUT
  2
AcDbLayout
  3
AutoCAD 2000
 90
        0
280
     0
281
     0
  0
CLASS
  1
LONG_TRANSACTION
  2
AcDbLongTransaction
  3
AutoCAD 2000
 90
        0
280
     0
281
     0
  0
CLASS
  1
LWPOLYLINE
  2
AcDbPolyline
  3
AutoCAD 2000
 90
        0
280
     0
281
     1
  0
CLASS
  1
HATCH
  2
AcDbHatch
  3
AutoCAD 2000
 90
        0
280
     0
281
     1
  0
CLASS
  1
XRECORD
  2
AcDbXrecord
  3
AutoCAD 2000
 90
        0
280
     0
281
     0
  0
ENDSEC
  0
SECTION
  2
TABLES
  0
TABLE
  2
VPORT
  5
8
330
0
100
AcDbSymbolTable
 70
     2
  0
VPORT
  5
67A
330
8
100
AcDbSymbolTableRecord
100
AcDbViewportTableRecord
  2
*ACTIVE
 70
     0
 10
0.0
 20
0.0
 11
1.0
 21
1.0
 12
3784.371684414872
 22
3061.1536453108
 13
0.0
 23
0.0
 14
10.0
 24
10.0
 15
10.0
 25
10.0
 16
0.0
 26
0.0
 36
1.0
 17
0.0
 27
0.0
 37
0.0
 40
6845.124453902528
 41
1.720238095238095
 42
50.0
 43
0.0
 44
0.0
 50
0.0
 51
0.0
 71
     0
 72
   100
 73
     1
 74
     3
 75
     0
 76
     0
 77
     0
 78
     0
  0
ENDTAB
  0
TABLE
  2
LTYPE
  5
5
330
0
100
AcDbSymbolTable
 70
     1
  0
LTYPE
  5
14
330
5
100
AcDbSymbolTableRecord
100
AcDbLinetypeTableRecord
  2
BYBLOCK
 70
     0
  3

 72
    65
 73
     0
 40
0.0
  0
LTYPE
  5
15
330
5
100
AcDbSymbolTableRecord
100
AcDbLinetypeTableRecord
  2
BYLAYER
 70
     0
  3

 72
    65
 73
     0
 40
0.0
  0
LTYPE
  5
16
330
5
100
AcDbSymbolTableRecord
100
AcDbLinetypeTableRecord
  2
CONTINUOUS
 70
     0
  3
Solid line
 72
    65
 73
     0
 40
0.0
  0
ENDTAB
  0
TABLE
  2
LAYER
  5
2
102
{ACAD_XDICTIONARY
360
5E
102
}
330
0
100
AcDbSymbolTable
 70
     2
  0
LAYER
  5
10
330
2
100
AcDbSymbolTableRecord
100
AcDbLayerTableRecord
  2
0
 70
     0
 62
     7
  6
CONTINUOUS
  0
LAYER
  5
5D
330
2
100
AcDbSymbolTableRecord
100
AcDbLayerTableRecord
  2
LAYER1
 70
     0
 62
     7
  6
CONTINUOUS
  0
ENDTAB
  0
TABLE
  2
STYLE
  5
3
330
0
100
AcDbSymbolTable
 70
     1
  0
STYLE
  5
11
330
3
100
AcDbSymbolTableRecord
100
AcDbTextStyleTableRecord
  2
STANDARD
 70
     0
 40
0.0
 41
1.0
 50
0.0
 71
     0
 42
2.5
  3
txt
  4

  0
ENDTAB
  0
TABLE
  2
VIEW
  5
6
330
0
100
AcDbSymbolTable
 70
     0
  0
ENDTAB
  0
TABLE
  2
UCS
  5
7
330
0
100
AcDbSymbolTable
 70
     0
  0
ENDTAB
  0
TABLE
  2
APPID
  5
9
330
0
100
AcDbSymbolTable
 70
     2
  0
APPID
  5
12
330
9
100
AcDbSymbolTableRecord
100
AcDbRegAppTableRecord
  2
ACAD
 70
     0
  0
APPID
  5
6A2
330
9
100
AcDbSymbolTableRecord
100
AcDbRegAppTableRecord
  2
CONTENTBLOCKICON
 70
     0
  0
ENDTAB
  0
TABLE
  2
DIMSTYLE
  5
A
330
0
100
AcDbSymbolTable
 70
     1
  0
DIMSTYLE
105
27
330
A
100
AcDbSymbolTableRecord
100
AcDbDimStyleTableRecord
  2
ISO-25
 70
     0
  3

  4

  5

  6

  7

 40
1.0
 41
2.5
 42
0.625
 43
3.75
 44
1.25
 45
0.0
 46
0.0
 47
0.0
 48
0.0
140
2.5
141
2.5
142
0.0
143
0.03937007874016
144
1.0
145
0.0
146
1.0
147
0.625
 71
     0
 72
     0
 73
     0
 74
     0
 75
     0
 76
     0
 77
     1
 78
     8
170
     0
171
     3
172
     1
173
     0
174
     0
175
     0
176
     0
177
     0
178
     0
270
     2
271
     2
272
     2
273
     2
274
     3
340
11
275
     0
280
     0
281
     0
282
     0
283
     0
284
     8
285
     0
286
     0
287
     3
288
     0
  0
ENDTAB
  0
TABLE
  2
BLOCK_RECORD
  5
1
330
0
100
AcDbSymbolTable
 70
     2
  0
BLOCK_RECORD
  5
1F
102
{ACAD_XDICTIONARY
360
69C
102
}
330
1
100
AcDbSymbolTableRecord
100
AcDbBlockTableRecord
  2
*MODEL_SPACE
  0
BLOCK_RECORD
  5
50
102
{ACAD_XDICTIONARY
360
69E
102
}
330
1
100
AcDbSymbolTableRecord
100
AcDbBlockTableRecord
  2
*PAPER_SPACE
  0
BLOCK_RECORD
  5
470
330
1
100
AcDbSymbolTableRecord
100
AcDbBlockTableRecord
  2
ADKZ
1001
ACAD
1000
DesignCenter Data
1002
{
1070
     1
1070
     4
1002
}
1001
CONTENTBLOCKICON
1071
        0
1004
2800000020000000200000000100080000000000000400000000000000000000000000000000000000000000000080000080000000808000800000008000800080800000C0C0C000C0DCC000F0CAA6000020400000206000002080000020A0000020C0000020E00000400000004020000040400000406000004080000040A0
1004
000040C0000040E00000600000006020000060400000606000006080000060A0000060C0000060E00000800000008020000080400000806000008080000080A0000080C0000080E00000A0000000A0200000A0400000A0600000A0800000A0A00000A0C00000A0E00000C0000000C0200000C0400000C0600000C0800000C0
1004
A00000C0C00000C0E00000E0000000E0200000E0400000E0600000E0800000E0A00000E0C00000E0E00040000000400020004000400040006000400080004000A0004000C0004000E00040200000402020004020400040206000402080004020A0004020C0004020E000404000004040200040404000404060004040800040
1004
40A0004040C0004040E00040600000406020004060400040606000406080004060A0004060C0004060E00040800000408020004080400040806000408080004080A0004080C0004080E00040A0000040A0200040A0400040A0600040A0800040A0A00040A0C00040A0E00040C0000040C0200040C0400040C0600040C08000
1004
40C0A00040C0C00040C0E00040E0000040E0200040E0400040E0600040E0800040E0A00040E0C00040E0E00080000000800020008000400080006000800080008000A0008000C0008000E00080200000802020008020400080206000802080008020A0008020C0008020E00080400000804020008040400080406000804080
1004
008040A0008040C0008040E00080600000806020008060400080606000806080008060A0008060C0008060E00080800000808020008080400080806000808080008080A0008080C0008080E00080A0000080A0200080A0400080A0600080A0800080A0A00080A0C00080A0E00080C0000080C0200080C0400080C0600080C0
1004
800080C0A00080C0C00080C0E00080E0000080E0200080E0400080E0600080E0800080E0A00080E0C00080E0E000C0000000C0002000C0004000C0006000C0008000C000A000C000C000C000E000C0200000C0202000C0204000C0206000C0208000C020A000C020C000C020E000C0400000C0402000C0404000C0406000C0
1004
408000C040A000C040C000C040E000C0600000C0602000C0604000C0606000C0608000C060A000C060C000C060E000C0800000C0802000C0804000C0806000C0808000C080A000C080C000C080E000C0A00000C0A02000C0A04000C0A06000C0A08000C0A0A000C0A0C000C0A0E000C0C00000C0C02000C0C04000C0C06000
1004
C0C08000C0C0A000F0FBFF00A4A0A000808080000000FF0000FF000000FFFF00FF000000FF00FF00FFFF0000FFFFFF00FFFFFFFFFFFFFFFFFFFFFFFFFFFFFFFFFFFFFFFFFFFFFFFFFFFFFFFFFFFFFFFFFFFFFFFFFFFFFFFFFFFFFFFFFFFFFFFFFFFFFFFFFFFFFFFFFFFFFFFFFFFFFFFFFFFFFFFFFFFFFFFFFFFFFFFFFFFFFF
1004
FFFFFFFFFFFFFFFFFFFFFFFFFFFFFFFFFFFFFFFFFFFFFFFFFFFFFFFFFFFFFFFFFFFFFFFFFFFFFFFFFFFFFFFFFFFFFFFFFFFFFFFFFFFFFFFF00000000000000000000000000000000000000FFFFFFFFFFFFFFFFFFFF000000FFFFFFFFFFFFFFFFFFFFFFFFFFFFFFFFFFFFFF0000FFFFFFFFFFFFFF00FFFFFFFFFFFFFFFFFFFF
1004
FFFFFFFFFFFFFFFFFFFFFFFFFFFF00FFFFFFFFFF00FFFFFFFFFFFFFFFFFFFFFFFFFFFFFFFFFFFFFFFFFFFFFFFFFFFF00FFFFFFFF00FFFFFFFFFFFFFFFFFFFFFFFFFFFFFFFFFFFFFFFFFFFFFFFFFFFF00FFFFFFFF00FFFFFFFFFFFFFFFFFFFFFFFFFFFFFFFFFFFFFFFFFFFFFFFFFFFFFF00FFFF00FFFFFFFFFF000000000000
1004
000000000000000000000000FFFFFFFFFF00FFFF00FFFFFFFFFF000000000000000000000000000000FFFF00FFFFFFFFFF00FFFF00FFFFFFFFFF000000000000000000000000000000FF0000FFFFFFFFFF00FFFFFF00FFFFFFFFFFFFFFFF0000000000000000000000FB0000FFFFFFFFFF00FFFFFF00FFFFFFFFFFFFFFFFFF
1004
00FFFFFFFFFFFFFFFF00FB0000FFFFFFFFFF00FFFFFF00FFFFFFFFFFFFFFFFFF00FFFFFFFFFFFFFFFF00FB0000FFFFFFFFFF00FFFFFFFF00FFFFFFFFFFFFFFFFFFFFFFFFFFFFFFFFFF00FB0000FFFFFFFFFF00FFFFFFFFFF00FFFFFFFFFFFFFFFFFFFFFFFFFFFFFFFF00FB0000FFFFFFFFFF00FFFFFFFFFFFF00000000FFFF
1004
FFFFFFFFFFFFFFFFFFFF00FF0000FFFFFFFF00FFFFFFFFFFFFFFFFFFFFFF00FFFFFFFFFFFFFFFFFFFFFF00FB0000FFFFFFFF00FFFFFFFFFFFFFFFFFFFFFFFF000000000000FFFFFFFFFF00FF0000FFFFFFFF00FFFFFFFFFFFFFFFFFFFFFFFFFFFFFFFFFF00FFFFFFFFFF00FB0000FFFFFFFF00FFFFFFFFFFFFFFFFFFFFFFFF
1004
FFFFFFFFFFFF00FFFFFFFFFFFFFFFFFFFFFFFF00FFFFFFFFFFFFFFFFFFFFFFFFFFFFFFFFFFFF00FFFFFFFFFFFFFFFFFFFFFFFF00FFFFFFFFFFFFFFFFFFFFFFFFFFFFFFFFFFFF00FFFFFFFFFFFFFFFFFFFFFFFF00FFFFFFFFFFFFFFFFFFFFFFFFFFFFFFFFFFFFFF00FFFFFFFFFFFFFFFFFFFF00FFFFFFFFFFFFFFFFFFFFFFFF
1004
FFFFFFFFFFFFFFFFFF00FFFFFFFFFFFFFF0000FFFFFFFFFFFFFFFFFFFFFFFFFFFFFFFFFFFFFFFFFFFFFF00000000000000FFFFFFFFFFFFFFFFFFFFFFFFFFFFFFFFFFFFFFFFFFFFFFFFFFFFFFFFFFFFFFFFFFFFFFFFFFFFFFFFFFFFFFFFFFFFFFFFFFFFFFFFFFFFFFFFFFFFFFFFFFFFFFFFFFFFFFFFFFFFFFFFFFFFFFFFFFFF
1004
FFFFFFFFFFFFFFFFFFFFFFFFFFFFFFFFFFFFFFFFFFFFFFFFFFFFFFFFFFFFFFFFFFFFFFFFFFFFFFFFFFFFFFFFFFFFFFFFFFFFFFFFFFFFFFFF
  0
ENDTAB
  0
ENDSEC
  0
SECTION
  2
BLOCKS
  0
BLOCK
  5
20
330
1F
100
AcDbEntity
  8
0
100
AcDbBlockBegin
  2
*MODEL_SPACE
 70
     0
 10
0.0
 20
0.0
 30
0.0
  3
*MODEL_SPACE
  1

  0
ENDBLK
  5
21
330
1F
100
AcDbEntity
  8
0
100
AcDbBlockEnd
  0
BLOCK
  5
52
330
50
100
AcDbEntity
 67
     1
  8
0
100
AcDbBlockBegin
  2
*PAPER_SPACE
 70
     0
 10
0.0
 20
0.0
 30
0.0
  3
*PAPER_SPACE
  1

  0
ENDBLK
  5
53
330
50
100
AcDbEntity
 67
     1
  8
0
100
AcDbBlockEnd
  0
BLOCK
  5
471
330
470
100
AcDbEntity
  8
0
100
AcDbBlockBegin
  2
ADKZ
 70
     0
 10
0.0
 20
0.0
 30
0.0
  3
ADKZ
  1

  0
HATCH
  5
473
330
470
100
AcDbEntity
  8
LAYER1
 62
   250
100
AcDbHatch
 10
0.0
 20
0.0
 30
0.0
210
0.0
220
0.0
230
1.0
  2
SOLID
 70
     1
 71
     0
 91
       11
 92
        7
 72
     1
 73
     1
 93
        4
 10
3629.354755961031
 20
168.9878971870748
 42
-0.2069535139108656
 10
3613.354755961045
 20
168.9878971870821
 42
0.0
 10
3613.354755961045
 20
81.10980556354116
 42
-0.2069535139108656
 10
3629.354755961031
 20
81.10980556354844
 42
0.0
 97
        0
 92
        7
 72
     1
 73
     1
 93
        4
 10
3629.354755961045
 20
44.10940967787246
 42
-0.2069535139110707
 10
3613.354755961045
 20
44.10940967787246
 42
0.0
 10
3613.354755961045
 20
-44.20685207728456
 42
-0.2069535139110707
 10
3629.354755961045
 20
-44.20685207728456
 42
0.0
 97
        0
 92
        7
 72
     1
 73
     1
 93
        4
 10
3629.354755961045
 20
-81.20724796295325
 42
-0.2069535139110707
 10
3613.354755961045
 20
-81.20724796295325
 42
0.0
 10
3613.354755961045
 20
-169.0853395865015
 42
-0.2069535139110707
 10
3629.354755961045
 20
-169.0853395865015
 42
0.0
 97
        0
 92
        7
 72
     1
 73
     1
 93
        4
 10
3753.356903207037
 20
265.0442084251153
 42
0.0
 10
3737.356903207052
 20
265.0442084251226
 42
0.0
 10
3737.356903207052
 20
205.9882930727581
 42
-0.2069535139110707
 10
3753.356903207051
 20
205.9882930727435
 42
0.0
 97
        0
 92
        7
 72
     1
 73
     1
 93
        4
 10
3753.356903207051
 20
168.9878971870894
 42
-0.2069535139112757
 10
3737.356903207037
 20
168.9878971870821
 42
0.0
 10
3737.356903207037
 20
81.10980556354116
 42
-0.2069535139112757
 10
3753.356903207051
 20
81.10980556353387
 42
0.0
 97
        0
 92
        7
 72
     1
 73
     1
 93
        4
 10
3753.356903207037
 20
44.10940967787246
 42
-0.2069535139112757
 10
3737.356903207023
 20
44.10940967787974
 42
0.0
 10
3737.356903207023
 20
-44.20685207729184
 42
-0.2069535139112757
 10
3753.356903207037
 20
-44.20685207728456
 42
0.0
 97
        0
 92
        7
 72
     1
 73
     1
 93
        4
 10
3753.356903207037
 20
-81.20724796295325
 42
-0.2069535139112757
 10
3737.356903207023
 20
-81.20724796294599
 42
0.0
 10
3737.356903207007
 20
-169.085339586516
 42
-0.2069535139114808
 10
3753.356903207037
 20
-169.0853395865015
 42
0.0
 97
        0
 92
        7
 72
     1
 73
     1
 93
        4
 10
3753.356903207037
 20
-206.0857354721702
 42
-0.2069535139114808
 10
3737.356903207007
 20
-206.0857354721556
 42
0.0
 10
3737.356903207023
 20
-265.1416508245201
 42
0.0
 10
3753.356903207051
 20
-265.1416508245201
 42
0.0
 97
        0
 92
        7
 72
     1
 73
     1
 93
        4
 10
3877.797220584631
 20
168.9878971870821
 42
-0.2069535139108656
 10
3861.797220584645
 20
168.9878971870748
 42
0.0
 10
3861.797220584645
 20
81.10980556354844
 42
-0.2069535139108656
 10
3877.797220584631
 20
81.10980556354116
 42
0.0
 97
        0
 92
        7
 72
     1
 73
     1
 93
        4
 10
3877.797220584631
 20
44.10940967787246
 42
-0.2069535139108656
 10
3861.797220584645
 20
44.10940967786518
 42
0.0
 10
3861.797220584645
 20
-44.20685207727728
 42
-0.2069535139108656
 10
3877.797220584631
 20
-44.20685207728456
 42
0.0
 97
        0
 92
        7
 72
     1
 73
     1
 93
        4
 10
3877.797220584631
 20
-81.20724796295325
 42
-0.2069535139108656
 10
3861.797220584645
 20
-81.20724796296054
 42
0.0
 10
3861.797220584645
 20
-169.0853395864942
 42
-0.2069535139108656
 10
3877.797220584631
 20
-169.0853395865015
 42
0.0
 97
        0
 75
     0
 76
     1
 47
1.81916203270642
 98
       11
 10
3622.340294538575
 20
114.8442972263037
 10
3622.340294538575
 20
3.875437358965427
 10
3622.340294538575
 20
-125.2851544263648
 10
3747.993228881838
 20
233.0899530070782
 10
3740.70895807688
 20
116.6634532270436
 10
3738.887972269192
 20
7.513749360503425
 10
3744.35125726652
 20
-112.5508905106216
 10
3749.814542263848
 20
-230.7965462913962
 10
3870.004519184105
 20
129.3977171428159
 10
3871.825504991735
 20
-3.401186644081462
 10
3866.362219994465
 20
-134.3809344301807
  0
HATCH
  5
474
330
470
100
AcDbEntity
  8
0
 62
    50
100
AcDbHatch
 10
0.0
 20
0.0
 30
0.0
210
0.0
220
0.0
230
1.0
  2
SOLID
 70
     1
 71
     0
 91
       64
 92
        7
 72
     1
 73
     1
 93
        5
 10
3355.726603789444
 20
195.4880951299237
 42
0.0
 10
3242.605282179414
 20
195.4880951299164
 42
0.0
 10
3242.605282179414
 20
179.4880951299164
 42
0.0
 10
3355.726603789444
 20
179.4880951299164
 42
-0.1023918962448221
 10
3354.070975678158
 20
187.4880951299164
 42
-0.1023918962449133
 97
        0
 92
        7
 72
     1
 73
     1
 93
        5
 10
3355.726603789444
 20
70.60960762071409
 42
0.0
 10
3242.605282179414
 20
70.60960762070681
 42
0.0
 10
3242.605282179414
 20
54.60960762069953
 42
0.0
 10
3355.726603789444
 20
54.60960762069953
 42
-0.1023918962449133
 10
3354.070975678158
 20
62.60960762070681
 42
-0.1023918962449133
 97
        0
 92
        7
 72
     1
 73
     1
 93
        5
 10
3355.726603789444
 20
-54.70705002011891
 42
0.0
 10
3242.605282179414
 20
-54.70705002011164
 42
0.0
 10
3242.6052821794
 20
-70.70705002012619
 42
0.0
 10
3355.726603789444
 20
-70.70705002012619
 42
-0.1023918962449133
 10
3354.070975678158
 20
-62.70705002011891
 42
-0.1023918962448221
 97
        0
 92
        7
 72
     1
 73
     1
 93
        5
 10
3354.070975678158
 20
-187.5855375293358
 42
-0.1023918962449133
 10
3355.726603789444
 20
-179.5855375293285
 42
0.0
 10
3242.605282179414
 20
-179.5855375293358
 42
0.0
 10
3242.605282179414
 20
-195.5855375293358
 42
0.0
 10
3355.726603789444
 20
-195.5855375293358
 42
-0.1023918962448221
 97
        0
 92
        7
 72
     1
 73
     1
 93
        6
 10
3479.290580903835
 20
195.488095129931
 42
0.0
 10
3392.726999675113
 20
195.4880951299237
 42
-0.1023918962449133
 10
3394.382627786399
 20
187.4880951299164
 42
-0.1023918962449133
 10
3392.726999675113
 20
179.4880951299091
 42
0.0
 10
3479.29058090382
 20
179.4880951299164
 42
-0.1023918962448221
 10
3477.634952792534
 20
187.4880951299164
 42
-0.1023918962450422
 97
        0
 92
        7
 72
     1
 73
     1
 93
        6
 10
3479.29058090382
 20
70.60960762071409
 42
0.0
 10
3392.726999675113
 20
70.60960762071409
 42
-0.1023918962449133
 10
3394.382627786399
 20
62.60960762070681
 42
-0.1023918962449133
 10
3392.726999675113
 20
54.60960762069953
 42
0.0
 10
3479.29058090382
 20
54.60960762070681
 42
-0.1023918962448221
 10
3477.634952792534
 20
62.60960762070681
 42
-0.1023918962449133
 97
        0
 92
        7
 72
     1
 73
     1
 93
        6
 10
3479.29058090382
 20
-54.70705002011891
 42
0.0
 10
3392.726999675113
 20
-54.70705002011891
 42
-0.1023918962448221
 10
3394.382627786399
 20
-62.70705002011891
 42
-0.1023918962449133
 10
3392.726999675113
 20
-70.70705002012619
 42
0.0
 10
3479.29058090382
 20
-70.70705002011891
 42
-0.1023918962448221
 10
3477.634952792534
 20
-62.70705002011891
 42
-0.1023918962448221
 97
        0
 92
        7
 72
     1
 73
     1
 93
        6
 10
3477.634952792534
 20
-187.5855375293358
 42
-0.1023918962449133
 10
3479.29058090382
 20
-179.5855375293285
 42
0.0
 10
3392.726999675113
 20
-179.5855375293285
 42
-0.1023918962449133
 10
3394.382627786399
 20
-187.5855375293358
 42
-0.1023918962448221
 10
3392.726999675113
 20
-195.5855375293358
 42
0.0
 10
3479.29058090382
 20
-195.5855375293431
 42
-0.1023918962449133
 97
        0
 92
        7
 72
     1
 73
     1
 93
        6
 10
3602.854558018225
 20
195.488095129931
 42
0.0
 10
3516.290976789474
 20
195.488095129931
 42
-0.1023918962450422
 10
3517.946604900775
 20
187.4880951299164
 42
-0.1023918962448221
 10
3516.290976789488
 20
179.4880951299164
 42
0.0
 10
3602.854558018211
 20
179.4880951299164
 42
-0.1023918962448221
 10
3601.198929906924
 20
187.4880951299164
 42
-0.1023918962450422
 97
        0
 92
        7
 72
     1
 73
     1
 93
        6
 10
3601.198929906924
 20
62.60960762070681
 42
-0.1023918962449133
 10
3602.854558018211
 20
70.60960762071409
 42
0.0
 10
3516.290976789488
 20
70.60960762070681
 42
-0.1023918962448221
 10
3517.946604900775
 20
62.60960762070681
 42
-0.1023918962449133
 10
3516.290976789488
 20
54.60960762069953
 42
0.0
 10
3602.854558018211
 20
54.60960762070681
 42
-0.1023918962448221
 97
        0
 92
        7
 72
     1
 73
     1
 93
        6
 10
3601.198929906924
 20
-62.70705002011891
 42
-0.1023918962448221
 10
3602.854558018211
 20
-54.70705002011891
 42
0.0
 10
3516.290976789488
 20
-54.70705002011891
 42
-0.1023918962448221
 10
3517.946604900775
 20
-62.70705002011891
 42
-0.1023918962448221
 10
3516.290976789488
 20
-70.70705002011891
 42
0.0
 10
3602.854558018211
 20
-70.70705002011891
 42
-0.1023918962448221
 97
        0
 92
        7
 72
     1
 73
     1
 93
        6
 10
3601.198929906924
 20
-187.5855375293358
 42
-0.1023918962449133
 10
3602.854558018211
 20
-179.5855375293285
 42
0.0
 10
3516.290976789488
 20
-179.5855375293285
 42
-0.1023918962449133
 10
3517.946604900775
 20
-187.5855375293358
 42
-0.1023918962449133
 10
3516.290976789488
 20
-195.5855375293431
 42
0.0
 10
3602.854558018211
 20
-195.5855375293431
 42
-0.1023918962449133
 97
        0
 92
        7
 72
     1
 73
     1
 93
        6
 10
3726.856705264217
 20
195.488095129931
 42
0.0
 10
3639.854953903864
 20
195.488095129931
 42
-0.1023918962450422
 10
3641.510582015166
 20
187.4880951299164
 42
-0.1023918962448221
 10
3639.85495390388
 20
179.4880951299164
 42
0.0
 10
3726.856705264202
 20
179.4880951299237
 42
-0.1023918962447309
 10
3725.201077152916
 20
187.4880951299164
 42
-0.1023918962450422
 97
        0
 92
        7
 72
     1
 73
     1
 93
        6
 10
3725.201077152916
 20
62.60960762070681
 42
-0.1023918962448221
 10
3726.856705264202
 20
70.60960762070681
 42
0.0
 10
3639.85495390388
 20
70.60960762070681
 42
-0.1023918962448221
 10
3641.510582015166
 20
62.60960762070681
 42
-0.1023918962448221
 10
3639.85495390388
 20
54.60960762070681
 42
0.0
 10
3726.856705264202
 20
54.60960762070681
 42
-0.1023918962448221
 97
        0
 92
        7
 72
     1
 73
     1
 93
        6
 10
3725.201077152916
 20
-62.70705002011891
 42
-0.1023918962448221
 10
3726.856705264202
 20
-54.70705002011891
 42
0.0
 10
3639.85495390388
 20
-54.70705002011891
 42
-0.1023918962448221
 10
3641.510582015166
 20
-62.70705002011891
 42
-0.1023918962448221
 10
3639.85495390388
 20
-70.70705002011891
 42
0.0
 10
3726.856705264202
 20
-70.70705002012619
 42
-0.1023918962449133
 97
        0
 92
        7
 72
     1
 73
     1
 93
        6
 10
3725.201077152916
 20
-187.5855375293358
 42
-0.1023918962449133
 10
3726.856705264202
 20
-179.5855375293285
 42
0.0
 10
3639.85495390388
 20
-179.5855375293285
 42
-0.1023918962449133
 10
3641.510582015166
 20
-187.5855375293358
 42
-0.1023918962449133
 10
3639.85495390388
 20
-195.5855375293431
 42
0.0
 10
3726.856705264202
 20
-195.5855375293431
 42
-0.1023918962449133
 97
        0
 92
        7
 72
     1
 73
     1
 93
        6
 10
3851.297022641796
 20
195.4880951299237
 42
0.0
 10
3763.857101149872
 20
195.4880951299237
 42
-0.1023918962449133
 10
3765.512729261158
 20
187.4880951299164
 42
-0.1023918962447309
 10
3763.857101149872
 20
179.4880951299237
 42
0.0
 10
3851.297022641796
 20
179.4880951299237
 42
-0.1023918962447309
 10
3849.64139453051
 20
187.4880951299164
 42
-0.1023918962449133
 97
        0
 92
        7
 72
     1
 73
     1
 93
        6
 10
3849.64139453051
 20
62.60960762070681
 42
-0.1023918962448221
 10
3851.297022641796
 20
70.60960762070681
 42
0.0
 10
3763.857101149872
 20
70.60960762070681
 42
-0.1023918962448221
 10
3765.512729261158
 20
62.60960762070681
 42
-0.1023918962447309
 10
3763.857101149872
 20
54.60960762071408
 42
0.0
 10
3851.297022641796
 20
54.60960762071408
 42
-0.1023918962447309
 97
        0
 92
        7
 72
     1
 73
     1
 93
        6
 10
3851.297022641796
 20
-54.70705002011891
 42
0.0
 10
3763.857101149872
 20
-54.70705002011891
 42
-0.1023918962448221
 10
3765.512729261158
 20
-62.70705002011891
 42
-0.1023918962449133
 10
3763.857101149872
 20
-70.70705002012619
 42
0.0
 10
3851.297022641796
 20
-70.70705002012619
 42
-0.1023918962449133
 10
3849.64139453051
 20
-62.70705002011891
 42
-0.1023918962448221
 97
        0
 92
        7
 72
     1
 73
     1
 93
        6
 10
3849.64139453051
 20
-187.5855375293358
 42
-0.1023918962450422
 10
3851.297022641811
 20
-179.5855375293212
 42
0.0
 10
3763.857101149872
 20
-179.5855375293285
 42
-0.1023918962449133
 10
3765.512729261158
 20
-187.5855375293358
 42
-0.1023918962449133
 10
3763.857101149872
 20
-195.5855375293431
 42
0.0
 10
3851.297022641796
 20
-195.5855375293431
 42
-0.1023918962449133
 97
        0
 92
        7
 72
     1
 73
     1
 93
        6
 10
3975.737340019405
 20
195.4880951299237
 42
0.0
 10
3888.297418527465
 20
195.4880951299237
 42
-0.1023918962449133
 10
3889.953046638751
 20
187.4880951299164
 42
-0.1023918962446397
 10
3888.297418527465
 20
179.488095129931
 42
0.0
 10
3975.737340019405
 20
179.4880951299237
 42
-0.1023918962447309
 10
3974.081711908118
 20
187.4880951299164
 42
-0.1023918962449133
 97
        0
 92
        7
 72
     1
 73
     1
 93
        6
 10
3974.081711908118
 20
62.60960762070681
 42
-0.1023918962448221
 10
3975.737340019405
 20
70.60960762070681
 42
0.0
 10
3888.297418527465
 20
70.60960762071409
 42
-0.1023918962449133
 10
3889.953046638751
 20
62.60960762070681
 42
-0.1023918962446397
 10
3888.297418527465
 20
54.60960762072136
 42
0.0
 10
3975.737340019405
 20
54.60960762072136
 42
-0.1023918962446397
 97
        0
 92
        7
 72
     1
 73
     1
 93
        6
 10
3975.737340019405
 20
-54.70705002011891
 42
0.0
 10
3888.297418527465
 20
-54.70705002011891
 42
-0.1023918962448221
 10
3889.953046638751
 20
-62.70705002011891
 42
-0.1023918962449133
 10
3888.297418527465
 20
-70.70705002012619
 42
0.0
 10
3975.737340019405
 20
-70.70705002012619
 42
-0.1023918962449133
 10
3974.081711908118
 20
-62.70705002011891
 42
-0.1023918962448221
 97
        0
 92
        7
 72
     1
 73
     1
 93
        6
 10
3974.081711908118
 20
-187.5855375293358
 42
-0.1023918962450422
 10
3975.737340019419
 20
-179.5855375293212
 42
0.0
 10
3888.29741852745
 20
-179.5855375293212
 42
-0.1023918962450422
 10
3889.953046638751
 20
-187.5855375293358
 42
-0.1023918962448221
 10
3888.297418527465
 20
-195.5855375293358
 42
0.0
 10
3975.737340019405
 20
-195.5855375293358
 42
-0.1023918962448221
 97
        0
 92
        7
 72
     1
 73
     1
 93
        6
 10
4100.615827528629
 20
195.488095129931
 42
0.0
 10
4012.737735905059
 20
195.4880951299383
 42
-0.1023918962451334
 10
4014.393364016359
 20
187.4880951299164
 42
-0.1023918962446397
 10
4012.737735905073
 20
179.488095129931
 42
0.0
 10
4100.615827528614
 20
179.488095129931
 42
-0.1023918962446397
 10
4098.960199417328
 20
187.4880951299164
 42
-0.1023918962450422
 97
        0
 92
        7
 72
     1
 73
     1
 93
        6
 10
4098.960199417328
 20
62.60960762070681
 42
-0.1023918962448221
 10
4100.615827528614
 20
70.60960762070681
 42
0.0
 10
4012.737735905073
 20
70.60960762070681
 42
-0.1023918962448221
 10
4014.393364016359
 20
62.60960762070681
 42
-0.1023918962448221
 10
4012.737735905073
 20
54.60960762070681
 42
0.0
 10
4100.615827528614
 20
54.60960762072136
 42
-0.1023918962446397
 97
        0
 92
        7
 72
     1
 73
     1
 93
        6
 10
4098.960199417328
 20
-62.70705002011891
 42
-0.1023918962449133
 10
4100.615827528614
 20
-54.70705002011164
 42
0.0
 10
4012.737735905073
 20
-54.70705002011891
 42
-0.1023918962448221
 10
4014.393364016359
 20
-62.70705002011891
 42
-0.1023918962449133
 10
4012.737735905073
 20
-70.70705002012619
 42
0.0
 10
4100.615827528614
 20
-70.70705002012619
 42
-0.1023918962449133
 97
        0
 92
        7
 72
     1
 73
     1
 93
        6
 10
4098.960199417328
 20
-187.5855375293358
 42
-0.1023918962450422
 10
4100.615827528629
 20
-179.5855375293212
 42
0.0
 10
4012.737735905059
 20
-179.5855375293212
 42
-0.1023918962450422
 10
4014.393364016359
 20
-187.5855375293358
 42
-0.1023918962448221
 10
4012.737735905073
 20
-195.5855375293358
 42
0.0
 10
4100.615827528614
 20
-195.5855375293358
 42
-0.1023918962448221
 97
        0
 92
        7
 72
     1
 73
     1
 93
        6
 10
4225.494315037838
 20
195.488095129931
 42
0.0
 10
4137.616223414268
 20
195.488095129931
 42
-0.1023918962450422
 10
4139.271851525569
 20
187.4880951299164
 42
-0.1023918962445485
 10
4137.616223414283
 20
179.4880951299383
 42
0.0
 10
4225.494315037823
 20
179.4880951299383
 42
-0.1023918962445485
 10
4223.838686926537
 20
187.4880951299164
 42
-0.1023918962450422
 97
        0
 92
        7
 72
     1
 73
     1
 93
        6
 10
4223.838686926537
 20
62.60960762070681
 42
-0.1023918962448221
 10
4225.494315037823
 20
70.60960762070681
 42
0.0
 10
4137.616223414283
 20
70.60960762070681
 42
-0.1023918962448221
 10
4139.271851525569
 20
62.60960762070681
 42
-0.1023918962446397
 10
4137.616223414283
 20
54.60960762072136
 42
0.0
 10
4225.494315037823
 20
54.60960762072136
 42
-0.1023918962446397
 97
        0
 92
        7
 72
     1
 73
     1
 93
        6
 10
4223.838686926537
 20
-62.70705002011891
 42
-0.1023918962449133
 10
4225.494315037823
 20
-54.70705002011164
 42
0.0
 10
4137.616223414283
 20
-54.70705002011164
 42
-0.1023918962449133
 10
4139.271851525569
 20
-62.70705002011891
 42
-0.1023918962449133
 10
4137.616223414283
 20
-70.70705002012619
 42
0.0
 10
4225.494315037823
 20
-70.70705002011891
 42
-0.1023918962448221
 97
        0
 92
        7
 72
     1
 73
     1
 93
        6
 10
4223.838686926537
 20
-187.5855375293358
 42
-0.1023918962449133
 10
4225.494315037823
 20
-179.5855375293285
 42
0.0
 10
4137.616223414268
 20
-179.5855375293212
 42
-0.1023918962450422
 10
4139.271851525569
 20
-187.5855375293358
 42
-0.1023918962448221
 10
4137.616223414283
 20
-195.5855375293358
 42
0.0
 10
4225.494315037823
 20
-195.5855375293358
 42
-0.1023918962448221
 97
        0
 92
        7
 72
     1
 73
     1
 93
        6
 10
4350.372802547062
 20
195.488095129931
 42
0.0
 10
4262.494710923478
 20
195.4880951299383
 42
-0.1023918962451334
 10
4264.150339034778
 20
187.4880951299164
 42
-0.1023918962445485
 10
4262.494710923493
 20
179.4880951299383
 42
0.0
 10
4350.372802547048
 20
179.4880951299383
 42
-0.1023918962445485
 10
4348.717174435761
 20
187.4880951299164
 42
-0.1023918962450422
 97
        0
 92
        7
 72
     1
 73
     1
 93
        6
 10
4350.372802547048
 20
70.60960762070681
 42
0.0
 10
4262.494710923493
 20
70.60960762071409
 42
-0.1023918962449133
 10
4264.150339034778
 20
62.60960762070681
 42
-0.1023918962446397
 10
4262.494710923493
 20
54.60960762072136
 42
0.0
 10
4350.372802547048
 20
54.60960762071408
 42
-0.1023918962447309
 10
4348.717174435761
 20
62.60960762070681
 42
-0.1023918962448221
 97
        0
 92
        7
 72
     1
 73
     1
 93
        6
 10
4350.372802547048
 20
-54.70705002011164
 42
0.0
 10
4262.494710923493
 20
-54.70705002011164
 42
-0.1023918962449133
 10
4264.150339034778
 20
-62.70705002011891
 42
-0.1023918962448221
 10
4262.494710923493
 20
-70.70705002011891
 42
0.0
 10
4350.372802547048
 20
-70.70705002011891
 42
-0.1023918962448221
 10
4348.717174435761
 20
-62.70705002011891
 42
-0.1023918962449133
 97
        0
 92
        7
 72
     1
 73
     1
 93
        6
 10
4348.717174435761
 20
-187.5855375293358
 42
-0.1023918962449133
 10
4350.372802547048
 20
-179.5855375293285
 42
0.0
 10
4262.494710923493
 20
-179.5855375293285
 42
-0.1023918962449133
 10
4264.150339034778
 20
-187.5855375293358
 42
-0.1023918962448221
 10
4262.494710923493
 20
-195.5855375293358
 42
0.0
 10
4350.372802547048
 20
-195.5855375293431
 42
-0.1023918962449133
 97
        0
 92
        7
 72
     1
 73
     1
 93
        6
 10
4475.251290056273
 20
195.488095129931
 42
0.0
 10
4387.373198432702
 20
195.488095129931
 42
-0.1023918962450422
 10
4389.028826544003
 20
187.4880951299164
 42
-0.1023918962445485
 10
4387.373198432717
 20
179.4880951299383
 42
0.0
 10
4475.251290056258
 20
179.4880951299383
 42
-0.1023918962445485
 10
4473.595661944972
 20
187.4880951299164
 42
-0.1023918962450422
 97
        0
 92
        7
 72
     1
 73
     1
 93
        6
 10
4475.251290056258
 20
70.60960762070681
 42
0.0
 10
4387.373198432717
 20
70.60960762070681
 42
-0.1023918962448221
 10
4389.028826544003
 20
62.60960762070681
 42
-0.1023918962447309
 10
4387.373198432717
 20
54.60960762071408
 42
0.0
 10
4475.251290056258
 20
54.60960762071408
 42
-0.1023918962447309
 10
4473.595661944972
 20
62.60960762070681
 42
-0.1023918962448221
 97
        0
 92
        7
 72
     1
 73
     1
 93
        6
 10
4475.251290056258
 20
-54.70705002011891
 42
0.0
 10
4387.373198432717
 20
-54.70705002011164
 42
-0.1023918962449133
 10
4389.028826544003
 20
-62.70705002011891
 42
-0.1023918962448221
 10
4387.373198432717
 20
-70.70705002011891
 42
0.0
 10
4475.251290056258
 20
-70.70705002011891
 42
-0.1023918962448221
 10
4473.595661944972
 20
-62.70705002011891
 42
-0.1023918962448221
 97
        0
 92
        7
 72
     1
 73
     1
 93
        6
 10
4473.595661944972
 20
-187.5855375293358
 42
-0.1023918962449133
 10
4475.251290056258
 20
-179.5855375293285
 42
0.0
 10
4387.373198432717
 20
-179.5855375293285
 42
-0.1023918962449133
 10
4389.028826544003
 20
-187.5855375293358
 42
-0.1023918962449133
 10
4387.373198432717
 20
-195.5855375293431
 42
0.0
 10
4475.251290056258
 20
-195.5855375293358
 42
-0.1023918962448221
 97
        0
 92
        7
 72
     1
 73
     1
 93
        6
 10
4600.129777565482
 20
195.488095129931
 42
0.0
 10
4512.251685941912
 20
195.488095129931
 42
-0.1023918962450422
 10
4513.907314053212
 20
187.4880951299164
 42
-0.1023918962445485
 10
4512.251685941926
 20
179.4880951299383
 42
0.0
 10
4600.129777565467
 20
179.4880951299164
 42
-0.1023918962448221
 10
4598.474149454181
 20
187.4880951299164
 42
-0.1023918962450422
 97
        0
 92
        7
 72
     1
 73
     1
 93
        6
 10
4598.474149454181
 20
62.60960762070681
 42
-0.1023918962448221
 10
4600.129777565467
 20
70.60960762070681
 42
0.0
 10
4512.251685941926
 20
70.60960762069953
 42
-0.1023918962447309
 10
4513.907314053212
 20
62.60960762070681
 42
-0.1023918962448221
 10
4512.251685941926
 20
54.60960762070681
 42
0.0
 10
4600.129777565467
 20
54.60960762070681
 42
-0.1023918962448221
 97
        0
 92
        7
 72
     1
 73
     1
 93
        6
 10
4598.474149454181
 20
-62.70705002011891
 42
-0.1023918962448221
 10
4600.129777565467
 20
-54.70705002011891
 42
0.0
 10
4512.251685941926
 20
-54.70705002011891
 42
-0.1023918962448221
 10
4513.907314053212
 20
-62.70705002011891
 42
-0.1023918962448221
 10
4512.251685941926
 20
-70.70705002011891
 42
0.0
 10
4600.129777565467
 20
-70.70705002012619
 42
-0.1023918962449133
 97
        0
 92
        7
 72
     1
 73
     1
 93
        6
 10
4598.474149454181
 20
-187.5855375293358
 42
-0.1023918962449133
 10
4600.129777565467
 20
-179.5855375293285
 42
0.0
 10
4512.251685941926
 20
-179.5855375293285
 42
-0.1023918962449133
 10
4513.907314053212
 20
-187.5855375293358
 42
-0.1023918962448221
 10
4512.251685941926
 20
-195.5855375293358
 42
0.0
 10
4600.129777565467
 20
-195.5855375293358
 42
-0.1023918962448221
 97
        0
 92
        7
 72
     1
 73
     1
 93
        6
 10
4724.570094943075
 20
195.4880951299237
 42
0.0
 10
4637.130173451121
 20
195.488095129931
 42
-0.1023918962450422
 10
4638.785801562423
 20
187.4880951299164
 42
-0.1023918962445485
 10
4637.130173451136
 20
179.4880951299383
 42
0.0
 10
4724.570094943061
 20
179.4880951299528
 42
-0.1023918962443284
 10
4722.914466831789
 20
187.4880951299164
 42
-0.1023918962449133
 97
        0
 92
        7
 72
     1
 73
     1
 93
        6
 10
4722.914466831789
 20
62.60960762070681
 42
-0.1023918962448221
 10
4724.570094943075
 20
70.60960762070681
 42
0.0
 10
4637.130173451136
 20
70.60960762070681
 42
-0.1023918962448221
 10
4638.785801562423
 20
62.60960762070681
 42
-0.1023918962447309
 10
4637.130173451136
 20
54.60960762071408
 42
0.0
 10
4724.570094943075
 20
54.60960762070681
 42
-0.1023918962448221
 97
        0
 92
        7
 72
     1
 73
     1
 93
        6
 10
4722.914466831789
 20
-62.70705002011891
 42
-0.1023918962448221
 10
4724.570094943075
 20
-54.70705002011891
 42
0.0
 10
4637.130173451136
 20
-54.70705002011891
 42
-0.1023918962448221
 10
4638.785801562423
 20
-62.70705002011891
 42
-0.1023918962449133
 10
4637.130173451136
 20
-70.70705002012619
 42
0.0
 10
4724.570094943075
 20
-70.70705002012619
 42
-0.1023918962449133
 97
        0
 92
        7
 72
     1
 73
     1
 93
        6
 10
4724.570094943075
 20
-179.5855375293285
 42
0.0
 10
4637.130173451136
 20
-179.5855375293285
 42
-0.1023918962449133
 10
4638.785801562423
 20
-187.5855375293358
 42
-0.1023918962448221
 10
4637.130173451136
 20
-195.5855375293358
 42
0.0
 10
4724.570094943075
 20
-195.5855375293358
 42
-0.1023918962448221
 10
4722.914466831789
 20
-187.5855375293358
 42
-0.1023918962449133
 97
        0
 92
        7
 72
     1
 73
     1
 93
        6
 10
4848.572242189067
 20
195.4880951299237
 42
0.0
 10
4761.570490828744
 20
195.4880951299237
 42
-0.1023918962449133
 10
4763.22611894003
 20
187.4880951299164
 42
-0.1023918962445485
 10
4761.570490828744
 20
179.4880951299383
 42
0.0
 10
4848.572242189053
 20
179.4880951299455
 42
-0.1023918962444196
 10
4846.916614077781
 20
187.4880951299164
 42
-0.1023918962449133
 97
        0
 92
        7
 72
     1
 73
     1
 93
        6
 10
4848.572242189067
 20
70.60960762070681
 42
0.0
 10
4761.570490828744
 20
70.60960762070681
 42
-0.1023918962448221
 10
4763.22611894003
 20
62.60960762070681
 42
-0.1023918962449133
 10
4761.570490828744
 20
54.60960762069953
 42
0.0
 10
4848.572242189067
 20
54.60960762071408
 42
-0.1023918962447309
 10
4846.916614077781
 20
62.60960762070681
 42
-0.1023918962448221
 97
        0
 92
        7
 72
     1
 73
     1
 93
        6
 10
4846.916614077781
 20
-62.70705002011891
 42
-0.1023918962448221
 10
4848.572242189067
 20
-54.70705002011891
 42
0.0
 10
4761.570490828744
 20
-54.70705002011891
 42
-0.1023918962448221
 10
4763.22611894003
 20
-62.70705002011891
 42
-0.1023918962449133
 10
4761.570490828744
 20
-70.70705002012619
 42
0.0
 10
4848.572242189067
 20
-70.70705002011891
 42
-0.1023918962448221
 97
        0
 92
        7
 72
     1
 73
     1
 93
        6
 10
4848.572242189067
 20
-179.5855375293285
 42
0.0
 10
4761.570490828744
 20
-179.5855375293285
 42
-0.1023918962449133
 10
4763.22611894003
 20
-187.5855375293358
 42
-0.1023918962448221
 10
4761.570490828744
 20
-195.5855375293358
 42
0.0
 10
4848.572242189067
 20
-195.5855375293358
 42
-0.1023918962448221
 10
4846.916614077781
 20
-187.5855375293358
 42
-0.1023918962449133
 97
        0
 92
        7
 72
     1
 73
     1
 93
        6
 10
4970.918761323773
 20
187.4880951299164
 42
-0.1023918962448221
 10
4972.57438943506
 20
195.4880951299164
 42
0.0
 10
4885.572638074736
 20
195.4880951299237
 42
-0.1023918962449133
 10
4887.228266186022
 20
187.4880951299164
 42
-0.1023918962445485
 10
4885.572638074736
 20
179.4880951299383
 42
0.0
 10
4972.57438943506
 20
179.488095129931
 42
-0.1023918962446397
 97
        0
 92
        7
 72
     1
 73
     1
 93
        6
 10
4970.918761323773
 20
62.60960762070681
 42
-0.1023918962448221
 10
4972.57438943506
 20
70.60960762070681
 42
0.0
 10
4885.572638074736
 20
70.60960762070681
 42
-0.1023918962448221
 10
4887.228266186022
 20
62.60960762070681
 42
-0.1023918962447309
 10
4885.572638074736
 20
54.60960762071408
 42
0.0
 10
4972.57438943506
 20
54.60960762071408
 42
-0.1023918962447309
 97
        0
 92
        7
 72
     1
 73
     1
 93
        6
 10
4972.57438943506
 20
-54.70705002011891
 42
0.0
 10
4885.572638074736
 20
-54.70705002011891
 42
-0.1023918962448221
 10
4887.228266186022
 20
-62.70705002011891
 42
-0.1023918962448221
 10
4885.572638074736
 20
-70.70705002011891
 42
0.0
 10
4972.57438943506
 20
-70.70705002011891
 42
-0.1023918962448221
 10
4970.918761323773
 20
-62.70705002011891
 42
-0.1023918962448221
 97
        0
 92
        7
 72
     1
 73
     1
 93
        6
 10
4972.57438943506
 20
-179.5855375293285
 42
0.0
 10
4885.572638074736
 20
-179.5855375293285
 42
-0.1023918962449133
 10
4887.228266186022
 20
-187.5855375293358
 42
-0.1023918962448221
 10
4885.572638074736
 20
-195.5855375293358
 42
0.0
 10
4972.57438943506
 20
-195.5855375293358
 42
-0.1023918962448221
 10
4970.918761323773
 20
-187.5855375293358
 42
-0.1023918962449133
 97
        0
 92
        7
 72
     1
 73
     1
 93
        6
 10
5095.700196417819
 20
195.4880951299164
 42
0.0
 10
5009.574785320729
 20
195.4880951299164
 42
-0.1023918962448221
 10
5011.230413432015
 20
187.4880951299164
 42
-0.1023918962444196
 10
5009.574785320744
 20
179.4880951299455
 42
0.0
 10
5095.700196417819
 20
179.488095129931
 42
-0.1023918962446397
 10
5094.044568306533
 20
187.4880951299164
 42
-0.1023918962448221
 97
        0
 92
        7
 72
     1
 73
     1
 93
        6
 10
5094.044568306533
 20
62.60960762070681
 42
-0.1023918962448221
 10
5095.700196417819
 20
70.60960762070681
 42
0.0
 10
5009.574785320729
 20
70.60960762070681
 42
-0.1023918962448221
 10
5011.230413432015
 20
62.60960762070681
 42
-0.1023918962447309
 10
5009.574785320729
 20
54.60960762071408
 42
0.0
 10
5095.700196417819
 20
54.60960762071408
 42
-0.1023918962447309
 97
        0
 92
        7
 72
     1
 73
     1
 93
        6
 10
5094.044568306533
 20
-62.70705002011891
 42
-0.1023918962448221
 10
5095.700196417819
 20
-54.70705002011891
 42
0.0
 10
5009.574785320729
 20
-54.70705002011891
 42
-0.1023918962448221
 10
5011.230413432015
 20
-62.70705002011891
 42
-0.1023918962448221
 10
5009.574785320729
 20
-70.70705002011891
 42
0.0
 10
5095.700196417819
 20
-70.70705002011891
 42
-0.1023918962448221
 97
        0
 92
        7
 72
     1
 73
     1
 93
        6
 10
5095.700196417819
 20
-179.5855375293358
 42
0.0
 10
5009.574785320729
 20
-179.5855375293285
 42
-0.1023918962449133
 10
5011.230413432015
 20
-187.5855375293358
 42
-0.1023918962448221
 10
5009.574785320729
 20
-195.5855375293358
 42
0.0
 10
5095.700196417819
 20
-195.5855375293358
 42
-0.1023918962448221
 10
5094.044568306533
 20
-187.5855375293358
 42
-0.1023918962448221
 97
        0
 92
        7
 72
     1
 73
     1
 93
        5
 10
5258.819164270942
 20
195.4880951299092
 42
0.0
 10
5132.700592303489
 20
195.4880951299164
 42
-0.1023918962448221
 10
5134.356220414775
 20
187.4880951299164
 42
-0.1023918962446397
 10
5132.700592303489
 20
179.488095129931
 42
0.0
 10
5258.819164270957
 20
179.4880951299237
 42
0.0
 97
        0
 92
        7
 72
     1
 73
     1
 93
        5
 10
5258.819164270942
 20
70.60960762070681
 42
0.0
 10
5132.700592303489
 20
70.60960762070681
 42
-0.1023918962448221
 10
5134.356220414775
 20
62.60960762070681
 42
-0.1023918962448221
 10
5132.700592303489
 20
54.60960762070681
 42
0.0
 10
5258.819164270957
 20
54.60960762072136
 42
0.0
 97
        0
 92
        7
 72
     1
 73
     1
 93
        5
 10
5258.819164270942
 20
-54.70705002011891
 42
0.0
 10
5132.700592303489
 20
-54.70705002011891
 42
-0.1023918962448221
 10
5134.356220414775
 20
-62.70705002011891
 42
-0.1023918962448221
 10
5132.700592303489
 20
-70.70705002011891
 42
0.0
 10
5258.819164270957
 20
-70.70705002012619
 42
0.0
 97
        0
 92
        7
 72
     1
 73
     1
 93
        5
 10
5258.819164270942
 20
-179.5855375293358
 42
0.0
 10
5132.700592303489
 20
-179.5855375293358
 42
-0.1023918962448221
 10
5134.356220414775
 20
-187.5855375293358
 42
-0.1023918962448221
 10
5132.700592303489
 20
-195.5855375293358
 42
0.0
 10
5258.819164270957
 20
-195.5855375293358
 42
0.0
 97
        0
 75
     0
 76
     1
 47
2.391736056231472
 98
       64
 10
3302.042026703988
 20
189.0263914263232
 10
3309.224749460685
 20
64.65608332660122
 10
3294.859303947349
 20
-62.10601436286743
 10
3309.224749460685
 20
-188.8679401419176
 10
3438.513103932244
 20
189.0263914263232
 10
3440.907344851162
 20
62.26429373685459
 10
3436.118863013325
 20
-59.7142247731208
 10
3440.907344851162
 20
-188.8679401419176
 10
3570.196026897043
 20
193.809798695398
 10
3558.224822302567
 20
59.87267605755551
 10
3555.830581383649
 20
-66.88942163191313
 10
3567.801785978125
 20
-193.6515193213817
 10
3675.54197217965
 20
186.6346018366057
 10
3673.147731260731
 20
57.48088646780889
 10
3680.330454017429
 20
-64.49763204219562
 10
3680.330454017429
 20
-193.6515193213817
 10
3797.647931468833
 20
191.4181810160698
 10
3804.83065422553
 20
59.87267605755551
 10
3807.224895144449
 20
-62.10601436286743
 10
3816.801858820006
 20
-188.8679401419176
 10
3926.936285940392
 20
189.0263914263232
 10
3926.936285940392
 20
59.87267605755551
 10
3926.936285940392
 20
-59.7142247731208
 10
3948.484454210425
 20
-188.8679401419176
 10
4065.801931661888
 20
193.809798695398
 10
4051.436486148493
 20
57.48088646780889
 10
4049.042245229633
 20
-69.28121122165975
 10
4046.648004310714
 20
-188.8679401419176
 10
4175.936358782274
 20
191.4181810160698
 10
4180.724840620052
 20
59.87267605755551
 10
4173.542117863354
 20
-64.49763204219562
 10
4185.513322457831
 20
-188.8679401419176
 10
4300.436558990376
 20
186.6346018366057
 10
4307.619281747072
 20
62.26429373685459
 10
4317.19624542263
 20
-62.10601436286743
 10
4314.802004503712
 20
-188.8679401419176
 10
4417.753708867458
 20
186.6346018366057
 10
4434.513395299712
 20
62.26429373685459
 10
4439.301877137491
 20
-62.10601436286743
 10
4439.301877137491
 20
-188.8679401419176
 10
4554.225113670036
 20
186.6346018366057
 10
4551.830872751117
 20
59.87267605755551
 10
4551.830872751117
 20
-66.88942163191313
 10
4561.407836426734
 20
-193.6515193213817
 10
4676.330745384897
 20
191.4181810160698
 10
4676.330745384897
 20
57.48088646780889
 10
4681.119227222676
 20
-64.49763204219562
 10
4688.301949979374
 20
-186.476150552171
 10
4800.830945592999
 20
193.809798695398
 10
4805.619427430778
 20
62.26429373685459
 10
4805.619427430778
 20
-66.88942163191313
 10
4788.859740998523
 20
-186.476150552171
 10
4927.72505914564
 20
184.2429841572775
 10
4930.119300064558
 20
59.87267605755551
 10
4920.542336389001
 20
-62.10601436286743
 10
4937.302022821255
 20
-186.476150552171
 10
5045.042536597102
 20
189.0263914263232
 10
5064.196463948217
 20
59.87267605755551
 10
5057.013741191578
 20
-64.49763204219562
 10
5040.254054759323
 20
-184.0845328728428
 10
5191.090577500916
 20
186.6346018366057
 10
5207.850263933113
 20
62.26429373685459
 10
5191.090577500916
 20
-62.10601436286743
 10
5183.907854744219
 20
-184.0845328728428
  0
HATCH
  5
475
330
470
100
AcDbEntity
  8
0
 62
   250
100
AcDbHatch
 10
0.0
 20
0.0
 30
0.0
210
0.0
220
0.0
230
1.0
  2
SOLID
 70
     1
 71
     1
 91
       56
 92
        1
 93
        1
 72
     2
 10
3374.226801732278
 20
187.4880951299164
 40
20.15582605412055
 50
0.0
 51
360.0
 73
     1
 97
        1
330
50E
 92
        1
 93
        1
 72
     2
 10
3374.226801732278
 20
62.60960762070681
 40
20.15582605412055
 50
0.0
 51
360.0
 73
     1
 97
        1
330
4DD
 92
        1
 93
        1
 72
     2
 10
3374.226801732278
 20
-62.70705002011891
 40
20.15582605412055
 50
0.0
 51
360.0
 73
     1
 97
        1
330
4DA
 92
        1
 93
        1
 72
     2
 10
3374.226801732278
 20
-187.5855375293358
 40
20.15582605412055
 50
0.0
 51
360.0
 73
     1
 97
        1
330
4D3
 92
        1
 93
        1
 72
     2
 10
3497.790778846654
 20
187.4880951299164
 40
20.15582605412055
 50
0.0
 51
360.0
 73
     1
 97
        1
330
514
 92
        1
 93
        1
 72
     2
 10
3497.790778846654
 20
62.60960762070681
 40
20.15582605412055
 50
0.0
 51
360.0
 73
     1
 97
        1
330
4F7
 92
        1
 93
        1
 72
     2
 10
3497.790778846654
 20
-62.70705002011891
 40
20.15582605412055
 50
0.0
 51
360.0
 73
     1
 97
        1
330
4ED
 92
        1
 93
        1
 72
     2
 10
3497.790778846654
 20
-187.5855375293358
 40
20.15582605412055
 50
0.0
 51
360.0
 73
     1
 97
        1
330
4E1
 92
        1
 93
        1
 72
     2
 10
3621.354755961045
 20
187.4880951299164
 40
20.15582605412055
 50
0.0
 51
360.0
 73
     1
 97
        1
330
50F
 92
        1
 93
        1
 72
     2
 10
3621.354755961045
 20
62.60960762070681
 40
20.15582605412055
 50
0.0
 51
360.0
 73
     1
 97
        1
330
4EC
 92
        1
 93
        1
 72
     2
 10
3621.354755961045
 20
-62.70705002011891
 40
20.15582605412055
 50
0.0
 51
360.0
 73
     1
 97
        1
330
4EB
 92
        1
 93
        1
 72
     2
 10
3621.354755961045
 20
-187.5855375293358
 40
20.15582605412055
 50
0.0
 51
360.0
 73
     1
 97
        1
330
4E2
 92
        1
 93
        1
 72
     2
 10
3745.356903207037
 20
187.4880951299164
 40
20.15582605412055
 50
0.0
 51
360.0
 73
     1
 97
        1
330
519
 92
        1
 93
        1
 72
     2
 10
3745.356903207037
 20
62.60960762070681
 40
20.15582605412055
 50
0.0
 51
360.0
 73
     1
 97
        1
330
504
 92
        1
 93
        1
 72
     2
 10
3745.356903207037
 20
-62.70705002011891
 40
20.15582605412055
 50
0.0
 51
360.0
 73
     1
 97
        1
330
4F9
 92
        1
 93
        1
 72
     2
 10
3745.356903207037
 20
-187.5855375293358
 40
20.15582605412055
 50
0.0
 51
360.0
 73
     1
 97
        1
330
4E0
 92
        1
 93
        1
 72
     2
 10
3869.797220584631
 20
187.4880951299164
 40
20.15582605412055
 50
0.0
 51
360.0
 73
     1
 97
        1
330
5C9
 92
        1
 93
        1
 72
     2
 10
3869.797220584631
 20
62.60960762070681
 40
20.15582605412055
 50
0.0
 51
360.0
 73
     1
 97
        1
330
556
 92
        1
 93
        1
 72
     2
 10
3869.797220584631
 20
-62.70705002011891
 40
20.15582605412055
 50
0.0
 51
360.0
 73
     1
 97
        1
330
553
 92
        1
 93
        1
 72
     2
 10
3869.797220584631
 20
-187.5855375293358
 40
20.15582605412055
 50
0.0
 51
360.0
 73
     1
 97
        1
330
548
 92
        1
 93
        1
 72
     2
 10
3994.237537962239
 20
187.4880951299164
 40
20.15582605412055
 50
0.0
 51
360.0
 73
     1
 97
        1
330
5CE
 92
        1
 93
        1
 72
     2
 10
3994.237537962239
 20
62.60960762070681
 40
20.15582605412055
 50
0.0
 51
360.0
 73
     1
 97
        1
330
562
 92
        1
 93
        1
 72
     2
 10
3994.237537962239
 20
-62.70705002011891
 40
20.15582605412055
 50
0.0
 51
360.0
 73
     1
 97
        1
330
559
 92
        1
 93
        1
 72
     2
 10
3994.237537962239
 20
-187.5855375293358
 40
20.15582605412055
 50
0.0
 51
360.0
 73
     1
 97
        1
330
547
 92
        1
 93
        1
 72
     2
 10
4119.116025471448
 20
187.4880951299164
 40
20.15582605412055
 50
0.0
 51
360.0
 73
     1
 97
        1
330
5C6
 92
        1
 93
        1
 72
     2
 10
4119.116025471448
 20
62.60960762070681
 40
20.15582605412055
 50
0.0
 51
360.0
 73
     1
 97
        1
330
546
 92
        1
 93
        1
 72
     2
 10
4119.116025471448
 20
-62.70705002011891
 40
20.15582605412055
 50
0.0
 51
360.0
 73
     1
 97
        1
330
545
 92
        1
 93
        1
 72
     2
 10
4119.116025471448
 20
-187.5855375293358
 40
20.15582605412055
 50
0.0
 51
360.0
 73
     1
 97
        1
330
544
 92
        1
 93
        1
 72
     2
 10
4243.994512980658
 20
187.4880951299164
 40
20.15582605412055
 50
0.0
 51
360.0
 73
     1
 97
        1
330
5D1
 92
        1
 93
        1
 72
     2
 10
4243.994512980658
 20
62.60960762070681
 40
20.15582605412055
 50
0.0
 51
360.0
 73
     1
 97
        1
330
570
 92
        1
 93
        1
 72
     2
 10
4243.994512980658
 20
-62.70705002011891
 40
20.15582605412055
 50
0.0
 51
360.0
 73
     1
 97
        1
330
56F
 92
        1
 93
        1
 72
     2
 10
4243.994512980658
 20
-187.5855375293358
 40
20.15582605412055
 50
0.0
 51
360.0
 73
     1
 97
        1
330
563
 92
        1
 93
        1
 72
     2
 10
4368.873000489883
 20
187.4880951299164
 40
20.15582605412055
 50
0.0
 51
360.0
 73
     1
 97
        1
330
5D6
 92
        1
 93
        1
 72
     2
 10
4368.873000489883
 20
62.60960762070681
 40
20.15582605412055
 50
0.0
 51
360.0
 73
     1
 97
        1
330
582
 92
        1
 93
        1
 72
     2
 10
4368.873000489883
 20
-62.70705002011891
 40
20.15582605412055
 50
0.0
 51
360.0
 73
     1
 97
        1
330
57D
 92
        1
 93
        1
 72
     2
 10
4368.873000489883
 20
-187.5855375293358
 40
20.15582605412055
 50
0.0
 51
360.0
 73
     1
 97
        1
330
564
 92
        1
 93
        1
 72
     2
 10
4493.751487999092
 20
187.4880951299164
 40
20.15582605412055
 50
0.0
 51
360.0
 73
     1
 97
        1
330
5DC
 92
        1
 93
        1
 72
     2
 10
4493.751487999092
 20
62.60960762070681
 40
20.15582605412055
 50
0.0
 51
360.0
 73
     1
 97
        1
330
596
 92
        1
 93
        1
 72
     2
 10
4493.751487999092
 20
-62.70705002011891
 40
20.15582605412055
 50
0.0
 51
360.0
 73
     1
 97
        1
330
593
 92
        1
 93
        1
 72
     2
 10
4493.751487999092
 20
-187.5855375293358
 40
20.15582605412055
 50
0.0
 51
360.0
 73
     1
 97
        1
330
586
 92
        1
 93
        1
 72
     2
 10
4618.629975508302
 20
187.4880951299164
 40
20.15582605412055
 50
0.0
 51
360.0
 73
     1
 97
        1
330
5E0
 92
        1
 93
        1
 72
     2
 10
4618.629975508302
 20
62.60960762070681
 40
20.15582605412055
 50
0.0
 51
360.0
 73
     1
 97
        1
330
5A3
 92
        1
 93
        1
 72
     2
 10
4618.629975508302
 20
-62.70705002011891
 40
20.15582605412055
 50
0.0
 51
360.0
 73
     1
 97
        1
330
599
 92
        1
 93
        1
 72
     2
 10
4618.629975508302
 20
-187.5855375293358
 40
20.15582605412055
 50
0.0
 51
360.0
 73
     1
 97
        1
330
587
 92
        1
 93
        1
 72
     2
 10
4743.070292885909
 20
187.4880951299164
 40
20.15582605412055
 50
0.0
 51
360.0
 73
     1
 97
        1
330
5D7
 92
        1
 93
        1
 72
     2
 10
4743.070292885909
 20
62.60960762070681
 40
20.15582605412055
 50
0.0
 51
360.0
 73
     1
 97
        1
330
585
 92
        1
 93
        1
 72
     2
 10
4743.070292885909
 20
-62.70705002011891
 40
20.15582605412055
 50
0.0
 51
360.0
 73
     1
 97
        1
330
584
 92
        1
 93
        1
 72
     2
 10
4743.070292885909
 20
-187.5855375293358
 40
20.15582605412055
 50
0.0
 51
360.0
 73
     1
 97
        1
330
583
 92
        1
 93
        1
 72
     2
 10
4867.072440131902
 20
187.4880951299164
 40
20.15582605412055
 50
0.0
 51
360.0
 73
     1
 97
        1
330
5E6
 92
        1
 93
        1
 72
     2
 10
4867.072440131902
 20
62.60960762070681
 40
20.15582605412055
 50
0.0
 51
360.0
 73
     1
 97
        1
330
5BD
 92
        1
 93
        1
 72
     2
 10
4867.072440131902
 20
-62.70705002011891
 40
20.15582605412055
 50
0.0
 51
360.0
 73
     1
 97
        1
330
5B2
 92
        1
 93
        1
 72
     2
 10
4867.072440131902
 20
-187.5855375293358
 40
20.15582605412055
 50
0.0
 51
360.0
 73
     1
 97
        1
330
5A5
 92
        1
 93
        1
 72
     2
 10
4991.074587377894
 20
187.4880951299164
 40
20.15582605412055
 50
0.0
 51
360.0
 73
     1
 97
        1
330
5E9
 92
        1
 93
        1
 72
     2
 10
4991.074587377894
 20
62.60960762070681
 40
20.15582605412055
 50
0.0
 51
360.0
 73
     1
 97
        1
330
5C1
 92
        1
 93
        1
 72
     2
 10
4991.074587377894
 20
-62.70705002011891
 40
20.15582605412055
 50
0.0
 51
360.0
 73
     1
 97
        1
330
5BE
 92
        1
 93
        1
 72
     2
 10
4991.074587377894
 20
-187.5855375293358
 40
20.15582605412055
 50
0.0
 51
360.0
 73
     1
 97
        1
330
5A6
 75
     0
 76
     1
 98
        0
  0
LINE
  5
476
330
470
100
AcDbEntity
  8
0
100
AcDbLine
 10
3851.297022641796
 20
-195.5855375293431
 30
0.0
 11
3763.857101149872
 21
-195.5855375293431
 31
0.0
  0
LINE
  5
477
330
470
100
AcDbEntity
  8
0
100
AcDbLine
 10
3851.297022641811
 20
-179.5855375293212
 30
0.0
 11
3763.857101149872
 21
-179.5855375293285
 31
0.0
  0
LINE
  5
478
330
470
100
AcDbEntity
  8
0
100
AcDbLine
 10
3763.857101149872
 20
-70.70705002012619
 30
0.0
 11
3851.297022641796
 21
-70.70705002012619
 31
0.0
  0
LINE
  5
479
330
470
100
AcDbEntity
  8
0
100
AcDbLine
 10
3763.857101149872
 20
-54.70705002011891
 30
0.0
 11
3851.297022641796
 21
-54.70705002011891
 31
0.0
  0
LINE
  5
47A
330
470
100
AcDbEntity
  8
0
100
AcDbLine
 10
3851.297022641796
 20
54.60960762071408
 30
0.0
 11
3763.857101149872
 21
54.60960762071408
 31
0.0
  0
LINE
  5
47B
330
470
100
AcDbEntity
  8
0
100
AcDbLine
 10
3851.297022641796
 20
70.60960762070681
 30
0.0
 11
3763.857101149872
 21
70.60960762070681
 31
0.0
  0
LINE
  5
47C
330
470
100
AcDbEntity
  8
0
100
AcDbLine
 10
3763.857101149872
 20
179.4880951299237
 30
0.0
 11
3851.297022641796
 21
179.4880951299237
 31
0.0
  0
LINE
  5
47D
330
470
100
AcDbEntity
  8
0
100
AcDbLine
 10
3763.857101149872
 20
195.4880951299237
 30
0.0
 11
3851.297022641796
 21
195.4880951299237
 31
0.0
  0
LINE
  5
47E
102
{ACAD_REACTORS
330
482
102
}
330
470
100
AcDbEntity
  8
0
100
AcDbLine
 10
5233.819164270943
 20
-365.0444408318981
 30
0.0
 11
3247.595633696619
 21
-363.7299304370644
 31
0.0
  0
LINE
  5
47F
102
{ACAD_REACTORS
330
482
102
}
330
470
100
AcDbEntity
  8
0
100
AcDbLine
 10
3247.595633696619
 20
-265.1416508245274
 30
0.0
 11
5235.047993598579
 21
-265.1416508245274
 31
0.0
  0
LINE
  5
480
102
{ACAD_REACTORS
330
482
102
}
330
470
100
AcDbEntity
  8
0
100
AcDbLine
 10
5235.767248125775
 20
265.0442084251153
 30
0.0
 11
3247.595633696619
 21
265.0442084251153
 31
0.0
  0
LINE
  5
481
102
{ACAD_REACTORS
330
482
102
}
330
470
100
AcDbEntity
  8
0
100
AcDbLine
 10
3247.595633696619
 20
364.946998432486
 30
0.0
 11
5240.831562396313
 21
364.946998432486
 31
0.0
  0
HATCH
  5
482
330
470
100
AcDbEntity
  8
0
 62
   250
100
AcDbHatch
 10
0.0
 20
0.0
 30
0.0
210
0.0
220
0.0
230
1.0
  2
SOLID
 70
     1
 71
     1
 91
        8
 92
        7
 72
     0
 73
     1
 93
        4
 10
2617.945154571222
 20
263.0881772907778
 10
2517.945154571221
 20
263.0881772907778
 10
2517.945154571222
 20
-263.1856196901753
 10
2617.945154571222
 20
-263.1856196901753
 97
        4
330
508
330
4C4
330
4CA
330
4C2
 92
        7
 72
     0
 73
     1
 93
        8
 10
2827.828647613016
 20
308.4230514546325
 10
2624.632237385478
 20
308.4230514546325
 10
2624.632237385478
 20
263.0881772907778
 10
2617.945154571222
 20
263.0881772907778
 10
2617.945154571222
 20
-263.1856196901753
 10
2624.632237385478
 20
-263.1856196901753
 10
2624.632237385478
 20
-308.5204938540446
 10
2827.828647613016
 20
-308.5204938540446
 97
        6
330
507
330
508
330
4C2
330
4CA
330
4C8
330
4B6
 92
        7
 72
     1
 73
     1
 93
        8
 10
2927.731437620387
 20
-308.5204938540446
 42
0.0
 10
3137.605282179414
 20
-308.5204938540446
 42
0.0
 10
3137.605282179414
 20
-260.312130894028
 42
0.0
 10
3142.605282179415
 20
-260.312130894028
 42
0.0
 10
3142.605282179415
 20
260.2146884946014
 42
-0.4142135623730951
 10
3137.605282179414
 20
265.2146884946014
 42
0.0
 10
3137.605282179415
 20
308.4230514546325
 42
0.0
 10
2927.731437620387
 20
308.4230514546325
 42
0.0
 97
        6
330
505
330
507
330
4B7
330
4C8
330
4C7
330
4C1
 92
        7
 72
     0
 73
     1
 93
        4
 10
3142.605282179415
 20
-260.312130894028
 10
3242.605282179414
 20
-260.312130894028
 10
3242.605282179414
 20
260.2146884946014
 10
3142.605282179415
 20
260.2146884946014
 97
        4
330
505
330
4C1
330
4C7
330
4C0
 92
        7
 72
     0
 73
     1
 93
        4
 10
2927.731437620387
 20
308.4230514546325
 10
2827.828647613016
 20
308.4230514546324
 10
2827.828647613016
 20
-308.5204938540446
 10
2927.731437620387
 20
-308.5204938540446
 97
        4
330
507
330
4B6
330
4C8
330
4B7
 92
        7
 72
     0
 73
     1
 93
        4
 10
2927.731437620387
 20
925.3665967633097
 10
2827.828647613016
 20
925.3665967633095
 10
2827.828647613016
 20
335.1514294829139
 10
2927.731437620387
 20
335.1514294829139
 97
        2
330
506
330
507
 92
        7
 72
     0
 73
     1
 93
        6
 10
5235.767248125777
 20
265.0442084251153
 10
5235.767248125775
 20
267.6449675877774
 10
5240.916099363269
 20
267.6449675877774
 10
5240.916099363268
 20
364.946998432486
 10
3247.605282179415
 20
364.946998432486
 10
3247.605282179415
 20
265.0442084251153
 97
        5
330
481
330
505
330
480
330
623
330
51A
 92
        7
 72
     0
 73
     1
 93
        4
 10
5233.819164270943
 20
-365.0444408318981
 10
5233.819164270943
 20
-265.1416508245274
 10
3247.605282179415
 20
-265.1416508245274
 10
3247.605282179414
 20
-363.7299368225647
 97
        4
330
600
330
47F
330
4C7
330
47E
 75
     0
 76
     1
 47
4.805788421576212
 98
        8
 10
2595.541462851732
 20
4.462339512323524
 10
2749.486993742335
 20
-5.14917173345384
 10
3028.513514162376
 20
-9.954927356313419
 10
3172.837531265904
 20
-5.14917173345384
 10
2884.189497058789
 20
9.268267045601533
 10
2884.189497058789
 20
456.2066343607912
 10
3427.809939643819
 20
302.4212510557735
 10
3519.215303344113
 20
-317.5255220559593
  0
LINE
  5
483
330
470
100
AcDbEntity
  8
0
100
AcDbLine
 10
2514.692933630096
 20
345.0351508029307
 30
0.0
 11
2348.829665632874
 21
345.0351508029307
 31
0.0
  0
LWPOLYLINE
  5
484
330
470
100
AcDbEntity
  8
0
100
AcDbPolyline
 90
        4
 70
     1
 43
0.0
 10
2517.945154571222
 20
-9.921534770965081
 10
2497.967225932894
 20
-9.921534770965081
 10
2497.967225932894
 20
10.0563938673622
 10
2517.945154571222
 20
10.0563938673622
  0
LINE
  5
485
330
470
100
AcDbEntity
  8
0
100
AcDbLine
 10
2514.632237385478
 20
325.057222164618
 30
0.0
 11
1500.0
 21
325.057222164618
 31
0.0
  0
LINE
  5
486
330
470
100
AcDbEntity
  8
0
100
AcDbLine
 10
1500.0
 20
305.0792935262907
 30
0.0
 11
2514.632237385478
 21
305.0792935262907
 31
0.0
  0
LINE
  5
487
330
470
100
AcDbEntity
  8
0
100
AcDbLine
 10
1500.0
 20
285.1013648879634
 30
0.0
 11
2514.632237385478
 21
285.1013648879634
 31
0.0
  0
LINE
  5
488
330
470
100
AcDbEntity
  8
0
100
AcDbLine
 10
2514.692933630096
 20
-345.3648946981229
 30
0.0
 11
2348.829665632874
 21
-345.3648946981229
 31
0.0
  0
LINE
  5
489
330
470
100
AcDbEntity
  8
0
100
AcDbLine
 10
2348.829665632874
 20
-325.3869660598102
 30
0.0
 11
2514.632237385478
 21
-325.3869660598102
 31
0.0
  0
LINE
  5
48A
330
470
100
AcDbEntity
  8
0
100
AcDbLine
 10
2514.632237385478
 20
-325.3869660598102
 30
0.0
 11
1500.0
 21
-325.3869660598102
 31
0.0
  0
LINE
  5
48B
330
470
100
AcDbEntity
  8
0
100
AcDbLine
 10
1500.0
 20
-305.4090374214829
 30
0.0
 11
2514.632237385478
 21
-305.4090374214829
 31
0.0
  0
LINE
  5
48C
330
470
100
AcDbEntity
  8
0
100
AcDbLine
 10
1500.0
 20
-284.9665057915808
 30
0.0
 11
2514.632237385478
 21
-284.9665057915808
 31
0.0
  0
HATCH
  5
48D
330
470
100
AcDbEntity
  8
0
 62
    70
100
AcDbHatch
 10
0.0
 20
0.0
 30
0.0
210
0.0
220
0.0
230
1.0
  2
SOLID
 70
     1
 71
     0
 91
        4
 92
        7
 72
     0
 73
     1
 93
        4
 10
2514.632237385478
 20
345.0351508029307
 10
2348.829665632874
 20
345.0351508029307
 10
2348.829665632874
 20
325.057222164618
 10
2514.632237385478
 20
325.057222164618
 97
        0
 92
        7
 72
     0
 73
     1
 93
        4
 10
2514.632237385478
 20
305.0792935262907
 10
1500.0
 20
305.0792935262907
 10
1500.0
 20
285.1013648879634
 10
2514.632237385478
 20
285.1013648879634
 97
        0
 92
        7
 72
     0
 73
     1
 93
        4
 10
2514.632237385478
 20
-284.9665057915663
 10
1500.0
 20
-284.9665057915808
 10
1500.0
 20
-305.4090374214829
 10
2514.632237385478
 20
-305.4090374214829
 97
        0
 92
        7
 72
     0
 73
     1
 93
        4
 10
2514.632237385478
 20
-325.3869660598102
 10
2348.829665632874
 20
-325.3869660598102
 10
2348.829665632874
 20
-345.3648946981229
 10
2514.632237385478
 20
-345.3648946981229
 97
        0
 75
     0
 76
     1
 47
5.023106726455871
 98
        4
 10
2404.463429168856
 20
336.2170775841113
 10
2330.851890668709
 20
293.2102439242189
 10
2381.135469208325
 20
-294.4932467150611
 10
2396.220458337309
 20
-334.6780733186715
  0
HATCH
  5
48E
330
470
100
AcDbEntity
  8
0
 62
    30
100
AcDbHatch
 10
0.0
 20
0.0
 30
0.0
210
0.0
220
0.0
230
1.0
  2
SOLID
 70
     1
 71
     0
 91
        2
 92
        7
 72
     0
 73
     1
 93
        4
 10
2514.632237385478
 20
325.057222164618
 10
1500.0
 20
325.057222164618
 10
1500.0
 20
305.0792935262907
 10
2514.632237385478
 20
305.0792935262907
 97
        0
 92
        7
 72
     0
 73
     1
 93
        4
 10
2514.632237385478
 20
-305.4090374214829
 10
1500.0
 20
-305.4090374214829
 10
1500.0
 20
-325.3869660598102
 10
2514.632237385478
 20
-325.3869660598102
 97
        0
 75
     0
 76
     1
 47
5.023106726455871
 98
        2
 10
2180.001577214337
 20
313.3027126137931
 10
2164.916588085325
 20
-314.5857154046352
  0
HATCH
  5
48F
330
470
100
AcDbEntity
  8
0
 62
   250
100
AcDbHatch
 10
0.0
 20
0.0
 30
0.0
210
0.0
220
0.0
230
1.0
  2
SOLID
 70
     1
 71
     0
 91
       26
 92
        7
 72
     0
 73
     1
 93
        4
 10
1567.110279347675
 20
285.1013648879561
 10
1558.224657485479
 20
285.1013648879561
 10
1558.224657485436
 20
7.835128052389336
 10
1567.11027934766
 20
7.835128052389336
 97
        0
 92
        7
 72
     0
 73
     1
 93
        4
 10
1567.110279347675
 20
-8.164871947603387
 10
1558.224657485436
 20
-8.164871947603387
 10
1558.224657485451
 20
-284.9665057915881
 10
1567.110279347675
 20
-284.9665057915881
 97
        0
 92
        7
 72
     0
 73
     1
 93
        4
 10
1591.020443460234
 20
285.1013648879561
 10
1567.110279347675
 20
285.1013648879561
 10
1567.110279347675
 20
7.835128052389336
 10
1591.020443460263
 20
7.835128052396612
 97
        0
 92
        7
 72
     0
 73
     1
 93
        4
 10
1591.020443460249
 20
-8.164871947596111
 10
1567.110279347675
 20
-8.164871947603387
 10
1567.110279347675
 20
-284.9665057915881
 10
1591.020443460249
 20
-284.9665057915808
 97
        0
 92
        7
 72
     0
 73
     1
 93
        4
 10
1629.578072251912
 20
285.1013648879561
 10
1591.020443460263
 20
285.1013648879561
 10
1591.020443460249
 20
7.835128052389336
 10
1629.578072251912
 20
7.835128052396612
 97
        0
 92
        7
 72
     0
 73
     1
 93
        4
 10
1682.175088883392
 20
285.1013648879561
 10
1629.578072251912
 20
285.1013648879561
 10
1629.578072251897
 20
7.835128052389336
 10
1682.175088883392
 20
7.835128052389336
 97
        0
 92
        7
 72
     0
 73
     1
 93
        4
 10
1747.982006982478
 20
285.1013648879634
 10
1682.175088883392
 20
285.1013648879561
 10
1682.175088883377
 20
7.835128052389336
 10
1747.982006982478
 20
7.835128052389336
 97
        0
 92
        7
 72
     0
 73
     1
 93
        4
 10
1825.961012139567
 20
285.1013648879561
 10
1747.982006982478
 20
285.1013648879634
 10
1747.982006982463
 20
7.835128052396612
 10
1825.961012139581
 20
7.835128052396612
 97
        0
 92
        7
 72
     0
 73
     1
 93
        4
 10
1914.882328861014
 20
285.1013648879634
 10
1825.961012139581
 20
285.1013648879634
 10
1825.961012139581
 20
7.835128052396612
 10
1914.882328861014
 20
7.835128052396612
 97
        0
 92
        7
 72
     0
 73
     1
 93
        4
 10
2013.343614863042
 20
285.1013648879634
 10
1914.882328861014
 20
285.1013648879634
 10
1914.882328861014
 20
7.835128052396612
 10
2013.343614863042
 20
7.835128052396612
 97
        0
 92
        7
 72
     0
 73
     1
 93
        4
 10
2119.792076847472
 20
285.1013648879561
 10
2013.343614863042
 20
285.1013648879561
 10
2013.343614863028
 20
7.835128052389336
 10
2119.792076847472
 20
7.83512805238206
 97
        0
 92
        7
 72
     0
 73
     1
 93
        4
 10
2232.54895897959
 20
285.1013648879561
 10
2119.792076847472
 20
285.1013648879561
 10
2119.792076847472
 20
7.835128052389336
 10
2232.548958979576
 20
7.835128052389336
 97
        0
 92
        7
 72
     0
 73
     1
 93
        4
 10
2349.836017870504
 20
285.1013648879634
 10
2232.548958979576
 20
285.1013648879561
 10
2232.548958979576
 20
7.835128052389336
 10
2349.836017870504
 20
7.835128052389336
 97
        0
 92
        7
 72
     0
 73
     1
 93
        4
 10
2469.803566537579
 20
285.1013648879561
 10
2349.836017870504
 20
285.1013648879488
 10
2349.836017870504
 20
7.835128052403888
 10
2469.803566537579
 20
7.835128052403888
 97
        0
 92
        7
 72
     1
 73
     1
 93
        8
 10
2517.945154571222
 20
263.3814000942402
 42
-0.3166446299930454
 10
2514.632237385478
 20
268.0881772907778
 42
0.0
 10
2514.632237385478
 20
285.1013648879561
 42
0.0
 10
2469.803566537579
 20
285.1013648879488
 42
0.0
 10
2469.803566537593
 20
7.835128052403888
 42
0.0
 10
2497.967225932894
 20
7.835128052403888
 42
0.0
 10
2497.967225932894
 20
10.0563938673622
 42
0.0
 10
2517.945154571207
 20
10.0563938673622
 42
0.0
 97
        0
 92
        7
 72
     1
 73
     1
 93
        8
 10
2517.945154571222
 20
-9.921534770965081
 42
0.0
 10
2497.967225932894
 20
-9.921534770965081
 42
0.0
 10
2497.967225932894
 20
-8.164871947603387
 42
0.0
 10
2469.803566537579
 20
-8.164871947603387
 42
0.0
 10
2469.803566537564
 20
-284.9665057915881
 42
0.0
 10
2514.632237385493
 20
-284.9665057915808
 42
0.0
 10
2514.632237385478
 20
-268.1856196901826
 42
-0.3166446299934457
 10
2517.945154571222
 20
-263.4788424936377
 42
0.0
 97
        0
 92
        7
 72
     0
 73
     1
 93
        4
 10
2469.803566537579
 20
-8.164871947603387
 10
2349.836017870504
 20
-8.164871947596111
 10
2349.836017870518
 20
-284.9665057915808
 10
2469.803566537579
 20
-284.9665057915808
 97
        0
 92
        7
 72
     0
 73
     1
 93
        4
 10
2349.836017870489
 20
-8.164871947603387
 10
2232.548958979605
 20
-8.164871947603387
 10
2232.54895897959
 20
-284.9665057915881
 10
2349.836017870518
 20
-284.9665057915881
 97
        0
 92
        7
 72
     0
 73
     1
 93
        4
 10
2232.54895897959
 20
-8.164871947603387
 10
2119.792076847472
 20
-8.164871947603387
 10
2119.792076847458
 20
-284.9665057915881
 10
2232.54895897959
 20
-284.9665057915881
 97
        0
 92
        7
 72
     0
 73
     1
 93
        4
 10
2119.792076847472
 20
-8.164871947603387
 10
2013.343614863057
 20
-8.164871947603387
 10
2013.343614863042
 20
-284.9665057915881
 10
2119.792076847472
 20
-284.9665057915954
 97
        0
 92
        7
 72
     0
 73
     1
 93
        4
 10
2013.343614863042
 20
-8.164871947603387
 10
1914.882328861029
 20
-8.164871947603387
 10
1914.882328861014
 20
-284.9665057915881
 10
2013.343614863042
 20
-284.9665057915808
 97
        0
 92
        7
 72
     0
 73
     1
 93
        4
 10
1914.882328861014
 20
-8.164871947603387
 10
1825.961012139596
 20
-8.164871947596111
 10
1825.961012139596
 20
-284.9665057915808
 10
1914.882328861014
 20
-284.9665057915808
 97
        0
 92
        7
 72
     0
 73
     1
 93
        4
 10
1825.961012139581
 20
-8.164871947603387
 10
1747.982006982478
 20
-8.164871947603387
 10
1747.982006982478
 20
-284.9665057915881
 10
1825.961012139581
 20
-284.9665057915881
 97
        0
 92
        7
 72
     0
 73
     1
 93
        4
 10
1747.982006982478
 20
-8.164871947603387
 10
1682.175088883392
 20
-8.164871947610663
 10
1682.175088883392
 20
-284.9665057915808
 10
1747.982006982478
 20
-284.9665057915808
 97
        0
 92
        7
 72
     0
 73
     1
 93
        4
 10
1682.175088883392
 20
-8.164871947603387
 10
1629.578072251912
 20
-8.164871947603387
 10
1629.578072251897
 20
-284.9665057915881
 10
1682.175088883392
 20
-284.9665057915808
 97
        0
 92
        7
 72
     0
 73
     1
 93
        4
 10
1629.578072251912
 20
-8.164871947603387
 10
1591.020443460249
 20
-8.164871947603387
 10
1591.020443460234
 20
-284.9665057915881
 10
1629.578072251912
 20
-284.9665057915881
 97
        0
 75
     0
 76
     1
 47
1.653763479646601
 98
       26
 10
1560.478257906899
 20
30.84422737329805
 10
1560.478257906899
 20
-38.61376865052079
 10
1581.999565080259
 20
25.88306473616467
 10
1581.999565080259
 20
-50.19021592808349
 10
1620.075824717627
 20
40.76689646837258
 10
1661.46287830318
 20
44.07445283337802
 10
1721.060445113907
 20
47.38200919841256
 10
1785.624694208483
 20
55.65072820055139
 10
1875.021044424603
 20
63.91961911310864
 10
1980.972347104674
 20
75.4958944802529
 10
2062.09122108882
 20
87.07234175784469
 10
2182.941915471615
 20
88.72594802994354
 10
2302.137049093129
 20
92.03350439494897
 10
2381.600689890372
 20
95.34106075998352
 10
2480.93007709975
 20
95.34106075998352
 10
2505.762505795675
 20
-78.30410120995293
 10
2436.231901991632
 20
-86.57299212251018
 10
2315.381207608894
 20
-94.84171112464901
 10
2182.941915471615
 20
-98.14926748965445
 10
2075.335052030263
 20
-103.1106020372062
 10
1964.417394640724
 20
-103.1106020372062
 10
1870.054689715136
 20
-104.7643802196944
 10
1797.212964388643
 20
-108.0719365847289
 10
1724.371566636473
 20
-109.7257147672462
 10
1648.219047361737
 20
-109.7257147672462
 10
1608.487226963145
 20
-108.0719365847289
  0
LINE
  5
490
330
470
100
AcDbEntity
  8
0
100
AcDbLine
 10
2349.836017870504
 20
7.835128052396612
 30
0.0
 11
2349.836017870504
 21
285.1013648879634
 31
0.0
  0
LINE
  5
491
330
470
100
AcDbEntity
  8
0
100
AcDbLine
 10
2469.803566537579
 20
7.835128052396612
 30
0.0
 11
2469.803566537579
 21
285.1013648879634
 31
0.0
  0
LINE
  5
492
330
470
100
AcDbEntity
  8
0
100
AcDbLine
 10
1558.224657485451
 20
7.835128052396612
 30
0.0
 11
1558.224657485465
 21
285.1013648879634
 31
0.0
  0
LINE
  5
493
330
470
100
AcDbEntity
  8
0
100
AcDbLine
 10
1567.110279347675
 20
7.835128052396612
 30
0.0
 11
1567.110279347675
 21
285.1013648879634
 31
0.0
  0
LINE
  5
494
330
470
100
AcDbEntity
  8
0
100
AcDbLine
 10
1591.020443460249
 20
7.835128052396612
 30
0.0
 11
1591.020443460249
 21
285.1013648879634
 31
0.0
  0
LINE
  5
495
330
470
100
AcDbEntity
  8
0
100
AcDbLine
 10
1629.578072251912
 20
7.835128052396612
 30
0.0
 11
1629.578072251912
 21
285.1013648879634
 31
0.0
  0
LINE
  5
496
330
470
100
AcDbEntity
  8
0
100
AcDbLine
 10
1682.175088883392
 20
7.835128052396612
 30
0.0
 11
1682.175088883392
 21
285.1013648879634
 31
0.0
  0
LINE
  5
497
330
470
100
AcDbEntity
  8
0
100
AcDbLine
 10
1747.982006982478
 20
7.835128052396612
 30
0.0
 11
1747.982006982478
 21
285.1013648879634
 31
0.0
  0
LINE
  5
498
330
470
100
AcDbEntity
  8
0
100
AcDbLine
 10
1825.961012139581
 20
7.835128052396612
 30
0.0
 11
1825.961012139581
 21
285.1013648879634
 31
0.0
  0
LINE
  5
499
330
470
100
AcDbEntity
  8
0
100
AcDbLine
 10
2013.343614863042
 20
7.835128052396612
 30
0.0
 11
2013.343614863042
 21
285.1013648879634
 31
0.0
  0
LINE
  5
49A
330
470
100
AcDbEntity
  8
0
100
AcDbLine
 10
1914.882328861014
 20
7.835128052396612
 30
0.0
 11
1914.882328861014
 21
285.1013648879634
 31
0.0
  0
LINE
  5
49B
330
470
100
AcDbEntity
  8
0
100
AcDbLine
 10
2119.792076847472
 20
7.835128052396612
 30
0.0
 11
2119.792076847472
 21
285.1013648879634
 31
0.0
  0
LINE
  5
49C
330
470
100
AcDbEntity
  8
0
100
AcDbLine
 10
2232.54895897959
 20
7.835128052396612
 30
0.0
 11
2232.54895897959
 21
285.1013648879634
 31
0.0
  0
HATCH
  5
49D
330
470
100
AcDbEntity
  8
0
 62
    10
100
AcDbHatch
 10
0.0
 20
0.0
 30
0.0
210
0.0
220
0.0
230
1.0
  2
SOLID
 70
     1
 71
     0
 91
        1
 92
        7
 72
     1
 73
     1
 93
        4
 10
2497.967225932894
 20
7.835128052396612
 42
0.0
 10
1472.123820504668
 20
7.835128052396612
 42
1.0
 10
1472.123820504668
 20
-8.164871947603387
 42
0.0
 10
2497.967225932894
 20
-8.164871947603387
 42
0.0
 97
        0
 75
     0
 76
     1
 47
2.692802199520468
 98
        1
 10
2079.997165269392
 20
6.470288713029731
  0
LINE
  5
49E
330
470
100
AcDbEntity
  8
0
100
AcDbLine
 10
2497.967225932894
 20
7.835128052396612
 30
0.0
 11
1472.123820504668
 21
7.835128052396612
 31
0.0
  0
LINE
  5
49F
330
470
100
AcDbEntity
  8
0
100
AcDbLine
 10
2497.967225932894
 20
-8.164871947603387
 30
0.0
 11
1472.123820504668
 21
-8.164871947603387
 31
0.0
  0
LINE
  5
4A0
330
470
100
AcDbEntity
  8
0
100
AcDbLine
 10
1500.0
 20
-325.3869660598102
 30
0.0
 11
1500.0
 21
-305.4090374214829
 31
0.0
  0
LINE
  5
4A1
330
470
100
AcDbEntity
  8
0
100
AcDbLine
 10
1500.0
 20
-305.4090374214829
 30
0.0
 11
1500.0
 21
-284.9665057915808
 31
0.0
  0
ARC
  5
4A2
330
470
100
AcDbEntity
  8
0
100
AcDbCircle
 10
1472.123820504668
 20
-0.1648719476033875
 30
0.0
 40
8.0
100
AcDbArc
 50
90.0
 51
270.0
  0
LINE
  5
4A3
330
470
100
AcDbEntity
  8
0
100
AcDbLine
 10
1825.961012139581
 20
-284.9665057915808
 30
0.0
 11
1825.961012139581
 21
-8.164871947588835
 31
0.0
  0
LINE
  5
4A4
330
470
100
AcDbEntity
  8
0
100
AcDbLine
 10
1747.982006982478
 20
-284.9665057915808
 30
0.0
 11
1747.982006982478
 21
-8.164871947588835
 31
0.0
  0
LINE
  5
4A5
330
470
100
AcDbEntity
  8
0
100
AcDbLine
 10
1682.175088883392
 20
-284.9665057915808
 30
0.0
 11
1682.175088883392
 21
-8.164871947588835
 31
0.0
  0
LINE
  5
4A6
330
470
100
AcDbEntity
  8
0
100
AcDbLine
 10
1629.578072251912
 20
-284.9665057915808
 30
0.0
 11
1629.578072251912
 21
-8.164871947588835
 31
0.0
  0
LINE
  5
4A7
330
470
100
AcDbEntity
  8
0
100
AcDbLine
 10
1591.020443460249
 20
-284.9665057915808
 30
0.0
 11
1591.020443460249
 21
-8.164871947588835
 31
0.0
  0
LINE
  5
4A8
330
470
100
AcDbEntity
  8
0
100
AcDbLine
 10
1567.110279347675
 20
-284.9665057915808
 30
0.0
 11
1567.110279347675
 21
-8.164871947588835
 31
0.0
  0
LINE
  5
4A9
330
470
100
AcDbEntity
  8
0
100
AcDbLine
 10
1558.224657485465
 20
-284.9665057915808
 30
0.0
 11
1558.224657485451
 21
-8.164871947588835
 31
0.0
  0
LINE
  5
4AA
330
470
100
AcDbEntity
  8
0
100
AcDbLine
 10
2119.792076847472
 20
-284.9665057915808
 30
0.0
 11
2119.792076847472
 21
-8.164871947588835
 31
0.0
  0
LINE
  5
4AB
330
470
100
AcDbEntity
  8
0
100
AcDbLine
 10
2013.343614863042
 20
-284.9665057915808
 30
0.0
 11
2013.343614863042
 21
-8.164871947588835
 31
0.0
  0
LINE
  5
4AC
330
470
100
AcDbEntity
  8
0
100
AcDbLine
 10
1914.882328861014
 20
-284.9665057915808
 30
0.0
 11
1914.882328861014
 21
-8.164871947588835
 31
0.0
  0
LINE
  5
4AD
330
470
100
AcDbEntity
  8
0
100
AcDbLine
 10
2469.803566537579
 20
-284.9665057915808
 30
0.0
 11
2469.803566537579
 21
-8.164871947588835
 31
0.0
  0
LINE
  5
4AE
330
470
100
AcDbEntity
  8
0
100
AcDbLine
 10
2349.836017870504
 20
-284.9665057915808
 30
0.0
 11
2349.836017870504
 21
-8.164871947588835
 31
0.0
  0
LINE
  5
4AF
330
470
100
AcDbEntity
  8
0
100
AcDbLine
 10
2232.54895897959
 20
-284.9665057915808
 30
0.0
 11
2232.54895897959
 21
-8.164871947588835
 31
0.0
  0
LINE
  5
4B0
330
470
100
AcDbEntity
  8
0
100
AcDbLine
 10
2348.829665632874
 20
-345.3648946981229
 30
0.0
 11
2348.829665632874
 21
-325.3869660598102
 31
0.0
  0
LINE
  5
4B1
330
470
100
AcDbEntity
  8
0
100
AcDbLine
 10
1500.0
 20
325.057222164618
 30
0.0
 11
1500.0
 21
305.0792935262907
 31
0.0
  0
LINE
  5
4B2
330
470
100
AcDbEntity
  8
0
100
AcDbLine
 10
1500.0
 20
305.0792935262907
 30
0.0
 11
1500.0
 21
285.1013648879634
 31
0.0
  0
LINE
  5
4B3
330
470
100
AcDbEntity
  8
0
100
AcDbLine
 10
2348.829665632874
 20
345.0351508029307
 30
0.0
 11
2348.829665632874
 21
325.057222164618
 31
0.0
  0
HATCH
  5
4B4
330
470
100
AcDbEntity
  8
LAYER1
 62
   250
100
AcDbHatch
 10
0.0
 20
0.0
 30
0.0
210
0.0
220
0.0
230
1.0
  2
SOLID
 70
     1
 71
     0
 91
        8
 92
        7
 72
     1
 73
     1
 93
        4
 10
3382.226801732278
 20
168.9878971870821
 42
-0.2069535139110707
 10
3366.226801732278
 20
168.9878971870821
 42
0.0
 10
3366.226801732278
 20
81.10980556354116
 42
-0.2069535139110707
 10
3382.226801732278
 20
81.10980556354116
 42
0.0
 97
        0
 92
        7
 72
     1
 73
     1
 93
        4
 10
3382.226801732278
 20
44.10940967787246
 42
-0.2069535139110707
 10
3366.226801732278
 20
44.10940967787246
 42
0.0
 10
3366.226801732278
 20
-44.20685207728456
 42
-0.2069535139110707
 10
3382.226801732278
 20
-44.20685207728456
 42
0.0
 97
        0
 92
        7
 72
     1
 73
     1
 93
        4
 10
3382.226801732278
 20
-81.20724796295325
 42
-0.2069535139110707
 10
3366.226801732278
 20
-81.20724796295325
 42
0.0
 10
3366.226801732278
 20
-169.0853395865015
 42
-0.2069535139110707
 10
3382.226801732278
 20
-169.0853395865015
 42
0.0
 97
        0
 92
        7
 72
     1
 73
     1
 93
        4
 10
3505.790778846654
 20
265.0442084251153
 42
0.0
 10
3489.790778846654
 20
265.0442084251153
 42
0.0
 10
3489.790778846654
 20
205.9882930727508
 42
-0.2069535139110707
 10
3505.790778846654
 20
205.9882930727508
 42
0.0
 97
        0
 92
        7
 72
     1
 73
     1
 93
        4
 10
3505.790778846683
 20
168.9878971870966
 42
-0.2069535139114808
 10
3489.790778846654
 20
168.9878971870821
 42
0.0
 10
3489.790778846654
 20
81.10980556354116
 42
-0.2069535139114808
 10
3505.790778846683
 20
81.10980556352661
 42
0.0
 97
        0
 92
        7
 72
     1
 73
     1
 93
        4
 10
3505.790778846669
 20
44.10940967787974
 42
-0.2069535139112757
 10
3489.790778846654
 20
44.10940967787246
 42
0.0
 10
3489.790778846654
 20
-44.20685207728456
 42
-0.2069535139110707
 10
3505.790778846654
 20
-44.20685207728456
 42
0.0
 97
        0
 92
        7
 72
     1
 73
     1
 93
        4
 10
3505.790778846654
 20
-81.20724796295325
 42
-0.2069535139110707
 10
3489.790778846654
 20
-81.20724796295325
 42
0.0
 10
3489.790778846654
 20
-169.0853395865015
 42
-0.2069535139110707
 10
3505.790778846654
 20
-169.0853395865015
 42
0.0
 97
        0
 92
        7
 72
     1
 73
     1
 93
        4
 10
3505.790778846654
 20
-206.0857354721702
 42
-0.2069535139110707
 10
3489.790778846654
 20
-206.0857354721702
 42
0.0
 10
3489.790778846654
 20
-265.1416508245274
 42
0.0
 10
3505.790778846654
 20
-265.1416508245274
 42
0.0
 97
        0
 75
     0
 76
     1
 47
1.81916203270642
 98
        8
 10
3374.676069893102
 20
122.1209212293506
 10
3374.676069893102
 20
22.0669973665972
 10
3374.676069893102
 20
-127.1043104271339
 10
3496.687032621048
 20
236.7282650085872
 10
3498.508018428678
 20
125.7594051412779
 10
3498.508018428678
 20
2.056281358225533
 10
3498.508018428678
 20
-116.1892025121596
 10
3500.329004236307
 20
-238.0731702944431
  0
HATCH
  5
4B5
330
470
100
AcDbEntity
  8
0
 62
    30
100
AcDbHatch
 10
0.0
 20
0.0
 30
0.0
210
0.0
220
0.0
230
1.0
  2
SOLID
 70
     1
 71
     0
 91
        4
 92
        7
 72
     1
 73
     1
 93
       13
 10
3247.605282179415
 20
364.9469984324932
 42
0.0
 10
3247.598111240237
 20
364.946998432486
 42
0.4299904364565977
 10
3242.605282179414
 20
370.2146884946014
 42
0.0
 10
3142.605282179415
 20
370.2146884946014
 42
0.4142135623730951
 10
3137.605282179414
 20
365.2146884946014
 42
0.0
 10
3137.605282179414
 20
335.1514294829139
 42
0.0
 10
3137.614930662195
 20
335.1514294829139
 42
0.0
 10
3137.614930662195
 20
308.4230514546325
 42
0.0
 10
3137.605282179414
 20
308.4230514546325
 42
0.0
 10
3137.605282179414
 20
265.2146884946014
 42
0.4142135623730951
 10
3142.605282179415
 20
260.2146884946014
 42
0.0
 10
3242.605282179414
 20
260.2146884946014
 42
0.4142135623730951
 10
3247.605282179415
 20
265.2146884946014
 42
0.0
 97
        0
 92
        7
 72
     1
 73
     1
 93
       13
 10
3247.605282179415
 20
-265.312130894028
 42
0.4142135623730951
 10
3242.605282179414
 20
-260.312130894028
 42
0.0
 10
3142.605282179415
 20
-260.312130894028
 42
0.4142135623730951
 10
3137.605282179414
 20
-265.312130894028
 42
0.0
 10
3137.605282179414
 20
-308.5204938540446
 42
0.0
 10
3137.614930662181
 20
-308.5204938540446
 42
0.0
 10
3137.614930662195
 20
-328.6763199081651
 42
0.0
 10
3137.605282179414
 20
-328.6763199081651
 42
0.0
 10
3137.605282179414
 20
-365.312130894028
 42
0.4142135623730951
 10
3142.605282179415
 20
-370.312130894028
 42
0.0
 10
3242.605282179414
 20
-370.312130894028
 42
0.5119998041140318
 10
3247.348290053021
 20
-363.729766741595
 42
0.0
 10
3247.605282179415
 20
-363.7299368225612
 42
0.0
 97
        0
 92
        7
 72
     0
 73
     1
 93
        4
 10
2932.551309068105
 20
-345.3267849093863
 10
2822.570606033681
 20
-345.3267849093863
 10
2822.570606033681
 20
-365.0444408318981
 10
2932.55130906812
 20
-365.0444408318908
 97
        0
 92
        7
 72
     0
 73
     1
 93
        4
 10
2932.551309068105
 20
945.5224228174156
 10
2822.570606033681
 20
945.5224228174229
 10
2822.570606033681
 20
925.3665967633024
 10
2932.551309068105
 20
925.3665967633097
 97
        0
 75
     0
 76
     1
 47
4.380826632204779
 98
        4
 10
3171.372618775917
 20
316.2469741899003
 10
3175.758184164049
 20
-305.8304565927355
 10
2868.780399668656
 20
-354.0195242882
 10
2890.70724388647
 20
933.9436118930061
  0
LWPOLYLINE
  5
4B6
102
{ACAD_REACTORS
330
482
102
}
330
470
100
AcDbEntity
  8
0
100
AcDbPolyline
 90
        2
 70
     0
 43
0.0
 10
2827.828647613016
 20
-308.5204938540446
 10
2827.828647613016
 20
308.4230514546325
  0
LWPOLYLINE
  5
4B7
102
{ACAD_REACTORS
330
482
102
}
330
470
100
AcDbEntity
  8
0
100
AcDbPolyline
 90
        2
 70
     0
 43
0.0
 10
2927.731437620387
 20
308.4230514546325
 10
2927.731437620387
 20
-308.5204938540446
  0
LINE
  5
4B8
330
470
100
AcDbEntity
  8
0
100
AcDbLine
 10
3737.356903207037
 20
168.9878971870894
 30
0.0
 11
3737.356903207037
 21
81.10980556353387
 31
0.0
  0
LINE
  5
4B9
330
470
100
AcDbEntity
  8
0
100
AcDbLine
 10
3753.356903207051
 20
168.9878971870894
 30
0.0
 11
3753.356903207051
 21
81.10980556353387
 31
0.0
  0
LINE
  5
4BA
330
470
100
AcDbEntity
  8
0
100
AcDbLine
 10
3489.790778846654
 20
168.9878971870821
 30
0.0
 11
3489.790778846654
 21
81.10980556354116
 31
0.0
  0
LINE
  5
4BB
330
470
100
AcDbEntity
  8
0
100
AcDbLine
 10
3505.790778846683
 20
168.9878971870966
 30
0.0
 11
3505.790778846683
 21
81.10980556352661
 31
0.0
  0
LINE
  5
4BC
330
470
100
AcDbEntity
  8
0
100
AcDbLine
 10
3613.354755961045
 20
168.9878971870821
 30
0.0
 11
3613.354755961045
 21
81.10980556353387
 31
0.0
  0
LINE
  5
4BD
330
470
100
AcDbEntity
  8
0
100
AcDbLine
 10
3629.354755961031
 20
168.9878971870821
 30
0.0
 11
3629.354755961031
 21
81.10980556354116
 31
0.0
  0
LINE
  5
4BE
330
470
100
AcDbEntity
  8
0
100
AcDbLine
 10
3366.226801732278
 20
168.9878971870894
 30
0.0
 11
3366.226801732278
 21
81.10980556353387
 31
0.0
  0
LINE
  5
4BF
330
470
100
AcDbEntity
  8
0
100
AcDbLine
 10
3382.226801732278
 20
168.9878971870894
 30
0.0
 11
3382.226801732278
 21
81.10980556353387
 31
0.0
  0
LINE
  5
4C0
102
{ACAD_REACTORS
330
482
102
}
330
470
100
AcDbEntity
  8
0
100
AcDbLine
 10
3242.605282179414
 20
260.2146884946014
 30
0.0
 11
3242.605282179414
 21
-260.312130894028
 31
0.0
  0
LINE
  5
4C1
102
{ACAD_REACTORS
330
482
102
}
330
470
100
AcDbEntity
  8
0
100
AcDbLine
 10
3142.605282179415
 20
260.2146884946014
 30
0.0
 11
3142.605282179415
 21
-260.312130894028
 31
0.0
  0
LINE
  5
4C2
102
{ACAD_REACTORS
330
482
102
}
330
470
100
AcDbEntity
  8
0
100
AcDbLine
 10
2617.945154571222
 20
265.0442084251153
 30
0.0
 11
2617.945154571222
 21
-265.1416508245274
 31
0.0
  0
HATCH
  5
4C3
330
470
100
AcDbEntity
  8
0
 62
    30
100
AcDbHatch
 10
0.0
 20
0.0
 30
0.0
210
0.0
220
0.0
230
1.0
  2
SOLID
 70
     1
 71
     1
 91
        2
 92
        1
 93
        8
 72
     1
 10
2519.632237385478
 20
263.0881772907778
 11
2619.632237385478
 21
263.0881772907778
 72
     2
 10
2619.632237385478
 20
268.0881772907778
 40
5.0
 50
270.0
 51
360.0
 73
     1
 72
     1
 10
2624.632237385478
 20
268.0881772907778
 11
2624.632237385478
 21
368.0881772907778
 72
     2
 10
2619.632237385478
 20
368.0881772907778
 40
5.0
 50
0.0
 51
90.0
 73
     1
 72
     1
 10
2619.632237385478
 20
373.0881772907778
 11
2519.632237385478
 21
373.0881772907778
 72
     2
 10
2519.632237385478
 20
368.0881772907778
 40
5.0
 50
90.0
 51
180.0
 73
     1
 72
     1
 10
2514.632237385478
 20
368.0881772907778
 11
2514.632237385478
 21
268.0881772907778
 72
     2
 10
2519.632237385478
 20
268.0881772907778
 40
5.0
 50
180.0
 51
270.0
 73
     1
 97
        1
330
508
 92
        1
 93
        8
 72
     1
 10
2519.632237385478
 20
-373.1856196901753
 11
2619.632237385478
 21
-373.1856196901753
 72
     2
 10
2619.632237385478
 20
-368.1856196901753
 40
5.0
 50
270.0
 51
360.0
 73
     1
 72
     1
 10
2624.632237385478
 20
-368.1856196901753
 11
2624.632237385478
 21
-268.1856196901753
 72
     2
 10
2619.632237385478
 20
-268.1856196901753
 40
5.0
 50
0.0
 51
90.0
 73
     1
 72
     1
 10
2619.632237385478
 20
-263.1856196901753
 11
2519.632237385478
 21
-263.1856196901753
 72
     2
 10
2519.632237385478
 20
-268.1856196901753
 40
5.0
 50
90.0
 51
180.0
 73
     1
 72
     1
 10
2514.632237385478
 20
-268.1856196901753
 11
2514.632237385478
 21
-368.1856196901753
 72
     2
 10
2519.632237385478
 20
-368.1856196901753
 40
5.0
 50
180.0
 51
270.0
 73
     1
 97
        1
330
4CA
 75
     0
 76
     1
 98
        1
 10
14394.97067013761
 20
-32525.16621026175
  0
LINE
  5
4C4
102
{ACAD_REACTORS
330
482
102
}
330
470
100
AcDbEntity
  8
0
100
AcDbLine
 10
2517.945154571222
 20
263.3814000942402
 30
0.0
 11
2517.945154571222
 21
-263.4788424936523
 31
0.0
  0
LINE
  5
4C5
330
470
100
AcDbEntity
  8
0
100
AcDbLine
 10
2617.945154571222
 20
263.3814000942402
 30
0.0
 11
2617.945154571222
 21
-263.4788424936523
 31
0.0
  0
HATCH
  5
4C6
330
470
100
AcDbEntity
  8
0
 62
    70
100
AcDbHatch
 10
0.0
 20
0.0
 30
0.0
210
0.0
220
0.0
230
1.0
  2
SOLID
 70
     1
 71
     0
 91
        2
 92
        7
 72
     0
 73
     1
 93
        4
 10
3137.605282179429
 20
335.1514294829066
 10
2624.632237385478
 20
335.1514294829139
 10
2624.632237385478
 20
308.4230514546325
 10
3137.605282179414
 20
308.4230514546325
 97
        0
 92
        7
 72
     0
 73
     1
 93
        4
 10
3137.605282179444
 20
-308.5204938540446
 10
2624.632237385478
 20
-308.5204938540446
 10
2624.632237385478
 20
-328.6763199081651
 10
3137.605282179414
 20
-328.6763199081651
 97
        0
 75
     0
 76
     1
 47
4.920004795834532
 98
        2
 10
2880.277931754055
 20
323.7049636796764
 10
2880.277931754055
 20
-315.8958113314111
  0
LWPOLYLINE
  5
4C7
102
{ACAD_REACTORS
330
482
102
}
330
470
100
AcDbEntity
  8
0
100
AcDbPolyline
 90
        8
 70
     1
 43
0.0
 10
3142.605282179415
 20
-370.312130894028
 10
3242.605282179414
 20
-370.312130894028
 42
0.4142135623730951
 10
3247.605282179415
 20
-365.312130894028
 10
3247.605282179415
 20
-265.312130894028
 42
0.4142135623730951
 10
3242.605282179414
 20
-260.312130894028
 10
3142.605282179415
 20
-260.312130894028
 42
0.4142135623730951
 10
3137.605282179414
 20
-265.312130894028
 10
3137.605282179414
 20
-365.312130894028
 42
0.4142135623730951
  0
LWPOLYLINE
  5
4C8
102
{ACAD_REACTORS
330
482
102
}
330
470
100
AcDbEntity
  8
0
100
AcDbPolyline
 90
        4
 70
     0
 43
0.0
 10
2624.632237385478
 20
-308.5204938540446
 10
3137.614930662195
 20
-308.5204938540446
 10
3137.614930662195
 20
-328.6763199081651
 10
2624.632237385478
 20
-328.6763199081651
  0
LWPOLYLINE
  5
4C9
330
470
100
AcDbEntity
  8
0
100
AcDbPolyline
 90
        4
 70
     1
 43
0.0
 10
2932.55130906812
 20
-365.0444408318981
 10
2822.570606033681
 20
-365.0444408318981
 10
2822.570606033681
 20
-345.3267849093936
 10
2932.55130906812
 20
-345.3267849093936
  0
LWPOLYLINE
  5
4CA
102
{ACAD_REACTORS
330
4C3
330
482
102
}
330
470
100
AcDbEntity
  8
0
100
AcDbPolyline
 90
        8
 70
     1
 43
0.0
 10
2519.632237385478
 20
-373.1856196901753
 10
2619.632237385478
 20
-373.1856196901753
 42
0.4142135623730951
 10
2624.632237385478
 20
-368.1856196901753
 10
2624.632237385478
 20
-268.1856196901753
 42
0.4142135623730951
 10
2619.632237385478
 20
-263.1856196901753
 10
2519.632237385478
 20
-263.1856196901753
 42
0.4142135623730951
 10
2514.632237385478
 20
-268.1856196901753
 10
2514.632237385478
 20
-368.1856196901753
 42
0.4142135623730951
  0
HATCH
  5
4CB
330
470
100
AcDbEntity
  8
0
 62
   250
100
AcDbHatch
 10
0.0
 20
0.0
 30
0.0
210
0.0
220
0.0
230
1.0
  2
SOLID
 70
     1
 71
     0
 91
        1
 92
        7
 72
     0
 73
     1
 93
        4
 10
2927.731437620387
 20
-328.6763199081651
 10
2827.828647613016
 20
-328.6763199081578
 10
2827.82864761303
 20
-345.3267849093863
 10
2927.731437620387
 20
-345.3267849093936
 97
        0
 75
     0
 76
     1
 47
1.59651127984615
 98
        1
 10
2863.180843742026
 20
-340.0958122181291
  0
LWPOLYLINE
  5
4CC
330
470
100
AcDbEntity
  8
0
100
AcDbPolyline
 90
        4
 70
     0
 43
0.0
 10
2927.731437620387
 20
-328.6763199081651
 10
2927.731437620387
 20
-345.3267849093936
 10
2827.828647613016
 20
-345.3267849093936
 10
2827.828647613016
 20
-328.6763199081651
  0
LINE
  5
4CD
330
470
100
AcDbEntity
  8
0
100
AcDbLine
 10
3479.29058090382
 20
-195.5855375293431
 30
0.0
 11
3392.726999675113
 21
-195.5855375293358
 31
0.0
  0
LINE
  5
4CE
330
470
100
AcDbEntity
  8
0
100
AcDbLine
 10
3479.29058090382
 20
-179.5855375293285
 30
0.0
 11
3392.726999675113
 21
-179.5855375293285
 31
0.0
  0
LINE
  5
4CF
330
470
100
AcDbEntity
  8
0
100
AcDbLine
 10
3392.726999675113
 20
-54.70705002011891
 30
0.0
 11
3479.29058090382
 21
-54.70705002011891
 31
0.0
  0
LINE
  5
4D0
330
470
100
AcDbEntity
  8
0
100
AcDbLine
 10
3392.726999675113
 20
-70.70705002012619
 30
0.0
 11
3479.29058090382
 21
-70.70705002011891
 31
0.0
  0
LINE
  5
4D1
330
470
100
AcDbEntity
  8
0
100
AcDbLine
 10
3479.29058090382
 20
54.60960762070681
 30
0.0
 11
3392.726999675113
 21
54.60960762069953
 31
0.0
  0
LINE
  5
4D2
330
470
100
AcDbEntity
  8
0
100
AcDbLine
 10
3479.29058090382
 20
70.60960762071409
 30
0.0
 11
3392.726999675113
 21
70.60960762071409
 31
0.0
  0
CIRCLE
  5
4D3
102
{ACAD_REACTORS
330
475
102
}
330
470
100
AcDbEntity
  8
0
100
AcDbCircle
 10
3374.226801732278
 20
-187.5855375293358
 30
0.0
 40
20.15582605412055
  0
LINE
  5
4D4
330
470
100
AcDbEntity
  8
0
100
AcDbLine
 10
3355.726603789444
 20
-195.5855375293358
 30
0.0
 11
3242.775762248901
 21
-195.5855375293358
 31
0.0
  0
LINE
  5
4D5
330
470
100
AcDbEntity
  8
0
100
AcDbLine
 10
3355.726603789444
 20
-179.5855375293285
 30
0.0
 11
3242.775762248901
 21
-179.5855375293358
 31
0.0
  0
LINE
  5
4D6
330
470
100
AcDbEntity
  8
0
100
AcDbLine
 10
3355.726603789444
 20
54.60960762069953
 30
0.0
 11
3242.775762248901
 21
54.60960762070681
 31
0.0
  0
LINE
  5
4D7
330
470
100
AcDbEntity
  8
0
100
AcDbLine
 10
3355.726603789444
 20
70.60960762071409
 30
0.0
 11
3242.775762248901
 21
70.60960762070681
 31
0.0
  0
LINE
  5
4D8
330
470
100
AcDbEntity
  8
0
100
AcDbLine
 10
3242.775762248901
 20
-70.70705002011891
 30
0.0
 11
3355.726603789444
 21
-70.70705002012619
 31
0.0
  0
LINE
  5
4D9
330
470
100
AcDbEntity
  8
0
100
AcDbLine
 10
3242.775762248901
 20
-54.70705002011891
 30
0.0
 11
3355.726603789444
 21
-54.70705002011891
 31
0.0
  0
CIRCLE
  5
4DA
102
{ACAD_REACTORS
330
475
102
}
330
470
100
AcDbEntity
  8
0
100
AcDbCircle
 10
3374.226801732278
 20
-62.70705002011891
 30
0.0
 40
20.15582605412055
  0
LINE
  5
4DB
330
470
100
AcDbEntity
  8
0
100
AcDbLine
 10
3382.226801732278
 20
-81.20724796295325
 30
0.0
 11
3382.226801732278
 21
-169.0853395865015
 31
0.0
  0
LINE
  5
4DC
330
470
100
AcDbEntity
  8
0
100
AcDbLine
 10
3366.226801732278
 20
-81.20724796294599
 30
0.0
 11
3366.226801732278
 21
-169.0853395865015
 31
0.0
  0
CIRCLE
  5
4DD
102
{ACAD_REACTORS
330
475
102
}
330
470
100
AcDbEntity
  8
0
100
AcDbCircle
 10
3374.226801732278
 20
62.60960762070681
 30
0.0
 40
20.15582605412055
  0
LINE
  5
4DE
330
470
100
AcDbEntity
  8
0
100
AcDbLine
 10
3382.226801732278
 20
44.10940967787974
 30
0.0
 11
3382.226801732278
 21
-44.20685207728456
 31
0.0
  0
LINE
  5
4DF
330
470
100
AcDbEntity
  8
0
100
AcDbLine
 10
3366.226801732278
 20
44.10940967787974
 30
0.0
 11
3366.226801732278
 21
-44.20685207729184
 31
0.0
  0
CIRCLE
  5
4E0
102
{ACAD_REACTORS
330
475
102
}
330
470
100
AcDbEntity
  8
0
100
AcDbCircle
 10
3745.356903207037
 20
-187.5855375293358
 30
0.0
 40
20.15582605412055
  0
CIRCLE
  5
4E1
102
{ACAD_REACTORS
330
475
102
}
330
470
100
AcDbEntity
  8
0
100
AcDbCircle
 10
3497.790778846654
 20
-187.5855375293358
 30
0.0
 40
20.15582605412055
  0
CIRCLE
  5
4E2
102
{ACAD_REACTORS
330
475
102
}
330
470
100
AcDbEntity
  8
0
100
AcDbCircle
 10
3621.354755961045
 20
-187.5855375293358
 30
0.0
 40
20.15582605412055
  0
LINE
  5
4E3
330
470
100
AcDbEntity
  8
0
100
AcDbLine
 10
3602.854558018211
 20
-195.5855375293431
 30
0.0
 11
3516.290976789488
 21
-195.5855375293431
 31
0.0
  0
LINE
  5
4E4
330
470
100
AcDbEntity
  8
0
100
AcDbLine
 10
3602.854558018211
 20
-179.5855375293285
 30
0.0
 11
3516.290976789488
 21
-179.5855375293285
 31
0.0
  0
LINE
  5
4E5
330
470
100
AcDbEntity
  8
0
100
AcDbLine
 10
3505.790778846654
 20
-206.0857354721702
 30
0.0
 11
3505.790778846654
 21
-265.1416508245274
 31
0.0
  0
LINE
  5
4E6
330
470
100
AcDbEntity
  8
0
100
AcDbLine
 10
3489.790778846654
 20
-206.0857354721702
 30
0.0
 11
3489.790778846654
 21
-265.1416508245274
 31
0.0
  0
LINE
  5
4E7
330
470
100
AcDbEntity
  8
0
100
AcDbLine
 10
3726.856705264202
 20
-195.5855375293431
 30
0.0
 11
3639.85495390388
 21
-195.5855375293431
 31
0.0
  0
LINE
  5
4E8
330
470
100
AcDbEntity
  8
0
100
AcDbLine
 10
3726.856705264202
 20
-179.5855375293285
 30
0.0
 11
3639.85495390388
 21
-179.5855375293285
 31
0.0
  0
LINE
  5
4E9
330
470
100
AcDbEntity
  8
0
100
AcDbLine
 10
3737.356903207007
 20
-206.0857354721556
 30
0.0
 11
3737.356903207023
 21
-265.1416508245274
 31
0.0
  0
LINE
  5
4EA
330
470
100
AcDbEntity
  8
0
100
AcDbLine
 10
3753.356903207037
 20
-206.0857354721629
 30
0.0
 11
3753.356903207051
 21
-265.1416508245274
 31
0.0
  0
CIRCLE
  5
4EB
102
{ACAD_REACTORS
330
475
102
}
330
470
100
AcDbEntity
  8
0
100
AcDbCircle
 10
3621.354755961045
 20
-62.70705002011891
 30
0.0
 40
20.15582605412055
  0
CIRCLE
  5
4EC
102
{ACAD_REACTORS
330
475
102
}
330
470
100
AcDbEntity
  8
0
100
AcDbCircle
 10
3621.354755961045
 20
62.60960762070681
 30
0.0
 40
20.15582605412055
  0
CIRCLE
  5
4ED
102
{ACAD_REACTORS
330
475
102
}
330
470
100
AcDbEntity
  8
0
100
AcDbCircle
 10
3497.790778846654
 20
-62.70705002011891
 30
0.0
 40
20.15582605412055
  0
LINE
  5
4EE
330
470
100
AcDbEntity
  8
0
100
AcDbLine
 10
3516.290976789488
 20
-70.70705002011891
 30
0.0
 11
3602.854558018211
 21
-70.70705002011891
 31
0.0
  0
LINE
  5
4EF
330
470
100
AcDbEntity
  8
0
100
AcDbLine
 10
3516.290976789488
 20
-54.70705002011891
 30
0.0
 11
3602.854558018211
 21
-54.70705002011891
 31
0.0
  0
LINE
  5
4F0
330
470
100
AcDbEntity
  8
0
100
AcDbLine
 10
3505.790778846654
 20
-81.20724796294599
 30
0.0
 11
3505.790778846654
 21
-169.0853395865015
 31
0.0
  0
LINE
  5
4F1
330
470
100
AcDbEntity
  8
0
100
AcDbLine
 10
3489.790778846654
 20
-81.20724796294599
 30
0.0
 11
3489.790778846654
 21
-169.0853395865015
 31
0.0
  0
LINE
  5
4F2
330
470
100
AcDbEntity
  8
0
100
AcDbLine
 10
3613.354755961045
 20
-81.20724796295325
 30
0.0
 11
3613.354755961045
 21
-169.0853395865015
 31
0.0
  0
LINE
  5
4F3
330
470
100
AcDbEntity
  8
0
100
AcDbLine
 10
3602.854558018211
 20
54.60960762070681
 30
0.0
 11
3516.290976789488
 21
54.60960762069953
 31
0.0
  0
LINE
  5
4F4
330
470
100
AcDbEntity
  8
0
100
AcDbLine
 10
3602.854558018211
 20
70.60960762071409
 30
0.0
 11
3516.290976789488
 21
70.60960762070681
 31
0.0
  0
LINE
  5
4F5
330
470
100
AcDbEntity
  8
0
100
AcDbLine
 10
3489.790778846654
 20
44.10940967787974
 30
0.0
 11
3489.790778846654
 21
-44.20685207729184
 31
0.0
  0
LINE
  5
4F6
330
470
100
AcDbEntity
  8
0
100
AcDbLine
 10
3505.790778846669
 20
44.10940967787974
 30
0.0
 11
3505.790778846654
 21
-44.20685207729184
 31
0.0
  0
CIRCLE
  5
4F7
102
{ACAD_REACTORS
330
475
102
}
330
470
100
AcDbEntity
  8
0
100
AcDbCircle
 10
3497.790778846654
 20
62.60960762070681
 30
0.0
 40
20.15582605412055
  0
LINE
  5
4F8
330
470
100
AcDbEntity
  8
0
100
AcDbLine
 10
3613.354755961045
 20
44.10940967787246
 30
0.0
 11
3613.354755961045
 21
-44.20685207728456
 31
0.0
  0
CIRCLE
  5
4F9
102
{ACAD_REACTORS
330
475
102
}
330
470
100
AcDbEntity
  8
0
100
AcDbCircle
 10
3745.356903207037
 20
-62.70705002011891
 30
0.0
 40
20.15582605412055
  0
LINE
  5
4FA
330
470
100
AcDbEntity
  8
0
100
AcDbLine
 10
3639.85495390388
 20
-54.70705002011891
 30
0.0
 11
3726.856705264202
 21
-54.70705002011891
 31
0.0
  0
LINE
  5
4FB
330
470
100
AcDbEntity
  8
0
100
AcDbLine
 10
3639.85495390388
 20
-70.70705002011891
 30
0.0
 11
3726.856705264202
 21
-70.70705002012619
 31
0.0
  0
LINE
  5
4FC
330
470
100
AcDbEntity
  8
0
100
AcDbLine
 10
3629.354755961045
 20
-81.20724796295325
 30
0.0
 11
3629.354755961045
 21
-169.0853395865015
 31
0.0
  0
LINE
  5
4FD
330
470
100
AcDbEntity
  8
0
100
AcDbLine
 10
3737.356903207023
 20
-81.20724796294599
 30
0.0
 11
3737.356903207007
 21
-169.085339586516
 31
0.0
  0
LINE
  5
4FE
330
470
100
AcDbEntity
  8
0
100
AcDbLine
 10
3753.356903207037
 20
-81.20724796294599
 30
0.0
 11
3753.356903207037
 21
-169.0853395865015
 31
0.0
  0
LINE
  5
4FF
330
470
100
AcDbEntity
  8
0
100
AcDbLine
 10
3726.856705264202
 20
54.60960762070681
 30
0.0
 11
3639.85495390388
 21
54.60960762070681
 31
0.0
  0
LINE
  5
500
330
470
100
AcDbEntity
  8
0
100
AcDbLine
 10
3726.856705264202
 20
70.60960762070681
 30
0.0
 11
3639.85495390388
 21
70.60960762070681
 31
0.0
  0
LINE
  5
501
330
470
100
AcDbEntity
  8
0
100
AcDbLine
 10
3629.354755961045
 20
44.10940967787974
 30
0.0
 11
3629.354755961045
 21
-44.20685207728456
 31
0.0
  0
LINE
  5
502
330
470
100
AcDbEntity
  8
0
100
AcDbLine
 10
3737.356903207023
 20
44.10940967787974
 30
0.0
 11
3737.356903207023
 21
-44.20685207729184
 31
0.0
  0
LINE
  5
503
330
470
100
AcDbEntity
  8
0
100
AcDbLine
 10
3753.356903207037
 20
44.10940967787246
 30
0.0
 11
3753.356903207037
 21
-44.20685207729184
 31
0.0
  0
CIRCLE
  5
504
102
{ACAD_REACTORS
330
475
102
}
330
470
100
AcDbEntity
  8
0
100
AcDbCircle
 10
3745.356903207037
 20
62.60960762070681
 30
0.0
 40
20.15582605412055
  0
LWPOLYLINE
  5
505
102
{ACAD_REACTORS
330
482
102
}
330
470
100
AcDbEntity
  8
0
100
AcDbPolyline
 90
        8
 70
     1
 43
0.0
 10
3142.605282179415
 20
260.2146884946014
 10
3242.605282179414
 20
260.2146884946014
 42
0.4142135623730951
 10
3247.605282179415
 20
265.2146884946014
 10
3247.605282179415
 20
365.2146884946014
 42
0.4142135623730951
 10
3242.605282179414
 20
370.2146884946014
 10
3142.605282179415
 20
370.2146884946014
 42
0.4142135623730951
 10
3137.605282179414
 20
365.2146884946014
 10
3137.605282179414
 20
265.2146884946014
 42
0.4142135623730951
  0
LWPOLYLINE
  5
506
102
{ACAD_REACTORS
330
482
102
}
330
470
100
AcDbEntity
  8
0
100
AcDbPolyline
 90
        4
 70
     0
 43
0.0
 10
2827.828647613016
 20
335.1514294829139
 10
2827.828647613016
 20
925.3665967633097
 10
2927.731437620387
 20
925.3665967633097
 10
2927.731437620387
 20
335.1514294829139
  0
LWPOLYLINE
  5
507
102
{ACAD_REACTORS
330
482
102
}
330
470
100
AcDbEntity
  8
0
100
AcDbPolyline
 90
        4
 70
     0
 43
0.0
 10
2624.632237385478
 20
335.1514294829139
 10
3137.614930662195
 20
335.1514294829139
 10
3137.614930662195
 20
308.4230514546325
 10
2624.632237385478
 20
308.4230514546325
  0
LWPOLYLINE
  5
508
102
{ACAD_REACTORS
330
4C3
330
482
102
}
330
470
100
AcDbEntity
  8
0
100
AcDbPolyline
 90
        8
 70
     1
 43
0.0
 10
2519.632237385478
 20
263.0881772907778
 10
2619.632237385478
 20
263.0881772907778
 42
0.4142135623730951
 10
2624.632237385478
 20
268.0881772907778
 10
2624.632237385478
 20
368.0881772907778
 42
0.4142135623730951
 10
2619.632237385478
 20
373.0881772907778
 10
2519.632237385478
 20
373.0881772907778
 42
0.4142135623730951
 10
2514.632237385478
 20
368.0881772907778
 10
2514.632237385478
 20
268.0881772907778
 42
0.4142135623730951
  0
LWPOLYLINE
  5
509
330
470
100
AcDbEntity
  8
0
100
AcDbPolyline
 90
        4
 70
     1
 43
0.0
 10
2932.55130906812
 20
925.3665967633097
 10
2822.570606033681
 20
925.3665967633097
 10
2822.570606033681
 20
945.5224228174229
 10
2932.55130906812
 20
945.5224228174229
  0
LINE
  5
50A
330
470
100
AcDbEntity
  8
0
100
AcDbLine
 10
3392.726999675113
 20
179.4880951299091
 30
0.0
 11
3479.29058090382
 21
179.4880951299164
 31
0.0
  0
LINE
  5
50B
330
470
100
AcDbEntity
  8
0
100
AcDbLine
 10
3392.726999675113
 20
195.4880951299237
 30
0.0
 11
3479.29058090382
 21
195.488095129931
 31
0.0
  0
LINE
  5
50C
330
470
100
AcDbEntity
  8
0
100
AcDbLine
 10
3242.775762248901
 20
179.4880951299164
 30
0.0
 11
3355.726603789444
 21
179.4880951299164
 31
0.0
  0
LINE
  5
50D
330
470
100
AcDbEntity
  8
0
100
AcDbLine
 10
3242.775762248901
 20
195.4880951299164
 30
0.0
 11
3355.726603789444
 21
195.4880951299237
 31
0.0
  0
CIRCLE
  5
50E
102
{ACAD_REACTORS
330
475
102
}
330
470
100
AcDbEntity
  8
0
100
AcDbCircle
 10
3374.226801732278
 20
187.4880951299164
 30
0.0
 40
20.15582605412055
  0
CIRCLE
  5
50F
102
{ACAD_REACTORS
330
475
102
}
330
470
100
AcDbEntity
  8
0
100
AcDbCircle
 10
3621.354755961045
 20
187.4880951299164
 30
0.0
 40
20.15582605412055
  0
LINE
  5
510
330
470
100
AcDbEntity
  8
0
100
AcDbLine
 10
3489.790778846654
 20
265.0442084251153
 30
0.0
 11
3489.790778846654
 21
205.9882930727435
 31
0.0
  0
LINE
  5
511
330
470
100
AcDbEntity
  8
0
100
AcDbLine
 10
3505.790778846654
 20
265.0442084251153
 30
0.0
 11
3505.790778846654
 21
205.9882930727435
 31
0.0
  0
LINE
  5
512
330
470
100
AcDbEntity
  8
0
100
AcDbLine
 10
3516.290976789488
 20
179.4880951299164
 30
0.0
 11
3602.854558018211
 21
179.4880951299164
 31
0.0
  0
LINE
  5
513
330
470
100
AcDbEntity
  8
0
100
AcDbLine
 10
3516.290976789474
 20
195.488095129931
 30
0.0
 11
3602.854558018225
 21
195.488095129931
 31
0.0
  0
CIRCLE
  5
514
102
{ACAD_REACTORS
330
475
102
}
330
470
100
AcDbEntity
  8
0
100
AcDbCircle
 10
3497.790778846654
 20
187.4880951299164
 30
0.0
 40
20.15582605412055
  0
LINE
  5
515
330
470
100
AcDbEntity
  8
0
100
AcDbLine
 10
3737.356903207052
 20
265.0442084251153
 30
0.0
 11
3737.356903207052
 21
205.9882930727508
 31
0.0
  0
LINE
  5
516
330
470
100
AcDbEntity
  8
0
100
AcDbLine
 10
3753.356903207037
 20
265.0442084251153
 30
0.0
 11
3753.356903207051
 21
205.9882930727435
 31
0.0
  0
LINE
  5
517
330
470
100
AcDbEntity
  8
0
100
AcDbLine
 10
3639.85495390388
 20
179.4880951299164
 30
0.0
 11
3726.856705264202
 21
179.4880951299237
 31
0.0
  0
LINE
  5
518
330
470
100
AcDbEntity
  8
0
100
AcDbLine
 10
3639.854953903864
 20
195.488095129931
 30
0.0
 11
3726.856705264217
 21
195.488095129931
 31
0.0
  0
CIRCLE
  5
519
102
{ACAD_REACTORS
330
475
102
}
330
470
100
AcDbEntity
  8
0
100
AcDbCircle
 10
3745.356903207037
 20
187.4880951299164
 30
0.0
 40
20.15582605412055
  0
LINE
  5
51A
102
{ACAD_REACTORS
330
482
102
}
330
470
100
AcDbEntity
  8
0
100
AcDbLine
 10
5240.916099363269
 20
2700.844952395953
 30
0.0
 11
5240.916099363269
 21
267.6449675877774
 31
0.0
  0
LINE
  5
51B
330
470
100
AcDbEntity
  8
0
100
AcDbLine
 10
5340.95092340617
 20
2700.844952395953
 30
0.0
 11
5340.95092340617
 21
267.6449675877774
 31
0.0
  0
LINE
  5
51C
330
470
100
AcDbEntity
  8
0
100
AcDbLine
 10
5871.650375957281
 20
2700.844952395953
 30
0.0
 11
5871.650375957281
 21
267.6449675877774
 31
0.0
  0
LINE
  5
51D
330
470
100
AcDbEntity
  8
0
100
AcDbLine
 10
5971.685200000182
 20
267.6449675877774
 30
0.0
 11
5971.685200000182
 21
2700.844952395953
 31
0.0
  0
HATCH
  5
51E
330
470
100
AcDbEntity
  8
0
 62
   250
100
AcDbHatch
 10
0.0
 20
0.0
 30
0.0
210
0.0
220
0.0
230
1.0
  2
SOLID
 70
     1
 71
     0
 91
        2
 92
        7
 72
     0
 73
     1
 93
        4
 10
5971.685200000196
 20
267.6449675877629
 10
5971.685200000182
 20
2700.844952395953
 10
5871.650375957281
 20
2700.844952395953
 10
5871.650375957281
 20
267.644967587792
 97
        0
 92
        7
 72
     0
 73
     1
 93
        4
 10
5340.95092340617
 20
267.644967587792
 10
5340.95092340617
 20
2700.844952395953
 10
5240.916099363269
 20
2700.844952395939
 10
5240.916099363269
 20
267.6449675877774
 97
        0
 75
     0
 76
     1
 47
8.300017189956793
 98
        4
 10
5928.018374478357
 20
1105.669867221844
 10
5347.017035954283
 20
1138.904580140832
 10
5886.518238336925
 20
798.24886282859
 10
5288.91692101708
 20
848.1007519930098
  0
HATCH
  5
51F
330
470
100
AcDbEntity
  8
LAYER1
 62
   250
100
AcDbHatch
 10
0.0
 20
0.0
 30
0.0
210
0.0
220
0.0
230
1.0
  2
SOLID
 70
     1
 71
     0
 91
        8
 92
        7
 72
     1
 73
     1
 93
        4
 10
4999.074587377909
 20
265.0442084251153
 42
0.0
 10
4983.074587377894
 20
265.0442084251153
 42
0.0
 10
4983.074587377894
 20
205.9882930727508
 42
-0.2069535139110707
 10
4999.074587377894
 20
205.9882930727508
 42
0.0
 97
        0
 92
        7
 72
     1
 73
     1
 93
        4
 10
4999.074587377909
 20
168.9878971870894
 42
-0.2069535139114808
 10
4983.074587377879
 20
168.9878971870894
 42
0.0
 10
4983.074587377894
 20
81.10980556354116
 42
-0.2069535139110707
 10
4999.074587377894
 20
81.10980556354116
 42
0.0
 97
        0
 92
        7
 72
     1
 73
     1
 93
        4
 10
4999.074587377909
 20
44.10940967787974
 42
-0.2069535139114808
 10
4983.074587377879
 20
44.10940967787974
 42
0.0
 10
4983.074587377879
 20
-44.20685207729184
 42
-0.2069535139112757
 10
4999.074587377894
 20
-44.20685207728456
 42
0.0
 97
        0
 92
        7
 72
     1
 73
     1
 93
        4
 10
4999.074587377894
 20
-81.20724796295325
 42
-0.2069535139112757
 10
4983.074587377879
 20
-81.20724796294599
 42
0.0
 10
4983.074587377894
 20
-169.0853395865015
 42
-0.2069535139110707
 10
4999.074587377894
 20
-169.0853395865015
 42
0.0
 97
        0
 92
        7
 72
     1
 73
     1
 93
        4
 10
4999.074587377894
 20
-206.0857354721702
 42
-0.2069535139110707
 10
4983.074587377894
 20
-206.0857354721702
 42
0.0
 10
4983.074587377879
 20
-265.1416508245274
 42
0.0
 10
4999.074587377894
 20
-265.1416508245347
 42
0.0
 97
        0
 92
        7
 72
     1
 73
     1
 93
        4
 10
5122.200394360668
 20
168.9878971870894
 42
-0.2069535139112757
 10
5106.200394360654
 20
168.9878971870821
 42
0.0
 10
5106.200394360654
 20
81.10980556354116
 42
-0.2069535139110707
 10
5122.200394360654
 20
81.10980556354116
 42
0.0
 97
        0
 92
        7
 72
     1
 73
     1
 93
        4
 10
5122.200394360668
 20
44.10940967787974
 42
-0.2069535139112757
 10
5106.200394360654
 20
44.10940967787246
 42
0.0
 10
5106.200394360654
 20
-44.20685207728456
 42
-0.2069535139110707
 10
5122.200394360654
 20
-44.20685207728456
 42
0.0
 97
        0
 92
        7
 72
     1
 73
     1
 93
        4
 10
5122.200394360654
 20
-81.20724796295325
 42
-0.2069535139110707
 10
5106.200394360654
 20
-81.20724796295325
 42
0.0
 10
5106.200394360654
 20
-169.0853395865015
 42
-0.2069535139110707
 10
5122.200394360654
 20
-169.0853395865015
 42
0.0
 97
        0
 75
     0
 76
     1
 47
1.862397124826537
 98
        8
 10
4989.488219979495
 20
232.763838951756
 10
4995.081224419104
 20
137.7816161223054
 10
4987.623994357753
 20
-13.07252271390098
 10
4991.352445601238
 20
-137.8531809717933
 10
4987.623994357753
 20
-229.1106208614765
 10
5108.805866407624
 20
130.3320502427995
 10
5114.399198421612
 20
-11.21021719921191
 10
5110.670419603746
 20
-124.81652663786
  0
LINE
  5
520
330
470
100
AcDbEntity
  8
0
100
AcDbLine
 10
5095.700196417819
 20
-179.5855375293358
 30
0.0
 11
5009.574785320729
 21
-179.5855375293285
 31
0.0
  0
LINE
  5
521
330
470
100
AcDbEntity
  8
0
100
AcDbLine
 10
5095.700196417819
 20
-195.5855375293358
 30
0.0
 11
5009.574785320729
 21
-195.5855375293358
 31
0.0
  0
LINE
  5
522
330
470
100
AcDbEntity
  8
0
100
AcDbLine
 10
5009.574785320729
 20
-70.70705002011891
 30
0.0
 11
5095.700196417819
 21
-70.70705002011891
 31
0.0
  0
LINE
  5
523
330
470
100
AcDbEntity
  8
0
100
AcDbLine
 10
5009.574785320729
 20
-54.70705002011891
 30
0.0
 11
5095.700196417819
 21
-54.70705002011891
 31
0.0
  0
LINE
  5
524
330
470
100
AcDbEntity
  8
0
100
AcDbLine
 10
5095.700196417819
 20
54.60960762071408
 30
0.0
 11
5009.574785320729
 21
54.60960762071408
 31
0.0
  0
LINE
  5
525
330
470
100
AcDbEntity
  8
0
100
AcDbLine
 10
5095.700196417819
 20
70.60960762070681
 30
0.0
 11
5009.574785320729
 21
70.60960762070681
 31
0.0
  0
LINE
  5
526
330
470
100
AcDbEntity
  8
0
100
AcDbLine
 10
5009.574785320744
 20
179.4880951299455
 30
0.0
 11
5095.700196417819
 21
179.488095129931
 31
0.0
  0
LINE
  5
527
330
470
100
AcDbEntity
  8
0
100
AcDbLine
 10
5009.574785320729
 20
195.4880951299164
 30
0.0
 11
5095.700196417819
 21
195.4880951299164
 31
0.0
  0
HATCH
  5
528
330
470
100
AcDbEntity
  8
LAYER1
 62
   250
100
AcDbHatch
 10
0.0
 20
0.0
 30
0.0
210
0.0
220
0.0
230
1.0
  2
SOLID
 70
     1
 71
     0
 91
       24
 92
        7
 72
     1
 73
     1
 93
        4
 10
4251.994512980658
 20
265.0442084251153
 42
0.0
 10
4235.994512980673
 20
265.0442084251153
 42
0.0
 10
4235.994512980687
 20
205.9882930727581
 42
-0.2069535139106605
 10
4251.994512980658
 20
205.9882930727508
 42
0.0
 97
        0
 92
        7
 72
     1
 73
     1
 93
        4
 10
4251.994512980658
 20
168.9878971870821
 42
-0.2069535139104555
 10
4235.994512980702
 20
168.9878971870675
 42
0.0
 10
4235.994512980702
 20
81.10980556355571
 42
-0.2069535139104555
 10
4251.994512980658
 20
81.10980556354116
 42
0.0
 97
        0
 92
        7
 72
     1
 73
     1
 93
        4
 10
4251.994512980643
 20
44.10940967786518
 42
-0.2069535139104555
 10
4235.994512980687
 20
44.10940967786518
 42
0.0
 10
4235.994512980673
 20
-44.20685207727728
 42
-0.2069535139106605
 10
4251.994512980643
 20
-44.20685207727728
 42
0.0
 97
        0
 92
        7
 72
     1
 73
     1
 93
        4
 10
4251.994512980643
 20
-81.20724796296054
 42
-0.2069535139108656
 10
4235.994512980658
 20
-81.20724796295325
 42
0.0
 10
4235.994512980644
 20
-169.0853395865087
 42
-0.2069535139110707
 10
4251.994512980643
 20
-169.0853395864942
 42
0.0
 97
        0
 92
        7
 72
     1
 73
     1
 93
        4
 10
4251.994512980658
 20
-206.0857354721702
 42
-0.2069535139112757
 10
4235.994512980644
 20
-206.0857354721629
 42
0.0
 10
4235.994512980644
 20
-265.1416508245274
 42
0.0
 10
4251.994512980658
 20
-265.1416508245274
 42
0.0
 97
        0
 92
        7
 72
     1
 73
     1
 93
        4
 10
4376.873000489882
 20
168.9878971870821
 42
-0.2069535139110707
 10
4360.873000489882
 20
168.9878971870821
 42
0.0
 10
4360.873000489897
 20
81.10980556354844
 42
-0.2069535139108656
 10
4376.873000489882
 20
81.10980556354116
 42
0.0
 97
        0
 92
        7
 72
     1
 73
     1
 93
        4
 10
4376.873000489868
 20
44.10940967786518
 42
-0.2069535139106605
 10
4360.873000489897
 20
44.10940967786518
 42
0.0
 10
4360.873000489882
 20
-44.20685207728456
 42
-0.2069535139110707
 10
4376.873000489882
 20
-44.20685207728456
 42
0.0
 97
        0
 92
        7
 72
     1
 73
     1
 93
        4
 10
4376.873000489882
 20
-81.20724796295325
 42
-0.2069535139110707
 10
4360.873000489882
 20
-81.20724796295325
 42
0.0
 10
4360.873000489882
 20
-169.0853395865015
 42
-0.2069535139110707
 10
4376.873000489882
 20
-169.0853395865015
 42
0.0
 97
        0
 92
        7
 72
     1
 73
     1
 93
        4
 10
4501.751487999092
 20
265.0442084251153
 42
0.0
 10
4485.751487999092
 20
265.0442084251226
 42
0.0
 10
4485.751487999092
 20
205.9882930727508
 42
-0.2069535139110707
 10
4501.751487999092
 20
205.9882930727508
 42
0.0
 97
        0
 92
        7
 72
     1
 73
     1
 93
        4
 10
4501.751487999092
 20
168.9878971870821
 42
-0.2069535139112757
 10
4485.751487999078
 20
168.9878971870894
 42
0.0
 10
4485.751487999092
 20
81.10980556354116
 42
-0.2069535139110707
 10
4501.751487999092
 20
81.10980556354116
 42
0.0
 97
        0
 92
        7
 72
     1
 73
     1
 93
        4
 10
4501.751487999092
 20
44.10940967787246
 42
-0.2069535139110707
 10
4485.751487999092
 20
44.10940967787246
 42
0.0
 10
4485.751487999092
 20
-44.20685207728456
 42
-0.2069535139110707
 10
4501.751487999092
 20
-44.20685207728456
 42
0.0
 97
        0
 92
        7
 72
     1
 73
     1
 93
        4
 10
4501.751487999092
 20
-81.20724796295325
 42
-0.2069535139110707
 10
4485.751487999092
 20
-81.20724796295325
 42
0.0
 10
4485.751487999092
 20
-169.0853395865015
 42
-0.2069535139110707
 10
4501.751487999092
 20
-169.0853395865015
 42
0.0
 97
        0
 92
        7
 72
     1
 73
     1
 93
        4
 10
4501.751487999092
 20
-206.0857354721702
 42
-0.2069535139110707
 10
4485.751487999092
 20
-206.0857354721702
 42
0.0
 10
4485.751487999092
 20
-265.1416508245274
 42
0.0
 10
4501.751487999092
 20
-265.1416508245274
 42
0.0
 97
        0
 92
        7
 72
     1
 73
     1
 93
        4
 10
4626.629975508302
 20
168.9878971870821
 42
-0.2069535139112757
 10
4610.629975508287
 20
168.9878971870894
 42
0.0
 10
4610.629975508302
 20
81.10980556354116
 42
-0.2069535139110707
 10
4626.629975508302
 20
81.10980556354116
 42
0.0
 97
        0
 92
        7
 72
     1
 73
     1
 93
        4
 10
4626.629975508302
 20
44.10940967787246
 42
-0.2069535139114808
 10
4610.629975508273
 20
44.10940967788701
 42
0.0
 10
4610.629975508273
 20
-44.20685207729912
 42
-0.2069535139114808
 10
4626.629975508302
 20
-44.20685207728456
 42
0.0
 97
        0
 92
        7
 72
     1
 73
     1
 93
        4
 10
4626.629975508302
 20
-81.20724796295325
 42
-0.2069535139112757
 10
4610.629975508287
 20
-81.20724796294599
 42
0.0
 10
4610.629975508287
 20
-169.0853395865087
 42
-0.2069535139112757
 10
4626.629975508302
 20
-169.0853395865015
 42
0.0
 97
        0
 92
        7
 72
     1
 73
     1
 93
        4
 10
4751.070292885895
 20
265.044208425108
 42
0.0
 10
4735.070292885896
 20
265.044208425108
 42
0.0
 10
4735.07029288591
 20
205.9882930727508
 42
-0.2069535139110707
 10
4751.07029288591
 20
205.9882930727508
 42
0.0
 97
        0
 92
        7
 72
     1
 73
     1
 93
        4
 10
4751.07029288591
 20
168.9878971870821
 42
-0.2069535139112757
 10
4735.070292885896
 20
168.9878971870894
 42
0.0
 10
4735.07029288591
 20
81.10980556354116
 42
-0.2069535139110707
 10
4751.07029288591
 20
81.10980556354116
 42
0.0
 97
        0
 92
        7
 72
     1
 73
     1
 93
        4
 10
4751.07029288591
 20
44.10940967787246
 42
-0.2069535139110707
 10
4735.07029288591
 20
44.10940967787246
 42
0.0
 10
4735.07029288591
 20
-44.20685207728456
 42
-0.2069535139110707
 10
4751.07029288591
 20
-44.20685207728456
 42
0.0
 97
        0
 92
        7
 72
     1
 73
     1
 93
        4
 10
4751.07029288591
 20
-81.20724796295325
 42
-0.2069535139110707
 10
4735.07029288591
 20
-81.20724796295325
 42
0.0
 10
4735.07029288591
 20
-169.0853395865015
 42
-0.2069535139108656
 10
4751.070292885895
 20
-169.0853395864942
 42
0.0
 97
        0
 92
        7
 72
     1
 73
     1
 93
        4
 10
4751.070292885895
 20
-206.0857354721775
 42
-0.2069535139108656
 10
4735.07029288591
 20
-206.0857354721702
 42
0.0
 10
4735.07029288591
 20
-265.1416508245274
 42
0.0
 10
4751.070292885895
 20
-265.1416508245274
 42
0.0
 97
        0
 92
        7
 72
     1
 73
     1
 93
        4
 10
4875.072440131887
 20
168.9878971870748
 42
-0.2069535139108656
 10
4859.072440131902
 20
168.9878971870821
 42
0.0
 10
4859.072440131902
 20
81.10980556354116
 42
-0.2069535139108656
 10
4875.072440131887
 20
81.10980556354844
 42
0.0
 97
        0
 92
        7
 72
     1
 73
     1
 93
        4
 10
4875.072440131887
 20
44.10940967786518
 42
-0.2069535139108656
 10
4859.072440131902
 20
44.10940967787246
 42
0.0
 10
4859.072440131902
 20
-44.20685207728456
 42
-0.2069535139110707
 10
4875.072440131901
 20
-44.20685207728456
 42
0.0
 97
        0
 92
        7
 72
     1
 73
     1
 93
        4
 10
4875.072440131901
 20
-81.20724796295325
 42
-0.2069535139110707
 10
4859.072440131902
 20
-81.20724796295325
 42
0.0
 10
4859.072440131888
 20
-169.0853395865087
 42
-0.2069535139112757
 10
4875.072440131901
 20
-169.0853395865015
 42
0.0
 97
        0
 75
     0
 76
     1
 47
2.043058759071547
 98
       24
 10
4245.38539657327
 20
227.6171849779384
 10
4245.38539657327
 20
105.0337137211354
 10
4243.340349910708
 20
2.880763703684351
 10
4243.340349910708
 20
-123.7888461830843
 10
4245.38539657327
 20
-240.243195450148
 10
4366.051666597413
 20
117.2921296109743
 10
4366.051666597413
 20
-27.76519006573289
 10
4366.051666597413
 20
-121.7458628233107
 10
4498.989199319956
 20
235.7894622378407
 10
4494.898778420509
 20
113.2059909810377
 10
4494.898778420509
 20
-1.205374926281365
 10
4494.898778420509
 20
-111.5306022036347
 10
4494.898778420509
 20
-230.027934830472
 10
4619.655469344099
 20
123.4212516007137
 10
4617.610095107156
 20
-21.6358961656042
 10
4617.610095107156
 20
-101.3153415839878
 10
4744.411832693309
 20
231.703323607875
 10
4746.457206930251
 20
109.1198523511011
 10
4742.366786030746
 20
-11.42063554592823
 10
4744.411832693309
 20
-127.8749848130209
 10
4744.411832693309
 20
-242.2863507203401
 10
4865.078102717452
 20
127.5073902306503
 10
4867.123476954337
 20
4.923747063428891
 10
4867.123476954337
 20
-119.7027075531186
  0
HATCH
  5
529
330
470
100
AcDbEntity
  8
LAYER1
 62
   250
100
AcDbHatch
 10
0.0
 20
0.0
 30
0.0
210
0.0
220
0.0
230
1.0
  2
SOLID
 70
     1
 71
     0
 91
        8
 92
        7
 72
     1
 73
     1
 93
        4
 10
4002.237537962254
 20
265.044208425108
 42
0.0
 10
3986.237537962239
 20
265.044208425108
 42
0.0
 10
3986.237537962253
 20
205.9882930727581
 42
-0.2069535139110707
 10
4002.237537962254
 20
205.9882930727435
 42
0.0
 97
        0
 92
        7
 72
     1
 73
     1
 93
        4
 10
4002.237537962239
 20
168.9878971870821
 42
-0.2069535139110707
 10
3986.237537962239
 20
168.9878971870821
 42
0.0
 10
3986.237537962239
 20
81.10980556354116
 42
-0.2069535139110707
 10
4002.237537962239
 20
81.10980556354116
 42
0.0
 97
        0
 92
        7
 72
     1
 73
     1
 93
        4
 10
4002.237537962225
 20
44.10940967786518
 42
-0.2069535139108656
 10
3986.237537962239
 20
44.10940967787246
 42
0.0
 10
3986.237537962239
 20
-44.20685207728456
 42
-0.2069535139110707
 10
4002.237537962239
 20
-44.20685207728456
 42
0.0
 97
        0
 92
        7
 72
     1
 73
     1
 93
        4
 10
4002.237537962239
 20
-81.20724796295325
 42
-0.2069535139108656
 10
3986.237537962253
 20
-81.20724796296054
 42
0.0
 10
3986.237537962253
 20
-169.0853395864942
 42
-0.2069535139106605
 10
4002.237537962225
 20
-169.0853395864942
 42
0.0
 97
        0
 92
        7
 72
     1
 73
     1
 93
        4
 10
4002.237537962225
 20
-206.0857354721775
 42
-0.2069535139106605
 10
3986.237537962253
 20
-206.0857354721775
 42
0.0
 10
3986.237537962253
 20
-265.1416508245274
 42
0.0
 10
4002.237537962239
 20
-265.1416508245274
 42
0.0
 97
        0
 92
        7
 72
     1
 73
     1
 93
        4
 10
4127.116025471463
 20
168.9878971870894
 42
-0.2069535139112757
 10
4111.116025471448
 20
168.9878971870821
 42
0.0
 10
4111.116025471463
 20
81.10980556354844
 42
-0.2069535139108656
 10
4127.116025471448
 20
81.10980556354116
 42
0.0
 97
        0
 92
        7
 72
     1
 73
     1
 93
        4
 10
4127.116025471448
 20
44.10940967787246
 42
-0.2069535139106605
 10
4111.116025471477
 20
44.10940967786518
 42
0.0
 10
4111.116025471477
 20
-44.20685207727728
 42
-0.2069535139106605
 10
4127.116025471448
 20
-44.20685207728456
 42
0.0
 97
        0
 92
        7
 72
     1
 73
     1
 93
        4
 10
4127.116025471448
 20
-81.20724796295325
 42
-0.2069535139108656
 10
4111.116025471463
 20
-81.20724796296054
 42
0.0
 10
4111.116025471448
 20
-169.0853395865015
 42
-0.2069535139110707
 10
4127.116025471448
 20
-169.0853395865015
 42
0.0
 97
        0
 75
     0
 76
     1
 47
1.81916203270642
 98
       14
 10
3992.015481911993
 20
225.8133290040313
 10
3999.29975271695
 20
109.3868292239967
 10
3992.015481911993
 20
18.4286853650592
 10
3993.836467719681
 20
-134.3809344301807
 10
3997.478439334998
 20
-230.7965462913962
 10
4128.594986249852
 20
133.0360291443248
 10
3993.836467719681
 20
227.6324850047712
 10
3992.015481911993
 20
133.0360291443248
 10
3993.836467719681
 20
-12.49696664786824
 10
3995.65745352731
 20
-116.1892025121596
 10
3993.836467719681
 20
-232.6157022921652
 10
4115.847430447567
 20
122.1209212293506
 10
4121.310715444895
 20
-1.582030643312464
 10
4119.489729637265
 20
-107.0934225083437
  0
LINE
  5
52A
330
470
100
AcDbEntity
  8
0
100
AcDbLine
 10
4999.074587377909
 20
168.9878971870894
 30
0.0
 11
4999.074587377894
 21
81.10980556353387
 31
0.0
  0
LINE
  5
52B
330
470
100
AcDbEntity
  8
0
100
AcDbLine
 10
4983.074587377879
 20
168.9878971870894
 30
0.0
 11
4983.074587377894
 21
81.10980556353387
 31
0.0
  0
LINE
  5
52C
330
470
100
AcDbEntity
  8
0
100
AcDbLine
 10
4735.070292885896
 20
168.9878971870894
 30
0.0
 11
4735.07029288591
 21
81.10980556353387
 31
0.0
  0
LINE
  5
52D
330
470
100
AcDbEntity
  8
0
100
AcDbLine
 10
4751.07029288591
 20
168.9878971870821
 30
0.0
 11
4751.07029288591
 21
81.10980556353387
 31
0.0
  0
LINE
  5
52E
330
470
100
AcDbEntity
  8
0
100
AcDbLine
 10
4501.751487999092
 20
168.9878971870894
 30
0.0
 11
4501.751487999092
 21
81.10980556354116
 31
0.0
  0
LINE
  5
52F
330
470
100
AcDbEntity
  8
0
100
AcDbLine
 10
4485.751487999078
 20
168.9878971870894
 30
0.0
 11
4485.751487999092
 21
81.10980556353387
 31
0.0
  0
LINE
  5
530
330
470
100
AcDbEntity
  8
0
100
AcDbLine
 10
4235.994512980702
 20
168.9878971870675
 30
0.0
 11
4235.994512980702
 21
81.10980556355571
 31
0.0
  0
LINE
  5
531
330
470
100
AcDbEntity
  8
0
100
AcDbLine
 10
4251.994512980658
 20
168.9878971870894
 30
0.0
 11
4251.994512980658
 21
81.10980556353387
 31
0.0
  0
LINE
  5
532
330
470
100
AcDbEntity
  8
0
100
AcDbLine
 10
4002.237537962239
 20
168.9878971870821
 30
0.0
 11
4002.237537962239
 21
81.10980556354116
 31
0.0
  0
LINE
  5
533
330
470
100
AcDbEntity
  8
0
100
AcDbLine
 10
3986.237537962239
 20
168.9878971870821
 30
0.0
 11
3986.237537962239
 21
81.10980556354116
 31
0.0
  0
LINE
  5
534
330
470
100
AcDbEntity
  8
0
100
AcDbLine
 10
4859.072440131902
 20
168.9878971870821
 30
0.0
 11
4859.072440131902
 21
81.10980556353387
 31
0.0
  0
LINE
  5
535
330
470
100
AcDbEntity
  8
0
100
AcDbLine
 10
4875.072440131887
 20
168.9878971870821
 30
0.0
 11
4875.072440131887
 21
81.10980556354116
 31
0.0
  0
LINE
  5
536
330
470
100
AcDbEntity
  8
0
100
AcDbLine
 10
4610.629975508287
 20
168.9878971870894
 30
0.0
 11
4610.629975508302
 21
81.10980556353387
 31
0.0
  0
LINE
  5
537
330
470
100
AcDbEntity
  8
0
100
AcDbLine
 10
4626.629975508302
 20
168.9878971870821
 30
0.0
 11
4626.629975508302
 21
81.10980556353387
 31
0.0
  0
LINE
  5
538
330
470
100
AcDbEntity
  8
0
100
AcDbLine
 10
4360.873000489882
 20
168.9878971870821
 30
0.0
 11
4360.873000489897
 21
81.10980556354116
 31
0.0
  0
LINE
  5
539
330
470
100
AcDbEntity
  8
0
100
AcDbLine
 10
4376.873000489882
 20
168.9878971870821
 30
0.0
 11
4376.873000489882
 21
81.10980556353387
 31
0.0
  0
LINE
  5
53A
330
470
100
AcDbEntity
  8
0
100
AcDbLine
 10
4111.116025471448
 20
168.9878971870821
 30
0.0
 11
4111.116025471463
 21
81.10980556354116
 31
0.0
  0
LINE
  5
53B
330
470
100
AcDbEntity
  8
0
100
AcDbLine
 10
4127.116025471463
 20
168.9878971870894
 30
0.0
 11
4127.116025471448
 21
81.10980556353387
 31
0.0
  0
LINE
  5
53C
330
470
100
AcDbEntity
  8
0
100
AcDbLine
 10
3861.797220584645
 20
168.9878971870821
 30
0.0
 11
3861.797220584645
 21
81.10980556354116
 31
0.0
  0
LINE
  5
53D
330
470
100
AcDbEntity
  8
0
100
AcDbLine
 10
3877.797220584631
 20
168.9878971870821
 30
0.0
 11
3877.797220584631
 21
81.10980556353387
 31
0.0
  0
LINE
  5
53E
330
470
100
AcDbEntity
  8
0
100
AcDbLine
 10
4475.251290056258
 20
-179.5855375293285
 30
0.0
 11
4387.373198432717
 21
-179.5855375293285
 31
0.0
  0
LINE
  5
53F
330
470
100
AcDbEntity
  8
0
100
AcDbLine
 10
4475.251290056258
 20
-195.5855375293358
 30
0.0
 11
4387.373198432717
 21
-195.5855375293431
 31
0.0
  0
LINE
  5
540
330
470
100
AcDbEntity
  8
0
100
AcDbLine
 10
4387.373198432717
 20
-70.70705002011891
 30
0.0
 11
4475.251290056258
 21
-70.70705002011891
 31
0.0
  0
LINE
  5
541
330
470
100
AcDbEntity
  8
0
100
AcDbLine
 10
4387.373198432717
 20
-54.70705002011164
 30
0.0
 11
4475.251290056258
 21
-54.70705002011891
 31
0.0
  0
LINE
  5
542
330
470
100
AcDbEntity
  8
0
100
AcDbLine
 10
4475.251290056258
 20
54.60960762071408
 30
0.0
 11
4387.373198432717
 21
54.60960762071408
 31
0.0
  0
LINE
  5
543
330
470
100
AcDbEntity
  8
0
100
AcDbLine
 10
4475.251290056258
 20
70.60960762070681
 30
0.0
 11
4387.373198432717
 21
70.60960762070681
 31
0.0
  0
CIRCLE
  5
544
102
{ACAD_REACTORS
330
475
102
}
330
470
100
AcDbEntity
  8
0
100
AcDbCircle
 10
4119.116025471448
 20
-187.5855375293358
 30
0.0
 40
20.15582605412055
  0
CIRCLE
  5
545
102
{ACAD_REACTORS
330
475
102
}
330
470
100
AcDbEntity
  8
0
100
AcDbCircle
 10
4119.116025471448
 20
-62.70705002011891
 30
0.0
 40
20.15582605412055
  0
CIRCLE
  5
546
102
{ACAD_REACTORS
330
475
102
}
330
470
100
AcDbEntity
  8
0
100
AcDbCircle
 10
4119.116025471448
 20
62.60960762070681
 30
0.0
 40
20.15582605412055
  0
CIRCLE
  5
547
102
{ACAD_REACTORS
330
475
102
}
330
470
100
AcDbEntity
  8
0
100
AcDbCircle
 10
3994.237537962239
 20
-187.5855375293358
 30
0.0
 40
20.15582605412055
  0
CIRCLE
  5
548
102
{ACAD_REACTORS
330
475
102
}
330
470
100
AcDbEntity
  8
0
100
AcDbCircle
 10
3869.797220584631
 20
-187.5855375293358
 30
0.0
 40
20.15582605412055
  0
LINE
  5
549
330
470
100
AcDbEntity
  8
0
100
AcDbLine
 10
3975.737340019405
 20
-195.5855375293358
 30
0.0
 11
3888.297418527465
 21
-195.5855375293358
 31
0.0
  0
LINE
  5
54A
330
470
100
AcDbEntity
  8
0
100
AcDbLine
 10
3975.737340019419
 20
-179.5855375293212
 30
0.0
 11
3888.29741852745
 21
-179.5855375293212
 31
0.0
  0
LINE
  5
54B
330
470
100
AcDbEntity
  8
0
100
AcDbLine
 10
4100.615827528629
 20
-179.5855375293212
 30
0.0
 11
4012.737735905059
 21
-179.5855375293212
 31
0.0
  0
LINE
  5
54C
330
470
100
AcDbEntity
  8
0
100
AcDbLine
 10
4100.615827528614
 20
-195.5855375293358
 30
0.0
 11
4012.737735905073
 21
-195.5855375293358
 31
0.0
  0
LINE
  5
54D
330
470
100
AcDbEntity
  8
0
100
AcDbLine
 10
3986.237537962253
 20
-206.0857354721702
 30
0.0
 11
3986.237537962253
 21
-265.1416508245274
 31
0.0
  0
LINE
  5
54E
330
470
100
AcDbEntity
  8
0
100
AcDbLine
 10
4002.237537962225
 20
-206.0857354721775
 30
0.0
 11
4002.237537962225
 21
-265.1416508245274
 31
0.0
  0
LINE
  5
54F
330
470
100
AcDbEntity
  8
0
100
AcDbLine
 10
3888.297418527465
 20
-54.70705002011891
 30
0.0
 11
3975.737340019405
 21
-54.70705002011891
 31
0.0
  0
LINE
  5
550
330
470
100
AcDbEntity
  8
0
100
AcDbLine
 10
3888.297418527465
 20
-70.70705002012619
 30
0.0
 11
3975.737340019405
 21
-70.70705002012619
 31
0.0
  0
LINE
  5
551
330
470
100
AcDbEntity
  8
0
100
AcDbLine
 10
3975.737340019405
 20
54.60960762072136
 30
0.0
 11
3888.297418527465
 21
54.60960762072136
 31
0.0
  0
LINE
  5
552
330
470
100
AcDbEntity
  8
0
100
AcDbLine
 10
3975.737340019405
 20
70.60960762070681
 30
0.0
 11
3888.297418527465
 21
70.60960762071409
 31
0.0
  0
CIRCLE
  5
553
102
{ACAD_REACTORS
330
475
102
}
330
470
100
AcDbEntity
  8
0
100
AcDbCircle
 10
3869.797220584631
 20
-62.70705002011891
 30
0.0
 40
20.15582605412055
  0
LINE
  5
554
330
470
100
AcDbEntity
  8
0
100
AcDbLine
 10
3861.797220584645
 20
-81.20724796295325
 30
0.0
 11
3861.797220584645
 21
-169.0853395865015
 31
0.0
  0
LINE
  5
555
330
470
100
AcDbEntity
  8
0
100
AcDbLine
 10
3877.797220584631
 20
-81.20724796295325
 30
0.0
 11
3877.797220584631
 21
-169.0853395865015
 31
0.0
  0
CIRCLE
  5
556
102
{ACAD_REACTORS
330
475
102
}
330
470
100
AcDbEntity
  8
0
100
AcDbCircle
 10
3869.797220584631
 20
62.60960762070681
 30
0.0
 40
20.15582605412055
  0
LINE
  5
557
330
470
100
AcDbEntity
  8
0
100
AcDbLine
 10
3861.797220584645
 20
44.10940967787246
 30
0.0
 11
3861.797220584645
 21
-44.20685207728456
 31
0.0
  0
LINE
  5
558
330
470
100
AcDbEntity
  8
0
100
AcDbLine
 10
3877.797220584631
 20
44.10940967787974
 30
0.0
 11
3877.797220584631
 21
-44.20685207728456
 31
0.0
  0
CIRCLE
  5
559
102
{ACAD_REACTORS
330
475
102
}
330
470
100
AcDbEntity
  8
0
100
AcDbCircle
 10
3994.237537962239
 20
-62.70705002011891
 30
0.0
 40
20.15582605412055
  0
LINE
  5
55A
330
470
100
AcDbEntity
  8
0
100
AcDbLine
 10
4012.737735905073
 20
-54.70705002011891
 30
0.0
 11
4100.615827528614
 21
-54.70705002011164
 31
0.0
  0
LINE
  5
55B
330
470
100
AcDbEntity
  8
0
100
AcDbLine
 10
4012.737735905073
 20
-70.70705002012619
 30
0.0
 11
4100.615827528614
 21
-70.70705002012619
 31
0.0
  0
LINE
  5
55C
330
470
100
AcDbEntity
  8
0
100
AcDbLine
 10
3986.237537962253
 20
-81.20724796295325
 30
0.0
 11
3986.237537962253
 21
-169.0853395865015
 31
0.0
  0
LINE
  5
55D
330
470
100
AcDbEntity
  8
0
100
AcDbLine
 10
4002.237537962239
 20
-81.20724796295325
 30
0.0
 11
4002.237537962225
 21
-169.0853395864942
 31
0.0
  0
LINE
  5
55E
330
470
100
AcDbEntity
  8
0
100
AcDbLine
 10
4100.615827528614
 20
54.60960762072136
 30
0.0
 11
4012.737735905073
 21
54.60960762070681
 31
0.0
  0
LINE
  5
55F
330
470
100
AcDbEntity
  8
0
100
AcDbLine
 10
4100.615827528614
 20
70.60960762070681
 30
0.0
 11
4012.737735905073
 21
70.60960762070681
 31
0.0
  0
LINE
  5
560
330
470
100
AcDbEntity
  8
0
100
AcDbLine
 10
4002.237537962225
 20
44.10940967786518
 30
0.0
 11
4002.237537962239
 21
-44.20685207728456
 31
0.0
  0
LINE
  5
561
330
470
100
AcDbEntity
  8
0
100
AcDbLine
 10
3986.237537962239
 20
44.10940967787974
 30
0.0
 11
3986.237537962239
 21
-44.20685207728456
 31
0.0
  0
CIRCLE
  5
562
102
{ACAD_REACTORS
330
475
102
}
330
470
100
AcDbEntity
  8
0
100
AcDbCircle
 10
3994.237537962239
 20
62.60960762070681
 30
0.0
 40
20.15582605412055
  0
CIRCLE
  5
563
102
{ACAD_REACTORS
330
475
102
}
330
470
100
AcDbEntity
  8
0
100
AcDbCircle
 10
4243.994512980658
 20
-187.5855375293358
 30
0.0
 40
20.15582605412055
  0
CIRCLE
  5
564
102
{ACAD_REACTORS
330
475
102
}
330
470
100
AcDbEntity
  8
0
100
AcDbCircle
 10
4368.873000489883
 20
-187.5855375293358
 30
0.0
 40
20.15582605412055
  0
LINE
  5
565
330
470
100
AcDbEntity
  8
0
100
AcDbLine
 10
4350.372802547048
 20
-179.5855375293285
 30
0.0
 11
4262.494710923493
 21
-179.5855375293285
 31
0.0
  0
LINE
  5
566
330
470
100
AcDbEntity
  8
0
100
AcDbLine
 10
4350.372802547048
 20
-195.5855375293431
 30
0.0
 11
4262.494710923493
 21
-195.5855375293358
 31
0.0
  0
LINE
  5
567
330
470
100
AcDbEntity
  8
0
100
AcDbLine
 10
4225.494315037823
 20
-179.5855375293285
 30
0.0
 11
4137.616223414268
 21
-179.5855375293212
 31
0.0
  0
LINE
  5
568
330
470
100
AcDbEntity
  8
0
100
AcDbLine
 10
4225.494315037823
 20
-195.5855375293358
 30
0.0
 11
4137.616223414283
 21
-195.5855375293358
 31
0.0
  0
LINE
  5
569
330
470
100
AcDbEntity
  8
0
100
AcDbLine
 10
4251.994512980658
 20
-206.0857354721702
 30
0.0
 11
4251.994512980658
 21
-265.1416508245274
 31
0.0
  0
LINE
  5
56A
330
470
100
AcDbEntity
  8
0
100
AcDbLine
 10
4235.994512980644
 20
-206.0857354721629
 30
0.0
 11
4235.994512980644
 21
-265.1416508245274
 31
0.0
  0
LINE
  5
56B
330
470
100
AcDbEntity
  8
0
100
AcDbLine
 10
4262.494710923493
 20
-70.70705002011891
 30
0.0
 11
4350.372802547048
 21
-70.70705002011891
 31
0.0
  0
LINE
  5
56C
330
470
100
AcDbEntity
  8
0
100
AcDbLine
 10
4262.494710923493
 20
-54.70705002011164
 30
0.0
 11
4350.372802547048
 21
-54.70705002011164
 31
0.0
  0
LINE
  5
56D
330
470
100
AcDbEntity
  8
0
100
AcDbLine
 10
4350.372802547048
 20
54.60960762071408
 30
0.0
 11
4262.494710923493
 21
54.60960762072136
 31
0.0
  0
LINE
  5
56E
330
470
100
AcDbEntity
  8
0
100
AcDbLine
 10
4350.372802547048
 20
70.60960762070681
 30
0.0
 11
4262.494710923493
 21
70.60960762071409
 31
0.0
  0
CIRCLE
  5
56F
102
{ACAD_REACTORS
330
475
102
}
330
470
100
AcDbEntity
  8
0
100
AcDbCircle
 10
4243.994512980658
 20
-62.70705002011891
 30
0.0
 40
20.15582605412055
  0
CIRCLE
  5
570
102
{ACAD_REACTORS
330
475
102
}
330
470
100
AcDbEntity
  8
0
100
AcDbCircle
 10
4243.994512980658
 20
62.60960762070681
 30
0.0
 40
20.15582605412055
  0
LINE
  5
571
330
470
100
AcDbEntity
  8
0
100
AcDbLine
 10
4137.616223414283
 20
-54.70705002011164
 30
0.0
 11
4225.494315037823
 21
-54.70705002011164
 31
0.0
  0
LINE
  5
572
330
470
100
AcDbEntity
  8
0
100
AcDbLine
 10
4137.616223414283
 20
-70.70705002012619
 30
0.0
 11
4225.494315037823
 21
-70.70705002011891
 31
0.0
  0
LINE
  5
573
330
470
100
AcDbEntity
  8
0
100
AcDbLine
 10
4111.116025471463
 20
-81.20724796296054
 30
0.0
 11
4111.116025471448
 21
-169.0853395865015
 31
0.0
  0
LINE
  5
574
330
470
100
AcDbEntity
  8
0
100
AcDbLine
 10
4127.116025471448
 20
-81.20724796294599
 30
0.0
 11
4127.116025471448
 21
-169.0853395865015
 31
0.0
  0
LINE
  5
575
330
470
100
AcDbEntity
  8
0
100
AcDbLine
 10
4235.994512980658
 20
-81.20724796295325
 30
0.0
 11
4235.994512980644
 21
-169.0853395865087
 31
0.0
  0
LINE
  5
576
330
470
100
AcDbEntity
  8
0
100
AcDbLine
 10
4251.994512980643
 20
-81.20724796296054
 30
0.0
 11
4251.994512980643
 21
-169.0853395865015
 31
0.0
  0
LINE
  5
577
330
470
100
AcDbEntity
  8
0
100
AcDbLine
 10
4225.494315037823
 20
54.60960762072136
 30
0.0
 11
4137.616223414283
 21
54.60960762072136
 31
0.0
  0
LINE
  5
578
330
470
100
AcDbEntity
  8
0
100
AcDbLine
 10
4225.494315037823
 20
70.60960762070681
 30
0.0
 11
4137.616223414283
 21
70.60960762070681
 31
0.0
  0
LINE
  5
579
330
470
100
AcDbEntity
  8
0
100
AcDbLine
 10
4127.116025471448
 20
44.10940967787974
 30
0.0
 11
4127.116025471448
 21
-44.20685207729184
 31
0.0
  0
LINE
  5
57A
330
470
100
AcDbEntity
  8
0
100
AcDbLine
 10
4111.116025471477
 20
44.10940967786518
 30
0.0
 11
4111.116025471477
 21
-44.20685207727728
 31
0.0
  0
LINE
  5
57B
330
470
100
AcDbEntity
  8
0
100
AcDbLine
 10
4251.994512980643
 20
44.10940967786518
 30
0.0
 11
4251.994512980643
 21
-44.20685207727728
 31
0.0
  0
LINE
  5
57C
330
470
100
AcDbEntity
  8
0
100
AcDbLine
 10
4235.994512980687
 20
44.10940967786518
 30
0.0
 11
4235.994512980673
 21
-44.20685207728456
 31
0.0
  0
CIRCLE
  5
57D
102
{ACAD_REACTORS
330
475
102
}
330
470
100
AcDbEntity
  8
0
100
AcDbCircle
 10
4368.873000489883
 20
-62.70705002011891
 30
0.0
 40
20.15582605412055
  0
LINE
  5
57E
330
470
100
AcDbEntity
  8
0
100
AcDbLine
 10
4360.873000489882
 20
-81.20724796295325
 30
0.0
 11
4360.873000489882
 21
-169.0853395865015
 31
0.0
  0
LINE
  5
57F
330
470
100
AcDbEntity
  8
0
100
AcDbLine
 10
4376.873000489882
 20
-81.20724796295325
 30
0.0
 11
4376.873000489882
 21
-169.0853395865015
 31
0.0
  0
LINE
  5
580
330
470
100
AcDbEntity
  8
0
100
AcDbLine
 10
4376.873000489868
 20
44.10940967787246
 30
0.0
 11
4376.873000489882
 21
-44.20685207728456
 31
0.0
  0
LINE
  5
581
330
470
100
AcDbEntity
  8
0
100
AcDbLine
 10
4360.873000489897
 20
44.10940967786518
 30
0.0
 11
4360.873000489882
 21
-44.20685207728456
 31
0.0
  0
CIRCLE
  5
582
102
{ACAD_REACTORS
330
475
102
}
330
470
100
AcDbEntity
  8
0
100
AcDbCircle
 10
4368.873000489883
 20
62.60960762070681
 30
0.0
 40
20.15582605412055
  0
CIRCLE
  5
583
102
{ACAD_REACTORS
330
475
102
}
330
470
100
AcDbEntity
  8
0
100
AcDbCircle
 10
4743.070292885909
 20
-187.5855375293358
 30
0.0
 40
20.15582605412055
  0
CIRCLE
  5
584
102
{ACAD_REACTORS
330
475
102
}
330
470
100
AcDbEntity
  8
0
100
AcDbCircle
 10
4743.070292885909
 20
-62.70705002011891
 30
0.0
 40
20.15582605412055
  0
CIRCLE
  5
585
102
{ACAD_REACTORS
330
475
102
}
330
470
100
AcDbEntity
  8
0
100
AcDbCircle
 10
4743.070292885909
 20
62.60960762070681
 30
0.0
 40
20.15582605412055
  0
CIRCLE
  5
586
102
{ACAD_REACTORS
330
475
102
}
330
470
100
AcDbEntity
  8
0
100
AcDbCircle
 10
4493.751487999092
 20
-187.5855375293358
 30
0.0
 40
20.15582605412055
  0
CIRCLE
  5
587
102
{ACAD_REACTORS
330
475
102
}
330
470
100
AcDbEntity
  8
0
100
AcDbCircle
 10
4618.629975508302
 20
-187.5855375293358
 30
0.0
 40
20.15582605412055
  0
LINE
  5
588
330
470
100
AcDbEntity
  8
0
100
AcDbLine
 10
4600.129777565467
 20
-195.5855375293358
 30
0.0
 11
4512.251685941926
 21
-195.5855375293358
 31
0.0
  0
LINE
  5
589
330
470
100
AcDbEntity
  8
0
100
AcDbLine
 10
4600.129777565467
 20
-179.5855375293285
 30
0.0
 11
4512.251685941926
 21
-179.5855375293285
 31
0.0
  0
LINE
  5
58A
330
470
100
AcDbEntity
  8
0
100
AcDbLine
 10
4485.751487999092
 20
-206.0857354721702
 30
0.0
 11
4485.751487999092
 21
-265.1416508245274
 31
0.0
  0
LINE
  5
58B
330
470
100
AcDbEntity
  8
0
100
AcDbLine
 10
4501.751487999092
 20
-206.0857354721702
 30
0.0
 11
4501.751487999092
 21
-265.1416508245274
 31
0.0
  0
LINE
  5
58C
330
470
100
AcDbEntity
  8
0
100
AcDbLine
 10
4724.570094943075
 20
-195.5855375293358
 30
0.0
 11
4637.130173451136
 21
-195.5855375293358
 31
0.0
  0
LINE
  5
58D
330
470
100
AcDbEntity
  8
0
100
AcDbLine
 10
4724.570094943075
 20
-179.5855375293285
 30
0.0
 11
4637.130173451136
 21
-179.5855375293285
 31
0.0
  0
LINE
  5
58E
330
470
100
AcDbEntity
  8
0
100
AcDbLine
 10
4735.07029288591
 20
-206.0857354721702
 30
0.0
 11
4735.07029288591
 21
-265.1416508245274
 31
0.0
  0
LINE
  5
58F
330
470
100
AcDbEntity
  8
0
100
AcDbLine
 10
4512.251685941926
 20
-70.70705002011891
 30
0.0
 11
4600.129777565467
 21
-70.70705002012619
 31
0.0
  0
LINE
  5
590
330
470
100
AcDbEntity
  8
0
100
AcDbLine
 10
4512.251685941926
 20
-54.70705002011891
 30
0.0
 11
4600.129777565467
 21
-54.70705002011891
 31
0.0
  0
LINE
  5
591
330
470
100
AcDbEntity
  8
0
100
AcDbLine
 10
4600.129777565467
 20
54.60960762070681
 30
0.0
 11
4512.251685941926
 21
54.60960762070681
 31
0.0
  0
LINE
  5
592
330
470
100
AcDbEntity
  8
0
100
AcDbLine
 10
4600.129777565467
 20
70.60960762070681
 30
0.0
 11
4512.251685941926
 21
70.60960762069953
 31
0.0
  0
CIRCLE
  5
593
102
{ACAD_REACTORS
330
475
102
}
330
470
100
AcDbEntity
  8
0
100
AcDbCircle
 10
4493.751487999092
 20
-62.70705002011891
 30
0.0
 40
20.15582605412055
  0
LINE
  5
594
330
470
100
AcDbEntity
  8
0
100
AcDbLine
 10
4485.751487999092
 20
-81.20724796294599
 30
0.0
 11
4485.751487999092
 21
-169.0853395865015
 31
0.0
  0
LINE
  5
595
330
470
100
AcDbEntity
  8
0
100
AcDbLine
 10
4501.751487999092
 20
-81.20724796294599
 30
0.0
 11
4501.751487999092
 21
-169.0853395865015
 31
0.0
  0
CIRCLE
  5
596
102
{ACAD_REACTORS
330
475
102
}
330
470
100
AcDbEntity
  8
0
100
AcDbCircle
 10
4493.751487999092
 20
62.60960762070681
 30
0.0
 40
20.15582605412055
  0
LINE
  5
597
330
470
100
AcDbEntity
  8
0
100
AcDbLine
 10
4485.751487999092
 20
44.10940967787974
 30
0.0
 11
4485.751487999092
 21
-44.20685207729184
 31
0.0
  0
LINE
  5
598
330
470
100
AcDbEntity
  8
0
100
AcDbLine
 10
4501.751487999092
 20
44.10940967787246
 30
0.0
 11
4501.751487999092
 21
-44.20685207729184
 31
0.0
  0
CIRCLE
  5
599
102
{ACAD_REACTORS
330
475
102
}
330
470
100
AcDbEntity
  8
0
100
AcDbCircle
 10
4618.629975508302
 20
-62.70705002011891
 30
0.0
 40
20.15582605412055
  0
LINE
  5
59A
330
470
100
AcDbEntity
  8
0
100
AcDbLine
 10
4637.130173451136
 20
-54.70705002011891
 30
0.0
 11
4724.570094943075
 21
-54.70705002011891
 31
0.0
  0
LINE
  5
59B
330
470
100
AcDbEntity
  8
0
100
AcDbLine
 10
4637.130173451136
 20
-70.70705002012619
 30
0.0
 11
4724.570094943075
 21
-70.70705002012619
 31
0.0
  0
LINE
  5
59C
330
470
100
AcDbEntity
  8
0
100
AcDbLine
 10
4610.629975508287
 20
-81.20724796294599
 30
0.0
 11
4610.629975508287
 21
-169.0853395865087
 31
0.0
  0
LINE
  5
59D
330
470
100
AcDbEntity
  8
0
100
AcDbLine
 10
4626.629975508302
 20
-81.20724796295325
 30
0.0
 11
4626.629975508302
 21
-169.0853395865015
 31
0.0
  0
LINE
  5
59E
330
470
100
AcDbEntity
  8
0
100
AcDbLine
 10
4735.07029288591
 20
-81.20724796295325
 30
0.0
 11
4735.07029288591
 21
-169.0853395865015
 31
0.0
  0
LINE
  5
59F
330
470
100
AcDbEntity
  8
0
100
AcDbLine
 10
4724.570094943075
 20
54.60960762070681
 30
0.0
 11
4637.130173451136
 21
54.60960762071408
 31
0.0
  0
LINE
  5
5A0
330
470
100
AcDbEntity
  8
0
100
AcDbLine
 10
4724.570094943075
 20
70.60960762070681
 30
0.0
 11
4637.130173451136
 21
70.60960762070681
 31
0.0
  0
LINE
  5
5A1
330
470
100
AcDbEntity
  8
0
100
AcDbLine
 10
4626.629975508302
 20
44.10940967787974
 30
0.0
 11
4626.629975508302
 21
-44.20685207728456
 31
0.0
  0
LINE
  5
5A2
330
470
100
AcDbEntity
  8
0
100
AcDbLine
 10
4610.629975508273
 20
44.10940967788701
 30
0.0
 11
4610.629975508273
 21
-44.20685207729912
 31
0.0
  0
CIRCLE
  5
5A3
102
{ACAD_REACTORS
330
475
102
}
330
470
100
AcDbEntity
  8
0
100
AcDbCircle
 10
4618.629975508302
 20
62.60960762070681
 30
0.0
 40
20.15582605412055
  0
LINE
  5
5A4
330
470
100
AcDbEntity
  8
0
100
AcDbLine
 10
4735.07029288591
 20
44.10940967787974
 30
0.0
 11
4735.07029288591
 21
-44.20685207728456
 31
0.0
  0
CIRCLE
  5
5A5
102
{ACAD_REACTORS
330
475
102
}
330
470
100
AcDbEntity
  8
0
100
AcDbCircle
 10
4867.072440131902
 20
-187.5855375293358
 30
0.0
 40
20.15582605412055
  0
CIRCLE
  5
5A6
102
{ACAD_REACTORS
330
475
102
}
330
470
100
AcDbEntity
  8
0
100
AcDbCircle
 10
4991.074587377894
 20
-187.5855375293358
 30
0.0
 40
20.15582605412055
  0
LINE
  5
5A7
330
470
100
AcDbEntity
  8
0
100
AcDbLine
 10
4972.57438943506
 20
-195.5855375293358
 30
0.0
 11
4885.572638074736
 21
-195.5855375293358
 31
0.0
  0
LINE
  5
5A8
330
470
100
AcDbEntity
  8
0
100
AcDbLine
 10
4972.57438943506
 20
-179.5855375293285
 30
0.0
 11
4885.572638074736
 21
-179.5855375293285
 31
0.0
  0
LINE
  5
5A9
330
470
100
AcDbEntity
  8
0
100
AcDbLine
 10
4848.572242189067
 20
-179.5855375293285
 30
0.0
 11
4761.570490828744
 21
-179.5855375293285
 31
0.0
  0
LINE
  5
5AA
330
470
100
AcDbEntity
  8
0
100
AcDbLine
 10
4848.572242189067
 20
-195.5855375293358
 30
0.0
 11
4761.570490828744
 21
-195.5855375293358
 31
0.0
  0
LINE
  5
5AB
330
470
100
AcDbEntity
  8
0
100
AcDbLine
 10
4751.070292885895
 20
-206.0857354721702
 30
0.0
 11
4751.07029288591
 21
-265.1416508245274
 31
0.0
  0
LINE
  5
5AC
330
470
100
AcDbEntity
  8
0
100
AcDbLine
 10
4983.074587377894
 20
-206.0857354721702
 30
0.0
 11
4983.074587377894
 21
-265.1416508245274
 31
0.0
  0
LINE
  5
5AD
330
470
100
AcDbEntity
  8
0
100
AcDbLine
 10
4999.074587377894
 20
-206.0857354721702
 30
0.0
 11
4999.074587377894
 21
-265.1416508245274
 31
0.0
  0
LINE
  5
5AE
330
470
100
AcDbEntity
  8
0
100
AcDbLine
 10
4885.572638074736
 20
-54.70705002011891
 30
0.0
 11
4972.57438943506
 21
-54.70705002011891
 31
0.0
  0
LINE
  5
5AF
330
470
100
AcDbEntity
  8
0
100
AcDbLine
 10
4885.572638074736
 20
-70.70705002011891
 30
0.0
 11
4972.57438943506
 21
-70.70705002011891
 31
0.0
  0
LINE
  5
5B0
330
470
100
AcDbEntity
  8
0
100
AcDbLine
 10
4972.57438943506
 20
54.60960762071408
 30
0.0
 11
4885.572638074736
 21
54.60960762071408
 31
0.0
  0
LINE
  5
5B1
330
470
100
AcDbEntity
  8
0
100
AcDbLine
 10
4972.57438943506
 20
70.60960762070681
 30
0.0
 11
4885.572638074736
 21
70.60960762070681
 31
0.0
  0
CIRCLE
  5
5B2
102
{ACAD_REACTORS
330
475
102
}
330
470
100
AcDbEntity
  8
0
100
AcDbCircle
 10
4867.072440131902
 20
-62.70705002011891
 30
0.0
 40
20.15582605412055
  0
LINE
  5
5B3
330
470
100
AcDbEntity
  8
0
100
AcDbLine
 10
4761.570490828744
 20
-54.70705002011891
 30
0.0
 11
4848.572242189067
 21
-54.70705002011891
 31
0.0
  0
LINE
  5
5B4
330
470
100
AcDbEntity
  8
0
100
AcDbLine
 10
4761.570490828744
 20
-70.70705002012619
 30
0.0
 11
4848.572242189067
 21
-70.70705002011891
 31
0.0
  0
LINE
  5
5B5
330
470
100
AcDbEntity
  8
0
100
AcDbLine
 10
4751.07029288591
 20
-81.20724796294599
 30
0.0
 11
4751.070292885895
 21
-169.0853395865015
 31
0.0
  0
LINE
  5
5B6
330
470
100
AcDbEntity
  8
0
100
AcDbLine
 10
4859.072440131902
 20
-81.20724796295325
 30
0.0
 11
4859.072440131888
 21
-169.0853395865087
 31
0.0
  0
LINE
  5
5B7
330
470
100
AcDbEntity
  8
0
100
AcDbLine
 10
4875.072440131901
 20
-81.20724796295325
 30
0.0
 11
4875.072440131901
 21
-169.0853395865015
 31
0.0
  0
LINE
  5
5B8
330
470
100
AcDbEntity
  8
0
100
AcDbLine
 10
4848.572242189067
 20
54.60960762071408
 30
0.0
 11
4761.570490828744
 21
54.60960762069953
 31
0.0
  0
LINE
  5
5B9
330
470
100
AcDbEntity
  8
0
100
AcDbLine
 10
4848.572242189067
 20
70.60960762070681
 30
0.0
 11
4761.570490828744
 21
70.60960762070681
 31
0.0
  0
LINE
  5
5BA
330
470
100
AcDbEntity
  8
0
100
AcDbLine
 10
4751.07029288591
 20
44.10940967787974
 30
0.0
 11
4751.07029288591
 21
-44.20685207729184
 31
0.0
  0
LINE
  5
5BB
330
470
100
AcDbEntity
  8
0
100
AcDbLine
 10
4859.072440131902
 20
44.10940967787246
 30
0.0
 11
4859.072440131902
 21
-44.20685207728456
 31
0.0
  0
LINE
  5
5BC
330
470
100
AcDbEntity
  8
0
100
AcDbLine
 10
4875.072440131887
 20
44.10940967787246
 30
0.0
 11
4875.072440131901
 21
-44.20685207728456
 31
0.0
  0
CIRCLE
  5
5BD
102
{ACAD_REACTORS
330
475
102
}
330
470
100
AcDbEntity
  8
0
100
AcDbCircle
 10
4867.072440131902
 20
62.60960762070681
 30
0.0
 40
20.15582605412055
  0
CIRCLE
  5
5BE
102
{ACAD_REACTORS
330
475
102
}
330
470
100
AcDbEntity
  8
0
100
AcDbCircle
 10
4991.074587377894
 20
-62.70705002011891
 30
0.0
 40
20.15582605412055
  0
LINE
  5
5BF
330
470
100
AcDbEntity
  8
0
100
AcDbLine
 10
4983.074587377879
 20
-81.20724796294599
 30
0.0
 11
4983.074587377894
 21
-169.0853395865087
 31
0.0
  0
LINE
  5
5C0
330
470
100
AcDbEntity
  8
0
100
AcDbLine
 10
4999.074587377894
 20
-81.20724796294599
 30
0.0
 11
4999.074587377894
 21
-169.0853395865015
 31
0.0
  0
CIRCLE
  5
5C1
102
{ACAD_REACTORS
330
475
102
}
330
470
100
AcDbEntity
  8
0
100
AcDbCircle
 10
4991.074587377894
 20
62.60960762070681
 30
0.0
 40
20.15582605412055
  0
LINE
  5
5C2
330
470
100
AcDbEntity
  8
0
100
AcDbLine
 10
4999.074587377909
 20
44.10940967787974
 30
0.0
 11
4999.074587377894
 21
-44.20685207729184
 31
0.0
  0
LINE
  5
5C3
330
470
100
AcDbEntity
  8
0
100
AcDbLine
 10
4983.074587377879
 20
44.10940967787974
 30
0.0
 11
4983.074587377879
 21
-44.20685207729184
 31
0.0
  0
LINE
  5
5C4
330
470
100
AcDbEntity
  8
0
100
AcDbLine
 10
4387.373198432731
 20
179.4880951299383
 30
0.0
 11
4475.251290056244
 21
179.4880951299383
 31
0.0
  0
LINE
  5
5C5
330
470
100
AcDbEntity
  8
0
100
AcDbLine
 10
4387.373198432702
 20
195.488095129931
 30
0.0
 11
4475.251290056273
 21
195.488095129931
 31
0.0
  0
CIRCLE
  5
5C6
102
{ACAD_REACTORS
330
475
102
}
330
470
100
AcDbEntity
  8
0
100
AcDbCircle
 10
4119.116025471448
 20
187.4880951299164
 30
0.0
 40
20.15582605412055
  0
LINE
  5
5C7
330
470
100
AcDbEntity
  8
0
100
AcDbLine
 10
3888.297418527465
 20
195.4880951299237
 30
0.0
 11
3975.737340019405
 21
195.4880951299237
 31
0.0
  0
LINE
  5
5C8
330
470
100
AcDbEntity
  8
0
100
AcDbLine
 10
3888.297418527465
 20
179.488095129931
 30
0.0
 11
3975.737340019405
 21
179.4880951299237
 31
0.0
  0
CIRCLE
  5
5C9
102
{ACAD_REACTORS
330
475
102
}
330
470
100
AcDbEntity
  8
0
100
AcDbCircle
 10
3869.797220584631
 20
187.4880951299164
 30
0.0
 40
20.15582605412055
  0
LINE
  5
5CA
330
470
100
AcDbEntity
  8
0
100
AcDbLine
 10
3986.237537962239
 20
265.0442084251153
 30
0.0
 11
3986.237537962253
 21
205.9882930727508
 31
0.0
  0
LINE
  5
5CB
330
470
100
AcDbEntity
  8
0
100
AcDbLine
 10
4002.237537962254
 20
265.0442084251153
 30
0.0
 11
4002.237537962254
 21
205.9882930727435
 31
0.0
  0
LINE
  5
5CC
330
470
100
AcDbEntity
  8
0
100
AcDbLine
 10
4012.737735905073
 20
179.488095129931
 30
0.0
 11
4100.615827528614
 21
179.488095129931
 31
0.0
  0
LINE
  5
5CD
330
470
100
AcDbEntity
  8
0
100
AcDbLine
 10
4012.737735905059
 20
195.4880951299383
 30
0.0
 11
4100.615827528629
 21
195.488095129931
 31
0.0
  0
CIRCLE
  5
5CE
102
{ACAD_REACTORS
330
475
102
}
330
470
100
AcDbEntity
  8
0
100
AcDbCircle
 10
3994.237537962239
 20
187.4880951299164
 30
0.0
 40
20.15582605412055
  0
LINE
  5
5CF
330
470
100
AcDbEntity
  8
0
100
AcDbLine
 10
4262.494710923507
 20
179.4880951299383
 30
0.0
 11
4350.372802547048
 21
179.4880951299383
 31
0.0
  0
LINE
  5
5D0
330
470
100
AcDbEntity
  8
0
100
AcDbLine
 10
4262.494710923478
 20
195.4880951299383
 30
0.0
 11
4350.372802547062
 21
195.488095129931
 31
0.0
  0
CIRCLE
  5
5D1
102
{ACAD_REACTORS
330
475
102
}
330
470
100
AcDbEntity
  8
0
100
AcDbCircle
 10
4243.994512980658
 20
187.4880951299164
 30
0.0
 40
20.15582605412055
  0
LINE
  5
5D2
330
470
100
AcDbEntity
  8
0
100
AcDbLine
 10
4235.994512980673
 20
265.0442084251153
 30
0.0
 11
4235.994512980687
 21
205.9882930727581
 31
0.0
  0
LINE
  5
5D3
330
470
100
AcDbEntity
  8
0
100
AcDbLine
 10
4251.994512980658
 20
265.0442084251153
 30
0.0
 11
4251.994512980658
 21
205.9882930727435
 31
0.0
  0
LINE
  5
5D4
330
470
100
AcDbEntity
  8
0
100
AcDbLine
 10
4137.616223414283
 20
179.4880951299383
 30
0.0
 11
4225.494315037823
 21
179.4880951299383
 31
0.0
  0
LINE
  5
5D5
330
470
100
AcDbEntity
  8
0
100
AcDbLine
 10
4137.616223414268
 20
195.488095129931
 30
0.0
 11
4225.494315037838
 21
195.488095129931
 31
0.0
  0
CIRCLE
  5
5D6
102
{ACAD_REACTORS
330
475
102
}
330
470
100
AcDbEntity
  8
0
100
AcDbCircle
 10
4368.873000489883
 20
187.4880951299164
 30
0.0
 40
20.15582605412055
  0
CIRCLE
  5
5D7
102
{ACAD_REACTORS
330
475
102
}
330
470
100
AcDbEntity
  8
0
100
AcDbCircle
 10
4743.070292885909
 20
187.4880951299164
 30
0.0
 40
20.15582605412055
  0
LINE
  5
5D8
330
470
100
AcDbEntity
  8
0
100
AcDbLine
 10
4512.251685941926
 20
179.4880951299383
 30
0.0
 11
4600.129777565467
 21
179.4880951299164
 31
0.0
  0
LINE
  5
5D9
330
470
100
AcDbEntity
  8
0
100
AcDbLine
 10
4512.251685941912
 20
195.488095129931
 30
0.0
 11
4600.129777565482
 21
195.488095129931
 31
0.0
  0
LINE
  5
5DA
330
470
100
AcDbEntity
  8
0
100
AcDbLine
 10
4485.751487999092
 20
265.0442084251153
 30
0.0
 11
4485.751487999092
 21
205.9882930727435
 31
0.0
  0
LINE
  5
5DB
330
470
100
AcDbEntity
  8
0
100
AcDbLine
 10
4501.751487999092
 20
265.0442084251153
 30
0.0
 11
4501.751487999092
 21
205.9882930727435
 31
0.0
  0
CIRCLE
  5
5DC
102
{ACAD_REACTORS
330
475
102
}
330
470
100
AcDbEntity
  8
0
100
AcDbCircle
 10
4493.751487999092
 20
187.4880951299164
 30
0.0
 40
20.15582605412055
  0
LINE
  5
5DD
330
470
100
AcDbEntity
  8
0
100
AcDbLine
 10
4735.07029288591
 20
265.0442084251153
 30
0.0
 11
4735.07029288591
 21
205.9882930727435
 31
0.0
  0
LINE
  5
5DE
330
470
100
AcDbEntity
  8
0
100
AcDbLine
 10
4637.130173451136
 20
179.4880951299383
 30
0.0
 11
4724.570094943061
 21
179.4880951299528
 31
0.0
  0
LINE
  5
5DF
330
470
100
AcDbEntity
  8
0
100
AcDbLine
 10
4637.130173451121
 20
195.488095129931
 30
0.0
 11
4724.570094943075
 21
195.4880951299237
 31
0.0
  0
CIRCLE
  5
5E0
102
{ACAD_REACTORS
330
475
102
}
330
470
100
AcDbEntity
  8
0
100
AcDbCircle
 10
4618.629975508302
 20
187.4880951299164
 30
0.0
 40
20.15582605412055
  0
LINE
  5
5E1
330
470
100
AcDbEntity
  8
0
100
AcDbLine
 10
4885.572638074751
 20
179.4880951299383
 30
0.0
 11
4972.57438943506
 21
179.488095129931
 31
0.0
  0
LINE
  5
5E2
330
470
100
AcDbEntity
  8
0
100
AcDbLine
 10
4885.572638074736
 20
195.4880951299237
 30
0.0
 11
4972.57438943506
 21
195.4880951299164
 31
0.0
  0
LINE
  5
5E3
330
470
100
AcDbEntity
  8
0
100
AcDbLine
 10
4751.07029288591
 20
265.0442084251153
 30
0.0
 11
4751.07029288591
 21
205.9882930727435
 31
0.0
  0
LINE
  5
5E4
330
470
100
AcDbEntity
  8
0
100
AcDbLine
 10
4761.570490828758
 20
179.4880951299383
 30
0.0
 11
4848.572242189053
 21
179.4880951299455
 31
0.0
  0
LINE
  5
5E5
330
470
100
AcDbEntity
  8
0
100
AcDbLine
 10
4761.570490828744
 20
195.4880951299237
 30
0.0
 11
4848.572242189067
 21
195.4880951299237
 31
0.0
  0
CIRCLE
  5
5E6
102
{ACAD_REACTORS
330
475
102
}
330
470
100
AcDbEntity
  8
0
100
AcDbCircle
 10
4867.072440131902
 20
187.4880951299164
 30
0.0
 40
20.15582605412055
  0
LINE
  5
5E7
330
470
100
AcDbEntity
  8
0
100
AcDbLine
 10
4983.074587377894
 20
265.0442084251153
 30
0.0
 11
4983.074587377894
 21
205.9882930727435
 31
0.0
  0
LINE
  5
5E8
330
470
100
AcDbEntity
  8
0
100
AcDbLine
 10
4999.074587377894
 20
265.0442084251153
 30
0.0
 11
4999.074587377894
 21
205.9882930727435
 31
0.0
  0
CIRCLE
  5
5E9
102
{ACAD_REACTORS
330
475
102
}
330
470
100
AcDbEntity
  8
0
100
AcDbCircle
 10
4991.074587377894
 20
187.4880951299164
 30
0.0
 40
20.15582605412055
  0
HATCH
  5
5EA
330
470
100
AcDbEntity
  8
0
 62
   250
100
AcDbHatch
 10
0.0
 20
0.0
 30
0.0
210
0.0
220
0.0
230
1.0
  2
SOLID
 70
     1
 71
     1
 91
        4
 92
        7
 72
     1
 73
     1
 93
        2
 10
5134.356220414775
 20
187.4880951299164
 42
1.0
 10
5094.044568306533
 20
187.4880951299164
 42
1.0
 97
        1
330
622
 92
        7
 72
     1
 73
     1
 93
        2
 10
5134.356220414775
 20
62.60960762070681
 42
1.0
 10
5094.044568306533
 20
62.60960762070681
 42
1.0
 97
        1
330
60A
 92
        7
 72
     1
 73
     1
 93
        2
 10
5134.356220414775
 20
-62.70705002011891
 42
1.0
 10
5094.044568306533
 20
-62.70705002011891
 42
1.0
 97
        1
330
605
 92
        7
 72
     1
 73
     1
 93
        2
 10
5134.356220414775
 20
-187.5855375293358
 42
1.0
 10
5094.044568306533
 20
-187.5855375293358
 42
1.0
 97
        1
330
5FD
 75
     0
 76
     1
 47
2.578915206347007
 98
        4
 10
5106.536758890186
 20
189.114237647871
 10
5116.863212676879
 20
62.74736200015832
 10
5114.281599230235
 20
-71.35634182883586
 10
5116.863212676879
 20
-195.1442174459916
  0
LINE
  5
5EB
330
470
100
AcDbEntity
  8
0
100
AcDbLine
 10
5106.200394360654
 20
168.9878971870821
 30
0.0
 11
5106.200394360654
 21
81.10980556353387
 31
0.0
  0
LINE
  5
5EC
330
470
100
AcDbEntity
  8
0
100
AcDbLine
 10
5122.200394360668
 20
168.9878971870894
 30
0.0
 11
5122.200394360654
 21
81.10980556353387
 31
0.0
  0
LINE
  5
5ED
330
470
100
AcDbEntity
  8
0
100
AcDbLine
 10
5258.819164270942
 20
-263.4246786586918
 30
0.0
 11
5258.819164270942
 21
229.0285833065245
 31
0.0
  0
HATCH
  5
5EE
330
470
100
AcDbEntity
  8
0
 62
    10
100
AcDbHatch
 10
0.0
 20
0.0
 30
0.0
210
0.0
220
0.0
230
1.0
  2
SOLID
 70
     1
 71
     0
 91
        2
 92
        7
 72
     1
 73
     1
 93
        2
 10
5993.356407284533
 20
-208.4533617499146
 42
1.0
 10
5993.356407284533
 20
-131.1087256576902
 42
0.0
 97
        0
 92
        7
 72
     1
 73
     1
 93
        2
 10
5993.356407284561
 20
106.874770010716
 42
1.0
 10
5993.356407284533
 20
184.2194061029404
 42
0.0
 97
        0
 75
     0
 76
     1
 47
2.054966041547646
 98
        2
 10
6003.131320285524
 20
-168.7657447809069
 10
6007.245542607474
 20
149.7540012706849
  0
HATCH
  5
5EF
330
470
100
AcDbEntity
  8
0
 62
    70
100
AcDbHatch
 10
0.0
 20
0.0
 30
0.0
210
0.0
220
0.0
230
1.0
  2
SOLID
 70
     1
 71
     0
 91
        1
 92
        7
 72
     1
 73
     1
 93
       12
 10
5980.22139450736
 20
-268.4246786586918
 42
0.0
 10
5980.22139450736
 20
-365.6924571022427
 42
0.0
 10
5993.356407284533
 20
-365.6924571022282
 42
0.0
 10
5993.356407284561
 20
364.4069099661537
 42
0.0
 10
5971.685200000182
 20
364.4069099661683
 42
0.0
 10
5971.685200000211
 20
267.6449675877774
 42
0.0
 10
5976.834051237674
 20
267.6449675877774
 42
0.0
 10
5976.834051237704
 20
248.1528879029465
 42
0.0
 10
5976.834051237704
 20
229.0285833065245
 42
0.0
 10
5971.685200000182
 20
229.028583306539
 42
0.0
 10
5971.685200000182
 20
-263.4246786586918
 42
0.0
 10
5975.22139450736
 20
-263.4246786586918
 42
-0.4142135623730951
 97
        0
 75
     0
 76
     1
 47
3.042209499609478
 98
        1
 10
5978.652084082598
 20
29.67447005299254
  0
LINE
  5
5F0
330
470
100
AcDbEntity
  8
0
100
AcDbLine
 10
5971.685200000182
 20
229.0285833065245
 30
0.0
 11
5971.685200000182
 21
-263.4246786586918
 31
0.0
  0
HATCH
  5
5F1
330
470
100
AcDbEntity
  8
0
 62
     6
100
AcDbHatch
 10
0.0
 20
0.0
 30
0.0
210
0.0
220
0.0
230
1.0
  2
SOLID
 70
     1
 71
     0
 91
        2
 92
        7
 72
     1
 73
     1
 93
        3
 10
5993.356407284533
 20
-235.2265050126043
 42
0.5219667480029689
 10
6029.637916115055
 20
-183.1676153351472
 42
-0.3140891564316131
 10
5993.356407284533
 20
-208.4533617499146
 42
0.0
 97
        0
 92
        7
 72
     1
 73
     1
 93
        2
 10
5993.356407284533
 20
317.6601518884381
 42
0.0
 10
5993.356407284533
 20
240.3155157962137
 42
1.0
 97
        0
 75
     0
 76
     1
 47
2.054966041547646
 98
        2
 10
6003.131320285524
 20
-220.1398964712316
 10
6015.473987251404
 20
262.7771312750665
  0
HATCH
  5
5F2
330
470
100
AcDbEntity
  8
0
 62
     4
100
AcDbHatch
 10
0.0
 20
0.0
 30
0.0
210
0.0
220
0.0
230
1.0
  2
SOLID
 70
     1
 71
     0
 91
        3
 92
        7
 72
     1
 73
     1
 93
        3
 10
5993.356407284533
 20
-235.2265050125897
 42
0.0
 10
5993.356407284533
 20
-254.350178771685
 42
0.4894351530564882
 10
6030.827989297453
 20
-206.1160238460324
 42
-0.3427909203673021
 97
        0
 92
        7
 72
     1
 73
     1
 93
        2
 10
5993.356407284561
 20
-77.56243913229628
 42
1.0
 10
5993.356407284533
 20
-0.2178030400718853
 42
0.0
 97
        0
 92
        7
 72
     1
 73
     1
 93
        3
 10
5993.356407284533
 20
233.5159873485354
 42
0.0
 10
5993.356407284533
 20
184.2194061029404
 42
-0.2235473832412309
 10
6023.155903126491
 20
170.1953786796184
 42
0.6345913753681723
 97
        0
 75
     0
 76
     1
 47
2.054966041547646
 98
        3
 10
6009.302653768449
 20
-238.6345825367352
 10
6009.302653768449
 20
-43.41281168500791
 10
6011.359764929424
 20
207.2930452208929
  0
LINE
  5
5F3
330
470
100
AcDbEntity
  8
0
100
AcDbLine
 10
5993.356407284533
 20
-365.6924571022427
 30
0.0
 11
5993.356407284533
 21
364.4069099661683
 31
0.0
  0
HATCH
  5
5F4
330
470
100
AcDbEntity
  8
0
 62
    30
100
AcDbHatch
 10
0.0
 20
0.0
 30
0.0
210
0.0
220
0.0
230
1.0
  2
SOLID
 70
     1
 71
     0
 91
        6
 92
        7
 72
     0
 73
     1
 93
        4
 10
5976.834051237704
 20
248.1528879029465
 10
5976.834051237704
 20
267.6449675877629
 10
5866.501524719788
 20
267.6449675877774
 10
5866.501524719788
 20
248.1528879029465
 97
        0
 92
        7
 72
     0
 73
     1
 93
        4
 10
5976.834051237704
 20
229.0285833065245
 10
5976.834051237704
 20
248.1528879029465
 10
5866.501524719788
 20
248.1528879029465
 10
5866.501524719788
 20
229.0285833065245
 97
        0
 92
        7
 72
     0
 73
     1
 93
        4
 10
5346.099774643662
 20
248.152887902961
 10
5346.099774643692
 20
267.6449675877774
 10
5235.767248125775
 20
267.6449675877629
 10
5235.767248125775
 20
248.1528879029465
 97
        0
 92
        7
 72
     0
 73
     1
 93
        4
 10
5346.099774643692
 20
229.0285833065099
 10
5346.099774643692
 20
248.1528879029465
 10
5235.767248125775
 20
248.152887902961
 10
5235.767248125775
 20
229.028583306539
 97
        0
 92
        7
 72
     1
 73
     1
 93
        8
 10
5975.22139450736
 20
-373.4246786586918
 42
0.4142135623730951
 10
5980.22139450736
 20
-368.4246786586918
 42
0.0
 10
5980.22139450736
 20
-268.4246786586918
 42
0.4142135623730951
 10
5975.22139450736
 20
-263.4246786586918
 42
0.0
 10
5875.221394507359
 20
-263.4246786586918
 42
0.4142135623730951
 10
5870.22139450736
 20
-268.4246786586918
 42
0.0
 10
5870.22139450736
 20
-368.4246786586918
 42
0.4142135623730951
 10
5875.221394507359
 20
-373.4246786586918
 42
0.0
 97
        0
 92
        7
 72
     1
 73
     1
 93
        8
 10
5338.819164270943
 20
-373.4246786586918
 42
0.4142135623730951
 10
5343.819164270943
 20
-368.4246786586918
 42
0.0
 10
5343.819164270943
 20
-268.4246786586918
 42
0.4142135623730951
 10
5338.819164270943
 20
-263.4246786586918
 42
0.0
 10
5238.819164270942
 20
-263.4246786586918
 42
0.4142135623730951
 10
5233.819164270943
 20
-268.4246786586918
 42
0.0
 10
5233.819164270943
 20
-368.4246786586918
 42
0.4142135623730951
 10
5238.819164270942
 20
-373.4246786586918
 42
0.0
 97
        0
 75
     0
 76
     1
 47
2.839104083486171
 98
        6
 10
5895.367765864008
 20
258.7808875010196
 10
5884.011456760141
 20
238.8863476197548
 10
5301.99498560786
 20
255.9388103751079
 10
5290.63851565888
 20
244.570501871578
 10
5926.59793758986
 20
-355.1053197765759
 10
5301.99498560786
 20
-309.6323922517512
  0
HATCH
  5
5F5
330
470
100
AcDbEntity
  8
0
 62
   250
100
AcDbHatch
 10
0.0
 20
0.0
 30
0.0
210
0.0
220
0.0
230
1.0
  2
SOLID
 70
     1
 71
     0
 91
        1
 92
        7
 72
     1
 73
     1
 93
       22
 10
5870.22139450736
 20
-307.4801113410976
 42
0.0
 10
5870.22139450736
 20
-268.4246786586918
 42
-0.4142135623730951
 10
5875.221394507359
 20
-263.4246786586918
 42
0.0
 10
5971.685200000182
 20
-263.4246786586918
 42
0.0
 10
5971.685200000182
 20
229.028583306539
 42
0.0
 10
5866.501524719788
 20
229.0285833065245
 42
0.0
 10
5866.501524719788
 20
248.1528879029465
 42
0.0
 10
5866.501524719788
 20
267.6449675877629
 42
0.0
 10
5871.650375957281
 20
267.6449675877629
 42
0.0
 10
5871.650375957281
 20
351.8654628297917
 42
-0.2000000000000608
 10
5854.153856959165
 20
359.1556790790018
 42
0.0
 10
5358.479752856773
 20
359.1556790790018
 42
-0.200484672216692
 10
5340.95092340617
 20
351.8328200704672
 42
0.0
 10
5340.95092340617
 20
267.6449675877774
 42
0.0
 10
5346.099774643692
 20
267.6449675877774
 42
0.0
 10
5346.099774643692
 20
248.1528879029465
 42
0.0
 10
5346.099774643692
 20
229.0285833065245
 42
0.0
 10
5258.819164270942
 20
229.028583306539
 42
0.0
 10
5258.819164270942
 20
-263.4246786586918
 42
0.0
 10
5338.819164270943
 20
-263.4246786586918
 42
-0.4142135623730951
 10
5343.819164270943
 20
-268.4246786586918
 42
0.0
 10
5343.819164270943
 20
-307.4801113410831
 42
0.0
 97
        0
 75
     0
 76
     1
 47
3.042209499609478
 98
        1
 10
5598.375770001178
 20
-19.05153701617746
  0
HATCH
  5
5F6
330
470
100
AcDbEntity
  8
0
 62
   250
100
AcDbHatch
 10
0.0
 20
0.0
 30
0.0
210
0.0
220
0.0
230
1.0
  2
SOLID
 70
     1
 71
     0
 91
        1
 92
        7
 72
     0
 73
     1
 93
        4
 10
5870.22139450736
 20
-373.7788914027951
 10
5870.221394507375
 20
-327.4801113410831
 10
5343.819164270929
 20
-327.4801113410831
 10
5343.819164270943
 20
-373.7788914027951
 97
        0
 75
     0
 76
     1
 47
1.552538807914906
 98
        1
 10
5621.271724373102
 20
-354.8744634952782
  0
HATCH
  5
5F7
330
470
100
AcDbEntity
  8
0
 62
   150
100
AcDbHatch
 10
0.0
 20
0.0
 30
0.0
210
0.0
220
0.0
230
1.0
  2
SOLID
 70
     1
 71
     0
 91
        1
 92
        7
 72
     0
 73
     1
 93
        4
 10
5870.22139450736
 20
-327.4801113410685
 10
5870.22139450736
 20
-307.4801113410685
 10
5343.819164270943
 20
-307.4801113410831
 10
5343.819164270914
 20
-327.4801113410831
 97
        0
 75
     0
 76
     1
 47
4.694293360222218
 98
        1
 10
5579.804028054379
 20
-318.1648760695134
  0
LINE
  5
5F8
330
470
100
AcDbEntity
  8
0
 62
     3
100
AcDbLine
 10
5870.22139450736
 20
-327.4801113410831
 30
0.0
 11
5343.819164270943
 21
-327.4801113410831
 31
0.0
  0
LINE
  5
5F9
330
470
100
AcDbEntity
  8
0
100
AcDbLine
 10
5343.819164270943
 20
-327.4801113410831
 30
0.0
 11
5870.22139450736
 21
-327.4801113410831
 31
0.0
  0
LINE
  5
5FA
330
470
100
AcDbEntity
  8
0
100
AcDbLine
 10
5343.819164270943
 20
-307.4801113410831
 30
0.0
 11
5870.22139450736
 21
-307.4801113410831
 31
0.0
  0
LINE
  5
5FB
330
470
100
AcDbEntity
  8
0
100
AcDbLine
 10
5935.40071237793
 20
-373.7788914027951
 30
0.0
 11
5278.671591792431
 21
-373.7788914027951
 31
0.0
  0
LWPOLYLINE
  5
5FC
330
470
100
AcDbEntity
  8
0
100
AcDbPolyline
 90
        4
 70
     1
 43
0.0
 10
5343.819164270943
 20
-373.7788914027951
 10
5343.819164270943
 20
-327.4801113410831
 10
5870.22139450736
 20
-327.4801113410831
 10
5870.22139450736
 20
-373.7788914027951
  0
CIRCLE
  5
5FD
102
{ACAD_REACTORS
330
5EA
102
}
330
470
100
AcDbEntity
  8
0
100
AcDbCircle
 10
5114.200394360654
 20
-187.5855375293358
 30
0.0
 40
20.15582605412055
  0
LINE
  5
5FE
330
470
100
AcDbEntity
  8
0
100
AcDbLine
 10
5258.819164270957
 20
-195.5855375293358
 30
0.0
 11
5132.700592303489
 21
-195.5855375293358
 31
0.0
  0
LINE
  5
5FF
330
470
100
AcDbEntity
  8
0
100
AcDbLine
 10
5258.819164270957
 20
-179.5855375293358
 30
0.0
 11
5132.700592303489
 21
-179.5855375293358
 31
0.0
  0
LWPOLYLINE
  5
600
102
{ACAD_REACTORS
330
482
102
}
330
470
100
AcDbEntity
  8
0
100
AcDbPolyline
 90
        8
 70
     1
 43
0.0
 10
5338.819164270943
 20
-263.4246786586918
 10
5238.819164270942
 20
-263.4246786586918
 42
0.4142135623730951
 10
5233.819164270943
 20
-268.4246786586918
 10
5233.819164270943
 20
-368.4246786586918
 42
0.4142135623730951
 10
5238.819164270942
 20
-373.4246786586918
 10
5338.819164270943
 20
-373.4246786586918
 42
0.4142135623730951
 10
5343.819164270943
 20
-368.4246786586918
 10
5343.819164270943
 20
-268.4246786586918
 42
0.4142135623730951
  0
LINE
  5
601
330
470
100
AcDbEntity
  8
0
100
AcDbLine
 10
5132.700592303489
 20
-70.70705002011891
 30
0.0
 11
5258.819164270957
 21
-70.70705002012619
 31
0.0
  0
LINE
  5
602
330
470
100
AcDbEntity
  8
0
100
AcDbLine
 10
5132.700592303489
 20
-54.70705002011891
 30
0.0
 11
5258.819164270957
 21
-54.70705002011891
 31
0.0
  0
LINE
  5
603
330
470
100
AcDbEntity
  8
0
100
AcDbLine
 10
5258.819164270957
 20
54.60960762071408
 30
0.0
 11
5132.700592303489
 21
54.60960762070681
 31
0.0
  0
LINE
  5
604
330
470
100
AcDbEntity
  8
0
100
AcDbLine
 10
5258.819164270957
 20
70.60960762070681
 30
0.0
 11
5132.700592303489
 21
70.60960762070681
 31
0.0
  0
CIRCLE
  5
605
102
{ACAD_REACTORS
330
5EA
102
}
330
470
100
AcDbEntity
  8
0
100
AcDbCircle
 10
5114.200394360654
 20
-62.70705002011891
 30
0.0
 40
20.15582605412055
  0
LINE
  5
606
330
470
100
AcDbEntity
  8
0
100
AcDbLine
 10
5106.200394360654
 20
-81.20724796294599
 30
0.0
 11
5106.200394360654
 21
-169.0853395865015
 31
0.0
  0
LINE
  5
607
330
470
100
AcDbEntity
  8
0
100
AcDbLine
 10
5122.200394360654
 20
-81.20724796294599
 30
0.0
 11
5122.200394360654
 21
-169.0853395865015
 31
0.0
  0
LINE
  5
608
330
470
100
AcDbEntity
  8
0
100
AcDbLine
 10
5106.200394360654
 20
44.10940967787974
 30
0.0
 11
5106.200394360654
 21
-44.20685207729184
 31
0.0
  0
LINE
  5
609
330
470
100
AcDbEntity
  8
0
100
AcDbLine
 10
5122.200394360668
 20
44.10940967787974
 30
0.0
 11
5122.200394360654
 21
-44.20685207729184
 31
0.0
  0
CIRCLE
  5
60A
102
{ACAD_REACTORS
330
5EA
102
}
330
470
100
AcDbEntity
  8
0
100
AcDbCircle
 10
5114.200394360654
 20
62.60960762070681
 30
0.0
 40
20.15582605412055
  0
ARC
  5
60B
330
470
100
AcDbEntity
  8
0
100
AcDbCircle
 10
5993.356407284561
 20
-169.7810437038097
 30
0.0
 40
38.67231804611583
100
AcDbArc
 50
270.0
 51
90.0
  0
ARC
  5
60C
330
470
100
AcDbEntity
  8
0
100
AcDbCircle
 10
5993.356407284561
 20
-38.89012108619136
 30
0.0
 40
38.67231804611583
100
AcDbArc
 50
270.0
 51
90.0
  0
ARC
  5
60D
330
470
100
AcDbEntity
  8
0
100
AcDbCircle
 10
5993.356407284561
 20
-196.5541869664994
 30
0.0
 40
38.67231804611583
100
AcDbArc
 50
270.0
 51
20.25224674218556
  0
ARC
  5
60E
330
470
100
AcDbEntity
  8
0
100
AcDbCircle
 10
5993.356407284561
 20
-215.6778607255801
 30
0.0
 40
38.67231804610492
100
AcDbArc
 50
270.0
 51
14.31500326849102
  0
LWPOLYLINE
  5
60F
330
470
100
AcDbEntity
  8
0
100
AcDbPolyline
 90
        8
 70
     1
 43
0.0
 10
5975.22139450736
 20
-263.4246786586918
 10
5875.221394507359
 20
-263.4246786586918
 42
0.4142135623730951
 10
5870.22139450736
 20
-268.4246786586918
 10
5870.22139450736
 20
-368.4246786586918
 42
0.4142135623730951
 10
5875.221394507359
 20
-373.4246786586918
 10
5975.22139450736
 20
-373.4246786586918
 42
0.4142135623730951
 10
5980.22139450736
 20
-368.4246786586918
 10
5980.22139450736
 20
-268.4246786586918
 42
0.4142135623730951
  0
LINE
  5
610
330
470
100
AcDbEntity
  8
0
100
AcDbLine
 10
5980.22139450736
 20
-365.6924571022427
 30
0.0
 11
5993.356407284533
 21
-365.6924571022427
 31
0.0
  0
HATCH
  5
611
330
470
100
AcDbEntity
  8
0
 62
   150
100
AcDbHatch
 10
0.0
 20
0.0
 30
0.0
210
0.0
220
0.0
230
1.0
  2
SOLID
 70
     1
 71
     0
 91
        2
 92
        7
 72
     1
 73
     1
 93
        4
 10
5871.650375957281
 20
893.5981680326767
 42
0.0
 10
5871.650375957281
 20
942.8800298773531
 42
0.2009685438464969
 10
5854.089356178679
 20
935.5245281094649
 42
0.0
 10
5854.089356178679
 20
900.9536698005504
 42
0.2009685438464102
 97
        0
 92
        7
 72
     1
 73
     1
 93
        4
 10
5358.479752856773
 20
900.8883842819159
 42
0.0
 10
5358.479752856773
 20
935.5245281094649
 42
0.2004846722166156
 10
5340.95092340617
 20
942.8473871180285
 42
0.0
 10
5340.95092340617
 20
893.5655252733523
 42
0.200484672216724
 97
        0
 75
     0
 76
     1
 47
1.950875136170907
 98
        2
 10
5860.491693185759
 20
925.5452022722565
 10
5347.41153336683
 20
927.4981084740392
  0
LINE
  5
612
330
470
100
AcDbEntity
  8
0
100
AcDbLine
 10
5854.153856959194
 20
900.8883842818868
 30
0.0
 11
5358.479752856773
 21
900.8883842819013
 31
0.0
  0
LINE
  5
613
330
470
100
AcDbEntity
  8
0
100
AcDbLine
 10
5854.089356178651
 20
935.5245281094649
 30
0.0
 11
5358.479752856773
 21
935.5245281094649
 31
0.0
  0
HATCH
  5
614
330
470
100
AcDbEntity
  8
0
 62
    50
100
AcDbHatch
 10
0.0
 20
0.0
 30
0.0
210
0.0
220
0.0
230
1.0
  2
SOLID
 70
     1
 71
     0
 91
        1
 92
        7
 72
     0
 73
     1
 93
        4
 10
5854.089356178679
 20
900.8883842818868
 10
5854.089356178679
 20
935.5245281094649
 10
5358.479752856773
 20
935.5245281094649
 10
5358.479752856773
 20
900.8883842819013
 97
        0
 75
     0
 76
     1
 47
1.950875136170907
 98
        1
 10
5431.299161653762
 20
907.969005879535
  0
LINE
  5
615
330
470
100
AcDbEntity
  8
0
100
AcDbLine
 10
5854.153856959194
 20
359.1556790790018
 30
0.0
 11
5358.479752856773
 21
359.1556790790018
 31
0.0
  0
LINE
  5
616
330
470
100
AcDbEntity
  8
0
100
AcDbLine
 10
5854.089356178651
 20
393.7918229065799
 30
0.0
 11
5358.479752856773
 21
393.7918229065799
 31
0.0
  0
LINE
  5
617
330
470
100
AcDbEntity
  8
0
100
AcDbLine
 10
5854.153856959194
 20
605.1972132139162
 30
0.0
 11
5358.479752856773
 21
605.1972132139308
 31
0.0
  0
LINE
  5
618
330
470
100
AcDbEntity
  8
0
100
AcDbLine
 10
5854.089356178651
 20
639.8333570414942
 30
0.0
 11
5358.479752856773
 21
639.8333570414942
 31
0.0
  0
HATCH
  5
619
330
470
100
AcDbEntity
  8
0
 62
   150
100
AcDbHatch
 10
0.0
 20
0.0
 30
0.0
210
0.0
220
0.0
230
1.0
  2
SOLID
 70
     1
 71
     0
 91
        2
 92
        7
 72
     1
 73
     1
 93
        4
 10
5871.650375957281
 20
351.8654628297917
 42
0.0
 10
5871.650375957281
 20
401.1473246744389
 42
0.2009685438464969
 10
5854.089356178679
 20
393.7918229065653
 42
0.0
 10
5854.089356178679
 20
359.2209645976509
 42
0.2009685438464102
 97
        0
 92
        7
 72
     1
 73
     1
 93
        4
 10
5358.479752856773
 20
359.1556790790018
 42
0.0
 10
5358.479752856773
 20
393.7918229065799
 42
0.2004846722166156
 10
5340.95092340617
 20
401.1146819151145
 42
0.0
 10
5340.95092340617
 20
351.8328200704527
 42
0.200484672216724
 97
        0
 75
     0
 76
     1
 47
1.950875136170907
 98
        2
 10
5860.491693185759
 20
383.812497069357
 10
5347.41153336683
 20
385.7654032711543
  0
HATCH
  5
61A
330
470
100
AcDbEntity
  8
0
 62
    50
100
AcDbHatch
 10
0.0
 20
0.0
 30
0.0
210
0.0
220
0.0
230
1.0
  2
SOLID
 70
     1
 71
     0
 91
        1
 92
        7
 72
     0
 73
     1
 93
        4
 10
5854.089356178679
 20
359.1556790790018
 10
5854.089356178679
 20
393.7918229065799
 10
5358.479752856773
 20
393.7918229065653
 10
5358.479752856773
 20
359.1556790790018
 97
        0
 75
     0
 76
     1
 47
1.950875136170907
 98
        1
 10
5431.299161653762
 20
366.2363006766208
  0
HATCH
  5
61B
330
470
100
AcDbEntity
  8
0
 62
   150
100
AcDbHatch
 10
0.0
 20
0.0
 30
0.0
210
0.0
220
0.0
230
1.0
  2
SOLID
 70
     1
 71
     0
 91
        2
 92
        7
 72
     1
 73
     1
 93
        4
 10
5871.650375957281
 20
597.9069969647062
 42
0.0
 10
5871.650375957281
 20
647.1888588093825
 42
0.2009685438464969
 10
5854.089356178679
 20
639.8333570414942
 42
0.0
 10
5854.089356178679
 20
605.2624987325798
 42
0.2009685438464102
 97
        0
 92
        7
 72
     1
 73
     1
 93
        4
 10
5358.479752856773
 20
605.1972132139454
 42
0.0
 10
5358.479752856773
 20
639.8333570414942
 42
0.2004846722166156
 10
5340.95092340617
 20
647.156216050058
 42
0.0
 10
5340.95092340617
 20
597.8743542053816
 42
0.200484672216724
 97
        0
 75
     0
 76
     1
 47
1.950875136170907
 98
        2
 10
5860.491693185759
 20
629.854031204286
 10
5347.41153336683
 20
631.8069374060687
  0
HATCH
  5
61C
330
470
100
AcDbEntity
  8
0
 62
    50
100
AcDbHatch
 10
0.0
 20
0.0
 30
0.0
210
0.0
220
0.0
230
1.0
  2
SOLID
 70
     1
 71
     0
 91
        1
 92
        7
 72
     0
 73
     1
 93
        4
 10
5854.089356178679
 20
605.1972132139162
 10
5854.089356178679
 20
639.8333570415088
 10
5358.479752856773
 20
639.8333570415088
 10
5358.479752856773
 20
605.1972132139162
 97
        0
 75
     0
 76
     1
 47
1.950875136170907
 98
        1
 10
5431.299161653762
 20
612.2778348115644
  0
LINE
  5
61D
330
470
100
AcDbEntity
  8
0
100
AcDbLine
 10
5358.479752856773
 20
639.8333570414942
 30
0.0
 11
5358.479752856773
 21
605.1972132139308
 31
0.0
  0
LINE
  5
61E
330
470
100
AcDbEntity
  8
0
100
AcDbLine
 10
5340.95092340617
 20
605.1972132139162
 30
0.0
 11
5340.95092340617
 21
639.8333570414942
 31
0.0
  0
ARC
  5
61F
330
470
100
AcDbEntity
  8
0
100
AcDbCircle
 10
5340.95092340617
 20
376.4737509927836
 30
0.0
 40
24.64093092233088
100
AcDbArc
 50
270.0
 51
315.3465263664042
  0
LINE
  5
620
330
470
100
AcDbEntity
  8
0
100
AcDbLine
 10
5132.700592303489
 20
179.488095129931
 30
0.0
 11
5258.819164270957
 21
179.4880951299237
 31
0.0
  0
LINE
  5
621
330
470
100
AcDbEntity
  8
0
100
AcDbLine
 10
5132.700592303489
 20
195.4880951299164
 30
0.0
 11
5258.819164270957
 21
195.4880951299092
 31
0.0
  0
CIRCLE
  5
622
102
{ACAD_REACTORS
330
5EA
102
}
330
470
100
AcDbEntity
  8
0
100
AcDbCircle
 10
5114.200394360654
 20
187.4880951299164
 30
0.0
 40
20.15582605412055
  0
LWPOLYLINE
  5
623
102
{ACAD_REACTORS
330
482
102
}
330
470
100
AcDbEntity
  8
0
100
AcDbPolyline
 90
        4
 70
     1
 43
0.0
 10
5346.099774643692
 20
248.1528879029465
 10
5346.099774643692
 20
267.6449675877774
 10
5235.767248125775
 20
267.6449675877774
 10
5235.767248125775
 20
248.1528879029465
  0
LWPOLYLINE
  5
624
330
470
100
AcDbEntity
  8
0
100
AcDbPolyline
 90
        4
 70
     1
 43
0.0
 10
5235.767248125775
 20
229.0285833065245
 10
5235.767248125775
 20
248.1528879029465
 10
5346.099774643692
 20
248.1528879029465
 10
5346.099774643692
 20
229.0285833065245
  0
ARC
  5
625
330
470
100
AcDbEntity
  8
0
100
AcDbCircle
 10
5340.95092340617
 20
376.4737509927836
 30
0.0
 40
24.64093092233088
100
AcDbArc
 50
44.65347363359572
 51
90.0
  0
LINE
  5
626
330
470
100
AcDbEntity
  8
0
100
AcDbLine
 10
5358.479752856773
 20
393.7918229065799
 30
0.0
 11
5358.479752856773
 21
359.1556790790018
 31
0.0
  0
LINE
  5
627
330
470
100
AcDbEntity
  8
0
100
AcDbLine
 10
5340.95092340617
 20
359.1556790790018
 30
0.0
 11
5340.95092340617
 21
393.7918229065799
 31
0.0
  0
ARC
  5
628
330
470
100
AcDbEntity
  8
0
100
AcDbCircle
 10
5340.95092340617
 20
622.515285127698
 30
0.0
 40
24.64093092233088
100
AcDbArc
 50
270.0
 51
315.3465263664042
  0
ARC
  5
629
330
470
100
AcDbEntity
  8
0
100
AcDbCircle
 10
5340.95092340617
 20
622.515285127698
 30
0.0
 40
24.64093092233088
100
AcDbArc
 50
44.65347363359572
 51
90.0
  0
ARC
  5
62A
330
470
100
AcDbEntity
  8
0
100
AcDbCircle
 10
5340.95092340617
 20
918.2064561956686
 30
0.0
 40
24.64093092233088
100
AcDbArc
 50
270.0
 51
315.3465263664042
  0
ARC
  5
62B
330
470
100
AcDbEntity
  8
0
100
AcDbCircle
 10
5340.95092340617
 20
918.2064561956686
 30
0.0
 40
24.64093092233088
100
AcDbArc
 50
44.65347363359572
 51
90.0
  0
LINE
  5
62C
330
470
100
AcDbEntity
  8
0
100
AcDbLine
 10
5358.479752856773
 20
935.5245281094649
 30
0.0
 11
5358.479752856773
 21
900.8883842819013
 31
0.0
  0
LINE
  5
62D
330
470
100
AcDbEntity
  8
0
100
AcDbLine
 10
5340.95092340617
 20
900.8883842818868
 30
0.0
 11
5340.95092340617
 21
935.5245281094649
 31
0.0
  0
LINE
  5
62E
330
470
100
AcDbEntity
  8
0
100
AcDbLine
 10
5854.089356178679
 20
639.8333570414942
 30
0.0
 11
5854.089356178679
 21
605.2624987325798
 31
0.0
  0
ARC
  5
62F
330
470
100
AcDbEntity
  8
0
100
AcDbCircle
 10
5993.356407284561
 20
145.5470880568209
 30
0.0
 40
38.67231804611583
100
AcDbArc
 50
270.0
 51
90.0
  0
ARC
  5
630
330
470
100
AcDbEntity
  8
0
100
AcDbCircle
 10
5993.356407284561
 20
278.9878338423186
 30
0.0
 40
38.67231804611583
100
AcDbArc
 50
270.0
 51
90.0
  0
ARC
  5
631
330
470
100
AcDbEntity
  8
0
100
AcDbCircle
 10
5993.356407284561
 20
194.8436693024159
 30
0.0
 40
38.67231804611583
100
AcDbArc
 50
320.4045620469134
 51
90.0
  0
ARC
  5
632
330
470
100
AcDbEntity
  8
0
100
AcDbCircle
 10
5871.650375957281
 20
376.5063937521081
 30
0.0
 40
24.64093092233088
100
AcDbArc
 50
224.5468734711171
 51
270.0
  0
LWPOLYLINE
  5
633
330
470
100
AcDbEntity
  8
0
100
AcDbPolyline
 90
        4
 70
     1
 43
0.0
 10
5976.834051237704
 20
248.1528879029465
 10
5976.834051237704
 20
267.6449675877774
 10
5866.501524719788
 20
267.6449675877774
 10
5866.501524719788
 20
248.1528879029465
  0
LWPOLYLINE
  5
634
330
470
100
AcDbEntity
  8
0
100
AcDbPolyline
 90
        4
 70
     1
 43
0.0
 10
5866.501524719788
 20
229.0285833065245
 10
5866.501524719788
 20
248.1528879029465
 10
5976.834051237704
 20
248.1528879029465
 10
5976.834051237704
 20
229.0285833065245
  0
ARC
  5
635
330
470
100
AcDbEntity
  8
0
100
AcDbCircle
 10
5871.650375957281
 20
376.5063937521081
 30
0.0
 40
24.64093092233088
100
AcDbArc
 50
90.0
 51
135.4531265288827
  0
ARC
  5
636
330
470
100
AcDbEntity
  8
0
100
AcDbCircle
 10
5871.650375957281
 20
622.5479278870371
 30
0.0
 40
24.64093092233088
100
AcDbArc
 50
224.5468734711171
 51
270.0
  0
LINE
  5
637
330
470
100
AcDbEntity
  8
0
100
AcDbLine
 10
5854.089356178679
 20
393.7918229065799
 30
0.0
 11
5854.089356178679
 21
359.2209645976509
 31
0.0
  0
LINE
  5
638
330
470
100
AcDbEntity
  8
0
100
AcDbLine
 10
5854.089356178679
 20
359.2209645976509
 30
0.0
 11
5854.089356178679
 21
359.1556790790018
 31
0.0
  0
LINE
  5
639
330
470
100
AcDbEntity
  8
0
100
AcDbLine
 10
5854.089356178679
 20
605.2624987325798
 30
0.0
 11
5854.089356178679
 21
605.1972132139162
 31
0.0
  0
LINE
  5
63A
330
470
100
AcDbEntity
  8
0
100
AcDbLine
 10
5993.356407284533
 20
364.4069099661683
 30
0.0
 11
5971.685200000182
 21
364.4069099661683
 31
0.0
  0
LINE
  5
63B
330
470
100
AcDbEntity
  8
0
100
AcDbLine
 10
5993.356407284533
 20
364.4069099661683
 30
0.0
 11
5978.534311693104
 21
364.4069099661683
 31
0.0
  0
ARC
  5
63C
330
470
100
AcDbEntity
  8
0
100
AcDbCircle
 10
5871.650375957281
 20
622.5479278870371
 30
0.0
 40
24.64093092233088
100
AcDbArc
 50
90.0
 51
135.4531265288827
  0
ARC
  5
63D
330
470
100
AcDbEntity
  8
0
100
AcDbCircle
 10
5871.650375957281
 20
918.2390989550077
 30
0.0
 40
24.64093092233088
100
AcDbArc
 50
224.5468734711171
 51
270.0
  0
ARC
  5
63E
330
470
100
AcDbEntity
  8
0
100
AcDbCircle
 10
5871.650375957281
 20
918.2390989550077
 30
0.0
 40
24.64093092233088
100
AcDbArc
 50
90.0
 51
135.4531265288827
  0
LINE
  5
63F
330
470
100
AcDbEntity
  8
0
100
AcDbLine
 10
5854.089356178679
 20
935.5245281094649
 30
0.0
 11
5854.089356178679
 21
900.9536698005504
 31
0.0
  0
LINE
  5
640
330
470
100
AcDbEntity
  8
0
100
AcDbLine
 10
5854.089356178679
 20
900.9536698005504
 30
0.0
 11
5854.089356178679
 21
900.8883842818868
 31
0.0
  0
LINE
  5
641
330
470
100
AcDbEntity
  8
0
100
AcDbLine
 10
5854.153856959194
 20
1245.493642106153
 30
0.0
 11
5358.479752856773
 21
1245.493642106153
 31
0.0
  0
LINE
  5
642
330
470
100
AcDbEntity
  8
0
100
AcDbLine
 10
5854.089356178651
 20
1280.129785933731
 30
0.0
 11
5358.479752856773
 21
1280.129785933731
 31
0.0
  0
HATCH
  5
643
330
470
100
AcDbEntity
  8
0
 62
   150
100
AcDbHatch
 10
0.0
 20
0.0
 30
0.0
210
0.0
220
0.0
230
1.0
  2
SOLID
 70
     1
 71
     0
 91
        2
 92
        7
 72
     1
 73
     1
 93
        4
 10
5871.650375957281
 20
1238.203425856943
 42
0.0
 10
5871.650375957281
 20
1287.485287701591
 42
0.2009685438464969
 10
5854.089356178679
 20
1280.129785933717
 42
0.0
 10
5854.089356178679
 20
1245.558927624802
 42
0.2009685438464102
 97
        0
 92
        7
 72
     1
 73
     1
 93
        4
 10
5358.479752856773
 20
1245.493642106153
 42
0.0
 10
5358.479752856773
 20
1280.129785933731
 42
0.2004846722166156
 10
5340.95092340617
 20
1287.452644942266
 42
0.0
 10
5340.95092340617
 20
1238.170783097604
 42
0.200484672216724
 97
        0
 75
     0
 76
     1
 47
1.950875136170907
 98
        2
 10
5860.491693185759
 20
1270.150460096509
 10
5347.41153336683
 20
1272.103366298306
  0
HATCH
  5
644
330
470
100
AcDbEntity
  8
0
 62
    50
100
AcDbHatch
 10
0.0
 20
0.0
 30
0.0
210
0.0
220
0.0
230
1.0
  2
SOLID
 70
     1
 71
     0
 91
        1
 92
        7
 72
     0
 73
     1
 93
        4
 10
5854.089356178679
 20
1245.493642106168
 10
5854.089356178679
 20
1280.129785933731
 10
5358.479752856773
 20
1280.129785933731
 10
5358.479752856773
 20
1245.493642106168
 97
        0
 75
     0
 76
     1
 47
1.950875136170907
 98
        1
 10
5431.299161653762
 20
1252.574263703772
  0
LINE
  5
645
330
470
100
AcDbEntity
  8
0
100
AcDbLine
 10
5854.153856959194
 20
1639.380761775068
 30
0.0
 11
5358.479752856773
 21
1639.380761775068
 31
0.0
  0
LINE
  5
646
330
470
100
AcDbEntity
  8
0
100
AcDbLine
 10
5854.089356178651
 20
1674.016905602646
 30
0.0
 11
5358.479752856773
 21
1674.016905602646
 31
0.0
  0
LINE
  5
647
330
470
100
AcDbEntity
  8
0
100
AcDbLine
 10
5854.153856959194
 20
2082.549743288658
 30
0.0
 11
5358.479752856773
 21
2082.549743288658
 31
0.0
  0
LINE
  5
648
330
470
100
AcDbEntity
  8
0
100
AcDbLine
 10
5854.089356178651
 20
2117.185887116237
 30
0.0
 11
5358.479752856773
 21
2117.185887116237
 31
0.0
  0
HATCH
  5
649
330
470
100
AcDbEntity
  8
0
 62
   150
100
AcDbHatch
 10
0.0
 20
0.0
 30
0.0
210
0.0
220
0.0
230
1.0
  2
SOLID
 70
     1
 71
     0
 91
        2
 92
        7
 72
     1
 73
     1
 93
        4
 10
5871.650375957281
 20
1632.090545525858
 42
0.0
 10
5871.650375957281
 20
1681.37240737052
 42
0.2009685438464969
 10
5854.089356178679
 20
1674.016905602646
 42
0.0
 10
5854.089356178679
 20
1639.446047293717
 42
0.2009685438464102
 97
        0
 92
        7
 72
     1
 73
     1
 93
        4
 10
5358.479752856773
 20
1639.380761775082
 42
0.0
 10
5358.479752856773
 20
1674.016905602646
 42
0.2004846722166156
 10
5340.95092340617
 20
1681.339764611195
 42
0.0
 10
5340.95092340617
 20
1632.057902766533
 42
0.200484672216724
 97
        0
 75
     0
 76
     1
 47
1.950875136170907
 98
        2
 10
5860.491693185759
 20
1664.037579765423
 10
5347.41153336683
 20
1665.99048596722
  0
HATCH
  5
64A
330
470
100
AcDbEntity
  8
0
 62
    50
100
AcDbHatch
 10
0.0
 20
0.0
 30
0.0
210
0.0
220
0.0
230
1.0
  2
SOLID
 70
     1
 71
     0
 91
        1
 92
        7
 72
     0
 73
     1
 93
        4
 10
5854.089356178679
 20
1639.380761775068
 10
5854.089356178679
 20
1674.016905602661
 10
5358.479752856744
 20
1674.016905602631
 10
5358.479752856773
 20
1639.380761775068
 97
        0
 75
     0
 76
     1
 47
1.950875136170907
 98
        1
 10
5431.299161653762
 20
1646.461383372701
  0
HATCH
  5
64B
330
470
100
AcDbEntity
  8
0
 62
   150
100
AcDbHatch
 10
0.0
 20
0.0
 30
0.0
210
0.0
220
0.0
230
1.0
  2
SOLID
 70
     1
 71
     0
 91
        2
 92
        7
 72
     1
 73
     1
 93
        4
 10
5871.650375957281
 20
2075.259527039448
 42
0.0
 10
5871.650375957281
 20
2124.541388884095
 42
0.2009685438464969
 10
5854.089356178679
 20
2117.185887116222
 42
0.0
 10
5854.089356178679
 20
2082.615028807307
 42
0.2009685438464102
 97
        0
 92
        7
 72
     1
 73
     1
 93
        4
 10
5358.479752856773
 20
2082.549743288658
 42
0.0
 10
5358.479752856773
 20
2117.185887116237
 42
0.2004846722166156
 10
5340.95092340617
 20
2124.508746124771
 42
0.0
 10
5340.95092340617
 20
2075.226884280109
 42
0.200484672216724
 97
        0
 75
     0
 76
     1
 47
1.950875136170907
 98
        2
 10
5860.491693185759
 20
2107.206561279013
 10
5347.41153336683
 20
2109.15946748081
  0
HATCH
  5
64C
330
470
100
AcDbEntity
  8
0
 62
    50
100
AcDbHatch
 10
0.0
 20
0.0
 30
0.0
210
0.0
220
0.0
230
1.0
  2
SOLID
 70
     1
 71
     0
 91
        1
 92
        7
 72
     0
 73
     1
 93
        4
 10
5854.089356178679
 20
2082.549743288658
 10
5854.089356178679
 20
2117.185887116237
 10
5358.479752856773
 20
2117.185887116237
 10
5358.479752856801
 20
2082.549743288673
 97
        0
 75
     0
 76
     1
 47
1.950875136170907
 98
        1
 10
5431.299161653762
 20
2089.630364886277
  0
LINE
  5
64D
330
470
100
AcDbEntity
  8
0
100
AcDbLine
 10
5358.479752856773
 20
1674.016905602646
 30
0.0
 11
5358.479752856773
 21
1639.380761775068
 31
0.0
  0
LINE
  5
64E
330
470
100
AcDbEntity
  8
0
100
AcDbLine
 10
5340.95092340617
 20
1639.380761775068
 30
0.0
 11
5340.95092340617
 21
1674.016905602646
 31
0.0
  0
LINE
  5
64F
330
470
100
AcDbEntity
  8
0
100
AcDbLine
 10
5358.479752856773
 20
1280.129785933731
 30
0.0
 11
5358.479752856773
 21
1245.493642106153
 31
0.0
  0
LINE
  5
650
330
470
100
AcDbEntity
  8
0
100
AcDbLine
 10
5340.95092340617
 20
1245.493642106153
 30
0.0
 11
5340.95092340617
 21
1280.129785933731
 31
0.0
  0
ARC
  5
651
330
470
100
AcDbEntity
  8
0
100
AcDbCircle
 10
5340.95092340617
 20
1262.811714019935
 30
0.0
 40
24.64093092233088
100
AcDbArc
 50
270.0
 51
315.3465263664042
  0
ARC
  5
652
330
470
100
AcDbEntity
  8
0
100
AcDbCircle
 10
5340.95092340617
 20
1262.811714019935
 30
0.0
 40
24.64093092233088
100
AcDbArc
 50
44.65347363359572
 51
90.0
  0
ARC
  5
653
330
470
100
AcDbEntity
  8
0
100
AcDbCircle
 10
5340.95092340617
 20
1656.698833688849
 30
0.0
 40
24.64093092233088
100
AcDbArc
 50
270.0
 51
315.3465263664042
  0
ARC
  5
654
330
470
100
AcDbEntity
  8
0
100
AcDbCircle
 10
5340.95092340617
 20
1656.698833688849
 30
0.0
 40
24.64093092233088
100
AcDbArc
 50
44.65347363359572
 51
90.0
  0
ARC
  5
655
330
470
100
AcDbEntity
  8
0
100
AcDbCircle
 10
5340.95092340617
 20
2099.86781520244
 30
0.0
 40
24.64093092233088
100
AcDbArc
 50
44.65347363359572
 51
90.0
  0
LINE
  5
656
330
470
100
AcDbEntity
  8
0
100
AcDbLine
 10
5358.479752856773
 20
2117.185887116237
 30
0.0
 11
5358.479752856773
 21
2082.549743288658
 31
0.0
  0
ARC
  5
657
330
470
100
AcDbEntity
  8
0
100
AcDbCircle
 10
5340.95092340617
 20
2099.86781520244
 30
0.0
 40
24.64093092233088
100
AcDbArc
 50
270.0
 51
315.3465263664042
  0
LINE
  5
658
330
470
100
AcDbEntity
  8
0
100
AcDbLine
 10
5340.95092340617
 20
2082.549743288658
 30
0.0
 11
5340.95092340617
 21
2117.185887116237
 31
0.0
  0
LINE
  5
659
330
470
100
AcDbEntity
  8
0
100
AcDbLine
 10
5854.089356178679
 20
1674.016905602646
 30
0.0
 11
5854.089356178679
 21
1639.446047293717
 31
0.0
  0
ARC
  5
65A
330
470
100
AcDbEntity
  8
0
100
AcDbCircle
 10
5871.650375957281
 20
1262.84435677926
 30
0.0
 40
24.64093092233088
100
AcDbArc
 50
224.5468734711171
 51
270.0
  0
ARC
  5
65B
330
470
100
AcDbEntity
  8
0
100
AcDbCircle
 10
5871.650375957281
 20
1262.84435677926
 30
0.0
 40
24.64093092233088
100
AcDbArc
 50
90.0
 51
135.4531265288827
  0
LINE
  5
65C
330
470
100
AcDbEntity
  8
0
100
AcDbLine
 10
5854.089356178679
 20
1280.129785933731
 30
0.0
 11
5854.089356178679
 21
1245.558927624802
 31
0.0
  0
LINE
  5
65D
330
470
100
AcDbEntity
  8
0
100
AcDbLine
 10
5854.089356178679
 20
1245.558927624802
 30
0.0
 11
5854.089356178679
 21
1245.493642106153
 31
0.0
  0
ARC
  5
65E
330
470
100
AcDbEntity
  8
0
100
AcDbCircle
 10
5871.650375957281
 20
1656.731476448174
 30
0.0
 40
24.64093092233088
100
AcDbArc
 50
224.5468734711171
 51
270.0
  0
LINE
  5
65F
330
470
100
AcDbEntity
  8
0
100
AcDbLine
 10
5854.089356178679
 20
1639.446047293717
 30
0.0
 11
5854.089356178679
 21
1639.380761775068
 31
0.0
  0
ARC
  5
660
330
470
100
AcDbEntity
  8
0
100
AcDbCircle
 10
5871.650375957281
 20
1656.731476448174
 30
0.0
 40
24.64093092233088
100
AcDbArc
 50
90.0
 51
135.4531265288827
  0
ARC
  5
661
330
470
100
AcDbEntity
  8
0
100
AcDbCircle
 10
5871.650375957281
 20
2099.900457961765
 30
0.0
 40
24.64093092233088
100
AcDbArc
 50
224.5468734711171
 51
270.0
  0
ARC
  5
662
330
470
100
AcDbEntity
  8
0
100
AcDbCircle
 10
5871.650375957281
 20
2099.900457961765
 30
0.0
 40
24.64093092233088
100
AcDbArc
 50
90.0
 51
135.4531265288827
  0
LINE
  5
663
330
470
100
AcDbEntity
  8
0
100
AcDbLine
 10
5854.089356178679
 20
2117.185887116237
 30
0.0
 11
5854.089356178679
 21
2082.615028807307
 31
0.0
  0
LINE
  5
664
330
470
100
AcDbEntity
  8
0
100
AcDbLine
 10
5854.089356178679
 20
2082.615028807307
 30
0.0
 11
5854.089356178679
 21
2082.549743288658
 31
0.0
  0
HATCH
  5
665
330
470
100
AcDbEntity
  8
0
 62
    30
100
AcDbHatch
 10
0.0
 20
0.0
 30
0.0
210
0.0
220
0.0
230
1.0
  2
SOLID
 70
     1
 71
     0
 91
        4
 92
        7
 72
     0
 73
     1
 93
        4
 10
5976.834051237704
 20
2700.844952395968
 10
5976.834051237704
 20
2719.96925699239
 10
5866.869299808168
 20
2719.96925699239
 10
5866.869299808168
 20
2700.844952395953
 97
        0
 92
        7
 72
     0
 73
     1
 93
        4
 10
5976.834051237704
 20
2719.96925699239
 10
5976.834051237704
 20
2739.829111765601
 10
5866.869299808168
 20
2739.829111765601
 10
5866.869299808168
 20
2719.96925699239
 97
        0
 92
        7
 72
     0
 73
     1
 93
        4
 10
5346.099774643662
 20
2700.844952395968
 10
5346.099774643692
 20
2719.96925699239
 10
5236.135023214185
 20
2719.96925699239
 10
5236.135023214156
 20
2700.844952395953
 97
        0
 92
        7
 72
     0
 73
     1
 93
        4
 10
5346.099774643692
 20
2719.96925699239
 10
5346.099774643662
 20
2739.829111765601
 10
5236.135023214156
 20
2739.829111765601
 10
5236.135023214156
 20
2719.96925699239
 97
        0
 75
     0
 76
     1
 47
2.339559730848378
 98
        4
 10
5908.859837495227
 20
2705.345297001095
 10
5906.520362104085
 20
2728.765196051881
 10
5274.839028928924
 20
2712.371173559655
 10
5277.178667281551
 20
2731.107154904715
  0
LINE
  5
666
330
470
100
AcDbEntity
  8
0
 62
   250
100
AcDbLine
 10
5854.153856959194
 20
2575.000586646896
 30
0.0
 11
5358.479752856773
 21
2575.000586646896
 31
0.0
  0
LINE
  5
667
330
470
100
AcDbEntity
  8
0
 62
   250
100
AcDbLine
 10
5854.089356178651
 20
2609.636730474474
 30
0.0
 11
5358.479752856773
 21
2609.636730474474
 31
0.0
  0
HATCH
  5
668
330
470
100
AcDbEntity
  8
0
 62
   150
100
AcDbHatch
 10
0.0
 20
0.0
 30
0.0
210
0.0
220
0.0
230
1.0
  2
SOLID
 70
     1
 71
     0
 91
        2
 92
        7
 72
     1
 73
     1
 93
        4
 10
5854.089356178679
 20
2575.065872165545
 42
0.2009685438464102
 10
5871.650375957281
 20
2567.710370397686
 42
0.0
 10
5871.650375957281
 20
2616.992232242333
 42
0.2009685438464648
 10
5854.089356178679
 20
2609.636730474474
 42
0.0
 97
        0
 92
        7
 72
     1
 73
     1
 93
        4
 10
5340.95092340617
 20
2567.677727638361
 42
0.200484672216692
 10
5358.479752856773
 20
2575.000586646896
 42
0.0
 10
5358.479752856773
 20
2609.636730474474
 42
0.2004846722165835
 10
5340.95092340617
 20
2616.959589483009
 42
0.0
 97
        0
 75
     0
 76
     1
 47
1.950875136170907
 98
        2
 10
5860.491693185759
 20
2599.657404637251
 10
5347.41153336683
 20
2601.610310839049
  0
HATCH
  5
669
330
470
100
AcDbEntity
  8
0
 62
    50
100
AcDbHatch
 10
0.0
 20
0.0
 30
0.0
210
0.0
220
0.0
230
1.0
  2
SOLID
 70
     1
 71
     0
 91
        1
 92
        7
 72
     0
 73
     1
 93
        4
 10
5854.089356178679
 20
2575.000586646896
 10
5854.089356178679
 20
2609.636730474489
 10
5358.479752856773
 20
2609.636730474474
 10
5358.479752856773
 20
2575.000586646911
 97
        0
 75
     0
 76
     1
 47
1.950875136170907
 98
        1
 10
5431.299161653762
 20
2582.08120824453
  0
LWPOLYLINE
  5
66A
330
470
100
AcDbEntity
  8
0
100
AcDbPolyline
 90
        4
 70
     1
 43
0.0
 10
5346.099774643692
 20
2719.96925699239
 10
5346.099774643692
 20
2739.829111765601
 10
5236.135023214156
 20
2739.829111765601
 10
5236.135023214156
 20
2719.96925699239
  0
LINE
  5
66B
330
470
100
AcDbEntity
  8
0
 62
   250
100
AcDbLine
 10
5358.479752856773
 20
2609.636730474474
 30
0.0
 11
5358.479752856773
 21
2575.000586646896
 31
0.0
  0
LINE
  5
66C
330
470
100
AcDbEntity
  8
0
 62
   250
100
AcDbLine
 10
5340.95092340617
 20
2575.000586646896
 30
0.0
 11
5340.95092340617
 21
2609.636730474474
 31
0.0
  0
ARC
  5
66D
330
470
100
AcDbEntity
  8
0
 62
   250
100
AcDbCircle
 10
5340.95092340617
 20
2592.318658560678
 30
0.0
 40
24.64093092233088
100
AcDbArc
 50
270.0
 51
315.3465263664042
  0
LWPOLYLINE
  5
66E
330
470
100
AcDbEntity
  8
0
100
AcDbPolyline
 90
        4
 70
     1
 43
0.0
 10
5236.135023214156
 20
2700.844952395953
 10
5236.135023214156
 20
2719.96925699239
 10
5346.099774643692
 20
2719.96925699239
 10
5346.099774643692
 20
2700.844952395953
  0
ARC
  5
66F
330
470
100
AcDbEntity
  8
0
 62
   250
100
AcDbCircle
 10
5340.95092340617
 20
2592.318658560678
 30
0.0
 40
24.64093092233088
100
AcDbArc
 50
44.65347363359572
 51
90.0
  0
LWPOLYLINE
  5
670
330
470
100
AcDbEntity
  8
0
100
AcDbPolyline
 90
        4
 70
     1
 43
0.0
 10
5976.834051237704
 20
2719.96925699239
 10
5976.834051237704
 20
2739.829111765601
 10
5866.869299808168
 20
2739.829111765601
 10
5866.869299808168
 20
2719.96925699239
  0
ARC
  5
671
330
470
100
AcDbEntity
  8
0
 62
   250
100
AcDbCircle
 10
5871.650375957281
 20
2592.351301320002
 30
0.0
 40
24.64093092233088
100
AcDbArc
 50
224.5468734711171
 51
270.0
  0
ARC
  5
672
330
470
100
AcDbEntity
  8
0
 62
   250
100
AcDbCircle
 10
5871.650375957281
 20
2592.351301320002
 30
0.0
 40
24.64093092233088
100
AcDbArc
 50
90.0
 51
135.4531265288827
  0
LINE
  5
673
330
470
100
AcDbEntity
  8
0
 62
   250
100
AcDbLine
 10
5854.089356178679
 20
2609.636730474474
 30
0.0
 11
5854.089356178679
 21
2575.065872165545
 31
0.0
  0
LINE
  5
674
330
470
100
AcDbEntity
  8
0
 62
   250
100
AcDbLine
 10
5854.089356178679
 20
2575.065872165545
 30
0.0
 11
5854.089356178679
 21
2575.000586646896
 31
0.0
  0
LWPOLYLINE
  5
675
330
470
100
AcDbEntity
  8
0
100
AcDbPolyline
 90
        4
 70
     1
 43
0.0
 10
5866.869299808168
 20
2700.844952395953
 10
5866.869299808168
 20
2719.96925699239
 10
5976.834051237704
 20
2719.96925699239
 10
5976.834051237704
 20
2700.844952395953
  0
LWPOLYLINE
  5
676
330
470
100
AcDbEntity
  8
0
100
AcDbPolyline
 90
       17
 70
     1
 43
0.0
 10
1736.249344250172
 20
1838.855656024108
 10
1424.767193676569
 20
1823.213518517561
 42
0.3995924803388339
 10
0.0
 20
325.1013648879634
 10
0.0
 20
-325.1013648879634
 42
0.3989293265498421
 10
1421.339859347106
 20
-1823.037472428095
 10
3167.854775605185
 20
-1914.751069739559
 10
5997.044760430886
 20
-1916.883758614767
 42
0.4142135623730951
 10
7547.044760430887
 20
-366.8837586147674
 10
7547.044760430887
 20
362.8772277094503
 42
0.0078078375462838
 10
7546.288919732659
 20
411.2769680944511
 10
7472.846477816711
 20
2762.12168912109
 42
0.4050956002021414
 10
5973.577936557311
 20
4215.283230683988
 10
5973.577936556933
 20
4215.283230683988
 10
5249.5608636377
 20
4215.569294381221
 42
0.4143292910545437
 10
3748.968204253819
 20
2715.56941146294
 10
3748.968204253819
 20
2373.065494419188
 10
2883.964188515572
 20
2373.065494419188
 42
0.2213272608307119
  0
ENDBLK
  5
472
330
470
100
AcDbEntity
  8
0
100
AcDbBlockEnd
  0
ENDSEC
  0
SECTION
  2
ENTITIES
  0
INSERT
  5
677
330
1F
100
AcDbEntity
  8
0
100
AcDbBlockReference
  2
ADKZ
 10
0.0001175873476313
 20
1916.883743916649
 30
0.0
  0
MTEXT
  5
678
330
1F
100
AcDbEntity
  8
0
100
AcDbMText
 10
1936.831195192837
 20
1194.341005371823
 30
0.0
 40
250.0
 41
20517.38
 71
     1
 72
     5
  1
{\Fisocp.shx;Hoogte: 278cm\PVrije Valhoogte: 160cm}
1001
ACAD
1000
MTEXTBEGIN
1070
    73
1070
     1
1070
    44
1040
1.0
1070
    74
1070
     0
1000
MTEXTEND
  0
ENDSEC
  0
SECTION
  2
OBJECTS
  0
DICTIONARY
  5
C
330
0
100
AcDbDictionary
  3
ACAD_GROUP
350
D
  3
ACAD_LAYOUT
350
1A
  3
ACAD_MLINESTYLE
350
17
  3
ACAD_PLOTSETTINGS
350
19
  3
ACAD_PLOTSTYLENAME
350
E
  3
ACDBHEADERROUNDTRIPXREC
350
67B
  0
DICTIONARY
  5
5E
330
2
100
AcDbDictionary
280
     1
  3
ACAD_LAYERSTATES
360
5F
  0
DICTIONARY
  5
69C
330
1F
100
AcDbDictionary
280
     1
  3
ACAD_LAYOUTSELFREF
360
69D
  0
DICTIONARY
  5
69E
330
50
100
AcDbDictionary
280
     1
  3
ACAD_LAYOUTSELFREF
360
69F
  0
DICTIONARY
  5
D
102
{ACAD_REACTORS
330
C
102
}
330
C
100
AcDbDictionary
  0
DICTIONARY
  5
1A
102
{ACAD_REACTORS
330
C
102
}
330
C
100
AcDbDictionary
  0
DICTIONARY
  5
17
102
{ACAD_REACTORS
330
C
102
}
330
C
100
AcDbDictionary
  3
STANDARD
350
18
  0
DICTIONARY
  5
19
102
{ACAD_REACTORS
330
C
102
}
330
C
100
AcDbDictionary
  0
ACDBDICTIONARYWDFLT
  5
E
102
{ACAD_REACTORS
330
C
102
}
330
C
100
AcDbDictionary
281
     1
  3
Normal
350
F
100
AcDbDictionaryWithDefault
340
F
  0
DICTIONARY
  5
67B
102
{ACAD_REACTORS
330
C
102
}
330
C
100
AcDbDictionary
  3
CEPSNTYPE
350
685
  3
DIMSTYLEDATA
350
689
  3
FINGERPRINTGUID
350
686
  3
HYPERLINKBASE
350
67E
  3
INSUNITS
350
684
  3
LAYOUTDICT
350
680
  3
LWETCUNION
350
683
  3
PLOTSETDICT
350
681
  3
PLOTSTYLNAMDICT
350
682
  3
PSVPSCALE
350
688
  3
PUCSBASE
350
68C
  3
PUCSORGBACK
350
692
  3
PUCSORGBOTTOM
350
68E
  3
PUCSORGFRONT
350
691
  3
PUCSORGLEFT
350
68F
  3
PUCSORGRIGHT
350
690
  3
PUCSORGTOP
350
68D
  3
PUCSORTHOREF
350
68A
  3
PUCSORTHOVIEW
350
68B
  3
STYLESHEET
350
67F
  3
TSTACKALIGN
350
67C
  3
TSTACKSIZE
350
67D
  3
UCSBASE
350
695
  3
UCSORGBACK
350
69B
  3
UCSORGBOTTOM
350
697
  3
UCSORGFRONT
350
69A
  3
UCSORGLEFT
350
698
  3
UCSORGRIGHT
350
699
  3
UCSORGTOP
350
696
  3
UCSORTHOREF
350
693
  3
UCSORTHOVIEW
350
694
  3
VERSIONGUID
350
687
  0
DICTIONARY
  5
5F
102
{ACAD_REACTORS
330
5E
102
}
330
5E
100
AcDbDictionary
  0
XRECORD
  5
69D
102
{ACAD_REACTORS
330
69C
102
}
330
69C
100
AcDbXrecord
340
1F
  0
XRECORD
  5
69F
102
{ACAD_REACTORS
330
69E
102
}
330
69E
100
AcDbXrecord
340
50
  0
MLINESTYLE
  5
18
102
{ACAD_REACTORS
330
17
102
}
330
17
100
AcDbMlineStyle
  2
STANDARD
 70
     0
  3

 62
   256
 51
90.0
 52
90.0
 71
     2
 49
0.5
 62
   256
  6
BYLAYER
 49
-0.5
 62
   256
  6
BYLAYER
  0
ACDBPLACEHOLDER
  5
F
102
{ACAD_REACTORS
330
E
102
}
330
E
100
AcDbPlaceHolder
280
     0
  0
XRECORD
  5
685
102
{ACAD_REACTORS
330
67B
102
}
330
67B
100
AcDbXrecord
 90
        0
  0
XRECORD
  5
689
102
{ACAD_REACTORS
330
67B
102
}
330
67B
100
AcDbXrecord
1000
DSTYLE
1002
{
1070
   278
 70
    44
1002
}
  0
XRECORD
  5
686
102
{ACAD_REACTORS
330
67B
102
}
330
67B
100
AcDbXrecord
  1
{FDEAD578-A652-11D2-9A35-0060089B3A3F}
  0
XRECORD
  5
67E
102
{ACAD_REACTORS
330
67B
102
}
330
67B
100
AcDbXrecord
  1

  0
XRECORD
  5
684
102
{ACAD_REACTORS
330
67B
102
}
330
67B
100
AcDbXrecord
 90
        4
  0
XRECORD
  5
680
102
{ACAD_REACTORS
330
67B
102
}
330
67B
100
AcDbXrecord
340
1A
  0
XRECORD
  5
683
102
{ACAD_REACTORS
330
67B
102
}
330
67B
100
AcDbXrecord
 90
    10781
  0
XRECORD
  5
681
102
{ACAD_REACTORS
330
67B
102
}
330
67B
100
AcDbXrecord
340
19
  0
XRECORD
  5
682
102
{ACAD_REACTORS
330
67B
102
}
330
67B
100
AcDbXrecord
340
E
  0
XRECORD
  5
688
102
{ACAD_REACTORS
330
67B
102
}
330
67B
100
AcDbXrecord
 40
0.0
  0
XRECORD
  5
68C
102
{ACAD_REACTORS
330
67B
102
}
330
67B
100
AcDbXrecord
340
0
  0
XRECORD
  5
692
102
{ACAD_REACTORS
330
67B
102
}
330
67B
100
AcDbXrecord
 10
0.0
 20
0.0
 30
0.0
  0
XRECORD
  5
68E
102
{ACAD_REACTORS
330
67B
102
}
330
67B
100
AcDbXrecord
 10
0.0
 20
0.0
 30
0.0
  0
XRECORD
  5
691
102
{ACAD_REACTORS
330
67B
102
}
330
67B
100
AcDbXrecord
 10
0.0
 20
0.0
 30
0.0
  0
XRECORD
  5
68F
102
{ACAD_REACTORS
330
67B
102
}
330
67B
100
AcDbXrecord
 10
0.0
 20
0.0
 30
0.0
  0
XRECORD
  5
690
102
{ACAD_REACTORS
330
67B
102
}
330
67B
100
AcDbXrecord
 10
0.0
 20
0.0
 30
0.0
  0
XRECORD
  5
68D
102
{ACAD_REACTORS
330
67B
102
}
330
67B
100
AcDbXrecord
 10
0.0
 20
0.0
 30
0.0
  0
XRECORD
  5
68A
102
{ACAD_REACTORS
330
67B
102
}
330
67B
100
AcDbXrecord
340
0
  0
XRECORD
  5
68B
102
{ACAD_REACTORS
330
67B
102
}
330
67B
100
AcDbXrecord
 70
     0
  0
XRECORD
  5
67F
102
{ACAD_REACTORS
330
67B
102
}
330
67B
100
AcDbXrecord
  1

  0
XRECORD
  5
67C
102
{ACAD_REACTORS
330
67B
102
}
330
67B
100
AcDbXrecord
 90
        1
  0
XRECORD
  5
67D
102
{ACAD_REACTORS
330
67B
102
}
330
67B
100
AcDbXrecord
 90
       70
  0
XRECORD
  5
695
102
{ACAD_REACTORS
330
67B
102
}
330
67B
100
AcDbXrecord
340
0
  0
XRECORD
  5
69B
102
{ACAD_REACTORS
330
67B
102
}
330
67B
100
AcDbXrecord
 10
0.0
 20
0.0
 30
0.0
  0
XRECORD
  5
697
102
{ACAD_REACTORS
330
67B
102
}
330
67B
100
AcDbXrecord
 10
0.0
 20
0.0
 30
0.0
  0
XRECORD
  5
69A
102
{ACAD_REACTORS
330
67B
102
}
330
67B
100
AcDbXrecord
 10
0.0
 20
0.0
 30
0.0
  0
XRECORD
  5
698
102
{ACAD_REACTORS
330
67B
102
}
330
67B
100
AcDbXrecord
 10
0.0
 20
0.0
 30
0.0
  0
XRECORD
  5
699
102
{ACAD_REACTORS
330
67B
102
}
330
67B
100
AcDbXrecord
 10
0.0
 20
0.0
 30
0.0
  0
XRECORD
  5
696
102
{ACAD_REACTORS
330
67B
102
}
330
67B
100
AcDbXrecord
 10
0.0
 20
0.0
 30
0.0
  0
XRECORD
  5
693
102
{ACAD_REACTORS
330
67B
102
}
330
67B
100
AcDbXrecord
340
0
  0
XRECORD
  5
694
102
{ACAD_REACTORS
330
67B
102
}
330
67B
100
AcDbXrecord
 70
     0
  0
XRECORD
  5
687
102
{ACAD_REACTORS
330
67B
102
}
330
67B
100
AcDbXrecord
  1
{8FC2DEAB-8845-4444-A5DE-D29F981573DD}
  0
ENDSEC
  0
EOF
