  0
SECTION
  2
HEADER
  9
$ACADVER
  1
AC1014
  9
$ACADMAINTVER
 70
     9
  9
$DWGCODEPAGE
  3
ANSI_1252
  9
$INSBASE
 10
0.0
 20
0.0
 30
0.0
  9
$EXTMIN
 10
-581.9450189355629
 20
-314.790050562472
 30
0.0
  9
$EXTMAX
 10
10555.48411307786
 20
7951.083926501731
 30
0.0
  9
$LIMMIN
 10
0.0
 20
0.0
  9
$LIMMAX
 10
420.0
 20
297.0
  9
$ORTHOMODE
 70
     0
  9
$REGENMODE
 70
     1
  9
$FILLMODE
 70
     1
  9
$QTEXTMODE
 70
     0
  9
$MIRRTEXT
 70
     1
  9
$DRAGMODE
 70
     2
  9
$LTSCALE
 40
1.0
  9
$OSMODE
 70
   511
  9
$ATTMODE
 70
     1
  9
$TEXTSIZE
 40
2.5
  9
$TRACEWID
 40
1.0
  9
$TEXTSTYLE
  7
STANDARD
  9
$CLAYER
  8
0
  9
$CELTYPE
  6
BYLAYER
  9
$CECOLOR
 62
   256
  9
$CELTSCALE
 40
1.0
  9
$DELOBJ
 70
     1
  9
$DISPSILH
 70
     0
  9
$DIMSCALE
 40
1.0
  9
$DIMASZ
 40
2.5
  9
$DIMEXO
 40
0.625
  9
$DIMDLI
 40
3.75
  9
$DIMRND
 40
0.0
  9
$DIMDLE
 40
0.0
  9
$DIMEXE
 40
1.25
  9
$DIMTP
 40
0.0
  9
$DIMTM
 40
0.0
  9
$DIMTXT
 40
2.5
  9
$DIMCEN
 40
2.5
  9
$DIMTSZ
 40
0.0
  9
$DIMTOL
 70
     0
  9
$DIMLIM
 70
     0
  9
$DIMTIH
 70
     0
  9
$DIMTOH
 70
     0
  9
$DIMSE1
 70
     0
  9
$DIMSE2
 70
     0
  9
$DIMTAD
 70
     1
  9
$DIMZIN
 70
     8
  9
$DIMBLK
  1

  9
$DIMASO
 70
     1
  9
$DIMSHO
 70
     1
  9
$DIMPOST
  1

  9
$DIMAPOST
  1

  9
$DIMALT
 70
     0
  9
$DIMALTD
 70
     3
  9
$DIMALTF
 40
0.03937007874016
  9
$DIMLFAC
 40
1.0
  9
$DIMTOFL
 70
     1
  9
$DIMTVP
 40
0.0
  9
$DIMTIX
 70
     0
  9
$DIMSOXD
 70
     0
  9
$DIMSAH
 70
     0
  9
$DIMBLK1
  1

  9
$DIMBLK2
  1

  9
$DIMSTYLE
  2
ISO-25
  9
$DIMCLRD
 70
     0
  9
$DIMCLRE
 70
     0
  9
$DIMCLRT
 70
     0
  9
$DIMTFAC
 40
1.0
  9
$DIMGAP
 40
0.625
  9
$DIMJUST
 70
     0
  9
$DIMSD1
 70
     0
  9
$DIMSD2
 70
     0
  9
$DIMTOLJ
 70
     0
  9
$DIMTZIN
 70
     8
  9
$DIMALTZ
 70
     0
  9
$DIMALTTZ
 70
     0
  9
$DIMFIT
 70
     3
  9
$DIMUPT
 70
     0
  9
$DIMUNIT
 70
     2
  9
$DIMDEC
 70
     2
  9
$DIMTDEC
 70
     2
  9
$DIMALTU
 70
     2
  9
$DIMALTTD
 70
     3
  9
$DIMTXSTY
  7
STANDARD
  9
$DIMAUNIT
 70
     0
  9
$LUNITS
 70
     2
  9
$LUPREC
 70
     4
  9
$SKETCHINC
 40
1.0
  9
$FILLETRAD
 40
10.0
  9
$AUNITS
 70
     0
  9
$AUPREC
 70
     0
  9
$MENU
  1
.
  9
$ELEVATION
 40
0.0
  9
$PELEVATION
 40
0.0
  9
$THICKNESS
 40
0.0
  9
$LIMCHECK
 70
     0
  9
$BLIPMODE
 70
     0
  9
$CHAMFERA
 40
10.0
  9
$CHAMFERB
 40
10.0
  9
$CHAMFERC
 40
20.0
  9
$CHAMFERD
 40
0.0
  9
$SKPOLY
 70
     0
  9
$TDCREATE
 40
2453125.670834224
  9
$TDUPDATE
 40
2453186.713650520
  9
$TDINDWG
 40
0.0017708333
  9
$TDUSRTIMER
 40
0.0017708333
  9
$USRTIMER
 70
     1
  9
$ANGBASE
 50
0.0
  9
$ANGDIR
 70
     0
  9
$PDMODE
 70
     0
  9
$PDSIZE
 40
0.0
  9
$PLINEWID
 40
0.0
  9
$COORDS
 70
     2
  9
$SPLFRAME
 70
     0
  9
$SPLINETYPE
 70
     6
  9
$SPLINESEGS
 70
     8
  9
$ATTDIA
 70
     0
  9
$ATTREQ
 70
     1
  9
$HANDLING
 70
-16383
  9
$HANDSEED
  5
576
  9
$SURFTAB1
 70
     6
  9
$SURFTAB2
 70
     6
  9
$SURFTYPE
 70
     6
  9
$SURFU
 70
     6
  9
$SURFV
 70
     6
  9
$UCSNAME
  2

  9
$UCSORG
 10
0.0
 20
0.0
 30
0.0
  9
$UCSXDIR
 10
1.0
 20
0.0
 30
0.0
  9
$UCSYDIR
 10
0.0
 20
1.0
 30
0.0
  9
$PUCSNAME
  2

  9
$PUCSORG
 10
0.0
 20
0.0
 30
0.0
  9
$PUCSXDIR
 10
1.0
 20
0.0
 30
0.0
  9
$PUCSYDIR
 10
0.0
 20
1.0
 30
0.0
  9
$USERI1
 70
     0
  9
$USERI2
 70
     0
  9
$USERI3
 70
     0
  9
$USERI4
 70
     0
  9
$USERI5
 70
     0
  9
$USERR1
 40
0.0
  9
$USERR2
 40
0.0
  9
$USERR3
 40
0.0
  9
$USERR4
 40
0.0
  9
$USERR5
 40
0.0
  9
$WORLDVIEW
 70
     1
  9
$SHADEDGE
 70
     3
  9
$SHADEDIF
 70
    70
  9
$TILEMODE
 70
     1
  9
$MAXACTVP
 70
    64
  9
$PINSBASE
 10
0.0
 20
0.0
 30
0.0
  9
$PLIMCHECK
 70
     0
  9
$PEXTMIN
 10
0.0
 20
0.0
 30
0.0
  9
$PEXTMAX
 10
0.0
 20
0.0
 30
0.0
  9
$PLIMMIN
 10
0.0
 20
0.0
  9
$PLIMMAX
 10
12.0
 20
9.0
  9
$UNITMODE
 70
     0
  9
$VISRETAIN
 70
     1
  9
$PLINEGEN
 70
     0
  9
$PSLTSCALE
 70
     1
  9
$TREEDEPTH
 70
  3020
  9
$PICKSTYLE
 70
     0
  9
$CMLSTYLE
  2
STANDARD
  9
$CMLJUST
 70
     0
  9
$CMLSCALE
 40
20.0
  9
$PROXYGRAPHICS
 70
     1
  9
$MEASUREMENT
 70
     1
  0
ENDSEC
  0
SECTION
  2
CLASSES
  0
CLASS
  1
ACDBDICTIONARYWDFLT
  2
AcDbDictionaryWithDefault
  3
AutoCAD 2000
 90
        0
280
     0
281
     0
  0
CLASS
  1
ACDBPLACEHOLDER
  2
AcDbPlaceHolder
  3
AutoCAD 2000
 90
        0
280
     0
281
     0
  0
CLASS
  1
LAYOUT
  2
AcDbLayout
  3
AutoCAD 2000
 90
        0
280
     0
281
     0
  0
CLASS
  1
LONG_TRANSACTION
  2
AcDbLongTransaction
  3
AutoCAD 2000
 90
        0
280
     0
281
     0
  0
CLASS
  1
LWPOLYLINE
  2
AcDbPolyline
  3
AutoCAD 2000
 90
        0
280
     0
281
     1
  0
CLASS
  1
HATCH
  2
AcDbHatch
  3
AutoCAD 2000
 90
        0
280
     0
281
     1
  0
CLASS
  1
XRECORD
  2
AcDbXrecord
  3
AutoCAD 2000
 90
        0
280
     0
281
     0
  0
ENDSEC
  0
SECTION
  2
TABLES
  0
TABLE
  2
VPORT
  5
8
330
0
100
AcDbSymbolTable
 70
     2
  0
VPORT
  5
54D
330
8
100
AcDbSymbolTableRecord
100
AcDbViewportTableRecord
  2
*ACTIVE
 70
     0
 10
0.0
 20
0.0
 11
1.0
 21
1.0
 12
6193.614361804299
 22
3868.845241060529
 13
0.0
 23
0.0
 14
10.0
 24
10.0
 15
10.0
 25
10.0
 16
0.0
 26
0.0
 36
1.0
 17
0.0
 27
0.0
 37
0.0
 40
11711.3570700731
 41
1.720238095238095
 42
50.0
 43
0.0
 44
0.0
 50
0.0
 51
0.0
 71
     0
 72
   100
 73
     1
 74
     3
 75
     0
 76
     0
 77
     0
 78
     0
  0
ENDTAB
  0
TABLE
  2
LTYPE
  5
5
330
0
100
AcDbSymbolTable
 70
     1
  0
LTYPE
  5
14
330
5
100
AcDbSymbolTableRecord
100
AcDbLinetypeTableRecord
  2
BYBLOCK
 70
     0
  3

 72
    65
 73
     0
 40
0.0
  0
LTYPE
  5
15
330
5
100
AcDbSymbolTableRecord
100
AcDbLinetypeTableRecord
  2
BYLAYER
 70
     0
  3

 72
    65
 73
     0
 40
0.0
  0
LTYPE
  5
16
330
5
100
AcDbSymbolTableRecord
100
AcDbLinetypeTableRecord
  2
CONTINUOUS
 70
     0
  3
Solid line
 72
    65
 73
     0
 40
0.0
  0
ENDTAB
  0
TABLE
  2
LAYER
  5
2
102
{ACAD_XDICTIONARY
360
5D
102
}
330
0
100
AcDbSymbolTable
 70
     1
  0
LAYER
  5
10
330
2
100
AcDbSymbolTableRecord
100
AcDbLayerTableRecord
  2
0
 70
     0
 62
     7
  6
CONTINUOUS
  0
ENDTAB
  0
TABLE
  2
STYLE
  5
3
330
0
100
AcDbSymbolTable
 70
     1
  0
STYLE
  5
11
330
3
100
AcDbSymbolTableRecord
100
AcDbTextStyleTableRecord
  2
STANDARD
 70
     0
 40
0.0
 41
1.0
 50
0.0
 71
     0
 42
2.5
  3
txt
  4

  0
ENDTAB
  0
TABLE
  2
VIEW
  5
6
330
0
100
AcDbSymbolTable
 70
     0
  0
ENDTAB
  0
TABLE
  2
UCS
  5
7
330
0
100
AcDbSymbolTable
 70
     0
  0
ENDTAB
  0
TABLE
  2
APPID
  5
9
330
0
100
AcDbSymbolTable
 70
     2
  0
APPID
  5
12
330
9
100
AcDbSymbolTableRecord
100
AcDbRegAppTableRecord
  2
ACAD
 70
     0
  0
APPID
  5
575
330
9
100
AcDbSymbolTableRecord
100
AcDbRegAppTableRecord
  2
CONTENTBLOCKICON
 70
     0
  0
ENDTAB
  0
TABLE
  2
DIMSTYLE
  5
A
330
0
100
AcDbSymbolTable
 70
     1
  0
DIMSTYLE
105
27
330
A
100
AcDbSymbolTableRecord
100
AcDbDimStyleTableRecord
  2
ISO-25
 70
     0
  3

  4

  5

  6

  7

 40
1.0
 41
2.5
 42
0.625
 43
3.75
 44
1.25
 45
0.0
 46
0.0
 47
0.0
 48
0.0
140
2.5
141
2.5
142
0.0
143
0.03937007874016
144
1.0
145
0.0
146
1.0
147
0.625
 71
     0
 72
     0
 73
     0
 74
     0
 75
     0
 76
     0
 77
     1
 78
     8
170
     0
171
     3
172
     1
173
     0
174
     0
175
     0
176
     0
177
     0
178
     0
270
     2
271
     2
272
     2
273
     2
274
     3
340
11
275
     0
280
     0
281
     0
282
     0
283
     0
284
     8
285
     0
286
     0
287
     3
288
     0
  0
ENDTAB
  0
TABLE
  2
BLOCK_RECORD
  5
1
330
0
100
AcDbSymbolTable
 70
     2
  0
BLOCK_RECORD
  5
1F
102
{ACAD_XDICTIONARY
360
56F
102
}
330
1
100
AcDbSymbolTableRecord
100
AcDbBlockTableRecord
  2
*MODEL_SPACE
  0
BLOCK_RECORD
  5
50
102
{ACAD_XDICTIONARY
360
571
102
}
330
1
100
AcDbSymbolTableRecord
100
AcDbBlockTableRecord
  2
*PAPER_SPACE
  0
BLOCK_RECORD
  5
3A7
330
1
100
AcDbSymbolTableRecord
100
AcDbBlockTableRecord
  2
ADKY
1001
ACAD
1000
DesignCenter Data
1002
{
1070
     1
1070
     4
1002
}
1001
CONTENTBLOCKICON
1071
        0
1004
2800000020000000200000000100080000000000000400000000000000000000000000000000000000000000000080000080000000808000800000008000800080800000C0C0C000C0DCC000F0CAA6000020400000206000002080000020A0000020C0000020E00000400000004020000040400000406000004080000040A0
1004
000040C0000040E00000600000006020000060400000606000006080000060A0000060C0000060E00000800000008020000080400000806000008080000080A0000080C0000080E00000A0000000A0200000A0400000A0600000A0800000A0A00000A0C00000A0E00000C0000000C0200000C0400000C0600000C0800000C0
1004
A00000C0C00000C0E00000E0000000E0200000E0400000E0600000E0800000E0A00000E0C00000E0E00040000000400020004000400040006000400080004000A0004000C0004000E00040200000402020004020400040206000402080004020A0004020C0004020E000404000004040200040404000404060004040800040
1004
40A0004040C0004040E00040600000406020004060400040606000406080004060A0004060C0004060E00040800000408020004080400040806000408080004080A0004080C0004080E00040A0000040A0200040A0400040A0600040A0800040A0A00040A0C00040A0E00040C0000040C0200040C0400040C0600040C08000
1004
40C0A00040C0C00040C0E00040E0000040E0200040E0400040E0600040E0800040E0A00040E0C00040E0E00080000000800020008000400080006000800080008000A0008000C0008000E00080200000802020008020400080206000802080008020A0008020C0008020E00080400000804020008040400080406000804080
1004
008040A0008040C0008040E00080600000806020008060400080606000806080008060A0008060C0008060E00080800000808020008080400080806000808080008080A0008080C0008080E00080A0000080A0200080A0400080A0600080A0800080A0A00080A0C00080A0E00080C0000080C0200080C0400080C0600080C0
1004
800080C0A00080C0C00080C0E00080E0000080E0200080E0400080E0600080E0800080E0A00080E0C00080E0E000C0000000C0002000C0004000C0006000C0008000C000A000C000C000C000E000C0200000C0202000C0204000C0206000C0208000C020A000C020C000C020E000C0400000C0402000C0404000C0406000C0
1004
408000C040A000C040C000C040E000C0600000C0602000C0604000C0606000C0608000C060A000C060C000C060E000C0800000C0802000C0804000C0806000C0808000C080A000C080C000C080E000C0A00000C0A02000C0A04000C0A06000C0A08000C0A0A000C0A0C000C0A0E000C0C00000C0C02000C0C04000C0C06000
1004
C0C08000C0C0A000F0FBFF00A4A0A000808080000000FF0000FF000000FFFF00FF000000FF00FF00FFFF0000FFFFFF00FFFFFFFFFFFFFFFFFFFFFFFFFFFFFFFFFFFFFFFFFFFFFFFFFFFFFFFFFFFFFFFFFFFFFFFFFFFFFFFFFFFFFFFFFFFFFFFFFFFFFFFFFFFFFFFFFFFFFFFFFFFFFFFFFFFFFFFFFFFFFFFFFFFFFFFFFFFFFF
1004
FFFFFFFFFFFFFFFFFFFFFFFFFFFFFFFFFFFFFFFFFFFFFFFFFFFFFFFFFFFFFFFFFFFFFFFFFFFFFFFFFFFFFFFFFFFFFFFFFFFFFFFFFFFFFFFFFFFFFFFFFFFFFFFFFFFFFFFFFFFFFFFFFFFFFFFFFFFFFFFFFFFFFFFFFFFFFFFFFFFFFFFFFFFFFFFFFFFFFFFFFFFFFFFFFFFFFFFFFFFFFFFFFFFFFFFFFFFFFFFFFFFFFFFFFFFFFF
1004
FFFF000000000000FFFFFFFFFFFFFFFFFFFFFFFFFFFFFFFFFFFFFFFF000000000000FFFFFFFFFFFF00FFFFFFFFFFFFFFFFFFFFFFFFFFFF0000000000FFFFFFFFFFFFFFFFFFFFFFFFFF00FFFFFFFFFFFFFFFFFFFFFFFF00FFFFFFFFFFFFFFFFFFFFFFFFFFFFFFFFFFFF00000000FFFFFFFFFFFFFFFF00FFFFFFFFFFFFFFFFFF
1004
FFFFFF0000000000FFFFFFFFFFFF00000000FFFFFFFF00FFFFFFFFFFFFFFFFFFFFFFFFFF000000FFFFFFFFFFFFFFFFFFFF00FFFFFFFF00FFFFFF00000000000000000000000000FFFFFFFFFFFFFFFFFFFF00FFFFFFFF00FFFFFF00000000000000FAFAFA000000FB2700E000FFFFFFFFFF00FFFFFFFF00FFFFFF0000000000
1004
0000000000000000FB2700E000FFFFFFFFFF00FFFFFFFF00FFFFFF0000FF00FFFFFFFFFFFFFF00FFFFFFFFFFFFFFFFFFFFFF00FFFFFFFF00FFFFFFFFFFFF00FFFFFFFFFFFFFFE0FFFFFFFFFFFFFFFFFFFFFF00FFFFFFFF00FFFFFFFFFFFF00FFFFFFFFFFFFFFE0FFFFFFFFFFFFFFFF00000000FFFFFF00FFFFFFFFFFFFFF00
1004
FFFFFFFFFFFFFF00FFFFFF0000000000FFFFFFFFFFFFFF00FFFFFFFFFFFF0000FFFFFFFFFFFFFFFFFFFFFF00FFFFFFFFFFFFFFFFFFFF00FFFFFFFF2700FBFFFF000000FFFFFFFFFFFFFF00FFFFFFFFFFFFFFFFFFFFFFFF00FFFFFFFF27FFFFFFFFFF00FFFFFFFFFFFF00FFFFFFFFFFFFFFFFFFFFFFFFFF00FFFFFFFFFFFFFF
1004
FFFFFFFFFFFFFFFF0000FFFFFFFFFFFFFFFFFFFFFFFFFFFF00FFFFFFFFFFFFFFFFFFFFFFFFFFFF00FFFFFFFFFFFFFFFFFFFFFFFFFFFFFFFFFF00FFFFFFFFFFFFFFFFFFFFFF0000FFFFFFFFFFFFFFFFFFFFFFFFFFFFFFFFFFFFFF0000000000000000000000FFFFFFFFFFFFFFFFFFFFFFFFFFFFFFFFFFFFFFFFFFFFFFFFFFFF
1004
FFFFFFFFFFFFFFFFFFFFFFFFFFFFFFFFFFFFFFFFFFFFFFFFFFFFFFFFFFFFFFFFFFFFFFFFFFFFFFFFFFFFFFFFFFFFFFFFFFFFFFFFFFFFFFFFFFFFFFFFFFFFFFFFFFFFFFFFFFFFFFFFFFFFFFFFFFFFFFFFFFFFFFFFFFFFFFFFFFFFFFFFFFFFFFFFFFFFFFFFFFFFFFFFFFFFFFFFFFFFFFFFFFFFFFFFFFFFFFFFFFFFFFFFFFFFFF
1004
FFFFFFFFFFFFFFFFFFFFFFFFFFFFFFFFFFFFFFFFFFFFFFFFFFFFFFFFFFFFFFFFFFFFFFFFFFFFFFFFFFFFFFFFFFFFFFFFFFFFFFFFFFFFFFFF
  0
ENDTAB
  0
ENDSEC
  0
SECTION
  2
BLOCKS
  0
BLOCK
  5
20
330
1F
100
AcDbEntity
  8
0
100
AcDbBlockBegin
  2
*MODEL_SPACE
 70
     0
 10
0.0
 20
0.0
 30
0.0
  3
*MODEL_SPACE
  1

  0
ENDBLK
  5
21
330
1F
100
AcDbEntity
  8
0
100
AcDbBlockEnd
  0
BLOCK
  5
52
330
50
100
AcDbEntity
 67
     1
  8
0
100
AcDbBlockBegin
  2
*PAPER_SPACE
 70
     0
 10
0.0
 20
0.0
 30
0.0
  3
*PAPER_SPACE
  1

  0
ENDBLK
  5
53
330
50
100
AcDbEntity
 67
     1
  8
0
100
AcDbBlockEnd
  0
BLOCK
  5
3A8
330
3A7
100
AcDbEntity
  8
0
100
AcDbBlockBegin
  2
ADKY
 70
     0
 10
0.0
 20
0.0
 30
0.0
  3
ADKY
  1

  0
LWPOLYLINE
  5
3AA
330
3A7
100
AcDbEntity
  8
0
100
AcDbPolyline
 90
       18
 70
     1
 43
0.0
 10
-10049.75390362597
 20
757.7381568931668
 10
-10049.75390362597
 20
2366.124221343219
 10
-10334.77048285349
 20
2913.054743682267
 42
-0.5630395858941279
 10
-8605.491348461768
 20
5764.21714600351
 10
-6339.905815358062
 20
5764.21714600351
 42
-0.1582598120176038
 10
-5194.49192402669
 20
5392.357512873678
 10
-3557.251750259929
 20
4204.048996187397
 42
-0.2317870083153724
 10
-2939.102708562735
 20
3037.94323306944
 10
-2005.034424003392
 20
3037.94323306944
 42
-0.2129405606881533
 10
-888.8434744572732
 20
2540.0
 10
0.0
 20
2540.0
 10
0.0
 20
0.0
 10
-888.8434744572732
 20
0.0
 42
-0.2129405606881534
 10
-2005.034424003392
 20
-497.9432330694326
 10
-2282.975632298265
 20
-497.9432330694326
 42
-0.3935518037545717
 10
-3945.865922769491
 20
-1687.613790568597
 10
-7088.363227552742
 20
-1280.389286118392
 42
-0.154536369295053
 10
-8292.580095214391
 20
-720.0512842205134
 42
-0.4656283626169194
  0
HATCH
  5
3AB
330
3A7
100
AcDbEntity
  8
0
 62
   150
100
AcDbHatch
 10
0.0
 20
0.0
 30
0.0
210
0.0
220
0.0
230
1.0
  2
SOLID
 70
     1
 71
     0
 91
       15
 92
        7
 72
     1
 73
     1
 93
        4
 10
-7470.052333998508
 20
1538.745987059242
 42
0.0
 10
-7519.064610586858
 20
1538.74598705925
 42
0.1501896311853772
 10
-7512.058472292669
 20
1525.837027793342
 42
0.0
 10
-7477.058472292684
 20
1525.837027793342
 42
0.1501896311852413
 97
        0
 92
        7
 72
     1
 73
     1
 93
        4
 10
-6683.857603665824
 20
1543.690598864705
 42
0.0
 10
-6733.857603665824
 20
1543.690598864705
 42
0.2015127546240859
 10
-6726.357603665817
 20
1525.837027793342
 42
0.0
 10
-6691.357603665831
 20
1525.837027793342
 42
0.201512754624086
 97
        0
 92
        7
 72
     1
 73
     1
 93
        4
 10
-6383.525274498508
 20
1543.690598864705
 42
0.0
 10
-6433.525274498508
 20
1543.690598864705
 42
0.2015127546240859
 10
-6426.025274498501
 20
1525.837027793342
 42
0.0
 10
-6391.025274498516
 20
1525.837027793342
 42
0.201512754624086
 97
        0
 92
        7
 72
     1
 73
     1
 93
        4
 10
-6083.192945331194
 20
1543.690598864705
 42
0.0
 10
-6133.192945331193
 20
1543.690598864705
 42
0.2015127546240859
 10
-6125.692945331186
 20
1525.837027793342
 42
0.0
 10
-6090.6929453312
 20
1525.837027793342
 42
0.201512754624086
 97
        0
 92
        7
 72
     1
 73
     1
 93
        4
 10
-5783.42303625595
 20
1543.690598864705
 42
0.0
 10
-5833.42303625595
 20
1543.690598864705
 42
0.2015127546240859
 10
-5825.923036255943
 20
1525.837027793342
 42
0.0
 10
-5790.923036255957
 20
1525.837027793342
 42
0.201512754624086
 97
        0
 92
        7
 72
     1
 73
     1
 93
        4
 10
-5483.090707088635
 20
1543.690598864705
 42
0.0
 10
-5533.090707088636
 20
1543.690598864705
 42
0.2015127546240859
 10
-5525.590707088628
 20
1525.837027793342
 42
0.0
 10
-5490.590707088642
 20
1525.837027793342
 42
0.201512754624086
 97
        0
 92
        7
 72
     1
 73
     1
 93
        4
 10
-5182.75837792132
 20
1543.690598864705
 42
0.0
 10
-5232.75837792132
 20
1543.690598864705
 42
0.2015127546240859
 10
-5225.258377921313
 20
1525.837027793342
 42
0.0
 10
-5190.258377921328
 20
1525.837027793342
 42
0.201512754624086
 97
        0
 92
        7
 72
     1
 73
     1
 93
        4
 10
-4882.988468846077
 20
1543.690598864705
 42
0.0
 10
-4932.988468846077
 20
1543.690598864705
 42
0.2015127546240859
 10
-4925.48846884607
 20
1525.837027793342
 42
0.0
 10
-4890.488468846085
 20
1525.837027793342
 42
0.201512754624086
 97
        0
 92
        7
 72
     1
 73
     1
 93
        4
 10
-4890.488468846081
 20
1023.870561913681
 42
0.0
 10
-4925.48846884607
 20
1023.870561913681
 42
0.2020547557962558
 10
-4932.988414600386
 20
1005.964911272749
 42
0.0
 10
-4882.988526032423
 20
1005.963518288605
 42
0.2020692544122419
 97
        0
 92
        7
 72
     1
 73
     1
 93
        4
 10
-5190.258377921331
 20
1023.870561913681
 42
0.0
 10
-5225.258377921313
 20
1023.870561913681
 42
0.2019678323670984
 10
-5232.758339678432
 20
1005.973262786392
 42
0.0
 10
-5182.758418639521
 20
1005.971869801345
 42
0.2019823304938647
 97
        0
 92
        7
 72
     1
 73
     1
 93
        4
 10
-5490.590707088639
 20
1023.870561913681
 42
0.0
 10
-5525.590707088628
 20
1023.870561913681
 42
0.2018807488468683
 10
-5533.090682080794
 20
1005.981629968839
 42
0.0
 10
-5483.090734105576
 20
1005.980236983043
 42
0.201895246483676
 97
        0
 92
        7
 72
     1
 73
     1
 93
        4
 10
-5790.923036255954
 20
1023.870561913681
 42
0.0
 10
-5825.923036255943
 20
1023.870561913681
 42
0.2017936683106244
 10
-5833.423021682756
 20
1005.989997151206
 42
0.0
 10
-5783.423052372025
 20
1005.988604164813
 42
0.2018081654577831
 97
        0
 92
        7
 72
     1
 73
     1
 93
        4
 10
-6090.692945331197
 20
1023.870561913681
 42
0.0
 10
-6125.692945331186
 20
1023.870561913681
 42
0.2017067538110465
 10
-6133.192938380576
 20
1005.998348664616
 42
0.0
 10
-6083.19295335935
 20
1005.996955677787
 42
0.2017212504696494
 97
        0
 92
        7
 72
     1
 73
     1
 93
        4
 10
-6391.025274498512
 20
1023.870561913681
 42
0.0
 10
-6426.025274498501
 20
1023.870561913681
 42
0.2016196792037996
 10
-6433.525272386996
 20
1006.006715846829
 42
0.0
 10
-6383.525277221346
 20
1006.005322859717
 42
0.2016341753731815
 97
        0
 92
        7
 72
     1
 73
     1
 93
        4
 10
-6691.357603665827
 20
1023.870561913681
 42
0.0
 10
-6726.357603665817
 20
1023.870561913681
 42
0.2015326075471977
 10
-6733.857603593027
 20
1006.015083028964
 42
0.0
 10
-6683.857603883732
 20
1006.013690041727
 42
0.2015471032275446
 97
        0
 75
     0
 76
     1
 47
4.417959636290761
 98
       15
 10
-7496.950992081703
 20
1529.062672717496
 10
-6709.733830977737
 20
1533.480631713522
 10
-6404.576551207409
 20
1533.480631713522
 10
-6108.264512781385
 20
1533.480631713522
 10
-5811.952404814026
 20
1533.480631713522
 10
-5502.372573912882
 20
1537.898590709548
 10
-5210.483086617674
 20
1537.898590709548
 10
-4914.170978650316
 20
1533.480631713522
 10
-4909.748427519499
 20
1016.579356188303
 10
-5206.060535486871
 20
1020.997315184329
 10
-5511.217745715851
 20
1016.579356188303
 10
-5811.952404814026
 20
1016.579356188303
 10
-6108.264512781385
 20
1016.579356188303
 10
-6404.576551207409
 20
1016.579356188303
 10
-6709.733830977737
 20
1016.579356188303
  0
HATCH
  5
3AC
330
3A7
100
AcDbEntity
  8
0
 62
    50
100
AcDbHatch
 10
0.0
 20
0.0
 30
0.0
210
0.0
220
0.0
230
1.0
  2
SOLID
 70
     1
 71
     1
 91
        8
 92
        7
 72
     0
 73
     1
 93
        4
 10
-4925.488468846073
 20
1023.870561913681
 10
-4890.488468846078
 20
1023.870561913681
 10
-4890.488468846077
 20
1525.837027793342
 10
-4925.488468846073
 20
1525.837027793342
 97
        4
330
51A
330
50A
330
514
330
509
 92
        7
 72
     0
 73
     1
 93
        4
 10
-5190.25837792132
 20
1525.837027793342
 10
-5225.258377921315
 20
1525.837027793342
 10
-5225.258377921317
 20
1023.870561913681
 10
-5190.25837792132
 20
1023.870561913681
 97
        4
330
517
330
50C
330
510
330
50B
 92
        7
 72
     0
 73
     1
 93
        4
 10
-5490.590707088633
 20
1525.837027793342
 10
-5525.590707088632
 20
1525.837027793342
 10
-5525.590707088632
 20
1023.870561913681
 10
-5490.590707088636
 20
1023.870561913681
 97
        4
330
46F
330
45D
330
469
330
45C
 92
        7
 72
     0
 73
     1
 93
        4
 10
-5790.923036255949
 20
1525.837027793342
 10
-5825.923036255947
 20
1525.837027793343
 10
-5825.923036255947
 20
1023.870561913681
 10
-5790.92303625595
 20
1023.870561913681
 97
        4
330
46B
330
45F
330
465
330
45E
 92
        7
 72
     0
 73
     1
 93
        4
 10
-6125.69294533119
 20
1023.870561913681
 10
-6090.692945331192
 20
1023.870561913681
 10
-6090.692945331192
 20
1525.837027793342
 10
-6125.692945331191
 20
1525.837027793343
 97
        4
330
442
330
444
330
441
330
460
 92
        7
 72
     0
 73
     1
 93
        4
 10
-6426.025274498505
 20
1023.870561913681
 10
-6391.025274498509
 20
1023.870561913681
 10
-6391.025274498509
 20
1525.837027793342
 10
-6426.025274498504
 20
1525.837027793342
 97
        4
330
458
330
446
330
451
330
445
 92
        7
 72
     0
 73
     1
 93
        4
 10
-6691.357603665823
 20
1525.837027793342
 10
-6726.357603665819
 20
1525.837027793342
 10
-6726.357603665819
 20
1023.870561913681
 10
-6691.357603665823
 20
1023.870561913681
 97
        4
330
454
330
448
330
449
330
447
 92
        7
 72
     0
 73
     1
 93
        4
 10
-7477.058472292679
 20
1525.837027793342
 10
-7512.058472292676
 20
1525.837027793343
 10
-7512.058472292676
 20
1023.870561913681
 10
-7477.058472292681
 20
1023.870561913681
 97
        4
330
430
330
420
330
429
330
41F
 75
     0
 76
     1
 47
6.112928390010685
 98
        8
 10
-4911.311855950899
 20
1207.837573234312
 10
-5205.038555937539
 20
1256.74098818934
 10
-5504.88447669602
 20
1275.079773359371
 10
-5804.730466995835
 20
1256.74098818934
 10
-6110.69574760881
 20
1256.74098818934
 10
-6410.541737908625
 20
1250.628047634272
 10
-6704.268368353933
 20
1238.402203019308
 10
-7487.539475596536
 20
1232.28926246424
  0
LINE
  5
3AD
330
3A7
100
AcDbEntity
  8
0
100
AcDbLine
 10
-4814.228354492603
 20
905.9616026477669
 30
0.0
 11
-6802.336507973257
 21
905.9616026477669
 31
0.0
  0
LINE
  5
3AE
330
3A7
100
AcDbEntity
  8
0
100
AcDbLine
 10
-6802.336814767881
 20
1006.016990842319
 30
0.0
 11
-4814.228354492599
 21
1005.961602647767
 31
0.0
  0
LINE
  5
3AF
330
3A7
100
AcDbEntity
  8
0
100
AcDbLine
 10
-4814.228047697984
 20
1543.690598864705
 30
0.0
 11
-6802.336814767871
 21
1543.690598864705
 31
0.0
  0
LINE
  5
3B0
330
3A7
100
AcDbEntity
  8
0
100
AcDbLine
 10
-6802.336507973257
 20
1643.74598705925
 30
0.0
 11
-4814.228354492599
 21
1643.745987059177
 31
0.0
  0
HATCH
  5
3B1
330
3A7
100
AcDbEntity
  8
0
 62
   250
100
AcDbHatch
 10
0.0
 20
0.0
 30
0.0
210
0.0
220
0.0
230
1.0
  2
SOLID
 70
     1
 71
     0
 91
        7
 92
        7
 72
     1
 73
     1
 93
       18
 10
-6807.336507973261
 20
1538.745987059242
 42
0.0
 10
-6907.336507973261
 20
1538.74598705925
 42
-0.4142135623730849
 10
-6912.336507973261
 20
1543.74598705925
 42
0.0
 10
-6912.336507973257
 20
1643.74598705925
 42
0.0
 10
-7439.55847229268
 20
1643.74598705925
 42
0.0
 10
-7439.558472292675
 20
1543.745987059242
 42
-0.4142135623730951
 10
-7444.558472292676
 20
1538.745987059242
 42
0.0
 10
-7470.052333998501
 20
1538.745987059242
 42
-0.1501896311851915
 10
-7477.05847229268
 20
1525.837027793349
 42
0.0
 10
-7477.05847229268
 20
1023.870561913674
 42
-0.1501896311853262
 10
-7470.052333998501
 20
1010.961602647767
 42
0.0
 10
-7444.558472292676
 20
1010.961602647767
 42
-0.4142135623730849
 10
-7439.558472292675
 20
1005.961602647767
 42
0.0
 10
-7439.558472292675
 20
905.9616026477597
 42
0.0
 10
-6912.336507973261
 20
905.9616026477378
 42
0.0
 10
-6912.336507973257
 20
1005.961602647767
 42
-0.4142135623730951
 10
-6907.336507973258
 20
1010.961602647767
 42
0.0
 10
-6807.336507973258
 20
1010.961602647767
 42
0.0
 97
        0
 92
        7
 72
     0
 73
     1
 93
        4
 10
-4814.228354492599
 20
1643.745987059177
 10
-6802.336507973262
 20
1643.745987059243
 10
-6802.33650797325
 20
1543.690598864697
 10
-4814.228354492599
 20
1543.690598864705
 97
        0
 92
        7
 72
     0
 73
     1
 93
        4
 10
-4814.228354492596
 20
1005.961602647767
 10
-6802.336507973257
 20
1006.01699083377
 10
-6802.336507973262
 20
905.9616026477669
 10
-4814.228354492599
 20
905.9616026477669
 97
        0
 92
        7
 72
     1
 73
     1
 93
       17
 10
-4164.563480725872
 20
1538.172980886425
 42
0.0
 10
-4169.696533139624
 20
1538.172980886425
 42
-0.1327025968169084
 10
-4172.214387727385
 20
1538.853211416317
 42
-0.3405486761285143
 10
-4175.93925409995
 20
1543.687881439407
 42
0.0
 10
-4175.939254099946
 20
1560.000781534843
 42
0.0
 10
-4704.228354492599
 20
1560.000781534821
 42
0.0
 10
-4704.228354492599
 20
1543.745987059242
 42
-0.4142135623730951
 10
-4709.2283544926
 20
1538.745987059242
 42
0.0
 10
-4809.228354492606
 20
1538.745987059257
 42
0.0
 10
-4809.228354492596
 20
1010.961602647767
 42
0.0
 10
-4709.2283544926
 20
1010.961602647767
 42
-0.4142135623730849
 10
-4704.228354492599
 20
1005.961602647767
 42
0.0
 10
-4704.228354492602
 20
906.2583837603815
 42
0.0
 10
-4175.921413604185
 20
906.2583837603742
 42
0.0
 10
-4175.921413604181
 20
1006.258383760381
 42
-0.4142135623730951
 10
-4170.921413604181
 20
1011.258383760381
 42
0.0
 10
-4164.563480725872
 20
1011.258383760381
 42
0.0
 97
        0
 92
        7
 72
     0
 73
     1
 93
        4
 10
-4175.93925409995
 20
1627.491192583657
 10
-4704.228354492599
 20
1627.491192583678
 10
-4704.228354492599
 20
1560.000781534829
 10
-4175.939254099946
 20
1560.000781534843
 97
        0
 92
        7
 72
     0
 73
     1
 93
        4
 10
-4540.728148721998
 20
1643.74598705925
 10
-4704.228354492595
 20
1643.74598705925
 10
-4704.228354492595
 20
1627.491192583678
 10
-4540.728148721998
 20
1627.491192583678
 97
        0
 92
        7
 72
     0
 73
     1
 93
        4
 10
-4175.939254099946
 20
1643.687881439407
 10
-4340.506595943788
 20
1643.687881439407
 10
-4340.506595943785
 20
1627.491192583664
 10
-4175.939254099946
 20
1627.491192583664
 97
        0
 75
     0
 76
     1
 47
4.529162732606333
 98
        7
 10
-7077.492573744411
 20
1317.046880285524
 10
-6420.078846055879
 20
1579.738329501153
 10
-6324.867222878482
 20
945.655523566551
 10
-4402.498864351943
 20
1380.455153579954
 10
-4470.507236162851
 20
1597.854968586652
 10
-4597.456067066054
 20
1634.088283252829
 10
-4298.219467538609
 20
1634.088283252829
  0
LINE
  5
3B2
330
3A7
100
AcDbEntity
  8
0
100
AcDbLine
 10
-7427.21565610576
 20
1647.654989024871
 30
0.0
 11
-7427.215656105774
 21
3244.757861438658
 31
0.0
  0
LINE
  5
3B3
330
3A7
100
AcDbEntity
  8
0
100
AcDbLine
 10
-7524.239529589959
 20
3244.757861438658
 30
0.0
 11
-7524.239529589959
 21
1647.654989024871
 31
0.0
  0
HATCH
  5
3B4
330
3A7
100
AcDbEntity
  8
0
 62
   250
100
AcDbHatch
 10
0.0
 20
0.0
 30
0.0
210
0.0
220
0.0
230
1.0
  2
SOLID
 70
     1
 71
     0
 91
        1
 92
        7
 72
     0
 73
     1
 93
        4
 10
-7524.239529589959
 20
1647.654989024871
 10
-7427.21565610576
 20
1647.654989024871
 10
-7427.215656105774
 20
3244.757861438658
 10
-7524.239529589959
 20
3244.757861438643
 97
        0
 75
     0
 76
     1
 47
7.520801578397686
 98
        1
 10
-7469.286601456781
 20
2172.581211306606
  0
HATCH
  5
3B5
330
3A7
100
AcDbEntity
  8
0
 62
    10
100
AcDbHatch
 10
0.0
 20
0.0
 30
0.0
210
0.0
220
0.0
230
1.0
  2
SOLID
 70
     1
 71
     0
 91
        6
 92
        7
 72
     1
 73
     1
 93
        2
 10
-7504.682033950004
 20
857.5380865348853
 42
1.0
 10
-7504.682033950004
 20
821.5432006421615
 42
0.0
 97
        0
 92
        7
 72
     1
 73
     1
 93
        2
 10
-7504.682033950004
 20
766.9884517110403
 42
1.0
 10
-7504.682033950004
 20
730.9935658183166
 42
0.0
 97
        0
 92
        7
 72
     1
 73
     1
 93
        2
 10
-7504.682033950004
 20
729.8687256341727
 42
1.0
 10
-7504.682033950004
 20
693.873839741449
 42
0.0
 97
        0
 92
        7
 72
     1
 73
     1
 93
        2
 10
-6847.212946315936
 20
857.5380865348853
 42
0.0
 10
-6847.212946315936
 20
821.5432006421615
 42
1.0
 97
        0
 92
        7
 72
     1
 73
     1
 93
        2
 10
-6847.212946315936
 20
766.9884517110403
 42
0.0
 10
-6847.212946315936
 20
730.9935658183166
 42
1.0
 97
        0
 92
        7
 72
     1
 73
     1
 93
        2
 10
-6847.212946315936
 20
729.8687256341727
 42
0.0
 10
-6847.212946315936
 20
693.873839741449
 42
1.0
 97
        0
 75
     0
 76
     1
 47
1.293344877721992
 98
        6
 10
-7510.521219849422
 20
843.6425526125967
 10
-7511.815870997333
 20
751.8150544494128
 10
-7514.405242834499
 20
707.8413337289966
 10
-6842.458974299629
 20
843.6425526125967
 10
-6837.28023062531
 20
749.2283499678523
 10
-6838.574951314552
 20
710.4280017153942
  0
HATCH
  5
3B6
330
3A7
100
AcDbEntity
  8
0
 62
    70
100
AcDbHatch
 10
0.0
 20
0.0
 30
0.0
210
0.0
220
0.0
230
1.0
  2
SOLID
 70
     1
 71
     0
 91
        2
 92
        7
 72
     0
 73
     1
 93
        4
 10
-6847.212946315936
 20
900.9616026477598
 10
-6867.460069630586
 20
900.9616026477671
 10
-6867.460069630583
 20
644.3808716389685
 10
-6847.212946315933
 20
644.3808716389467
 97
        0
 92
        7
 72
     0
 73
     1
 93
        4
 10
-7484.434910635354
 20
900.9616026477671
 10
-7504.682033950004
 20
900.9616026477671
 10
-7504.682033950001
 20
644.3808716389685
 10
-7484.434910635362
 20
644.380871638983
 97
        0
 75
     0
 76
     1
 47
1.293344877721992
 98
        2
 10
-6852.816531189597
 20
768.6285240940779
 10
-7485.922013543078
 20
771.2152285756456
  0
HATCH
  5
3B7
330
3A7
100
AcDbEntity
  8
0
 62
    30
100
AcDbHatch
 10
0.0
 20
0.0
 30
0.0
210
0.0
220
0.0
230
1.0
  2
SOLID
 70
     1
 71
     1
 91
        4
 92
        7
 72
     1
 73
     1
 93
        8
 10
-6912.336507973261
 20
1543.74598705925
 42
0.4142135623730982
 10
-6907.336507973261
 20
1538.74598705925
 42
0.0
 10
-6807.336507973258
 20
1538.745987059242
 42
0.4142135623730951
 10
-6802.336507973257
 20
1543.745987059242
 42
0.0
 10
-6802.336507973257
 20
1643.74598705925
 42
0.4142135623730849
 10
-6807.336507973258
 20
1648.74598705925
 42
0.0
 10
-6907.336507973258
 20
1648.74598705925
 42
0.4142135623730817
 10
-6912.336507973257
 20
1643.74598705925
 42
0.0
 97
        1
330
455
 92
        7
 72
     1
 73
     1
 93
        8
 10
-7444.558472292676
 20
1538.745987059242
 42
0.4142135623730951
 10
-7439.558472292675
 20
1543.745987059242
 42
0.0
 10
-7439.558472292675
 20
1643.74598705925
 42
0.4142135623730849
 10
-7444.558472292676
 20
1648.74598705925
 42
0.0
 10
-7544.558472292677
 20
1648.74598705925
 42
0.4142135623730817
 10
-7549.558472292677
 20
1643.74598705925
 42
0.0
 10
-7549.558472292679
 20
1543.74598705925
 42
0.4142135623730982
 10
-7544.558472292679
 20
1538.74598705925
 42
0.0
 97
        1
330
42C
 92
        7
 72
     1
 73
     1
 93
        8
 10
-7444.558472292676
 20
900.9616026477598
 42
0.4142135623730951
 10
-7439.558472292675
 20
905.9616026477597
 42
0.0
 10
-7439.558472292675
 20
1005.961602647766
 42
0.4142135623730915
 10
-7444.558472292676
 20
1010.961602647767
 42
0.0
 10
-7544.558472292677
 20
1010.961602647767
 42
0.4142135623730817
 10
-7549.558472292677
 20
1005.961602647767
 42
0.0
 10
-7549.558472292679
 20
905.9616026477673
 42
0.4142135623731048
 10
-7544.558472292679
 20
900.9616026477671
 42
0.0
 97
        1
330
423
 92
        7
 72
     1
 73
     1
 93
        8
 10
-6907.336507973258
 20
1010.961602647767
 42
0.4142135623730817
 10
-6912.336507973257
 20
1005.961602647767
 42
0.0
 10
-6912.336507973261
 20
905.9616026477673
 42
0.4142135623731048
 10
-6907.336507973261
 20
900.9616026477671
 42
0.0
 10
-6807.336507973258
 20
900.9616026477598
 42
0.4142135623730951
 10
-6802.336507973257
 20
905.9616026477597
 42
0.0
 10
-6802.336507973257
 20
1005.961602647766
 42
0.4142135623730915
 10
-6807.336507973258
 20
1010.961602647767
 42
0.0
 97
        1
330
44B
 75
     0
 76
     1
 47
3.01086868538496
 98
        4
 10
-6889.246597239206
 20
1589.821141385764
 10
-7486.020553623468
 20
1583.799402254262
 10
-7495.062527421843
 20
945.4952002957579
 10
-6853.078493421647
 20
960.549566372094
  0
HATCH
  5
3B8
330
3A7
100
AcDbEntity
  8
0
 62
    50
100
AcDbHatch
 10
0.0
 20
0.0
 30
0.0
210
0.0
220
0.0
230
1.0
  2
SOLID
 70
     1
 71
     0
 91
        1
 92
        7
 72
     0
 73
     1
 93
        4
 10
-6883.063960333661
 20
729.3712826878182
 10
-7466.581339564
 20
729.3712826878182
 10
-7466.581339563996
 20
694.3712826878035
 10
-6883.063960333649
 20
694.3712826878108
 97
        0
 75
     0
 76
     1
 47
1.664519138775399
 98
        1
 10
-7164.38566169525
 20
705.7948354787732
  0
HATCH
  5
3B9
330
3A7
100
AcDbEntity
  8
0
 62
   150
100
AcDbHatch
 10
0.0
 20
0.0
 30
0.0
210
0.0
220
0.0
230
1.0
  2
SOLID
 70
     1
 71
     0
 91
        2
 92
        7
 72
     1
 73
     1
 93
        4
 10
-7466.581339564
 20
729.3712826878109
 42
0.2015127546239788
 10
-7484.434910635354
 20
736.8712826878109
 42
0.0
 10
-7484.434910635354
 20
686.8712826878109
 42
0.2015127546239788
 10
-7466.581339564
 20
694.3712826878108
 42
0.0
 97
        0
 92
        7
 72
     1
 73
     1
 93
        4
 10
-6867.460069630586
 20
736.7698557039694
 42
0.1781727083873089
 10
-6883.063960333656
 20
729.3712826878036
 42
0.0
 10
-6883.063960333649
 20
694.3712826878035
 42
0.178172708387135
 10
-6867.460069630586
 20
686.9727096716596
 42
0.0
 97
        0
 75
     0
 76
     1
 47
1.664519138775399
 98
        2
 10
-7475.975445979213
 20
717.4464651284069
 10
-6874.457170678707
 20
709.1238881623139
  0
LINE
  5
3BA
330
3A7
100
AcDbEntity
  8
0
100
AcDbLine
 10
-7466.581339564
 20
729.3712826878182
 30
0.0
 11
-6883.063960333654
 21
729.3712826878109
 31
0.0
  0
LINE
  5
3BB
330
3A7
100
AcDbEntity
  8
0
100
AcDbLine
 10
-7466.581339564
 20
694.3712826878108
 30
0.0
 11
-6883.063960333649
 21
694.3712826878108
 31
0.0
  0
HATCH
  5
3BC
330
3A7
100
AcDbEntity
  8
0
 62
    50
100
AcDbHatch
 10
0.0
 20
0.0
 30
0.0
210
0.0
220
0.0
230
1.0
  2
SOLID
 70
     1
 71
     0
 91
        1
 92
        7
 72
     0
 73
     1
 93
        4
 10
-6883.063960333661
 20
766.4910087646858
 10
-7466.581339564
 20
766.4910087646858
 10
-7466.581339563996
 20
731.4910087646713
 10
-6883.063960333649
 20
731.4910087646786
 97
        0
 75
     0
 76
     1
 47
1.664519138775399
 98
        1
 10
-7164.38566169525
 20
742.9145615556408
  0
HATCH
  5
3BD
330
3A7
100
AcDbEntity
  8
0
 62
   150
100
AcDbHatch
 10
0.0
 20
0.0
 30
0.0
210
0.0
220
0.0
230
1.0
  2
SOLID
 70
     1
 71
     0
 91
        2
 92
        7
 72
     1
 73
     1
 93
        4
 10
-7466.581339564
 20
766.4910087646785
 42
0.2015127546239788
 10
-7484.434910635354
 20
773.9910087646785
 42
0.0
 10
-7484.434910635354
 20
723.9910087646785
 42
0.2015127546239788
 10
-7466.581339564
 20
731.4910087646786
 42
0.0
 97
        0
 92
        7
 72
     1
 73
     1
 93
        4
 10
-6867.460069630586
 20
773.889581780837
 42
0.1781727083873089
 10
-6883.063960333656
 20
766.4910087646712
 42
0.0
 10
-6883.063960333649
 20
731.4910087646713
 42
0.178172708387135
 10
-6867.460069630586
 20
724.0924357485273
 42
0.0
 97
        0
 75
     0
 76
     1
 47
1.664519138775399
 98
        2
 10
-7475.975445979213
 20
754.5661912052747
 10
-6874.457170678707
 20
746.2436142391815
  0
LINE
  5
3BE
330
3A7
100
AcDbEntity
  8
0
100
AcDbLine
 10
-7466.581339564
 20
766.4910087646858
 30
0.0
 11
-6883.063960333654
 21
766.4910087646785
 31
0.0
  0
LINE
  5
3BF
330
3A7
100
AcDbEntity
  8
0
100
AcDbLine
 10
-7466.581339564
 20
731.4910087646786
 30
0.0
 11
-6883.063960333649
 21
731.4910087646786
 31
0.0
  0
HATCH
  5
3C0
330
3A7
100
AcDbEntity
  8
0
 62
    50
100
AcDbHatch
 10
0.0
 20
0.0
 30
0.0
210
0.0
220
0.0
230
1.0
  2
SOLID
 70
     1
 71
     1
 91
        1
 92
        7
 72
     0
 73
     1
 93
        4
 10
-6883.063960333657
 20
857.0406435885235
 10
-7466.581339564001
 20
857.0406435885304
 10
-7466.581339564
 20
822.0406435885234
 10
-6883.063960333649
 20
822.0406435885234
 97
        4
330
3C2
330
3DA
330
3C3
330
43D
 75
     0
 76
     1
 47
1.664519138775399
 98
        1
 10
-7164.38566169525
 20
833.4641963794856
  0
HATCH
  5
3C1
330
3A7
100
AcDbEntity
  8
0
 62
   150
100
AcDbHatch
 10
0.0
 20
0.0
 30
0.0
210
0.0
220
0.0
230
1.0
  2
SOLID
 70
     1
 71
     0
 91
        2
 92
        7
 72
     1
 73
     1
 93
        4
 10
-7466.581339564
 20
857.0406435885233
 42
0.2015127546239788
 10
-7484.434910635354
 20
864.5406435885233
 42
0.0
 10
-7484.434910635354
 20
814.5406435885233
 42
0.2015127546239788
 10
-7466.581339564
 20
822.0406435885234
 42
0.0
 97
        0
 92
        7
 72
     1
 73
     1
 93
        4
 10
-6867.460069630586
 20
864.4392166046818
 42
0.1781727083873089
 10
-6883.063960333656
 20
857.0406435885161
 42
0.0
 10
-6883.063960333649
 20
822.0406435885161
 42
0.178172708387135
 10
-6867.460069630586
 20
814.6420705723722
 42
0.0
 97
        0
 75
     0
 76
     1
 47
1.664519138775399
 98
        2
 10
-7475.975445979213
 20
845.1158260291194
 10
-6874.457170678707
 20
836.7932490630265
  0
LINE
  5
3C2
102
{ACAD_REACTORS
330
3C0
102
}
330
3A7
100
AcDbEntity
  8
0
100
AcDbLine
 10
-7466.581339564
 20
857.0406435885306
 30
0.0
 11
-6883.063960333654
 21
857.0406435885233
 31
0.0
  0
LINE
  5
3C3
102
{ACAD_REACTORS
330
3C0
102
}
330
3A7
100
AcDbEntity
  8
0
100
AcDbLine
 10
-7466.581339564
 20
822.0406435885234
 30
0.0
 11
-6883.063960333649
 21
822.0406435885234
 31
0.0
  0
LINE
  5
3C4
330
3A7
100
AcDbEntity
  8
0
100
AcDbLine
 10
-7439.558472292675
 20
905.9616026477597
 30
0.0
 11
-6912.336507973261
 21
905.9616026477378
 31
0.0
  0
LINE
  5
3C5
330
3A7
100
AcDbEntity
  8
0
100
AcDbLine
 10
-6912.336507973257
 20
1643.74598705925
 30
0.0
 11
-7439.558472292675
 21
1643.74598705925
 31
0.0
  0
ARC
  5
3C6
330
3A7
100
AcDbEntity
  8
0
100
AcDbCircle
 10
-7484.434910635354
 20
839.5406435885233
 30
0.0
 40
25.0
100
AcDbArc
 50
44.42700400063446
 51
90.0
  0
LINE
  5
3C7
330
3A7
100
AcDbEntity
  8
0
100
AcDbLine
 10
-7484.434910635359
 20
644.3808716389757
 30
0.0
 11
-7484.434910635354
 21
900.9616026477598
 31
0.0
  0
LINE
  5
3C8
330
3A7
100
AcDbEntity
  8
0
100
AcDbLine
 10
-7504.682033950004
 20
900.9616026477671
 30
0.0
 11
-7504.682033950004
 21
644.3808716389757
 31
0.0
  0
HATCH
  5
3C9
330
3A7
100
AcDbEntity
  8
0
 62
   250
100
AcDbHatch
 10
0.0
 20
0.0
 30
0.0
210
0.0
220
0.0
230
1.0
  2
SOLID
 70
     1
 71
     0
 91
        3
 92
        7
 72
     1
 73
     1
 93
        4
 10
-8311.302414582304
 20
1710.756160152166
 42
-0.2679491924310617
 10
-8331.306191136068
 20
1710.756160152166
 42
0.0
 10
-8331.306191136068
 20
1430.965975765713
 42
-0.2679491924310617
 10
-8311.302414582304
 20
1430.965975765713
 42
0.0
 97
        0
 92
        7
 72
     1
 73
     1
 93
        4
 10
-8311.302414582304
 20
1396.318418431321
 42
-0.2679491924310617
 10
-8331.306191136068
 20
1396.318418431321
 42
0.0
 10
-8331.306191136068
 20
1148.624383632479
 42
-0.2679491924310617
 10
-8311.302414582304
 20
1148.624383632479
 42
0.0
 97
        0
 92
        7
 72
     1
 73
     1
 93
        4
 10
-8311.302414582304
 20
1113.976826298101
 42
-0.2679491924310617
 10
-8331.306191136068
 20
1113.976826298101
 42
0.0
 10
-8331.306191136068
 20
835.2318842901368
 42
-0.2679491924310617
 10
-8311.302414582304
 20
835.2318842901368
 42
0.0
 97
        0
 75
     0
 76
     1
 47
3.005531458579665
 98
        3
 10
-8317.575847941069
 20
1544.463037002431
 10
-8320.584507193609
 20
1328.064771984696
 10
-8323.593166446149
 20
997.4563004338051
  0
HATCH
  5
3CA
330
3A7
100
AcDbEntity
  8
0
 62
   250
100
AcDbHatch
 10
0.0
 20
0.0
 30
0.0
210
0.0
220
0.0
230
1.0
  2
SOLID
 70
     1
 71
     0
 91
       13
 92
        7
 72
     1
 73
     1
 93
        2
 10
-7937.898585578641
 20
1635.395774120224
 42
1.0
 10
-7937.898585578641
 20
1675.403327227766
 42
1.0
 97
        0
 92
        7
 72
     1
 73
     1
 93
        2
 10
-8129.268047943016
 20
1711.410125024551
 42
1.0
 10
-8129.268047943016
 20
1671.402571917009
 42
1.0
 97
        0
 92
        7
 72
     1
 73
     1
 93
        2
 10
-8321.304302859182
 20
1708.076162265577
 42
1.0
 10
-8321.304302859182
 20
1748.083715373119
 42
1.0
 97
        0
 92
        7
 72
     1
 73
     1
 93
        2
 10
-8321.304302859182
 20
1433.645973652273
 42
1.0
 10
-8321.304302859182
 20
1393.638420544746
 42
1.0
 97
        0
 92
        7
 72
     1
 73
     1
 93
        2
 10
-8129.268047943016
 20
1414.020646925208
 42
1.0
 10
-8129.268047943016
 20
1374.013093817666
 42
1.0
 97
        0
 92
        7
 72
     1
 73
     1
 93
        2
 10
-7937.898585578641
 20
1354.676109815693
 42
1.0
 10
-7937.898585578641
 20
1394.683662923235
 42
1.0
 97
        0
 92
        7
 72
     1
 73
     1
 93
        2
 10
-7937.898585578641
 20
1253.990434495055
 42
1.0
 10
-7937.898585578641
 20
1293.997987602597
 42
1.0
 97
        0
 92
        7
 72
     1
 73
     1
 93
        2
 10
-7937.898585578641
 20
1149.970796415473
 42
1.0
 10
-7937.898585578641
 20
1189.978349523014
 42
1.0
 97
        0
 92
        7
 72
     1
 73
     1
 93
        2
 10
-8129.268047943016
 20
1130.633812413485
 42
1.0
 10
-8129.268047943016
 20
1170.641365521027
 42
1.0
 97
        0
 92
        7
 72
     1
 73
     1
 93
        2
 10
-8321.304302859182
 20
1111.296828411512
 42
1.0
 10
-8321.304302859182
 20
1151.304381519054
 42
1.0
 97
        0
 92
        7
 72
     1
 73
     1
 93
        2
 10
-7937.898585578641
 20
872.5850948698862
 42
1.0
 10
-7937.898585578641
 20
912.592647977428
 42
1.0
 97
        0
 92
        7
 72
     1
 73
     1
 93
        2
 10
-8129.268047943016
 20
835.2447119695352
 42
1.0
 10
-8129.268047943016
 20
875.2522650770769
 42
1.0
 97
        0
 92
        7
 72
     1
 73
     1
 93
        2
 10
-8321.304302859182
 20
837.9118821766969
 42
1.0
 10
-8321.304302859182
 20
797.9043290691698
 42
1.0
 97
        0
 75
     0
 76
     1
 47
2.676158162350435
 98
       13
 10
-7941.517097321728
 20
1655.87203804688
 10
-8120.785173003726
 20
1688.165377442354
 10
-8323.563850486044
 20
1726.330231360574
 10
-8320.624998049407
 20
1409.268313846921
 10
-8120.785173003726
 20
1400.461032542407
 10
-7938.578244885099
 20
1368.167693146919
 10
-7941.517097321728
 20
1271.287655919681
 10
-7938.578244885099
 20
1165.600356428731
 10
-8129.601621467253
 20
1147.985793819702
 10
-8323.563850486044
 20
1133.306997992454
 10
-7944.455913476243
 20
886.7032737924965
 10
-8132.54047390389
 20
854.4099343970083
 10
-8314.747365740386
 20
822.1165950015347
  0
HATCH
  5
3CB
330
3A7
100
AcDbEntity
  8
0
 62
   250
100
AcDbHatch
 10
0.0
 20
0.0
 30
0.0
210
0.0
220
0.0
230
1.0
  2
SOLID
 70
     1
 71
     0
 91
       23
 92
        7
 72
     1
 73
     1
 93
        2
 10
-8341.308079412952
 20
1728.079938819362
 42
1.0
 10
-8301.300526305411
 20
1728.079938819362
 42
1.0
 97
        0
 92
        7
 72
     1
 73
     1
 93
        2
 10
-8109.264271389246
 20
1691.40634847078
 42
1.0
 10
-8149.271824496787
 20
1691.40634847078
 42
1.0
 97
        0
 92
        7
 72
     1
 73
     1
 93
        2
 10
-7957.902362132412
 20
1655.39955067401
 42
1.0
 10
-7917.894809024871
 20
1655.39955067401
 42
1.0
 97
        0
 92
        7
 72
     1
 73
     1
 93
        4
 10
-7927.896697301756
 20
1638.075772006813
 42
-0.2679491924310617
 10
-7947.900473855519
 20
1638.075772006813
 42
0.0
 10
-7947.900473855519
 20
1392.00366503666
 42
-0.2679491924310617
 10
-7927.896697301756
 20
1392.00366503666
 42
0.0
 97
        0
 92
        7
 72
     1
 73
     1
 93
        4
 10
-8119.266159666123
 20
1674.082569803598
 42
-0.2679491924311883
 10
-8139.269936219902
 20
1674.082569803598
 42
0.0
 10
-8139.269936219902
 20
1411.340649038633
 42
-0.2679491924311883
 10
-8119.266159666123
 20
1411.340649038633
 42
0.0
 97
        0
 92
        7
 72
     1
 73
     1
 93
        4
 10
-8311.302414582304
 20
1710.756160152166
 42
-0.2679491924310617
 10
-8331.306191136068
 20
1710.756160152166
 42
0.0
 10
-8331.306191136068
 20
1430.965975765713
 42
-0.2679491924310617
 10
-8311.302414582304
 20
1430.965975765713
 42
0.0
 97
        0
 92
        7
 72
     1
 73
     1
 93
        2
 10
-8301.300526305418
 20
1413.642197098517
 42
1.0
 10
-8341.308079412952
 20
1413.642197098517
 42
1.0
 97
        0
 92
        7
 72
     1
 73
     1
 93
        2
 10
-8109.264271389246
 20
1394.016870371437
 42
1.0
 10
-8149.271824496787
 20
1394.016870371437
 42
1.0
 97
        0
 92
        7
 72
     1
 73
     1
 93
        2
 10
-7957.902362132412
 20
1374.679886369464
 42
1.0
 10
-7917.894809024871
 20
1374.679886369464
 42
1.0
 97
        0
 92
        7
 72
     1
 73
     1
 93
        4
 10
-7927.896697301756
 20
1357.356107702267
 42
-0.2679491924310617
 10
-7947.900473855519
 20
1357.356107702267
 42
0.0
 10
-7947.900473855519
 20
1291.317989716037
 42
-0.2679491924310617
 10
-7927.896697301756
 20
1291.317989716037
 42
0.0
 97
        0
 92
        7
 72
     1
 73
     1
 93
        2
 10
-7957.902362132412
 20
1273.994211048841
 42
1.0
 10
-7917.894809024871
 20
1273.994211048841
 42
1.0
 97
        0
 92
        7
 72
     1
 73
     1
 93
        4
 10
-7927.896697301756
 20
1256.670432381644
 42
-0.2679491924310617
 10
-7947.900473855519
 20
1256.670432381644
 42
0.0
 10
-7947.900473855519
 20
1187.29835163644
 42
-0.2679491924310617
 10
-7927.896697301756
 20
1187.29835163644
 42
0.0
 97
        0
 92
        7
 72
     1
 73
     1
 93
        2
 10
-7917.894809024871
 20
1169.974572969244
 42
1.0
 10
-7957.902362132412
 20
1169.974572969244
 42
1.0
 97
        0
 92
        7
 72
     1
 73
     1
 93
        4
 10
-7927.896697301756
 20
1152.650794302047
 42
-0.2679491924310617
 10
-7947.900473855519
 20
1152.650794302047
 42
0.0
 10
-7947.900473855519
 20
909.9126500908678
 42
-0.2679491924310617
 10
-7927.896697301756
 20
909.9126500908678
 42
0.0
 97
        0
 92
        7
 72
     1
 73
     1
 93
        4
 10
-8119.266159666123
 20
1376.693091704241
 42
-0.2679491924311883
 10
-8139.269936219902
 20
1376.693091704241
 42
0.0
 10
-8139.269936219902
 20
1167.961367634452
 42
-0.2679491924311883
 10
-8119.266159666123
 20
1167.961367634452
 42
0.0
 97
        0
 92
        7
 72
     1
 73
     1
 93
        4
 10
-8119.266159666123
 20
1133.313810300074
 42
-0.2679491924311883
 10
-8139.269936219902
 20
1133.313810300074
 42
0.0
 10
-8139.269936219902
 20
872.5722671904877
 42
-0.2679491924311883
 10
-8119.266159666123
 20
872.5722671904877
 42
0.0
 97
        0
 92
        7
 72
     1
 73
     1
 93
        2
 10
-8109.264271389246
 20
1150.63758896727
 42
1.0
 10
-8149.271824496787
 20
1150.63758896727
 42
1.0
 97
        0
 92
        7
 72
     1
 73
     1
 93
        2
 10
-7917.894809024871
 20
892.5888714236716
 42
1.0
 10
-7957.902362132412
 20
892.5888714236716
 42
1.0
 97
        0
 92
        7
 72
     1
 73
     1
 93
        2
 10
-8149.271824496787
 20
855.2484885232916
 42
1.0
 10
-8109.264271389246
 20
855.2484885232916
 42
1.0
 97
        0
 92
        7
 72
     1
 73
     1
 93
        2
 10
-8301.300526305418
 20
817.9081056229406
 42
1.0
 10
-8341.308079412952
 20
817.9081056229406
 42
1.0
 97
        0
 92
        7
 72
     1
 73
     1
 93
        4
 10
-8311.302414582304
 20
1113.976826298101
 42
-0.2679491924310617
 10
-8331.306191136068
 20
1113.976826298101
 42
0.0
 10
-8331.306191136068
 20
835.2318842901368
 42
-0.2679491924310617
 10
-8311.302414582304
 20
835.2318842901368
 42
0.0
 97
        0
 92
        7
 72
     1
 73
     1
 93
        2
 10
-8301.300526305418
 20
1131.300604965297
 42
1.0
 10
-8341.308079412952
 20
1131.300604965297
 42
1.0
 97
        0
 92
        7
 72
     1
 73
     1
 93
        4
 10
-8311.302414582304
 20
1396.318418431321
 42
-0.2679491924310617
 10
-8331.306191136068
 20
1396.318418431321
 42
0.0
 10
-8331.306191136068
 20
1148.624383632479
 42
-0.2679491924310617
 10
-8311.302414582304
 20
1148.624383632479
 42
0.0
 97
        0
 75
     0
 76
     1
 47
2.764541729509131
 98
       23
 10
-8324.384624804826
 20
1731.109356475695
 10
-8127.89741359316
 20
1689.641248446431
 10
-7945.247299270658
 20
1656.466739174073
 10
-7936.945041137161
 20
1579.059569912693
 10
-8130.664832970991
 20
1545.885060640335
 10
-8313.314911011364
 20
1551.414145519061
 10
-8318.84978604916
 20
1410.422528713512
 10
-8125.129994215324
 20
1388.306189198607
 10
-7936.945041137161
 20
1377.248019441154
 10
-7939.712460514991
 20
1316.428104815953
 10
-7936.945041137161
 20
1274.959977745915
 10
-7934.177585477195
 20
1216.904596039668
 10
-7936.945041137161
 20
1164.378299212163
 10
-7934.177585477195
 20
1117.381087263384
 10
-8127.89741359316
 20
1310.899019937227
 10
-8127.89741359316
 20
1039.973918002004
 10
-8127.89741359316
 20
1145.026511657015
 10
-7934.177585477195
 20
885.1595794792592
 10
-8130.664832970991
 20
854.7496221666587
 10
-8316.082366671329
 20
816.0460470563631
 10
-8321.617205426996
 20
863.0432590051423
 10
-8318.84978604916
 20
1128.439257020851
 10
-8324.384624804826
 20
1189.259171646037
  0
HATCH
  5
3CC
330
3A7
100
AcDbEntity
  8
0
 62
    50
100
AcDbHatch
 10
0.0
 20
0.0
 30
0.0
210
0.0
220
0.0
230
1.0
  2
SOLID
 70
     1
 71
     0
 91
       15
 92
        7
 72
     1
 73
     1
 93
        5
 10
-8552.014525779309
 20
1782.756928066323
 42
0.0
 10
-8557.348866193647
 20
1762.753151512552
 42
0.0
 10
-8340.165682392678
 20
1721.416648452978
 42
-0.0851023481420786
 10
-8341.308079412952
 20
1728.079938819362
 42
-0.1859621584946757
 10
-8336.137712474275
 20
1741.500856656981
 42
0.0
 97
        0
 92
        7
 72
     1
 73
     1
 93
        6
 10
-8302.567254444682
 20
1735.085229186334
 42
-0.0896850285161526
 10
-8301.300526305418
 20
1728.079938819362
 42
-0.1808726405839401
 10
-8306.209456351888
 20
1714.953755621849
 42
0.0
 10
-8148.175572232638
 20
1684.875146311118
 42
-0.0833413142280533
 10
-8149.271824496787
 20
1691.40634847078
 42
-0.1855709679467075
 10
-8144.1217405893
 20
1704.804814471885
 42
0.0
 97
        0
 92
        7
 72
     1
 73
     1
 93
        6
 10
-8110.520425011058
 20
1698.383289836049
 42
-0.0893038586945105
 10
-8109.264271389246
 20
1691.40634847078
 42
-0.1790673735504051
 10
-8114.081760082639
 20
1678.386066698287
 42
0.0
 10
-7956.64569930371
 20
1648.42124118012
 42
-0.0893222485011883
 10
-7957.902362132412
 20
1655.39955067401
 42
-0.1772621847634118
 10
-7953.175624514177
 20
1668.313231705186
 42
0.0
 97
        0
 92
        7
 72
     1
 73
     1
 93
        5
 10
-7918.936215165089
 20
1661.769761401483
 42
-0.0812013531982661
 10
-7917.894809024871
 20
1655.39955067401
 42
-0.1852009961545732
 10
-7923.025738736916
 20
1642.022349799539
 42
0.0
 10
-7764.658269462572
 20
1611.880249183705
 42
-0.2685811292006837
 10
-7761.158504761482
 20
1631.616970151888
 42
0.0
 97
        0
 92
        7
 72
     1
 73
     1
 93
        5
 10
-8337.517187660578
 20
1425.359425560476
 42
0.0
 10
-8553.34811088289
 20
1447.360274514816
 42
0.0
 10
-8556.01528109006
 20
1427.35649796106
 42
0.0
 10
-8339.542856753029
 20
1405.425979703963
 42
-0.10621125263883
 10
-8341.308079412952
 20
1413.642197098517
 42
-0.1577406454984231
 97
        0
 92
        7
 72
     1
 73
     1
 93
        6
 10
-8145.406214286229
 20
1405.83679691486
 42
0.0
 10
-8303.065748965343
 20
1421.858414493057
 42
-0.1062112526389573
 10
-8301.300526305418
 20
1413.642197098517
 42
-0.1577406454982801
 10
-8305.091418057786
 20
1401.924968636558
 42
0.0
 10
-8147.558210079191
 20
1385.916188582508
 42
-0.1046122499629626
 10
-8149.271824496787
 20
1394.016870371437
 42
-0.1593677876891822
 97
        0
 92
        7
 72
     1
 73
     1
 93
        6
 10
-7954.111470380038
 20
1386.397114831423
 42
0.0
 10
-8111.082025710082
 20
1402.348717210909
 42
-0.1078166695744589
 10
-8109.264271389246
 20
1394.016870371437
 42
-0.1561202689644205
 10
-8112.981368102007
 20
1382.402433830233
 42
0.0
 10
-7956.137139472481
 20
1366.463668974909
 42
-0.106211252638881
 10
-7957.902362132412
 20
1374.679886369464
 42
-0.1577406454983651
 97
        0
 92
        7
 72
     1
 73
     1
 93
        5
 10
-7763.578483602167
 20
1283.715912476116
 42
0.0
 10
-7920.224455347332
 20
1283.363106233438
 42
-0.1224641477092257
 10
-7917.894809024871
 20
1273.994211048841
 42
-0.1206628716633466
 10
-7920.158380578159
 20
1264.751040437295
 42
0.0
 10
-7763.741658218259
 20
1265.455620267741
 42
-0.2415336677682219
 97
        0
 92
        7
 72
     1
 73
     1
 93
        6
 10
-7954.111470380038
 20
1158.257344507285
 42
-0.1577406454983381
 10
-7957.902362132412
 20
1169.974572969244
 42
-0.1062112526390083
 10
-7956.137139472481
 20
1178.190790363798
 42
0.0
 10
-8112.981368102007
 20
1162.252025508474
 42
-0.1561202689644513
 10
-8109.264271389246
 20
1150.63758896727
 42
-0.1078166695745329
 10
-8111.082025710082
 20
1142.305742127784
 42
0.0
 97
        0
 92
        7
 72
     1
 73
     1
 93
        6
 10
-8149.271824496787
 20
1150.63758896727
 42
-0.104612249963011
 10
-8147.558210079191
 20
1158.738270756199
 42
0.0
 10
-8304.900413198037
 20
1142.748900925733
 42
-0.1535182735215436
 10
-8301.300526305418
 20
1131.300604965297
 42
-0.1104223275205014
 10
-8303.20506166109
 20
1122.781887663579
 42
0.0
 10
-8145.40621428622
 20
1138.817662423833
 42
-0.1593677876892712
 97
        0
 92
        7
 72
     1
 73
     1
 93
        5
 10
-8341.308079412952
 20
1131.300604965297
 42
-0.102044031375449
 10
-8339.675856914018
 20
1139.214963942715
 42
0.0
 10
-8555.348488538268
 20
1117.297961377647
 42
0.0
 10
-8553.34811088289
 20
1097.294184823891
 42
0.0
 10
-8337.319870266069
 20
1119.315085491827
 42
-0.1620092734141219
 97
        0
 92
        7
 72
     1
 73
     1
 93
        5
 10
-8341.308079412952
 20
817.9081056229406
 42
-0.079198403321382
 10
-8340.316782570178
 20
824.1271643661967
 42
0.0
 10
-8557.34886619364
 20
781.9013078261559
 42
0.0
 10
-8553.426971085716
 20
761.8820820513574
 42
0.0
 10
-8336.109423476559
 20
804.4559875771302
 42
-0.1865067590877368
 97
        0
 92
        7
 72
     1
 73
     1
 93
        6
 10
-8144.286774749987
 20
842.0352784095376
 42
-0.1823652781536637
 10
-8149.271824496787
 20
855.2484885232916
 42
-0.0827944421143663
 10
-8148.189716623008
 20
861.73859875177
 42
0.0
 10
-8306.040336362002
 20
830.8372356472755
 42
-0.1775230658767542
 10
-8301.300526305418
 20
817.9081056229406
 42
-0.0878853185701973
 10
-8302.517697281375
 20
811.0368228258957
 42
0.0
 97
        0
 92
        7
 72
     1
 73
     1
 93
        6
 10
-7953.029150801779
 20
879.503877253177
 42
-0.1801690726475175
 10
-7957.902362132412
 20
892.5888714236716
 42
-0.0845485779383144
 10
-7956.774573770108
 20
899.2106647010587
 42
0.0
 10
-8114.190395998212
 20
868.3944190055699
 42
-0.181210605973591
 10
-8109.264271389246
 20
855.2484885232916
 42
-0.0838505500870652
 10
-8110.373773691176
 20
848.6790534707616
 42
0.0
 97
        0
 92
        7
 72
     1
 73
     1
 93
        5
 10
-7760.701963503041
 20
917.1820104374418
 42
-0.2684352454930941
 10
-7764.887867521338
 20
936.7750454714624
 42
0.0
 10
-7922.912896598096
 20
905.8395394140607
 42
-0.1830103166745941
 10
-7917.894809024871
 20
892.5888714236716
 42
-0.0817096404766589
 10
-7918.949120054382
 20
886.1803745048746
 42
0.0
 97
        0
 75
     0
 76
     1
 47
3.667923569414485
 98
       15
 10
-8462.090401842168
 20
1751.792576614905
 10
-8227.244469368871
 20
1711.445452204912
 10
-8047.440577199678
 20
1674.766189700334
 10
-7852.958834155458
 20
1638.086991540803
 10
-8396.039953477226
 20
1418.0115452034
 10
-8219.905583740441
 20
1399.671913951104
 10
-8065.787950507113
 20
1385.00020894927
 10
-7878.645093091323
 20
1271.294623875182
 10
-8036.432169138858
 20
1157.588974456019
 10
-8230.913991801264
 20
1139.249343203722
 10
-8432.734700092096
 20
1120.909711951426
 10
-8418.056769598882
 20
805.4683117922323
 10
-8245.591842676306
 20
834.8116574508384
 10
-8043.771134385471
 20
871.4909199554313
 10
-7852.958834155458
 20
908.1701824600095
  0
LINE
  5
3CD
330
3A7
100
AcDbEntity
  8
0
100
AcDbLine
 10
-8311.302414582304
 20
835.2318842901368
 30
0.0
 11
-8311.302414582304
 21
1113.976826298101
 31
0.0
  0
LINE
  5
3CE
330
3A7
100
AcDbEntity
  8
0
100
AcDbLine
 10
-8331.306191136068
 20
1113.976826298101
 30
0.0
 11
-8331.306191136068
 21
835.2318842901368
 31
0.0
  0
LINE
  5
3CF
330
3A7
100
AcDbEntity
  8
0
100
AcDbLine
 10
-8110.373773691176
 20
848.6790534707616
 30
0.0
 11
-7953.029150801779
 21
879.503877253177
 31
0.0
  0
CIRCLE
  5
3D0
330
3A7
100
AcDbEntity
  8
0
100
AcDbCircle
 10
-8129.268047943016
 20
855.2484885232988
 30
0.0
 40
20.00377655377027
  0
LINE
  5
3D1
330
3A7
100
AcDbEntity
  8
0
100
AcDbLine
 10
-8302.517697281375
 20
811.0368228258957
 30
0.0
 11
-8144.286774749987
 21
842.0352784095376
 31
0.0
  0
LINE
  5
3D2
330
3A7
100
AcDbEntity
  8
0
100
AcDbLine
 10
-8148.189716623008
 20
861.73859875177
 30
0.0
 11
-8306.040336362009
 21
830.8372356472755
 31
0.0
  0
LINE
  5
3D3
330
3A7
100
AcDbEntity
  8
0
100
AcDbLine
 10
-8553.426971085716
 20
761.8820820513574
 30
0.0
 11
-8336.109423476559
 21
804.4559875771302
 31
0.0
  0
LINE
  5
3D4
330
3A7
100
AcDbEntity
  8
0
100
AcDbLine
 10
-8340.316782570178
 20
824.1271643661967
 30
0.0
 11
-8557.348866193647
 21
781.9013078261559
 31
0.0
  0
LINE
  5
3D5
330
3A7
100
AcDbEntity
  8
0
100
AcDbLine
 10
-8557.348866193647
 20
781.9013078261559
 30
0.0
 11
-8553.426971085716
 21
761.8820820513574
 31
0.0
  0
CIRCLE
  5
3D6
330
3A7
100
AcDbEntity
  8
0
100
AcDbCircle
 10
-8321.304302859182
 20
817.9081056229479
 30
0.0
 40
20.00377655377027
  0
ARC
  5
3D7
330
3A7
100
AcDbEntity
  8
0
100
AcDbCircle
 10
-7504.682033950004
 20
711.8712826878109
 30
0.0
 40
17.99744294636184
100
AcDbArc
 50
90.0
 51
270.0
  0
LINE
  5
3D8
330
3A7
100
AcDbEntity
  8
0
100
AcDbLine
 10
-7504.682033950004
 20
644.3808716389757
 30
0.0
 11
-7484.434910635359
 21
644.3808716389757
 31
0.0
  0
ARC
  5
3D9
330
3A7
100
AcDbEntity
  8
0
100
AcDbCircle
 10
-7484.434910635354
 20
839.5406435885233
 30
0.0
 40
25.0
100
AcDbArc
 50
270.0
 51
315.5729959993655
  0
LINE
  5
3DA
102
{ACAD_REACTORS
330
3C0
102
}
330
3A7
100
AcDbEntity
  8
0
100
AcDbLine
 10
-7466.581339564
 20
857.0406435885233
 30
0.0
 11
-7466.581339564
 21
822.0406435885234
 31
0.0
  0
ARC
  5
3DB
330
3A7
100
AcDbEntity
  8
0
100
AcDbCircle
 10
-7504.682033950004
 20
839.5406435885233
 30
0.0
 40
17.99744294636184
100
AcDbArc
 50
90.0
 51
270.0
  0
ARC
  5
3DC
330
3A7
100
AcDbEntity
  8
0
100
AcDbCircle
 10
-7504.682033950004
 20
748.9910087646785
 30
0.0
 40
17.99744294636184
100
AcDbArc
 50
90.0
 51
270.0
  0
HATCH
  5
3DD
330
3A7
100
AcDbEntity
  8
0
 62
   250
100
AcDbHatch
 10
0.0
 20
0.0
 30
0.0
210
0.0
220
0.0
230
1.0
  2
SOLID
 70
     1
 71
     1
 91
        3
 92
        1
 93
        1
 72
     2
 10
-7745.96025344959
 20
1619.054891202569
 40
20.00377655377087
 50
0.0
 51
360.0
 73
     1
 97
        1
330
3E0
 92
        1
 93
        1
 72
     2
 10
-7745.96025344959
 20
1274.291374761436
 40
20.00377655377087
 50
0.0
 51
360.0
 73
     1
 97
        1
330
3DF
 92
        1
 93
        1
 72
     2
 10
-7745.960253449594
 20
930.0902784123827
 40
20.00377655377087
 50
0.0
 51
360.0
 73
     1
 97
        1
330
3DE
 75
     0
 76
     1
 98
        1
 10
17863.62909400757
 20
-41621.32766843114
  0
CIRCLE
  5
3DE
102
{ACAD_REACTORS
330
3DD
102
}
330
3A7
100
AcDbEntity
  8
0
100
AcDbCircle
 10
-7745.960253449594
 20
930.0902784123827
 30
0.0
 40
20.00377655377087
  0
CIRCLE
  5
3DF
102
{ACAD_REACTORS
330
3DD
102
}
330
3A7
100
AcDbEntity
  8
0
100
AcDbCircle
 10
-7745.96025344959
 20
1274.291374761436
 30
0.0
 40
20.00377655377087
  0
CIRCLE
  5
3E0
102
{ACAD_REACTORS
330
3DD
102
}
330
3A7
100
AcDbEntity
  8
0
100
AcDbCircle
 10
-7745.96025344959
 20
1619.054891202569
 30
0.0
 40
20.00377655377087
  0
HATCH
  5
3E1
330
3A7
100
AcDbEntity
  8
0
 62
   250
100
AcDbHatch
 10
0.0
 20
0.0
 30
0.0
210
0.0
220
0.0
230
1.0
  2
SOLID
 70
     1
 71
     0
 91
        3
 92
        7
 72
     1
 73
     1
 93
        4
 10
-8119.266159666123
 20
1674.082569803598
 42
-0.2679491924311883
 10
-8139.269936219902
 20
1674.082569803598
 42
0.0
 10
-8139.269936219902
 20
1411.340649038633
 42
-0.2679491924311883
 10
-8119.266159666123
 20
1411.340649038633
 42
0.0
 97
        0
 92
        7
 72
     1
 73
     1
 93
        4
 10
-8119.266159666123
 20
1376.693091704241
 42
-0.2679491924311883
 10
-8139.269936219902
 20
1376.693091704241
 42
0.0
 10
-8139.269936219902
 20
1167.961367634452
 42
-0.2679491924311883
 10
-8119.266159666123
 20
1167.961367634452
 42
0.0
 97
        0
 92
        7
 72
     1
 73
     1
 93
        4
 10
-8119.266159666123
 20
1133.313810300074
 42
-0.2679491924311883
 10
-8139.269936219902
 20
1133.313810300074
 42
0.0
 10
-8139.269936219902
 20
872.5722671904877
 42
-0.2679491924311883
 10
-8119.266159666123
 20
872.5722671904877
 42
0.0
 97
        0
 75
     0
 76
     1
 47
3.005531458579665
 98
        3
 10
-8125.021184110917
 20
1523.424330279602
 10
-8134.047161868529
 20
1261.94308148267
 10
-8131.038502615989
 20
949.3678034434488
  0
HATCH
  5
3E2
330
3A7
100
AcDbEntity
  8
0
 62
   250
100
AcDbHatch
 10
0.0
 20
0.0
 30
0.0
210
0.0
220
0.0
230
1.0
  2
SOLID
 70
     1
 71
     0
 91
        4
 92
        7
 72
     1
 73
     1
 93
        4
 10
-7927.896697301756
 20
1638.075772006813
 42
-0.2679491924310617
 10
-7947.900473855519
 20
1638.075772006813
 42
0.0
 10
-7947.900473855519
 20
1392.00366503666
 42
-0.2679491924310617
 10
-7927.896697301756
 20
1392.00366503666
 42
0.0
 97
        0
 92
        7
 72
     1
 73
     1
 93
        4
 10
-7927.896697301756
 20
1357.356107702267
 42
-0.2679491924310617
 10
-7947.900473855519
 20
1357.356107702267
 42
0.0
 10
-7947.900473855519
 20
1291.317989716037
 42
-0.2679491924310617
 10
-7927.896697301756
 20
1291.317989716037
 42
0.0
 97
        0
 92
        7
 72
     1
 73
     1
 93
        4
 10
-7927.896697301756
 20
1256.670432381644
 42
-0.2679491924310617
 10
-7947.900473855519
 20
1256.670432381644
 42
0.0
 10
-7947.900473855519
 20
1187.29835163644
 42
-0.2679491924310617
 10
-7927.896697301756
 20
1187.29835163644
 42
0.0
 97
        0
 92
        7
 72
     1
 73
     1
 93
        4
 10
-7927.896697301756
 20
1152.650794302047
 42
-0.2679491924310617
 10
-7947.900473855519
 20
1152.650794302047
 42
0.0
 10
-7947.900473855519
 20
909.9126500908678
 42
-0.2679491924310617
 10
-7927.896697301756
 20
909.9126500908678
 42
0.0
 97
        0
 75
     0
 76
     1
 47
3.005531458579665
 98
        4
 10
-7938.483838785836
 20
1481.346878752352
 10
-7938.483838785836
 20
1322.053707480801
 10
-7941.492498038377
 20
1213.854584492328
 10
-7935.475143251166
 20
1072.594587691659
  0
LINE
  5
3E3
330
3A7
100
AcDbEntity
  8
0
100
AcDbLine
 10
-7927.896697301756
 20
1392.00366503666
 30
0.0
 11
-7927.896697301756
 21
1638.075772006813
 31
0.0
  0
LINE
  5
3E4
330
3A7
100
AcDbEntity
  8
0
100
AcDbLine
 10
-7947.900473855519
 20
1638.075772006813
 30
0.0
 11
-7947.900473855519
 21
1392.00366503666
 31
0.0
  0
LINE
  5
3E5
330
3A7
100
AcDbEntity
  8
0
100
AcDbLine
 10
-8119.266159666123
 20
1411.340649038633
 30
0.0
 11
-8119.266159666123
 21
1674.082569803598
 31
0.0
  0
LINE
  5
3E6
330
3A7
100
AcDbEntity
  8
0
100
AcDbLine
 10
-8139.269936219902
 20
1674.082569803598
 30
0.0
 11
-8139.269936219902
 21
1411.340649038633
 31
0.0
  0
LINE
  5
3E7
330
3A7
100
AcDbEntity
  8
0
100
AcDbLine
 10
-8311.302414582304
 20
1710.756160152166
 30
0.0
 11
-8311.302414582304
 21
1430.965975765713
 31
0.0
  0
LINE
  5
3E8
330
3A7
100
AcDbEntity
  8
0
100
AcDbLine
 10
-8331.306191136068
 20
1710.756160152166
 30
0.0
 11
-8331.306191136068
 21
1430.965975765713
 31
0.0
  0
LINE
  5
3E9
330
3A7
100
AcDbEntity
  8
0
100
AcDbLine
 10
-8145.40621428622
 20
1138.817662423833
 30
0.0
 11
-8303.20506166109
 21
1122.781887663579
 31
0.0
  0
LINE
  5
3EA
330
3A7
100
AcDbEntity
  8
0
100
AcDbLine
 10
-8304.900413198037
 20
1142.748900925733
 30
0.0
 11
-8147.558210079191
 21
1158.738270756199
 31
0.0
  0
LINE
  5
3EB
330
3A7
100
AcDbEntity
  8
0
100
AcDbLine
 10
-8147.558210079191
 20
1385.916188582508
 30
0.0
 11
-8305.091418057786
 21
1401.924968636558
 31
0.0
  0
LINE
  5
3EC
330
3A7
100
AcDbEntity
  8
0
100
AcDbLine
 10
-8303.065748965343
 20
1421.858414493057
 30
0.0
 11
-8145.406214286229
 21
1405.83679691486
 31
0.0
  0
LINE
  5
3ED
330
3A7
100
AcDbEntity
  8
0
100
AcDbLine
 10
-8311.302414582304
 20
1396.318418431321
 30
0.0
 11
-8311.302414582304
 21
1148.624383632493
 31
0.0
  0
LINE
  5
3EE
330
3A7
100
AcDbEntity
  8
0
100
AcDbLine
 10
-8331.306191136068
 20
1396.318418431321
 30
0.0
 11
-8331.306191136068
 21
1145.303248552918
 31
0.0
  0
LINE
  5
3EF
330
3A7
100
AcDbEntity
  8
0
100
AcDbLine
 10
-8553.34811088289
 20
1097.294184823891
 30
0.0
 11
-8337.319870266069
 21
1119.315085491827
 31
0.0
  0
LINE
  5
3F0
330
3A7
100
AcDbEntity
  8
0
100
AcDbLine
 10
-8339.675856914018
 20
1139.214963942715
 30
0.0
 11
-8555.348488538268
 21
1117.297961377647
 31
0.0
  0
LINE
  5
3F1
330
3A7
100
AcDbEntity
  8
0
100
AcDbLine
 10
-8555.348488538268
 20
1117.297961377647
 30
0.0
 11
-8553.34811088289
 21
1097.294184823891
 31
0.0
  0
CIRCLE
  5
3F2
330
3A7
100
AcDbEntity
  8
0
100
AcDbCircle
 10
-8321.304302859182
 20
1131.300604965304
 30
0.0
 40
20.00377655377027
  0
LINE
  5
3F3
330
3A7
100
AcDbEntity
  8
0
100
AcDbLine
 10
-8339.542856753029
 20
1405.425979703963
 30
0.0
 11
-8556.01528109006
 21
1427.35649796106
 31
0.0
  0
LINE
  5
3F4
330
3A7
100
AcDbEntity
  8
0
100
AcDbLine
 10
-8553.34811088289
 20
1447.360274514816
 30
0.0
 11
-8337.517187660578
 21
1425.359425560476
 31
0.0
  0
LINE
  5
3F5
330
3A7
100
AcDbEntity
  8
0
100
AcDbLine
 10
-8556.01528109006
 20
1427.35649796106
 30
0.0
 11
-8553.34811088289
 21
1447.360274514816
 31
0.0
  0
CIRCLE
  5
3F6
330
3A7
100
AcDbEntity
  8
0
100
AcDbCircle
 10
-8321.304302859182
 20
1413.642197098524
 30
0.0
 40
20.00377655377027
  0
LINE
  5
3F7
330
3A7
100
AcDbEntity
  8
0
100
AcDbLine
 10
-7954.111470380038
 20
1158.257344507285
 30
0.0
 11
-8111.082025710082
 21
1142.305742127784
 31
0.0
  0
CIRCLE
  5
3F8
330
3A7
100
AcDbEntity
  8
0
100
AcDbCircle
 10
-8129.268047943016
 20
1150.637588967278
 30
0.0
 40
20.00377655377027
  0
CIRCLE
  5
3F9
330
3A7
100
AcDbEntity
  8
0
100
AcDbCircle
 10
-7937.898585578641
 20
1169.974572969251
 30
0.0
 40
20.00377655377027
  0
LINE
  5
3FA
330
3A7
100
AcDbEntity
  8
0
100
AcDbLine
 10
-7956.774573770116
 20
899.2106647010587
 30
0.0
 11
-8114.190395998212
 21
868.3944190055699
 31
0.0
  0
CIRCLE
  5
3FB
330
3A7
100
AcDbEntity
  8
0
100
AcDbCircle
 10
-7937.898585578641
 20
892.5888714236789
 30
0.0
 40
20.00377655377027
  0
LINE
  5
3FC
330
3A7
100
AcDbEntity
  8
0
100
AcDbLine
 10
-8119.266159666123
 20
872.5722671904877
 30
0.0
 11
-8119.266159666123
 21
1133.313810300074
 31
0.0
  0
LINE
  5
3FD
330
3A7
100
AcDbEntity
  8
0
100
AcDbLine
 10
-8139.269936219902
 20
1133.313810300074
 30
0.0
 11
-8139.269936219902
 21
872.5722671904877
 31
0.0
  0
LINE
  5
3FE
330
3A7
100
AcDbEntity
  8
0
100
AcDbLine
 10
-7927.896697301756
 20
909.9126500908678
 30
0.0
 11
-7927.896697301756
 21
1152.650794302047
 31
0.0
  0
LINE
  5
3FF
330
3A7
100
AcDbEntity
  8
0
100
AcDbLine
 10
-7947.900473855519
 20
1152.650794302047
 30
0.0
 11
-7947.900473855519
 21
909.9126500908678
 31
0.0
  0
LINE
  5
400
330
3A7
100
AcDbEntity
  8
0
100
AcDbLine
 10
-7764.808517122762
 20
936.7905793697937
 30
0.0
 11
-7922.912896598096
 21
905.8395394140607
 31
0.0
  0
LINE
  5
401
330
3A7
100
AcDbEntity
  8
0
100
AcDbLine
 10
-7918.949120054382
 20
886.1803745048746
 30
0.0
 11
-7761.164810796923
 21
917.0913356751844
 31
0.0
  0
ARC
  5
402
330
3A7
100
AcDbEntity
  8
0
100
AcDbCircle
 10
-7745.862330662475
 20
930.5960468758275
 30
0.0
 40
20.00377655376609
100
AcDbArc
 50
122.2309526354654
 51
237.7690473645345
  0
LINE
  5
403
330
3A7
100
AcDbEntity
  8
0
100
AcDbLine
 10
-8112.981368102007
 20
1162.252025508474
 30
0.0
 11
-7956.137139472474
 21
1178.190790363798
 31
0.0
  0
LINE
  5
404
330
3A7
100
AcDbEntity
  8
0
100
AcDbLine
 10
-7956.137139472481
 20
1366.463668974909
 30
0.0
 11
-8112.981368102007
 21
1382.402433830233
 31
0.0
  0
LINE
  5
405
330
3A7
100
AcDbEntity
  8
0
100
AcDbLine
 10
-8111.082025710082
 20
1402.348717210909
 30
0.0
 11
-7954.111470380038
 21
1386.397114831423
 31
0.0
  0
CIRCLE
  5
406
330
3A7
100
AcDbEntity
  8
0
100
AcDbCircle
 10
-7937.898585578641
 20
1273.994211048848
 30
0.0
 40
20.00377655377027
  0
CIRCLE
  5
407
330
3A7
100
AcDbEntity
  8
0
100
AcDbCircle
 10
-7937.898585578641
 20
1374.679886369471
 30
0.0
 40
20.00377655377027
  0
LINE
  5
408
330
3A7
100
AcDbEntity
  8
0
100
AcDbLine
 10
-8119.266159666123
 20
1167.961367634452
 30
0.0
 11
-8119.266159666123
 21
1376.693091704241
 31
0.0
  0
LINE
  5
409
330
3A7
100
AcDbEntity
  8
0
100
AcDbLine
 10
-8139.269936219902
 20
1376.693091704241
 30
0.0
 11
-8139.269936219902
 21
1167.961367634452
 31
0.0
  0
CIRCLE
  5
40A
330
3A7
100
AcDbEntity
  8
0
100
AcDbCircle
 10
-8129.268047943016
 20
1394.016870371444
 30
0.0
 40
20.00377655377027
  0
LINE
  5
40B
330
3A7
100
AcDbEntity
  8
0
100
AcDbLine
 10
-7927.896697301756
 20
1357.356107702267
 30
0.0
 11
-7927.896697301756
 21
1291.317989716037
 31
0.0
  0
LINE
  5
40C
330
3A7
100
AcDbEntity
  8
0
100
AcDbLine
 10
-7947.900473855519
 20
1357.356107702267
 30
0.0
 11
-7947.900473855519
 21
1291.317989716037
 31
0.0
  0
LINE
  5
40D
330
3A7
100
AcDbEntity
  8
0
100
AcDbLine
 10
-7763.906489756107
 20
1265.454877783348
 30
0.0
 11
-7920.158380578159
 21
1264.751040437295
 31
0.0
  0
LINE
  5
40E
330
3A7
100
AcDbEntity
  8
0
100
AcDbLine
 10
-7920.224455347332
 20
1283.363106233438
 30
0.0
 11
-7763.604807362721
 21
1283.715853188368
 31
0.0
  0
LINE
  5
40F
330
3A7
100
AcDbEntity
  8
0
100
AcDbLine
 10
-7927.896697301756
 20
1256.670432381644
 30
0.0
 11
-7927.896697301756
 21
1187.29835163644
 31
0.0
  0
LINE
  5
410
330
3A7
100
AcDbEntity
  8
0
100
AcDbLine
 10
-7947.900473855519
 20
1256.670432381644
 30
0.0
 11
-7947.900473855519
 21
1187.29835163644
 31
0.0
  0
ARC
  5
411
330
3A7
100
AcDbEntity
  8
0
100
AcDbCircle
 10
-7745.862330662475
 20
1274.426725136494
 30
0.0
 40
20.00377655377027
100
AcDbArc
 50
122.2309526354654
 51
237.7690473645345
  0
LINE
  5
412
330
3A7
100
AcDbEntity
  8
0
100
AcDbLine
 10
-8144.1217405893
 20
1704.804814471885
 30
0.0
 11
-8302.567254444682
 21
1735.085229186334
 31
0.0
  0
LINE
  5
413
330
3A7
100
AcDbEntity
  8
0
100
AcDbLine
 10
-8306.209456351888
 20
1714.953755621849
 30
0.0
 11
-8148.175572232638
 21
1684.875146311118
 31
0.0
  0
CIRCLE
  5
414
330
3A7
100
AcDbEntity
  8
0
100
AcDbCircle
 10
-8321.304302859182
 20
1728.079938819369
 30
0.0
 40
20.00377655377027
  0
LINE
  5
415
330
3A7
100
AcDbEntity
  8
0
100
AcDbLine
 10
-8557.348866193647
 20
1762.753151512552
 30
0.0
 11
-8340.165682392678
 21
1721.416648452978
 31
0.0
  0
LINE
  5
416
330
3A7
100
AcDbEntity
  8
0
100
AcDbLine
 10
-8336.137712474275
 20
1741.500856656981
 30
0.0
 11
-8552.014525779309
 21
1782.756928066323
 31
0.0
  0
LINE
  5
417
330
3A7
100
AcDbEntity
  8
0
100
AcDbLine
 10
-8552.014525779309
 20
1782.756928066323
 30
0.0
 11
-8557.348866193647
 21
1762.753151512552
 31
0.0
  0
LINE
  5
418
330
3A7
100
AcDbEntity
  8
0
100
AcDbLine
 10
-7953.175624514177
 20
1668.313231705186
 30
0.0
 11
-8110.520425011058
 21
1698.383289836049
 31
0.0
  0
LINE
  5
419
330
3A7
100
AcDbEntity
  8
0
100
AcDbLine
 10
-8114.081760082639
 20
1678.386066698287
 30
0.0
 11
-7956.64569930371
 21
1648.42124118012
 31
0.0
  0
CIRCLE
  5
41A
330
3A7
100
AcDbEntity
  8
0
100
AcDbCircle
 10
-7937.898585578641
 20
1655.399550674017
 30
0.0
 40
20.00377655377027
  0
CIRCLE
  5
41B
330
3A7
100
AcDbEntity
  8
0
100
AcDbCircle
 10
-8129.268047943016
 20
1691.406348470787
 30
0.0
 40
20.00377655377027
  0
LINE
  5
41C
330
3A7
100
AcDbEntity
  8
0
100
AcDbLine
 10
-7761.47819572741
 20
1631.678066075612
 30
0.0
 11
-7918.936215165089
 21
1661.769761401483
 31
0.0
  0
LINE
  5
41D
330
3A7
100
AcDbEntity
  8
0
100
AcDbLine
 10
-7923.025738736916
 20
1642.022349799539
 30
0.0
 11
-7764.631124505908
 21
1611.875082680635
 31
0.0
  0
ARC
  5
41E
330
3A7
100
AcDbEntity
  8
0
100
AcDbCircle
 10
-7745.862330662475
 20
1618.725960325435
 30
0.0
 40
20.00377655376609
100
AcDbArc
 50
122.2309526354654
 51
237.7690473645345
  0
LINE
  5
41F
102
{ACAD_REACTORS
330
3AC
102
}
330
3A7
100
AcDbEntity
  8
0
100
AcDbLine
 10
-7477.05847229268
 20
1525.837027793342
 30
0.0
 11
-7477.05847229268
 21
1023.870561913681
 31
0.0
  0
LINE
  5
420
102
{ACAD_REACTORS
330
3AC
102
}
330
3A7
100
AcDbEntity
  8
0
100
AcDbLine
 10
-7512.058472292676
 20
1525.837027793342
 30
0.0
 11
-7512.058472292676
 21
1023.870561913681
 31
0.0
  0
HATCH
  5
421
330
3A7
100
AcDbEntity
  8
0
 62
    50
100
AcDbHatch
 10
0.0
 20
0.0
 30
0.0
210
0.0
220
0.0
230
1.0
  2
SOLID
 70
     1
 71
     0
 91
        3
 92
        7
 72
     1
 73
     1
 93
        5
 10
-7726.881080957413
 20
1625.066234931466
 42
-0.076455398050629
 10
-7725.956476895818
 20
1619.054891202569
 42
-0.1879872604669523
 10
-7731.232339731639
 20
1605.518287716841
 42
0.0
 10
-7549.558472292677
 20
1570.940277367204
 42
0.0
 10
-7549.558472292677
 20
1591.178231428159
 42
0.0
 97
        0
 92
        7
 72
     1
 73
     1
 93
        5
 10
-7544.613860487236
 20
1266.442682419685
 42
0.0
 10
-7544.613860487236
 20
1284.209076041719
 42
0.0
 10
-7728.358330934679
 20
1283.795237144295
 42
-0.1244063004368106
 10
-7725.956476895818
 20
1274.291374761436
 42
-0.1126048217826693
 10
-7727.935138941074
 20
1265.616910895121
 42
0.0
 97
        0
 92
        7
 72
     1
 73
     1
 93
        5
 10
-7549.558472292679
 20
958.5463785985339
 42
0.0
 10
-7549.558472292677
 20
978.9286451217849
 42
0.0
 10
-7731.029845781406
 20
943.4032045849017
 42
-0.1840859176767431
 10
-7725.956476895823
 20
930.0902784123827
 42
-0.080281992704271
 10
-7726.974735303469
 20
923.7893914005107
 42
0.0
 97
        0
 75
     0
 76
     1
 47
2.386223210832101
 98
        3
 10
-7622.240955408338
 20
1595.670260737832
 10
-7655.682789661366
 20
1273.530043756218
 10
-7667.626661866638
 20
941.8450019839875
  0
LINE
  5
422
330
3A7
100
AcDbEntity
  8
0
100
AcDbLine
 10
-7544.613860487231
 20
1538.746293853873
 30
0.0
 11
-7544.613860487231
 21
1010.961295853143
 31
0.0
  0
LWPOLYLINE
  5
423
102
{ACAD_REACTORS
330
3B7
102
}
330
3A7
100
AcDbEntity
  8
0
100
AcDbPolyline
 90
        8
 70
     1
 43
0.0
 10
-7544.558472292679
 20
900.9616026477671
 10
-7444.558472292676
 20
900.9616026477598
 42
0.4142135623730951
 10
-7439.558472292675
 20
905.9616026477597
 10
-7439.558472292675
 20
1005.961602647767
 42
0.4142135623730849
 10
-7444.558472292676
 20
1010.961602647767
 10
-7544.558472292677
 20
1010.961602647767
 42
0.4142135623730951
 10
-7549.558472292677
 20
1005.961602647767
 10
-7549.558472292679
 20
905.9616026477669
 42
0.4142135623730849
  0
LINE
  5
424
330
3A7
100
AcDbEntity
  8
0
100
AcDbLine
 10
-7726.974735303469
 20
923.7893914005107
 30
0.0
 11
-7549.558472292677
 21
958.5463785985412
 31
0.0
  0
LINE
  5
425
330
3A7
100
AcDbEntity
  8
0
100
AcDbLine
 10
-7549.558472292677
 20
978.9286451217849
 30
0.0
 11
-7731.02984578141
 21
943.4032045849017
 31
0.0
  0
HATCH
  5
426
330
3A7
100
AcDbEntity
  8
0
 62
   150
100
AcDbHatch
 10
0.0
 20
0.0
 30
0.0
210
0.0
220
0.0
230
1.0
  2
SOLID
 70
     1
 71
     0
 91
        1
 92
        7
 72
     1
 73
     1
 93
        4
 10
-7477.058472292691
 20
1023.870561913681
 42
0.0
 10
-7512.058472292672
 20
1023.870561913681
 42
0.1501896311854315
 10
-7519.064610586858
 20
1010.961602647767
 42
0.0
 10
-7470.052333998501
 20
1010.961602647767
 42
0.1501896311854503
 97
        0
 75
     0
 76
     1
 47
0.7154287741848493
 98
        1
 10
-7489.824951772924
 20
1015.355162289917
  0
ARC
  5
427
330
3A7
100
AcDbEntity
  8
0
100
AcDbCircle
 10
-7494.55847229268
 20
1006.016990842319
 30
0.0
 40
25.0
100
AcDbArc
 50
11.40743081447969
 51
45.5729959990155
  0
ARC
  5
428
330
3A7
100
AcDbEntity
  8
0
100
AcDbCircle
 10
-7494.55847229268
 20
1006.016990842319
 30
0.0
 40
25.0
100
AcDbArc
 50
134.4270040009844
 51
168.5925691855203
  0
LINE
  5
429
102
{ACAD_REACTORS
330
3AC
102
}
330
3A7
100
AcDbEntity
  8
0
100
AcDbLine
 10
-7512.058472292679
 20
1023.870561913681
 30
0.0
 11
-7477.05847229268
 21
1023.870561913681
 31
0.0
  0
LINE
  5
42A
330
3A7
100
AcDbEntity
  8
0
100
AcDbLine
 10
-7728.358330934679
 20
1283.795237144295
 30
0.0
 11
-7544.613860487236
 21
1284.209076041712
 31
0.0
  0
LINE
  5
42B
330
3A7
100
AcDbEntity
  8
0
100
AcDbLine
 10
-7544.613860487236
 20
1266.442682419685
 30
0.0
 11
-7727.935138941069
 21
1265.616910895121
 31
0.0
  0
LWPOLYLINE
  5
42C
102
{ACAD_REACTORS
330
3B7
102
}
330
3A7
100
AcDbEntity
  8
0
100
AcDbPolyline
 90
        8
 70
     1
 43
0.0
 10
-7544.558472292679
 20
1538.74598705925
 10
-7444.558472292676
 20
1538.745987059242
 42
0.4142135623730951
 10
-7439.558472292675
 20
1543.745987059242
 10
-7439.558472292675
 20
1643.74598705925
 42
0.4142135623730849
 10
-7444.558472292676
 20
1648.74598705925
 10
-7544.558472292677
 20
1648.74598705925
 42
0.4142135623730951
 10
-7549.558472292677
 20
1643.74598705925
 10
-7549.558472292679
 20
1543.74598705925
 42
0.4142135623730849
  0
LINE
  5
42D
330
3A7
100
AcDbEntity
  8
0
100
AcDbLine
 10
-7731.232339731644
 20
1605.518287716841
 30
0.0
 11
-7549.558472292679
 21
1570.940277367204
 31
0.0
  0
LINE
  5
42E
330
3A7
100
AcDbEntity
  8
0
100
AcDbLine
 10
-7549.558472292679
 20
1591.178231428159
 30
0.0
 11
-7726.881080957413
 21
1625.066234931466
 31
0.0
  0
ARC
  5
42F
330
3A7
100
AcDbEntity
  8
0
100
AcDbCircle
 10
-7494.55847229268
 20
1543.690598864705
 30
0.0
 40
25.0
100
AcDbArc
 50
314.4270040009844
 51
348.5925691855202
  0
LINE
  5
430
102
{ACAD_REACTORS
330
3AC
102
}
330
3A7
100
AcDbEntity
  8
0
100
AcDbLine
 10
-7512.058472292679
 20
1525.837027793342
 30
0.0
 11
-7477.05847229268
 21
1525.837027793342
 31
0.0
  0
ARC
  5
431
330
3A7
100
AcDbEntity
  8
0
100
AcDbCircle
 10
-7494.55847229268
 20
1543.690598864705
 30
0.0
 40
25.0
100
AcDbArc
 50
191.4074308144796
 51
225.5729959990155
  0
ARC
  5
432
330
3A7
100
AcDbEntity
  8
0
100
AcDbCircle
 10
-6865.210389262299
 20
839.5406435885233
 30
0.0
 40
25.0
100
AcDbArc
 50
95.16287156438334
 51
135.5729959993655
  0
LINE
  5
433
330
3A7
100
AcDbEntity
  8
0
100
AcDbLine
 10
-6847.212946315936
 20
644.3808716389467
 30
0.0
 11
-6847.212946315936
 21
900.9616026477598
 31
0.0
  0
LINE
  5
434
330
3A7
100
AcDbEntity
  8
0
100
AcDbLine
 10
-6867.460069630586
 20
900.9616026477671
 30
0.0
 11
-6867.460069630583
 21
644.3808716389757
 31
0.0
  0
LINE
  5
435
330
3A7
100
AcDbEntity
  8
0
100
AcDbLine
 10
-6883.063960333656
 20
729.3712826878109
 30
0.0
 11
-6883.063960333649
 21
694.3712826878035
 31
0.0
  0
ARC
  5
436
330
3A7
100
AcDbEntity
  8
0
100
AcDbCircle
 10
-6847.212946315936
 20
711.8712826878109
 30
0.0
 40
17.99744294636184
100
AcDbArc
 50
270.0
 51
90.0
  0
ARC
  5
437
330
3A7
100
AcDbEntity
  8
0
100
AcDbCircle
 10
-6865.210389262299
 20
711.8712826878109
 30
0.0
 40
25.0
100
AcDbArc
 50
224.4270040006344
 51
264.8371284356166
  0
LINE
  5
438
330
3A7
100
AcDbEntity
  8
0
100
AcDbLine
 10
-6867.460069630583
 20
644.3808716389757
 30
0.0
 11
-6847.212946315936
 21
644.3808716389467
 31
0.0
  0
ARC
  5
439
330
3A7
100
AcDbEntity
  8
0
100
AcDbCircle
 10
-6865.210389262299
 20
711.8712826878109
 30
0.0
 40
25.0
100
AcDbArc
 50
95.16287156438334
 51
135.5729959993655
  0
LINE
  5
43A
330
3A7
100
AcDbEntity
  8
0
100
AcDbLine
 10
-6883.063960333656
 20
766.4910087646785
 30
0.0
 11
-6883.063960333649
 21
731.4910087646713
 31
0.0
  0
ARC
  5
43B
330
3A7
100
AcDbEntity
  8
0
100
AcDbCircle
 10
-6865.210389262299
 20
748.9910087646785
 30
0.0
 40
25.0
100
AcDbArc
 50
224.4270040006344
 51
264.8371284356166
  0
ARC
  5
43C
330
3A7
100
AcDbEntity
  8
0
100
AcDbCircle
 10
-6865.210389262299
 20
748.9910087646785
 30
0.0
 40
25.0
100
AcDbArc
 50
95.16287156438334
 51
135.5729959993655
  0
LINE
  5
43D
102
{ACAD_REACTORS
330
3C0
102
}
330
3A7
100
AcDbEntity
  8
0
100
AcDbLine
 10
-6883.063960333656
 20
857.0406435885233
 30
0.0
 11
-6883.063960333649
 21
822.0406435885161
 31
0.0
  0
ARC
  5
43E
330
3A7
100
AcDbEntity
  8
0
100
AcDbCircle
 10
-6865.210389262299
 20
839.5406435885233
 30
0.0
 40
25.0
100
AcDbArc
 50
224.4270040006344
 51
264.8371284356166
  0
ARC
  5
43F
330
3A7
100
AcDbEntity
  8
0
100
AcDbCircle
 10
-6847.212946315936
 20
748.9910087646785
 30
0.0
 40
17.99744294636184
100
AcDbArc
 50
270.0
 51
90.0
  0
ARC
  5
440
330
3A7
100
AcDbEntity
  8
0
100
AcDbCircle
 10
-6847.212946315936
 20
839.5406435885233
 30
0.0
 40
17.99744294636184
100
AcDbArc
 50
270.0
 51
90.0
  0
LINE
  5
441
102
{ACAD_REACTORS
330
3AC
102
}
330
3A7
100
AcDbEntity
  8
0
100
AcDbLine
 10
-6125.692945331193
 20
1023.870561913681
 30
0.0
 11
-6090.692945331193
 21
1023.870561913681
 31
0.0
  0
LINE
  5
442
102
{ACAD_REACTORS
330
3AC
102
}
330
3A7
100
AcDbEntity
  8
0
100
AcDbLine
 10
-6125.692945331193
 20
1525.837027793342
 30
0.0
 11
-6090.692945331193
 21
1525.837027793342
 31
0.0
  0
LINE
  5
443
330
3A7
100
AcDbEntity
  8
0
100
AcDbLine
 10
-6807.336507973258
 20
1538.745987059242
 30
0.0
 11
-6807.336507973258
 21
1010.961602647767
 31
0.0
  0
LINE
  5
444
102
{ACAD_REACTORS
330
3AC
102
}
330
3A7
100
AcDbEntity
  8
0
100
AcDbLine
 10
-6125.69294533119
 20
1525.837027793342
 30
0.0
 11
-6125.69294533119
 21
1023.870561913681
 31
0.0
  0
LINE
  5
445
102
{ACAD_REACTORS
330
3AC
102
}
330
3A7
100
AcDbEntity
  8
0
100
AcDbLine
 10
-6391.025274498509
 20
1525.837027793342
 30
0.0
 11
-6391.025274498509
 21
1023.870561913681
 31
0.0
  0
LINE
  5
446
102
{ACAD_REACTORS
330
3AC
102
}
330
3A7
100
AcDbEntity
  8
0
100
AcDbLine
 10
-6426.025274498505
 20
1525.837027793342
 30
0.0
 11
-6426.025274498505
 21
1023.870561913681
 31
0.0
  0
LINE
  5
447
102
{ACAD_REACTORS
330
3AC
102
}
330
3A7
100
AcDbEntity
  8
0
100
AcDbLine
 10
-6691.357603665823
 20
1525.837027793342
 30
0.0
 11
-6691.357603665823
 21
1023.870561913681
 31
0.0
  0
LINE
  5
448
102
{ACAD_REACTORS
330
3AC
102
}
330
3A7
100
AcDbEntity
  8
0
100
AcDbLine
 10
-6726.357603665819
 20
1525.837027793342
 30
0.0
 11
-6726.357603665819
 21
1023.870561913681
 31
0.0
  0
LINE
  5
449
102
{ACAD_REACTORS
330
3AC
102
}
330
3A7
100
AcDbEntity
  8
0
100
AcDbLine
 10
-6726.357603665824
 20
1023.870561913681
 30
0.0
 11
-6691.357603665823
 21
1023.870561913681
 31
0.0
  0
ARC
  5
44A
330
3A7
100
AcDbEntity
  8
0
100
AcDbCircle
 10
-6708.857603665824
 20
1006.016990842319
 30
0.0
 40
25.0
100
AcDbArc
 50
134.4270040009844
 51
180.0
  0
LWPOLYLINE
  5
44B
102
{ACAD_REACTORS
330
3B7
102
}
330
3A7
100
AcDbEntity
  8
0
100
AcDbPolyline
 90
        8
 70
     1
 43
0.0
 10
-6907.336507973261
 20
900.9616026477671
 10
-6807.336507973258
 20
900.9616026477598
 42
0.4142135623730951
 10
-6802.336507973257
 20
905.9616026477597
 10
-6802.336507973257
 20
1005.961602647767
 42
0.4142135623730849
 10
-6807.336507973258
 20
1010.961602647767
 10
-6907.336507973258
 20
1010.961602647767
 42
0.4142135623730951
 10
-6912.336507973257
 20
1005.961602647767
 10
-6912.336507973261
 20
905.9616026477669
 42
0.4142135623730849
  0
LINE
  5
44C
330
3A7
100
AcDbEntity
  8
0
100
AcDbLine
 10
-6726.357603665819
 20
1006.014874080879
 30
0.0
 11
-6726.357603665824
 21
1006.014386535345
 31
0.0
  0
ARC
  5
44D
330
3A7
100
AcDbEntity
  8
0
100
AcDbCircle
 10
-6708.857603665824
 20
1006.016990842319
 30
0.0
 40
25.0
100
AcDbArc
 50
0.0
 51
45.5729959990155
  0
ARC
  5
44E
330
3A7
100
AcDbEntity
  8
0
100
AcDbCircle
 10
-6408.525274498508
 20
1006.016990842319
 30
0.0
 40
25.0
100
AcDbArc
 50
0.0
 51
45.5729959990155
  0
ARC
  5
44F
330
3A7
100
AcDbEntity
  8
0
100
AcDbCircle
 10
-6408.525274498508
 20
1006.016990842319
 30
0.0
 40
25.0
100
AcDbArc
 50
134.4270040009844
 51
180.0
  0
LINE
  5
450
330
3A7
100
AcDbEntity
  8
0
100
AcDbLine
 10
-6426.025274498505
 20
1006.014874080879
 30
0.0
 11
-6426.025274498508
 21
1006.014386535345
 31
0.0
  0
LINE
  5
451
102
{ACAD_REACTORS
330
3AC
102
}
330
3A7
100
AcDbEntity
  8
0
100
AcDbLine
 10
-6426.025274498508
 20
1023.870561913681
 30
0.0
 11
-6391.025274498509
 21
1023.870561913681
 31
0.0
  0
ARC
  5
452
330
3A7
100
AcDbEntity
  8
0
100
AcDbCircle
 10
-6108.192945331193
 20
1006.016990842319
 30
0.0
 40
25.0
100
AcDbArc
 50
134.4270040009844
 51
180.0
  0
LINE
  5
453
330
3A7
100
AcDbEntity
  8
0
100
AcDbLine
 10
-6125.69294533119
 20
1006.014874080879
 30
0.0
 11
-6125.692945331193
 21
1006.014386535345
 31
0.0
  0
LINE
  5
454
102
{ACAD_REACTORS
330
3AC
102
}
330
3A7
100
AcDbEntity
  8
0
100
AcDbLine
 10
-6726.357603665824
 20
1525.837027793342
 30
0.0
 11
-6691.357603665823
 21
1525.837027793342
 31
0.0
  0
LWPOLYLINE
  5
455
102
{ACAD_REACTORS
330
3B7
102
}
330
3A7
100
AcDbEntity
  8
0
100
AcDbPolyline
 90
        8
 70
     1
 43
0.0
 10
-6907.336507973261
 20
1538.74598705925
 10
-6807.336507973258
 20
1538.745987059242
 42
0.4142135623730951
 10
-6802.336507973257
 20
1543.745987059242
 10
-6802.336507973257
 20
1643.74598705925
 42
0.4142135623730849
 10
-6807.336507973258
 20
1648.74598705925
 10
-6907.336507973258
 20
1648.74598705925
 42
0.4142135623730951
 10
-6912.336507973257
 20
1643.74598705925
 10
-6912.336507973261
 20
1543.74598705925
 42
0.4142135623730849
  0
ARC
  5
456
330
3A7
100
AcDbEntity
  8
0
100
AcDbCircle
 10
-6708.857603665824
 20
1543.690598864705
 30
0.0
 40
25.0
100
AcDbArc
 50
180.0
 51
225.5729959990155
  0
ARC
  5
457
330
3A7
100
AcDbEntity
  8
0
100
AcDbCircle
 10
-6708.857603665824
 20
1543.690598864705
 30
0.0
 40
25.0
100
AcDbArc
 50
314.4270040009844
 51
0.0
  0
LINE
  5
458
102
{ACAD_REACTORS
330
3AC
102
}
330
3A7
100
AcDbEntity
  8
0
100
AcDbLine
 10
-6426.025274498508
 20
1525.837027793342
 30
0.0
 11
-6391.025274498509
 21
1525.837027793342
 31
0.0
  0
ARC
  5
459
330
3A7
100
AcDbEntity
  8
0
100
AcDbCircle
 10
-6408.525274498508
 20
1543.690598864705
 30
0.0
 40
25.0
100
AcDbArc
 50
180.0
 51
225.5729959990155
  0
ARC
  5
45A
330
3A7
100
AcDbEntity
  8
0
100
AcDbCircle
 10
-6408.525274498508
 20
1543.690598864705
 30
0.0
 40
25.0
100
AcDbArc
 50
314.4270040009844
 51
0.0
  0
ARC
  5
45B
330
3A7
100
AcDbEntity
  8
0
100
AcDbCircle
 10
-6108.192945331193
 20
1543.690598864705
 30
0.0
 40
25.0
100
AcDbArc
 50
180.0
 51
225.5729959990155
  0
LINE
  5
45C
102
{ACAD_REACTORS
330
3AC
102
}
330
3A7
100
AcDbEntity
  8
0
100
AcDbLine
 10
-5490.590707088635
 20
1525.837027793342
 30
0.0
 11
-5490.590707088635
 21
1023.870561913681
 31
0.0
  0
LINE
  5
45D
102
{ACAD_REACTORS
330
3AC
102
}
330
3A7
100
AcDbEntity
  8
0
100
AcDbLine
 10
-5525.590707088632
 20
1525.837027793342
 30
0.0
 11
-5525.590707088632
 21
1023.870561913681
 31
0.0
  0
LINE
  5
45E
102
{ACAD_REACTORS
330
3AC
102
}
330
3A7
100
AcDbEntity
  8
0
100
AcDbLine
 10
-5790.92303625595
 20
1525.837027793342
 30
0.0
 11
-5790.92303625595
 21
1023.870561913681
 31
0.0
  0
LINE
  5
45F
102
{ACAD_REACTORS
330
3AC
102
}
330
3A7
100
AcDbEntity
  8
0
100
AcDbLine
 10
-5825.923036255947
 20
1525.837027793342
 30
0.0
 11
-5825.923036255947
 21
1023.870561913681
 31
0.0
  0
LINE
  5
460
102
{ACAD_REACTORS
330
3AC
102
}
330
3A7
100
AcDbEntity
  8
0
100
AcDbLine
 10
-6090.692945331193
 20
1525.837027793342
 30
0.0
 11
-6090.692945331193
 21
1023.870561913681
 31
0.0
  0
ARC
  5
461
330
3A7
100
AcDbEntity
  8
0
100
AcDbCircle
 10
-6108.192945331193
 20
1006.016990842319
 30
0.0
 40
25.0
100
AcDbArc
 50
0.0
 51
45.5729959990155
  0
ARC
  5
462
330
3A7
100
AcDbEntity
  8
0
 62
     3
100
AcDbCircle
 10
-5808.42303625595
 20
1006.016990842319
 30
0.0
 40
25.0
100
AcDbArc
 50
0.0
 51
45.5729959990155
  0
ARC
  5
463
330
3A7
100
AcDbEntity
  8
0
 62
     3
100
AcDbCircle
 10
-5808.42303625595
 20
1006.016990842319
 30
0.0
 40
25.0
100
AcDbArc
 50
134.4270040009844
 51
180.0
  0
LINE
  5
464
330
3A7
100
AcDbEntity
  8
0
 62
     3
100
AcDbLine
 10
-5825.923036255947
 20
1006.014874080879
 30
0.0
 11
-5825.92303625595
 21
1006.014386535345
 31
0.0
  0
LINE
  5
465
102
{ACAD_REACTORS
330
3AC
102
}
330
3A7
100
AcDbEntity
  8
0
 62
     3
100
AcDbLine
 10
-5825.92303625595
 20
1023.870561913681
 30
0.0
 11
-5790.92303625595
 21
1023.870561913681
 31
0.0
  0
ARC
  5
466
330
3A7
100
AcDbEntity
  8
0
 62
     3
100
AcDbCircle
 10
-5508.090707088635
 20
1006.016990842319
 30
0.0
 40
25.0
100
AcDbArc
 50
0.0
 51
45.5729959990155
  0
ARC
  5
467
330
3A7
100
AcDbEntity
  8
0
 62
     3
100
AcDbCircle
 10
-5508.090707088635
 20
1006.016990842319
 30
0.0
 40
25.0
100
AcDbArc
 50
134.4270040009844
 51
180.0
  0
LINE
  5
468
330
3A7
100
AcDbEntity
  8
0
 62
     3
100
AcDbLine
 10
-5525.590707088632
 20
1006.014874080879
 30
0.0
 11
-5525.590707088635
 21
1006.014386535345
 31
0.0
  0
LINE
  5
469
102
{ACAD_REACTORS
330
3AC
102
}
330
3A7
100
AcDbEntity
  8
0
 62
     3
100
AcDbLine
 10
-5525.590707088635
 20
1023.870561913681
 30
0.0
 11
-5490.590707088635
 21
1023.870561913681
 31
0.0
  0
ARC
  5
46A
330
3A7
100
AcDbEntity
  8
0
100
AcDbCircle
 10
-6108.192945331193
 20
1543.690598864705
 30
0.0
 40
25.0
100
AcDbArc
 50
314.4270040009844
 51
0.0
  0
LINE
  5
46B
102
{ACAD_REACTORS
330
3AC
102
}
330
3A7
100
AcDbEntity
  8
0
100
AcDbLine
 10
-5825.92303625595
 20
1525.837027793342
 30
0.0
 11
-5790.92303625595
 21
1525.837027793342
 31
0.0
  0
ARC
  5
46C
330
3A7
100
AcDbEntity
  8
0
100
AcDbCircle
 10
-5808.42303625595
 20
1543.690598864705
 30
0.0
 40
25.0
100
AcDbArc
 50
180.0
 51
225.5729959990155
  0
ARC
  5
46D
330
3A7
100
AcDbEntity
  8
0
100
AcDbCircle
 10
-5808.42303625595
 20
1543.690598864705
 30
0.0
 40
25.0
100
AcDbArc
 50
314.4270040009844
 51
0.0
  0
ARC
  5
46E
330
3A7
100
AcDbEntity
  8
0
100
AcDbCircle
 10
-5508.090707088635
 20
1543.690598864705
 30
0.0
 40
25.0
100
AcDbArc
 50
314.4270040009844
 51
0.0
  0
LINE
  5
46F
102
{ACAD_REACTORS
330
3AC
102
}
330
3A7
100
AcDbEntity
  8
0
100
AcDbLine
 10
-5525.590707088635
 20
1525.837027793342
 30
0.0
 11
-5490.590707088635
 21
1525.837027793342
 31
0.0
  0
ARC
  5
470
330
3A7
100
AcDbEntity
  8
0
100
AcDbCircle
 10
-5508.090707088635
 20
1543.690598864705
 30
0.0
 40
25.0
100
AcDbArc
 50
180.0
 51
225.5729959990155
  0
LWPOLYLINE
  5
471
330
3A7
100
AcDbEntity
  8
0
100
AcDbPolyline
 90
        8
 70
     1
 43
0.0
 10
-8705.591175064908
 20
3877.699621648542
 10
-8655.634266646037
 20
3791.072216624336
 42
0.4142135623730902
 10
-8648.805050973878
 20
3789.238691794075
 10
-8562.177645949672
 20
3839.195600212944
 42
0.4142135623730912
 10
-8560.344121119412
 20
3846.024815885095
 10
-8610.301029538266
 20
3932.652220909309
 42
0.4142135623731039
 10
-8617.130245210423
 20
3934.48574573957
 10
-8703.757650234631
 20
3884.5288373207
 42
0.4142135623730974
  0
HATCH
  5
472
330
3A7
100
AcDbEntity
  8
0
 62
    30
100
AcDbHatch
 10
0.0
 20
0.0
 30
0.0
210
0.0
220
0.0
230
1.0
  2
SOLID
 70
     1
 71
     0
 91
        2
 92
        7
 72
     1
 73
     1
 93
        8
 10
-8703.757650234631
 20
3884.5288373207
 42
0.4142135623736795
 10
-8705.591175064908
 20
3877.699621648535
 42
0.0
 10
-8655.634266646037
 20
3791.072216624343
 42
0.4142135623732466
 10
-8648.805050973878
 20
3789.238691794075
 42
0.0
 10
-8562.177645949672
 20
3839.195600212944
 42
0.4142135623730913
 10
-8560.344121119412
 20
3846.024815885095
 42
0.0
 10
-8610.301029538266
 20
3932.652220909302
 42
0.4142135623732602
 10
-8617.130245210423
 20
3934.48574573957
 42
0.0
 97
        0
 92
        7
 72
     1
 73
     1
 93
        8
 10
-6389.59288383515
 20
3839.623194051251
 42
0.0
 10
-6303.195775652664
 20
3789.269051245508
 42
0.4142135623739537
 10
-6296.358213103242
 20
3791.071199514336
 42
0.0
 10
-6246.004070297491
 20
3877.468307696835
 42
0.4142135623731004
 10
-6247.806218566325
 20
3884.305870246244
 42
0.0
 10
-6334.203326748826
 20
3934.660013052001
 42
0.4142135623731054
 10
-6341.040889298234
 20
3932.857864783168
 42
0.0
 10
-6391.395032103985
 20
3846.460756600659
 42
0.4142135623730951
 97
        0
 75
     0
 76
     1
 47
3.623270268543325
 98
        2
 10
-8615.337881908661
 20
3900.946185963301
 10
-6326.668922864217
 20
3846.597101247593
  0
LWPOLYLINE
  5
473
330
3A7
100
AcDbEntity
  8
0
100
AcDbPolyline
 90
        6
 70
     0
 43
0.0
 10
-8584.751073211268
 20
3812.75248677266
 10
-8553.017808209942
 20
3756.978869497601
 42
0.1240875912408807
 10
-8478.759312861711
 20
3682.720374149372
 10
-7707.988653115866
 20
3237.169402059997
 42
0.1233823300365213
 10
-7606.6285171296
 20
3210.06776142196
 10
-7542.774097220242
 20
3210.06776142196
  0
LWPOLYLINE
  5
474
330
3A7
100
AcDbEntity
  8
0
100
AcDbPolyline
 90
        6
 70
     0
 43
0.0
 10
-8614.431338158446
 20
3795.865439475128
 10
-8582.525681409734
 20
3739.788830644058
 42
0.1247293581332155
 10
-8496.053435960519
 20
3653.27449962101
 10
-7724.831504799334
 20
3207.462665996179
 42
0.1239769402989771
 10
-7606.88747150228
 20
3175.919694218042
 10
-7542.774097220242
 20
3175.919694218042
  0
HATCH
  5
475
330
3A7
100
AcDbEntity
  8
0
 62
    50
100
AcDbHatch
 10
0.0
 20
0.0
 30
0.0
210
0.0
220
0.0
230
1.0
  2
SOLID
 70
     1
 71
     0
 91
        2
 92
        7
 72
     1
 73
     1
 93
       12
 10
-8553.017808210102
 20
3756.978869497885
 42
0.0
 10
-8584.751073211268
 20
3812.75248677266
 42
0.0
 10
-8614.110131464562
 20
3795.300894376792
 42
0.0
 10
-8582.52568140988
 20
3739.788830644306
 42
0.1247293581332318
 10
-8496.053435960751
 20
3653.27449962114
 42
0.0
 10
-7724.83150479967
 20
3207.462665996383
 42
0.1239769402993836
 10
-7606.887471502265
 20
3175.919694218042
 42
0.0
 10
-7542.774097220227
 20
3175.919694218042
 42
0.0
 10
-7542.774097220227
 20
3210.06776142196
 42
0.0
 10
-7606.628517129499
 20
3210.06776142196
 42
-0.1233823300362473
 10
-7707.988653115575
 20
3237.169402059837
 42
0.0
 10
-8478.759312861523
 20
3682.720374149263
 42
-0.1240875912415202
 97
        0
 92
        7
 72
     1
 73
     1
 93
       12
 10
-6455.943782547717
 20
3653.27449962114
 42
0.1247293581328367
 10
-6369.471537098794
 20
3739.788830643978
 42
0.0
 10
-6337.565880350037
 20
3795.865439475135
 42
0.0
 10
-6367.246145297202
 20
3812.752486772653
 42
0.0
 10
-6398.979410298485
 20
3756.978869497725
 42
-0.124087591241307
 10
-6473.237905646977
 20
3682.720374149263
 42
0.0
 10
-7244.008565392575
 20
3237.169402060041
 42
-0.1233823300367372
 10
-7345.368701379014
 20
3210.06776142196
 42
0.0
 10
-7409.223121288244
 20
3210.06776142196
 42
0.0
 10
-7409.18732217485
 20
3175.919694218042
 42
0.0
 10
-7345.109747006233
 20
3175.919694218042
 42
0.1239769402991774
 10
-7227.16571370899
 20
3207.462665996267
 42
0.0
 97
        0
 75
     0
 76
     1
 47
6.578508944040135
 98
        2
 10
-8516.255327513992
 20
3693.414530496179
 10
-6784.302601283863
 20
3469.745194935399
  0
ARC
  5
476
330
3A7
100
AcDbEntity
  8
0
100
AcDbCircle
 10
-8608.77221516141
 20
3819.742216633523
 30
0.0
 40
25.01742560929995
100
AcDbArc
 50
224.8535894083019
 51
257.6802050894091
  0
LINE
  5
477
330
3A7
100
AcDbEntity
  8
0
100
AcDbLine
 10
-8614.110131464562
 20
3795.300894376792
 30
0.0
 11
-8584.751073211268
 21
3812.75248677266
 31
0.0
  0
ARC
  5
478
330
3A7
100
AcDbEntity
  8
0
100
AcDbCircle
 10
-8608.77221516141
 20
3819.742216633523
 30
0.0
 40
25.01742560929995
100
AcDbArc
 50
343.7759330917211
 51
15.08940045537537
  0
LWPOLYLINE
  5
479
330
3A7
100
AcDbEntity
  8
0
100
AcDbPolyline
 90
        6
 70
     0
 43
0.0
 10
-6367.246145297231
 20
3812.75248677266
 10
-6398.979410298558
 20
3756.978869497601
 42
-0.1240875912408807
 10
-6473.237905646787
 20
3682.720374149372
 10
-7244.008565392633
 20
3237.169402059997
 42
-0.1233823300365213
 10
-7345.368701378899
 20
3210.06776142196
 10
-7409.223121288244
 20
3210.06776142196
  0
LWPOLYLINE
  5
47A
330
3A7
100
AcDbEntity
  8
0
100
AcDbPolyline
 90
        6
 70
     0
 43
0.0
 10
-6337.565880350052
 20
3795.865439475128
 10
-6369.471537098751
 20
3739.788830644058
 42
-0.1247293581332155
 10
-6455.943782547965
 20
3653.27449962101
 10
-7227.165713709149
 20
3207.462665996179
 42
-0.1239769402989771
 10
-7345.109747006219
 20
3175.919694218042
 10
-7409.223121288244
 20
3175.919694218042
  0
LINE
  5
47B
330
3A7
100
AcDbEntity
  8
0
100
AcDbLine
 10
-7409.18732217485
 20
3175.919694218027
 30
0.0
 11
-7409.223121288244
 21
3210.06776142196
 31
0.0
  0
LINE
  5
47C
330
3A7
100
AcDbEntity
  8
0
100
AcDbLine
 10
-7542.774097220242
 20
3175.919694218042
 30
0.0
 11
-7542.774097220242
 21
3210.06776142196
 31
0.0
  0
ARC
  5
47D
330
3A7
100
AcDbEntity
  8
0
100
AcDbCircle
 10
-7524.239529589959
 20
3193.264744226384
 30
0.0
 40
25.01742560929995
100
AcDbArc
 50
222.1947363041741
 51
270.0
  0
ARC
  5
47E
330
3A7
100
AcDbEntity
  8
0
100
AcDbCircle
 10
-7427.215656105774
 20
3193.264744226384
 30
0.0
 40
25.01742560929995
100
AcDbArc
 50
270.0
 51
316.1066065094392
  0
LWPOLYLINE
  5
47F
330
3A7
100
AcDbEntity
  8
0
100
AcDbPolyline
 90
        4
 70
     1
 43
0.0
 10
-7420.998609254249
 20
3269.757861438658
 10
-7530.99860925425
 20
3269.757861438658
 10
-7530.99860925425
 20
3244.757861438658
 10
-7420.998609254249
 20
3244.757861438658
  0
HATCH
  5
480
330
3A7
100
AcDbEntity
  8
0
 62
    30
100
AcDbHatch
 10
0.0
 20
0.0
 30
0.0
210
0.0
220
0.0
230
1.0
  2
SOLID
 70
     1
 71
     0
 91
        1
 92
        7
 72
     0
 73
     1
 93
        4
 10
-7530.998609254234
 20
3244.757861438658
 10
-7420.998609254249
 20
3244.757861438643
 10
-7420.998609254249
 20
3269.757861438658
 10
-7530.99860925425
 20
3269.757861438658
 97
        0
 75
     0
 76
     1
 47
1.246836124787238
 98
        1
 10
-7454.258501843516
 20
3254.543411849779
  0
ARC
  5
481
330
3A7
100
AcDbEntity
  8
0
100
AcDbCircle
 10
-7524.239529589959
 20
3193.264744226384
 30
0.0
 40
25.01742560929995
100
AcDbArc
 50
90.0
 51
137.8052636958258
  0
ARC
  5
482
330
3A7
100
AcDbEntity
  8
0
100
AcDbCircle
 10
-7427.215656105774
 20
3193.264744226384
 30
0.0
 40
25.01742560929995
100
AcDbArc
 50
42.19473630417416
 51
90.0
  0
LWPOLYLINE
  5
483
330
3A7
100
AcDbEntity
  8
0
100
AcDbPolyline
 90
        8
 70
     1
 43
0.0
 10
-6389.59288383515
 20
3839.623194051251
 10
-6303.19577565265
 20
3789.269051245501
 42
0.4142135623730951
 10
-6296.358213103242
 20
3791.071199514343
 10
-6246.004070297491
 20
3877.468307696835
 42
0.4142135623731003
 10
-6247.806218566325
 20
3884.305870246244
 10
-6334.203326748826
 20
3934.660013052001
 42
0.4142135623731053
 10
-6341.040889298234
 20
3932.857864783168
 10
-6391.395032103985
 20
3846.460756600659
 42
0.4142135623730951
  0
ARC
  5
484
330
3A7
100
AcDbEntity
  8
0
100
AcDbCircle
 10
-6343.150030583721
 20
3819.854675777584
 30
0.0
 40
25.01742560929995
100
AcDbArc
 50
164.3662422397046
 51
196.6692480356967
  0
LINE
  5
485
330
3A7
100
AcDbEntity
  8
0
100
AcDbLine
 10
-6337.565880350052
 20
3795.865439475128
 30
0.0
 11
-6367.246145297231
 21
3812.75248677266
 31
0.0
  0
ARC
  5
486
330
3A7
100
AcDbEntity
  8
0
100
AcDbCircle
 10
-6343.150030583721
 20
3819.854675777584
 30
0.0
 40
25.01742560929995
100
AcDbArc
 50
282.2903901740058
 51
315.1646039803894
  0
LINE
  5
487
102
{ACAD_REACTORS
330
489
102
}
330
3A7
100
AcDbEntity
  8
0
100
AcDbLine
 10
-4461.621337714347
 20
2970.173857785303
 30
0.0
 11
-4461.621337714347
 21
1652.237676634911
 31
0.0
  0
LINE
  5
488
102
{ACAD_REACTORS
330
489
102
}
330
3A7
100
AcDbEntity
  8
0
100
AcDbLine
 10
-4419.61340695144
 20
1652.237676634911
 30
0.0
 11
-4419.61340695144
 21
2970.173857785303
 31
0.0
  0
HATCH
  5
489
330
3A7
100
AcDbEntity
  8
0
 62
   150
100
AcDbHatch
 10
0.0
 20
0.0
 30
0.0
210
0.0
220
0.0
230
1.0
  2
SOLID
 70
     1
 71
     1
 91
        1
 92
        7
 72
     1
 73
     1
 93
        4
 10
-4461.621337714346
 20
1652.237676634911
 42
0.0
 10
-4419.61340695144
 20
1652.237676634911
 42
0.0
 10
-4419.61340695144
 20
2970.173857785303
 42
1.0
 10
-4461.621337714347
 20
2970.173857785303
 42
0.0
 97
        4
330
549
330
487
330
505
330
488
 75
     0
 76
     1
 47
4.763634169361721
 98
        1
 10
-4449.646576613562
 20
2410.760203877355
  0
LINE
  5
48A
330
3A7
100
AcDbEntity
  8
0
100
AcDbLine
 10
-1999.048657351439
 20
1523.56741667202
 30
0.0
 11
-3858.066291748237
 21
1523.56741667202
 31
0.0
  0
LINE
  5
48B
330
3A7
100
AcDbEntity
  8
0
100
AcDbLine
 10
-3858.066291748237
 20
1542.904400673993
 30
0.0
 11
-1999.048657351431
 21
1542.904400674007
 31
0.0
  0
LINE
  5
48C
330
3A7
100
AcDbEntity
  8
0
100
AcDbLine
 10
-1999.048657351431
 20
1025.473380483199
 30
0.0
 11
-3858.066291748237
 21
1025.473380483199
 31
0.0
  0
LINE
  5
48D
330
3A7
100
AcDbEntity
  8
0
100
AcDbLine
 10
-3858.066291748237
 20
1006.136396481226
 30
0.0
 11
-1999.048657351431
 21
1006.136396481226
 31
0.0
  0
HATCH
  5
48E
330
3A7
100
AcDbEntity
  8
0
 62
    50
100
AcDbHatch
 10
0.0
 20
0.0
 30
0.0
210
0.0
220
0.0
230
1.0
  2
SOLID
 70
     1
 71
     0
 91
        3
 92
        7
 72
     1
 73
     1
 93
       22
 10
-2184.75038302557
 20
1274.853794853435
 42
0.0
 10
-2183.083401646097
 20
1182.836422706175
 42
0.0
 10
-2175.748683576381
 20
1144.829247254027
 42
0.0
 10
-2158.412077229786
 20
1117.490752630539
 42
0.0
 10
-2133.740752813475
 20
1096.820183524978
 42
0.0
 10
-2107.069050741778
 20
1081.483954833755
 42
0.0
 10
-2093.06640715415
 20
1068.14810379791
 42
0.0
 10
-2085.731689084419
 20
1054.145460210267
 42
0.0
 10
-2083.064518877257
 20
1038.142438967253
 42
0.0
 10
-2083.064518877257
 20
1025.473380483199
 42
0.0
 10
-3858.066291748237
 20
1025.473380483214
 42
0.0
 10
-3858.066291748237
 20
1026.140173034997
 42
0.5047677450341376
 10
-3854.45307573715
 20
1523.56741667202
 42
0.0
 10
-2083.064518877257
 20
1523.56741667202
 42
0.0
 10
-2083.064518877257
 20
1510.898358187965
 42
0.0
 10
-2086.398481636217
 20
1492.228166737783
 42
0.0
 10
-2095.066784809521
 20
1478.225523150155
 42
0.0
 10
-2107.069050741785
 20
1468.223634873262
 42
0.0
 10
-2133.740752813475
 20
1452.220613630248
 42
0.0
 10
-2163.079625092326
 20
1426.215704110356
 42
0.0
 10
-2177.749061231759
 20
1398.210416935071
 42
0.0
 10
-2183.083401646097
 20
1366.204374449043
 42
0.0
 97
        0
 92
       22
 72
     1
 73
     1
 93
        2
 10
-3858.066291748237
 20
1072.496399468989
 42
0.0
 10
-3858.066291748237
 20
1479.878360445196
 42
-0.4582969605586812
 97
        0
 92
        7
 72
     1
 73
     1
 93
        5
 10
-3858.066291748237
 20
1026.140173034997
 42
0.0
 10
-3858.066291748237
 20
1072.496399468989
 42
0.4582969605586812
 10
-3858.066291748237
 20
1479.878360445196
 42
0.0
 10
-3858.066291748237
 20
1523.56741667202
 42
0.0
 10
-3854.45307573715
 20
1523.56741667202
 42
-0.5047677450341411
 97
        0
 75
     0
 76
     1
 47
4.472321723810398
 98
        3
 10
-2535.356073667255
 20
1299.482551850386
 10
-3819.452697857163
 20
1241.342407539901
 10
-3774.710623022281
 20
1178.729894940093
  0
HATCH
  5
48F
330
3A7
100
AcDbEntity
  8
0
 62
    30
100
AcDbHatch
 10
0.0
 20
0.0
 30
0.0
210
0.0
220
0.0
230
1.0
  2
SOLID
 70
     1
 71
     0
 91
        2
 92
        7
 72
     0
 73
     1
 93
        4
 10
-2928.557474549841
 20
1006.136396481226
 10
-3858.066291748237
 20
1006.136396481226
 10
-3858.066291748237
 20
1025.473380483199
 10
-2928.557474549834
 20
1025.473380483199
 97
        0
 92
        7
 72
     1
 73
     1
 93
        5
 10
-2928.557474549841
 20
1523.56741667202
 42
0.0
 10
-3854.45307573715
 20
1523.56741667202
 42
0.003631856113254
 10
-3858.066291748237
 20
1526.234586879189
 42
0.0
 10
-3858.066291748237
 20
1542.904400673993
 42
0.0
 10
-2928.557474549834
 20
1542.904400674
 42
0.0
 97
        0
 75
     0
 76
     1
 47
3.387716884985549
 98
        2
 10
-3643.46036695869
 20
1016.824384679617
 10
-3551.896590351182
 20
1535.145076125547
  0
LINE
  5
490
330
3A7
100
AcDbEntity
  8
0
100
AcDbLine
 10
-4768.439444341144
 20
906.2583837603888
 30
0.0
 11
-5095.677237423849
 21
-29.51693441372481
 31
0.0
  0
LINE
  5
491
330
3A7
100
AcDbEntity
  8
0
100
AcDbLine
 10
-3785.039667229415
 20
-29.51693441372481
 30
0.0
 11
-4111.710323755644
 21
906.2583837603888
 31
0.0
  0
HATCH
  5
492
330
3A7
100
AcDbEntity
  8
0
 62
    70
100
AcDbHatch
 10
0.0
 20
0.0
 30
0.0
210
0.0
220
0.0
230
1.0
  2
SOLID
 70
     1
 71
     0
 91
       13
 92
        7
 72
     0
 73
     1
 93
        6
 10
-4111.710323755644
 20
906.2583837603888
 10
-4768.439444341144
 20
906.2583837603888
 10
-5095.677237423849
 20
-29.51693441372481
 10
-5126.194533788672
 20
-177.2848957591777
 10
-3754.522370864593
 20
-177.2848957591777
 10
-3785.039667229415
 20
-29.51693441373936
 97
        0
 92
       22
 72
     0
 73
     1
 93
        8
 10
-4265.820932766422
 20
691.8429650149773
 10
-4243.869895030322
 20
675.7812300861115
 10
-4243.334503866033
 20
632.9499369425029
 10
-4264.214759273541
 20
616.3528108493628
 10
-4367.009862818203
 20
616.3528108493628
 10
-4387.89011822571
 20
632.9499369425029
 10
-4387.354727061421
 20
675.7812300861115
 10
-4365.403689325307
 20
691.8429650149773
 97
        0
 92
       22
 72
     0
 73
     1
 93
       10
 10
-4422.155152740597
 20
567.4442137753212
 10
-4420.013588083413
 20
534.5176571711781
 10
-4468.198792869982
 20
490.8832772811146
 10
-4544.224338199884
 20
490.8832772811146
 10
-4592.944934150742
 20
535.3207439176185
 10
-4590.267978329255
 20
567.4442137753212
 10
-4583.843284357732
 20
571.7273430896748
 10
-4573.670852236115
 20
575.4750812397542
 10
-4506.211565534933
 20
553.5240435036394
 10
-4436.610714176568
 20
573.8689077468588
 97
        0
 92
       22
 72
     0
 73
     1
 93
        8
 10
-4168.379740864722
 20
510.6927503600454
 10
-4068.796984305823
 20
510.6927503600454
 10
-4046.845946569724
 20
494.6310154311795
 10
-4046.310555405434
 20
451.7997222875711
 10
-4067.190810812943
 20
435.2025961944309
 10
-4169.985914357603
 20
435.2025961944309
 10
-4190.866169765111
 20
451.7997222875855
 10
-4190.330778600809
 20
494.6310154311795
 97
        0
 92
       22
 72
     0
 73
     1
 93
       10
 10
-4284.024232352458
 20
358.6416597002244
 10
-4216.564945651262
 20
336.6906219641241
 10
-4146.96409429291
 20
357.0354862073436
 10
-4132.50853285694
 20
350.610792235806
 10
-4130.366968199771
 20
317.6842356316483
 10
-4178.552172986324
 20
274.0498557415994
 10
-4254.577718316228
 20
274.0498557415994
 10
-4303.298314267085
 20
318.4873223780887
 10
-4300.621358445613
 20
350.6107922357914
 10
-4294.19666447406
 20
354.8939215501595
 97
        0
 92
       22
 72
     0
 73
     1
 93
        8
 10
-4653.979526880386
 20
566.3734314467292
 10
-4653.444135716083
 20
523.5421383031207
 10
-4674.324391123605
 20
506.9450122099806
 10
-4777.119494668266
 20
506.9450122099806
 10
-4797.999750075774
 20
523.5421383031207
 10
-4797.464358911471
 20
566.3734314467292
 10
-4775.51332117537
 20
582.4351663755805
 10
-4675.930564616487
 20
582.4351663755805
 97
        0
 92
       22
 72
     0
 73
     1
 93
        8
 10
-4520.1317358066
 20
371.4910476433142
 10
-4498.180698070501
 20
355.4293127144483
 10
-4497.645306906211
 20
312.5980195708398
 10
-4518.52556231372
 20
296.0008934776997
 10
-4621.32066585838
 20
296.0008934776997
 10
-4642.200921265888
 20
312.5980195708543
 10
-4641.665530101585
 20
355.4293127144483
 10
-4619.714492365499
 20
371.4910476433142
 97
        0
 92
       22
 72
     0
 73
     1
 93
       10
 10
-4444.641581641
 20
184.6395313043176
 10
-4430.186020205016
 20
178.21483733278
 10
-4428.044455547846
 20
145.2882807286223
 10
-4476.2296603344
 20
101.6539008385734
 10
-4552.255205664303
 20
101.6539008385734
 10
-4600.97580161516
 20
146.0913674750627
 10
-4598.298845793688
 20
178.21483733278
 10
-4591.87415182215
 20
182.4979666471335
 10
-4581.701719700548
 20
186.2457047971984
 10
-4514.242432999352
 20
164.2946670610981
 97
        0
 92
       22
 72
     0
 73
     1
 93
        8
 10
-4247.082242016084
 20
144.4851939821819
 10
-4147.499485457199
 20
144.4851939821819
 10
-4125.548447721099
 20
128.4234590533305
 10
-4125.01305655681
 20
85.5921659097221
 10
-4145.893311964319
 20
68.99503981656744
 10
-4248.688415508978
 20
68.99503981656744
 10
-4269.568670916487
 20
85.5921659097221
 10
-4269.033279752184
 20
128.4234590533305
 97
        0
 92
       22
 72
     0
 73
     1
 93
        8
 10
-4741.783677824787
 20
243.5325593767775
 10
-4741.248286660484
 20
200.7012662331689
 10
-4762.128542067992
 20
184.1041401400143
 10
-4864.923645612653
 20
184.1041401400143
 10
-4885.80390102016
 20
200.7012662331689
 10
-4885.268509855873
 20
243.5325593767775
 10
-4863.317472119772
 20
259.5942943056288
 10
-4763.734715560888
 20
259.5942943056288
 97
        0
 92
       22
 72
     0
 73
     1
 93
        8
 10
-4386.819335897118
 20
-21.4860669493064
 10
-4364.868298161018
 20
-37.54780187815777
 10
-4364.332906996729
 20
-80.37909502176626
 10
-4385.213162404237
 20
-96.97622111492092
 10
-4488.008265948898
 20
-96.97622111492092
 10
-4508.888521356406
 20
-80.37909502176626
 10
-4508.353130192102
 20
-37.54780187815777
 10
-4486.402092456017
 20
-21.4860669493064
 97
        0
 92
       22
 72
     0
 73
     1
 93
       10
 10
-4165.702785043235
 20
-50.39718982123304
 10
-4098.243498342053
 20
-72.34822755734786
 10
-4028.642646983688
 20
-52.00336331412836
 10
-4014.187085547717
 20
-58.428057285666
 10
-4012.045520890548
 20
-91.35461388980912
 10
-4060.230725677102
 20
-134.9889937798725
 10
-4136.256271007005
 20
-134.9889937798725
 10
-4184.976866957862
 20
-90.55152714338328
 10
-4182.299911136374
 20
-58.428057285666
 10
-4175.875217164823
 20
-54.14492797129788
 97
        0
 92
       22
 72
     0
 73
     1
 93
       10
 10
-4673.253608795
 20
24.02218201578944
 10
-4671.11204413783
 20
-8.904374588368227
 10
-4719.297248924384
 20
-52.53875447841711
 10
-4795.322794254287
 20
-52.53875447841711
 10
-4844.043390205144
 20
-8.101287841927842
 10
-4841.366434383672
 20
24.02218201577488
 10
-4834.941740412133
 20
28.30531133014301
 10
-4824.769308290517
 20
32.05304948020784
 10
-4757.310021589336
 20
10.10201174410758
 10
-4687.709170230969
 20
30.44687598732707
 97
        0
 75
     0
 76
     1
 47
2.721598632278727
 98
       13
 10
-4269.590920320814
 20
771.8971338099217
 10
-4269.590920320814
 20
771.8971338099217
 10
-4269.590920320814
 20
771.8971338099217
 10
-4269.590920320814
 20
771.8971338099217
 10
-4269.590920320814
 20
771.8971338099217
 10
-4269.590920320814
 20
771.8971338099217
 10
-4269.590920320814
 20
771.8971338099217
 10
-4269.590920320814
 20
771.8971338099217
 10
-4269.590920320814
 20
771.8971338099217
 10
-4269.590920320814
 20
771.8971338099217
 10
-4269.590920320814
 20
771.8971338099217
 10
-4269.590920320814
 20
771.8971338099217
 10
-4269.590920320814
 20
771.8971338099217
  0
LINE
  5
493
330
3A7
100
AcDbEntity
  8
0
100
AcDbLine
 10
-4468.198792869982
 20
490.8832772811146
 30
0.0
 11
-4420.013588083428
 21
534.5176571711635
 31
0.0
  0
LINE
  5
494
330
3A7
100
AcDbEntity
  8
0
100
AcDbLine
 10
-4436.610714176568
 20
573.8689077468588
 30
0.0
 11
-4506.211565534933
 21
553.5240435036394
 31
0.0
  0
LINE
  5
495
330
3A7
100
AcDbEntity
  8
0
100
AcDbLine
 10
-4476.2296603344
 20
101.6539008385734
 30
0.0
 11
-4428.044455547846
 21
145.2882807286223
 31
0.0
  0
LINE
  5
496
330
3A7
100
AcDbEntity
  8
0
100
AcDbLine
 10
-4444.641581641
 20
184.6395313043176
 30
0.0
 11
-4514.242432999352
 21
164.2946670610981
 31
0.0
  0
LINE
  5
497
330
3A7
100
AcDbEntity
  8
0
100
AcDbLine
 10
-4488.008265948898
 20
-96.97622111492092
 30
0.0
 11
-4385.213162404237
 21
-96.97622111492092
 31
0.0
  0
LINE
  5
498
330
3A7
100
AcDbEntity
  8
0
100
AcDbLine
 10
-4386.819335897118
 20
-21.4860669493064
 30
0.0
 11
-4486.402092456017
 21
-21.4860669493064
 31
0.0
  0
HATCH
  5
499
330
3A7
100
AcDbEntity
  8
0
 62
    30
100
AcDbHatch
 10
0.0
 20
0.0
 30
0.0
210
0.0
220
0.0
230
1.0
  2
SOLID
 70
     1
 71
     0
 91
       12
 92
        7
 72
     0
 73
     1
 93
        8
 10
-4264.214759273541
 20
616.3528108493628
 10
-4243.334503866041
 20
632.9499369425029
 10
-4243.869895030322
 20
675.7812300861115
 10
-4265.820932766422
 20
691.8429650149773
 10
-4365.403689325307
 20
691.8429650149773
 10
-4387.354727061421
 20
675.7812300861115
 10
-4387.89011822571
 20
632.9499369425029
 10
-4367.009862818203
 20
616.3528108493628
 97
        0
 92
        7
 72
     0
 73
     1
 93
        8
 10
-4067.190810812943
 20
435.2025961944309
 10
-4046.310555405434
 20
451.7997222875711
 10
-4046.845946569731
 20
494.6310154311795
 10
-4068.796984305823
 20
510.6927503600454
 10
-4168.379740864708
 20
510.6927503600454
 10
-4190.330778600809
 20
494.6310154311795
 10
-4190.866169765111
 20
451.7997222875711
 10
-4169.985914357603
 20
435.2025961944309
 97
        0
 92
        7
 72
     0
 73
     1
 93
       10
 10
-4216.564945651277
 20
336.6906219641241
 10
-4284.024232352458
 20
358.6416597002244
 10
-4294.196664474089
 20
354.8939215501595
 10
-4300.621358445599
 20
350.610792235806
 10
-4303.298314267085
 20
318.4873223780887
 10
-4254.577718316228
 20
274.0498557415994
 10
-4178.552172986331
 20
274.0498557415994
 10
-4130.366968199771
 20
317.6842356316483
 10
-4132.50853285694
 20
350.610792235806
 10
-4146.96409429291
 20
357.0354862073436
 97
        0
 92
        7
 72
     0
 73
     1
 93
        8
 10
-4147.499485457199
 20
144.4851939821819
 10
-4247.082242016084
 20
144.4851939821819
 10
-4269.033279752199
 20
128.4234590533305
 10
-4269.568670916487
 20
85.5921659097221
 10
-4248.688415508978
 20
68.99503981656744
 10
-4145.893311964319
 20
68.99503981656744
 10
-4125.01305655681
 20
85.5921659097221
 10
-4125.548447721099
 20
128.4234590533305
 97
        0
 92
        7
 72
     0
 73
     1
 93
       10
 10
-4165.702785043235
 20
-50.39718982123304
 10
-4175.875217164844
 20
-54.14492797131242
 10
-4182.299911136374
 20
-58.428057285666
 10
-4184.976866957862
 20
-90.55152714336873
 10
-4136.256271007005
 20
-134.9889937798725
 10
-4060.230725677102
 20
-134.9889937798725
 10
-4012.045520890548
 20
-91.35461388980912
 10
-4014.187085547717
 20
-58.428057285666
 10
-4028.642646983688
 20
-52.00336331412836
 10
-4098.243498342061
 20
-72.3482275573333
 97
        0
 92
        7
 72
     0
 73
     1
 93
        8
 10
-4386.819335897118
 20
-21.4860669493064
 10
-4486.402092456017
 20
-21.4860669493064
 10
-4508.353130192102
 20
-37.54780187815777
 10
-4508.888521356406
 20
-80.37909502176626
 10
-4488.008265948898
 20
-96.97622111492092
 10
-4385.21316240423
 20
-96.97622111492092
 10
-4364.332906996729
 20
-80.37909502176626
 10
-4364.868298161018
 20
-37.54780187815777
 97
        0
 92
        7
 72
     0
 73
     1
 93
       10
 10
-4430.186020205016
 20
178.2148373327654
 10
-4444.641581641008
 20
184.6395313043176
 10
-4514.242432999352
 20
164.2946670610981
 10
-4581.701719700548
 20
186.2457047971984
 10
-4591.87415182215
 20
182.4979666471335
 10
-4598.298845793688
 20
178.21483733278
 10
-4600.97580161516
 20
146.0913674750627
 10
-4552.255205664303
 20
101.6539008385734
 10
-4476.2296603344
 20
101.6539008385734
 10
-4428.044455547846
 20
145.2882807286223
 97
        0
 92
        7
 72
     0
 73
     1
 93
       10
 10
-4673.253608795
 20
24.02218201577488
 10
-4687.709170230969
 20
30.44687598732707
 10
-4757.31002158935
 20
10.10201174410758
 10
-4824.769308290517
 20
32.05304948020784
 10
-4834.941740412156
 20
28.30531133014301
 10
-4841.366434383672
 20
24.02218201577488
 10
-4844.043390205144
 20
-8.101287841927842
 10
-4795.322794254287
 20
-52.53875447841711
 10
-4719.297248924384
 20
-52.53875447841711
 10
-4671.11204413783
 20
-8.904374588353675
 97
        0
 92
        7
 72
     0
 73
     1
 93
        8
 10
-4741.783677824787
 20
243.5325593767775
 10
-4763.734715560873
 20
259.5942943056288
 10
-4863.317472119772
 20
259.5942943056288
 10
-4885.268509855865
 20
243.5325593767775
 10
-4885.80390102016
 20
200.7012662331689
 10
-4864.923645612653
 20
184.1041401400143
 10
-4762.128542068007
 20
184.1041401400143
 10
-4741.248286660484
 20
200.7012662331689
 97
        0
 92
        7
 72
     0
 73
     1
 93
        8
 10
-4497.645306906218
 20
312.5980195708398
 10
-4498.180698070501
 20
355.4293127144483
 10
-4520.1317358066
 20
371.4910476433142
 10
-4619.714492365499
 20
371.4910476433142
 10
-4641.665530101585
 20
355.4293127144483
 10
-4642.200921265881
 20
312.5980195708398
 10
-4621.32066585838
 20
296.0008934776997
 10
-4518.52556231372
 20
296.0008934776997
 97
        0
 92
        7
 72
     0
 73
     1
 93
        8
 10
-4653.444135716083
 20
523.5421383031207
 10
-4653.979526880386
 20
566.3734314467292
 10
-4675.930564616471
 20
582.4351663755805
 10
-4775.51332117537
 20
582.4351663755805
 10
-4797.464358911471
 20
566.3734314467292
 10
-4797.999750075759
 20
523.5421383031207
 10
-4777.119494668252
 20
506.9450122099806
 10
-4674.324391123598
 20
506.9450122099806
 97
        0
 92
        7
 72
     0
 73
     1
 93
       10
 10
-4420.013588083428
 20
534.5176571711635
 10
-4422.155152740597
 20
567.4442137753212
 10
-4436.610714176568
 20
573.8689077468588
 10
-4506.211565534933
 20
553.524043503654
 10
-4573.670852236115
 20
575.4750812397542
 10
-4583.843284357717
 20
571.7273430896603
 10
-4590.267978329255
 20
567.4442137753212
 10
-4592.944934150742
 20
535.3207439176185
 10
-4544.224338199884
 20
490.8832772811146
 10
-4468.198792869982
 20
490.8832772811146
 97
        0
 75
     0
 76
     1
 47
2.204275466911288
 98
       27
 10
-4307.937241023871
 20
652.2144841034169
 10
-4146.857278868337
 20
471.4638662449724
 10
-4224.087378531272
 20
352.432984207524
 10
-4224.087378531272
 20
352.432984207524
 10
-4224.087378531272
 20
352.432984207524
 10
-4224.087378531272
 20
352.432984207524
 10
-4224.087378531272
 20
352.432984207524
 10
-4224.087378531272
 20
352.432984207524
 10
-4224.087378531272
 20
352.432984207524
 10
-4224.087378531272
 20
352.432984207524
 10
-4224.087378531272
 20
352.432984207524
 10
-4224.087378531272
 20
352.432984207524
 10
-4224.087378531272
 20
352.432984207524
 10
-4224.087378531272
 20
352.432984207524
 10
-4224.087378531272
 20
352.432984207524
 10
-4312.350443695598
 20
661.0315768720757
 10
-4155.68360185594
 20
462.6467734763137
 10
-4226.294021045061
 20
303.9389307597157
 10
-4210.847935227794
 20
94.5327614031412
 10
-4124.791512577256
 20
-99.44349560826958
 10
-4407.233106977888
 20
-53.15371535262966
 10
-4508.735615445694
 20
120.9840829293097
 10
-4733.806233960684
 20
12.97456685268844
 10
-4788.970649688374
 20
220.1764630170946
 10
-4590.378835424504
 20
330.3902522858843
 10
-4700.707584524061
 20
557.4306071797764
 10
-4510.942175603632
 20
506.7322805397998
  0
LINE
  5
49A
330
3A7
100
AcDbEntity
  8
0
100
AcDbLine
 10
-5126.194533788672
 20
-177.2848957591777
 30
0.0
 11
-3754.522370864593
 21
-177.2848957591777
 31
0.0
  0
LINE
  5
49B
330
3A7
100
AcDbEntity
  8
0
100
AcDbLine
 10
-4885.80390102016
 20
200.7012662331689
 30
0.0
 11
-4864.923645612653
 21
184.1041401400143
 31
0.0
  0
LINE
  5
49C
330
3A7
100
AcDbEntity
  8
0
100
AcDbLine
 10
-4863.317472119772
 20
259.5942943056288
 30
0.0
 11
-4885.268509855873
 21
243.5325593767775
 31
0.0
  0
LINE
  5
49D
330
3A7
100
AcDbEntity
  8
0
100
AcDbLine
 10
-5095.677237423849
 20
-29.51693441372481
 30
0.0
 11
-5126.194533788672
 21
-177.2848957591777
 31
0.0
  0
LINE
  5
49E
330
3A7
100
AcDbEntity
  8
0
100
AcDbLine
 10
-4885.268509855873
 20
243.5325593767775
 30
0.0
 11
-4885.80390102016
 21
200.7012662331689
 31
0.0
  0
LINE
  5
49F
330
3A7
100
AcDbEntity
  8
0
100
AcDbLine
 10
-4844.043390205144
 20
-8.101287841927842
 30
0.0
 11
-4795.322794254287
 21
-52.53875447841711
 31
0.0
  0
LINE
  5
4A0
330
3A7
100
AcDbEntity
  8
0
100
AcDbLine
 10
-4719.297248924384
 20
-52.53875447841711
 30
0.0
 11
-4671.11204413783
 21
-8.904374588368227
 31
0.0
  0
LINE
  5
4A1
330
3A7
100
AcDbEntity
  8
0
100
AcDbLine
 10
-4795.322794254287
 20
-52.53875447841711
 30
0.0
 11
-4719.297248924384
 21
-52.53875447841711
 31
0.0
  0
LINE
  5
4A2
330
3A7
100
AcDbEntity
  8
0
100
AcDbLine
 10
-4508.353130192102
 20
-37.54780187815777
 30
0.0
 11
-4508.888521356406
 21
-80.37909502176626
 31
0.0
  0
LINE
  5
4A3
330
3A7
100
AcDbEntity
  8
0
100
AcDbLine
 10
-4508.888521356406
 20
-80.37909502176626
 30
0.0
 11
-4488.008265948898
 21
-96.97622111492092
 31
0.0
  0
LINE
  5
4A4
330
3A7
100
AcDbEntity
  8
0
100
AcDbLine
 10
-4486.402092456017
 20
-21.4860669493064
 30
0.0
 11
-4508.353130192102
 21
-37.54780187815777
 31
0.0
  0
LINE
  5
4A5
330
3A7
100
AcDbEntity
  8
0
100
AcDbLine
 10
-4757.310021589336
 20
10.10201174410758
 30
0.0
 11
-4824.769308290517
 21
32.05304948020784
 31
0.0
  0
LINE
  5
4A6
330
3A7
100
AcDbEntity
  8
0
100
AcDbLine
 10
-4841.366434383672
 20
24.02218201577488
 30
0.0
 11
-4844.043390205144
 21
-8.101287841927842
 31
0.0
  0
LINE
  5
4A7
330
3A7
100
AcDbEntity
  8
0
100
AcDbLine
 10
-4824.769308290517
 20
32.05304948020784
 30
0.0
 11
-4834.941740412133
 21
28.30531133014301
 31
0.0
  0
LINE
  5
4A8
330
3A7
100
AcDbEntity
  8
0
100
AcDbLine
 10
-4834.941740412133
 20
28.30531133014301
 30
0.0
 11
-4841.366434383672
 21
24.02218201577488
 31
0.0
  0
LINE
  5
4A9
330
3A7
100
AcDbEntity
  8
0
100
AcDbLine
 10
-4671.11204413783
 20
-8.904374588368227
 30
0.0
 11
-4673.253608795
 21
24.02218201577488
 31
0.0
  0
LINE
  5
4AA
330
3A7
100
AcDbEntity
  8
0
100
AcDbLine
 10
-4673.253608795
 20
24.02218201577488
 30
0.0
 11
-4687.709170230969
 21
30.44687598732707
 31
0.0
  0
LINE
  5
4AB
330
3A7
100
AcDbEntity
  8
0
100
AcDbLine
 10
-4687.709170230969
 20
30.44687598732707
 30
0.0
 11
-4757.310021589336
 21
10.10201174410758
 31
0.0
  0
LINE
  5
4AC
330
3A7
100
AcDbEntity
  8
0
100
AcDbLine
 10
-4864.923645612653
 20
184.1041401400143
 30
0.0
 11
-4762.128542067992
 21
184.1041401400143
 31
0.0
  0
LINE
  5
4AD
330
3A7
100
AcDbEntity
  8
0
100
AcDbLine
 10
-4741.783677824787
 20
243.5325593767775
 30
0.0
 11
-4763.734715560873
 21
259.5942943056288
 31
0.0
  0
LINE
  5
4AE
330
3A7
100
AcDbEntity
  8
0
100
AcDbLine
 10
-4763.734715560873
 20
259.5942943056288
 30
0.0
 11
-4863.317472119772
 21
259.5942943056288
 31
0.0
  0
LINE
  5
4AF
330
3A7
100
AcDbEntity
  8
0
100
AcDbLine
 10
-4762.128542067992
 20
184.1041401400143
 30
0.0
 11
-4741.248286660484
 21
200.7012662331689
 31
0.0
  0
LINE
  5
4B0
330
3A7
100
AcDbEntity
  8
0
100
AcDbLine
 10
-4741.248286660484
 20
200.7012662331689
 30
0.0
 11
-4741.783677824787
 21
243.5325593767775
 31
0.0
  0
LINE
  5
4B1
330
3A7
100
AcDbEntity
  8
0
100
AcDbLine
 10
-4600.97580161516
 20
146.0913674750627
 30
0.0
 11
-4552.255205664303
 21
101.6539008385734
 31
0.0
  0
LINE
  5
4B2
330
3A7
100
AcDbEntity
  8
0
100
AcDbLine
 10
-4552.255205664303
 20
101.6539008385734
 30
0.0
 11
-4476.2296603344
 21
101.6539008385734
 31
0.0
  0
LINE
  5
4B3
330
3A7
100
AcDbEntity
  8
0
100
AcDbLine
 10
-4514.242432999352
 20
164.2946670610981
 30
0.0
 11
-4581.701719700548
 21
186.2457047971984
 31
0.0
  0
LINE
  5
4B4
330
3A7
100
AcDbEntity
  8
0
100
AcDbLine
 10
-4598.298845793688
 20
178.2148373327654
 30
0.0
 11
-4600.97580161516
 21
146.0913674750627
 31
0.0
  0
LINE
  5
4B5
330
3A7
100
AcDbEntity
  8
0
100
AcDbLine
 10
-4581.701719700548
 20
186.2457047971984
 30
0.0
 11
-4591.87415182215
 21
182.4979666471335
 31
0.0
  0
LINE
  5
4B6
330
3A7
100
AcDbEntity
  8
0
100
AcDbLine
 10
-4591.87415182215
 20
182.4979666471335
 30
0.0
 11
-4598.298845793688
 21
178.2148373327654
 31
0.0
  0
LINE
  5
4B7
330
3A7
100
AcDbEntity
  8
0
100
AcDbLine
 10
-4506.211565534933
 20
553.5240435036394
 30
0.0
 11
-4573.670852236115
 21
575.4750812397542
 31
0.0
  0
LINE
  5
4B8
330
3A7
100
AcDbEntity
  8
0
100
AcDbLine
 10
-4573.670852236115
 20
575.4750812397542
 30
0.0
 11
-4583.843284357732
 21
571.7273430896748
 31
0.0
  0
LINE
  5
4B9
330
3A7
100
AcDbEntity
  8
0
100
AcDbLine
 10
-4653.979526880386
 20
566.3734314467292
 30
0.0
 11
-4675.930564616471
 21
582.4351663755805
 31
0.0
  0
LINE
  5
4BA
330
3A7
100
AcDbEntity
  8
0
100
AcDbLine
 10
-4775.51332117537
 20
582.4351663755805
 30
0.0
 11
-4797.464358911471
 21
566.3734314467292
 31
0.0
  0
LINE
  5
4BB
330
3A7
100
AcDbEntity
  8
0
100
AcDbLine
 10
-4674.324391123591
 20
506.9450122099806
 30
0.0
 11
-4653.444135716083
 21
523.5421383031207
 31
0.0
  0
LINE
  5
4BC
330
3A7
100
AcDbEntity
  8
0
100
AcDbLine
 10
-4777.119494668252
 20
506.9450122099806
 30
0.0
 11
-4674.324391123591
 21
506.9450122099806
 31
0.0
  0
LINE
  5
4BD
330
3A7
100
AcDbEntity
  8
0
100
AcDbLine
 10
-4797.464358911471
 20
566.3734314467292
 30
0.0
 11
-4797.999750075759
 21
523.5421383031207
 31
0.0
  0
LINE
  5
4BE
330
3A7
100
AcDbEntity
  8
0
100
AcDbLine
 10
-4797.999750075759
 20
523.5421383031207
 30
0.0
 11
-4777.119494668252
 21
506.9450122099806
 31
0.0
  0
LINE
  5
4BF
330
3A7
100
AcDbEntity
  8
0
100
AcDbLine
 10
-4621.32066585838
 20
296.0008934776997
 30
0.0
 11
-4518.52556231372
 21
296.0008934776997
 31
0.0
  0
LINE
  5
4C0
330
3A7
100
AcDbEntity
  8
0
100
AcDbLine
 10
-4520.1317358066
 20
371.4910476433142
 30
0.0
 11
-4619.714492365499
 21
371.4910476433142
 31
0.0
  0
LINE
  5
4C1
330
3A7
100
AcDbEntity
  8
0
100
AcDbLine
 10
-4641.665530101585
 20
355.4293127144483
 30
0.0
 11
-4642.200921265888
 21
312.5980195708398
 31
0.0
  0
LINE
  5
4C2
330
3A7
100
AcDbEntity
  8
0
100
AcDbLine
 10
-4642.200921265888
 20
312.5980195708398
 30
0.0
 11
-4621.32066585838
 21
296.0008934776997
 31
0.0
  0
LINE
  5
4C3
330
3A7
100
AcDbEntity
  8
0
100
AcDbLine
 10
-4619.714492365499
 20
371.4910476433142
 30
0.0
 11
-4641.665530101585
 21
355.4293127144483
 31
0.0
  0
LINE
  5
4C4
330
3A7
100
AcDbEntity
  8
0
100
AcDbLine
 10
-4518.52556231372
 20
296.0008934776997
 30
0.0
 11
-4497.645306906211
 21
312.5980195708398
 31
0.0
  0
LINE
  5
4C5
330
3A7
100
AcDbEntity
  8
0
100
AcDbLine
 10
-4497.645306906211
 20
312.5980195708398
 30
0.0
 11
-4498.180698070501
 21
355.4293127144483
 31
0.0
  0
LINE
  5
4C6
330
3A7
100
AcDbEntity
  8
0
100
AcDbLine
 10
-4498.180698070501
 20
355.4293127144483
 30
0.0
 11
-4520.1317358066
 21
371.4910476433142
 31
0.0
  0
LINE
  5
4C7
330
3A7
100
AcDbEntity
  8
0
100
AcDbLine
 10
-4592.944934150742
 20
535.3207439176185
 30
0.0
 11
-4544.224338199884
 21
490.8832772811146
 31
0.0
  0
LINE
  5
4C8
330
3A7
100
AcDbEntity
  8
0
100
AcDbLine
 10
-4590.267978329255
 20
567.4442137753212
 30
0.0
 11
-4592.944934150742
 21
535.3207439176185
 31
0.0
  0
LINE
  5
4C9
330
3A7
100
AcDbEntity
  8
0
100
AcDbLine
 10
-4583.843284357732
 20
571.7273430896748
 30
0.0
 11
-4590.267978329255
 21
567.4442137753212
 31
0.0
  0
LINE
  5
4CA
330
3A7
100
AcDbEntity
  8
0
100
AcDbLine
 10
-4653.444135716083
 20
523.5421383031207
 30
0.0
 11
-4653.979526880386
 21
566.3734314467292
 31
0.0
  0
LINE
  5
4CB
330
3A7
100
AcDbEntity
  8
0
100
AcDbLine
 10
-4544.224338199884
 20
490.8832772811146
 30
0.0
 11
-4468.198792869982
 21
490.8832772811146
 31
0.0
  0
LINE
  5
4CC
330
3A7
100
AcDbEntity
  8
0
100
AcDbLine
 10
-4675.930564616471
 20
582.4351663755805
 30
0.0
 11
-4775.51332117537
 21
582.4351663755805
 31
0.0
  0
LINE
  5
4CD
330
3A7
100
AcDbEntity
  8
0
100
AcDbLine
 10
-4303.298314267085
 20
318.4873223780887
 30
0.0
 11
-4254.577718316228
 21
274.0498557415994
 31
0.0
  0
LINE
  5
4CE
330
3A7
100
AcDbEntity
  8
0
100
AcDbLine
 10
-4178.552172986324
 20
274.0498557415994
 30
0.0
 11
-4130.366968199771
 21
317.6842356316483
 31
0.0
  0
LINE
  5
4CF
330
3A7
100
AcDbEntity
  8
0
100
AcDbLine
 10
-4060.230725677102
 20
-134.9889937798725
 30
0.0
 11
-4012.045520890548
 21
-91.35461388980912
 31
0.0
  0
LINE
  5
4D0
330
3A7
100
AcDbEntity
  8
0
100
AcDbLine
 10
-4028.642646983688
 20
-52.00336331412836
 30
0.0
 11
-4098.243498342053
 21
-72.3482275573333
 31
0.0
  0
LINE
  5
4D1
330
3A7
100
AcDbEntity
  8
0
100
AcDbLine
 10
-4385.213162404237
 20
-96.97622111492092
 30
0.0
 11
-4364.332906996729
 21
-80.37909502176626
 31
0.0
  0
LINE
  5
4D2
330
3A7
100
AcDbEntity
  8
0
100
AcDbLine
 10
-4364.332906996729
 20
-80.37909502176626
 30
0.0
 11
-4364.868298161018
 21
-37.54780187815777
 31
0.0
  0
LINE
  5
4D3
330
3A7
100
AcDbEntity
  8
0
100
AcDbLine
 10
-4364.868298161018
 20
-37.54780187815777
 30
0.0
 11
-4386.819335897118
 21
-21.4860669493064
 31
0.0
  0
LINE
  5
4D4
330
3A7
100
AcDbEntity
  8
0
100
AcDbLine
 10
-4184.976866957862
 20
-90.55152714336873
 30
0.0
 11
-4136.256271007005
 21
-134.9889937798725
 31
0.0
  0
LINE
  5
4D5
330
3A7
100
AcDbEntity
  8
0
100
AcDbLine
 10
-4098.243498342053
 20
-72.3482275573333
 30
0.0
 11
-4165.702785043235
 21
-50.39718982124759
 31
0.0
  0
LINE
  5
4D6
330
3A7
100
AcDbEntity
  8
0
100
AcDbLine
 10
-4182.299911136374
 20
-58.428057285666
 30
0.0
 11
-4184.976866957862
 21
-90.55152714336873
 31
0.0
  0
LINE
  5
4D7
330
3A7
100
AcDbEntity
  8
0
100
AcDbLine
 10
-4165.702785043235
 20
-50.39718982124759
 30
0.0
 11
-4175.875217164852
 21
-54.14492797131242
 31
0.0
  0
LINE
  5
4D8
330
3A7
100
AcDbEntity
  8
0
100
AcDbLine
 10
-4175.875217164852
 20
-54.14492797131242
 30
0.0
 11
-4182.299911136374
 21
-58.428057285666
 31
0.0
  0
LINE
  5
4D9
330
3A7
100
AcDbEntity
  8
0
100
AcDbLine
 10
-4136.256271007005
 20
-134.9889937798725
 30
0.0
 11
-4060.230725677102
 21
-134.9889937798725
 31
0.0
  0
LINE
  5
4DA
330
3A7
100
AcDbEntity
  8
0
100
AcDbLine
 10
-4254.577718316228
 20
274.0498557415994
 30
0.0
 11
-4178.552172986324
 21
274.0498557415994
 31
0.0
  0
LINE
  5
4DB
330
3A7
100
AcDbEntity
  8
0
100
AcDbLine
 10
-4248.688415508978
 20
68.99503981656744
 30
0.0
 11
-4145.893311964319
 21
68.99503981656744
 31
0.0
  0
LINE
  5
4DC
330
3A7
100
AcDbEntity
  8
0
100
AcDbLine
 10
-4147.499485457199
 20
144.4851939821819
 30
0.0
 11
-4247.082242016084
 21
144.4851939821819
 31
0.0
  0
LINE
  5
4DD
330
3A7
100
AcDbEntity
  8
0
100
AcDbLine
 10
-4247.082242016084
 20
144.4851939821819
 30
0.0
 11
-4269.033279752199
 21
128.4234590533305
 31
0.0
  0
LINE
  5
4DE
330
3A7
100
AcDbEntity
  8
0
100
AcDbLine
 10
-4269.033279752199
 20
128.4234590533305
 30
0.0
 11
-4269.568670916487
 21
85.5921659097221
 31
0.0
  0
LINE
  5
4DF
330
3A7
100
AcDbEntity
  8
0
100
AcDbLine
 10
-4269.568670916487
 20
85.5921659097221
 30
0.0
 11
-4248.688415508978
 21
68.99503981656744
 31
0.0
  0
LINE
  5
4E0
330
3A7
100
AcDbEntity
  8
0
100
AcDbLine
 10
-4428.044455547846
 20
145.2882807286223
 30
0.0
 11
-4430.186020205016
 21
178.2148373327654
 31
0.0
  0
LINE
  5
4E1
330
3A7
100
AcDbEntity
  8
0
100
AcDbLine
 10
-4430.186020205016
 20
178.2148373327654
 30
0.0
 11
-4444.641581641
 21
184.6395313043176
 31
0.0
  0
LINE
  5
4E2
330
3A7
100
AcDbEntity
  8
0
100
AcDbLine
 10
-4125.548447721099
 20
128.4234590533305
 30
0.0
 11
-4147.499485457199
 21
144.4851939821819
 31
0.0
  0
LINE
  5
4E3
330
3A7
100
AcDbEntity
  8
0
100
AcDbLine
 10
-4145.893311964319
 20
68.99503981656744
 30
0.0
 11
-4125.01305655681
 21
85.5921659097221
 31
0.0
  0
LINE
  5
4E4
330
3A7
100
AcDbEntity
  8
0
100
AcDbLine
 10
-4125.01305655681
 20
85.5921659097221
 30
0.0
 11
-4125.548447721099
 21
128.4234590533305
 31
0.0
  0
LINE
  5
4E5
330
3A7
100
AcDbEntity
  8
0
100
AcDbLine
 10
-4012.045520890548
 20
-91.35461388980912
 30
0.0
 11
-4014.187085547717
 21
-58.428057285666
 31
0.0
  0
LINE
  5
4E6
330
3A7
100
AcDbEntity
  8
0
100
AcDbLine
 10
-4014.187085547717
 20
-58.428057285666
 30
0.0
 11
-4028.642646983688
 21
-52.00336331412836
 31
0.0
  0
LINE
  5
4E7
330
3A7
100
AcDbEntity
  8
0
100
AcDbLine
 10
-3785.039667229415
 20
-29.51693441372481
 30
0.0
 11
-3754.522370864593
 21
-177.2848957591777
 31
0.0
  0
LINE
  5
4E8
330
3A7
100
AcDbEntity
  8
0
100
AcDbLine
 10
-4216.564945651277
 20
336.6906219641241
 30
0.0
 11
-4284.024232352458
 21
358.6416597002244
 31
0.0
  0
LINE
  5
4E9
330
3A7
100
AcDbEntity
  8
0
100
AcDbLine
 10
-4300.621358445599
 20
350.610792235806
 30
0.0
 11
-4303.298314267085
 21
318.4873223780887
 31
0.0
  0
LINE
  5
4EA
330
3A7
100
AcDbEntity
  8
0
100
AcDbLine
 10
-4284.024232352458
 20
358.6416597002244
 30
0.0
 11
-4294.196664474075
 21
354.8939215501595
 31
0.0
  0
LINE
  5
4EB
330
3A7
100
AcDbEntity
  8
0
100
AcDbLine
 10
-4294.196664474075
 20
354.8939215501595
 30
0.0
 11
-4300.621358445599
 21
350.610792235806
 31
0.0
  0
LINE
  5
4EC
330
3A7
100
AcDbEntity
  8
0
100
AcDbLine
 10
-4420.013588083428
 20
534.5176571711635
 30
0.0
 11
-4422.155152740597
 21
567.4442137753212
 31
0.0
  0
LINE
  5
4ED
330
3A7
100
AcDbEntity
  8
0
100
AcDbLine
 10
-4422.155152740597
 20
567.4442137753212
 30
0.0
 11
-4436.610714176568
 21
573.8689077468588
 31
0.0
  0
LINE
  5
4EE
330
3A7
100
AcDbEntity
  8
0
100
AcDbLine
 10
-4132.50853285694
 20
350.610792235806
 30
0.0
 11
-4146.96409429291
 21
357.0354862073436
 31
0.0
  0
LINE
  5
4EF
330
3A7
100
AcDbEntity
  8
0
100
AcDbLine
 10
-4146.96409429291
 20
357.0354862073436
 30
0.0
 11
-4216.564945651277
 21
336.6906219641241
 31
0.0
  0
LINE
  5
4F0
330
3A7
100
AcDbEntity
  8
0
100
AcDbLine
 10
-4130.366968199771
 20
317.6842356316483
 30
0.0
 11
-4132.50853285694
 21
350.610792235806
 31
0.0
  0
LINE
  5
4F1
330
3A7
100
AcDbEntity
  8
0
100
AcDbLine
 10
-4169.985914357603
 20
435.2025961944309
 30
0.0
 11
-4067.190810812943
 21
435.2025961944309
 31
0.0
  0
LINE
  5
4F2
330
3A7
100
AcDbEntity
  8
0
100
AcDbLine
 10
-4068.796984305823
 20
510.6927503600454
 30
0.0
 11
-4168.379740864708
 21
510.6927503600454
 31
0.0
  0
LINE
  5
4F3
330
3A7
100
AcDbEntity
  8
0
100
AcDbLine
 10
-4190.330778600809
 20
494.6310154311795
 30
0.0
 11
-4190.866169765111
 21
451.7997222875711
 31
0.0
  0
LINE
  5
4F4
330
3A7
100
AcDbEntity
  8
0
100
AcDbLine
 10
-4190.866169765111
 20
451.7997222875711
 30
0.0
 11
-4169.985914357603
 21
435.2025961944309
 31
0.0
  0
LINE
  5
4F5
330
3A7
100
AcDbEntity
  8
0
100
AcDbLine
 10
-4168.379740864708
 20
510.6927503600454
 30
0.0
 11
-4190.330778600809
 21
494.6310154311795
 31
0.0
  0
LINE
  5
4F6
330
3A7
100
AcDbEntity
  8
0
100
AcDbLine
 10
-4067.190810812943
 20
435.2025961944309
 30
0.0
 11
-4046.310555405434
 21
451.7997222875711
 31
0.0
  0
LINE
  5
4F7
330
3A7
100
AcDbEntity
  8
0
100
AcDbLine
 10
-4046.310555405434
 20
451.7997222875711
 30
0.0
 11
-4046.845946569724
 21
494.6310154311795
 31
0.0
  0
LINE
  5
4F8
330
3A7
100
AcDbEntity
  8
0
100
AcDbLine
 10
-4046.845946569724
 20
494.6310154311795
 30
0.0
 11
-4068.796984305823
 21
510.6927503600454
 31
0.0
  0
LINE
  5
4F9
330
3A7
100
AcDbEntity
  8
0
100
AcDbLine
 10
-4264.214759273541
 20
616.3528108493628
 30
0.0
 11
-4243.334503866033
 21
632.9499369425029
 31
0.0
  0
LINE
  5
4FA
330
3A7
100
AcDbEntity
  8
0
100
AcDbLine
 10
-4243.869895030322
 20
675.7812300861115
 30
0.0
 11
-4265.820932766422
 21
691.8429650149773
 31
0.0
  0
LINE
  5
4FB
330
3A7
100
AcDbEntity
  8
0
100
AcDbLine
 10
-4367.009862818203
 20
616.3528108493628
 30
0.0
 11
-4264.214759273541
 21
616.3528108493628
 31
0.0
  0
LINE
  5
4FC
330
3A7
100
AcDbEntity
  8
0
100
AcDbLine
 10
-4265.820932766422
 20
691.8429650149773
 30
0.0
 11
-4365.403689325307
 21
691.8429650149773
 31
0.0
  0
LINE
  5
4FD
330
3A7
100
AcDbEntity
  8
0
100
AcDbLine
 10
-4387.354727061421
 20
675.7812300861115
 30
0.0
 11
-4387.89011822571
 21
632.9499369425029
 31
0.0
  0
LINE
  5
4FE
330
3A7
100
AcDbEntity
  8
0
100
AcDbLine
 10
-4387.89011822571
 20
632.9499369425029
 30
0.0
 11
-4367.009862818203
 21
616.3528108493628
 31
0.0
  0
LINE
  5
4FF
330
3A7
100
AcDbEntity
  8
0
100
AcDbLine
 10
-4365.403689325307
 20
691.8429650149773
 30
0.0
 11
-4387.354727061421
 21
675.7812300861115
 31
0.0
  0
LINE
  5
500
330
3A7
100
AcDbEntity
  8
0
100
AcDbLine
 10
-4243.334503866033
 20
632.9499369425029
 30
0.0
 11
-4243.869895030322
 21
675.7812300861115
 31
0.0
  0
HATCH
  5
501
330
3A7
100
AcDbEntity
  8
0
 62
    30
100
AcDbHatch
 10
0.0
 20
0.0
 30
0.0
210
0.0
220
0.0
230
1.0
  2
SOLID
 70
     1
 71
     0
 91
        4
 92
        7
 72
     1
 73
     1
 93
       10
 10
-4065.939254099947
 20
1643.687881439407
 42
0.2668433307275417
 10
-4068.421399512183
 20
1648.007650909516
 42
0.0645583001529173
 10
-4069.696533139624
 20
1648.172980886425
 42
0.0
 10
-4169.696533139624
 20
1648.172980886425
 42
0.4142135623730951
 10
-4174.696533139623
 20
1643.172980886425
 42
0.0
 10
-4174.696533139623
 20
1543.172980886425
 42
0.2668433307276591
 10
-4172.214387727385
 20
1538.853211416317
 42
0.0645583001527335
 10
-4170.939254099947
 20
1538.687881439407
 42
0.0
 10
-4070.939254099947
 20
1538.6878814394
 42
0.4142135623730951
 10
-4065.939254099947
 20
1543.6878814394
 42
0.0
 97
        0
 92
        7
 72
     1
 73
     1
 93
        8
 10
-4704.228354492599
 20
1643.74598705925
 42
0.4142135623730849
 10
-4709.2283544926
 20
1648.74598705925
 42
0.0
 10
-4809.228354492599
 20
1648.74598705925
 42
0.4142135623730951
 10
-4814.228354492599
 20
1643.74598705925
 42
0.0
 10
-4814.228354492603
 20
1543.74598705925
 42
0.4142135623730849
 10
-4809.228354492603
 20
1538.74598705925
 42
0.0
 10
-4709.2283544926
 20
1538.745987059242
 42
0.4142135623730951
 10
-4704.228354492599
 20
1543.745987059242
 42
0.0
 97
        0
 92
        7
 72
     1
 73
     1
 93
        9
 10
-4704.228354492599
 20
1005.961602647767
 42
0.4142135623730849
 10
-4709.2283544926
 20
1010.961602647767
 42
0.0
 10
-4809.228354492599
 20
1010.961602647767
 42
0.4142135623730951
 10
-4814.228354492599
 20
1005.961602647767
 42
0.0
 10
-4814.228354492603
 20
905.9616026477669
 42
0.4142135623730849
 10
-4809.228354492603
 20
900.9616026477671
 42
0.0
 10
-4709.2283544926
 20
900.9616026477598
 42
0.4317177618738611
 10
-4704.237170167092
 20
906.2583837603815
 42
0.0
 10
-4704.228354492599
 20
906.2583837603815
 42
0.0
 97
        0
 92
        7
 72
     1
 73
     1
 93
       10
 10
-4065.921413604181
 20
1006.258383760381
 42
0.3335304022111794
 10
-4069.524819105033
 20
1011.059375720898
 42
0.0085876014236315
 10
-4069.696533139638
 20
1011.062325161787
 42
0.0
 10
-4169.696533139631
 20
1011.062325161787
 42
0.4142135623730951
 10
-4174.696533139631
 20
1006.062325161787
 42
0.0
 10
-4174.696533139631
 20
906.0623251617798
 42
0.3335304022097203
 10
-4171.093127638804
 20
901.2613332012698
 42
0.0085876014236313
 10
-4170.921413604199
 20
901.2583837603814
 42
0.0
 10
-4070.921413604181
 20
901.2583837603742
 42
0.4142135623730951
 10
-4065.921413604181
 20
906.2583837603742
 42
0.0
 97
        0
 75
     0
 76
     1
 47
2.588098981122097
 98
        4
 10
-4118.084167191304
 20
1586.73646034376
 10
-4729.512709475598
 20
1589.324551641686
 10
-4758.01151602744
 20
978.5331805720852
 10
-4110.311809658025
 20
963.0045597941789
  0
LINE
  5
502
330
3A7
100
AcDbEntity
  8
0
100
AcDbLine
 10
-4175.939254099946
 20
1560.000781534843
 30
0.0
 11
-4704.228354492599
 21
1560.000781534829
 31
0.0
  0
LINE
  5
503
330
3A7
100
AcDbEntity
  8
0
100
AcDbLine
 10
-4175.939254099946
 20
1627.491192583657
 30
0.0
 11
-4704.228354492599
 21
1627.491192583671
 31
0.0
  0
LINE
  5
504
330
3A7
100
AcDbEntity
  8
0
 62
     3
100
AcDbLine
 10
-4175.921413604185
 20
906.2583837603815
 30
0.0
 11
-4704.228354492599
 21
906.2583837603815
 31
0.0
  0
LWPOLYLINE
  5
505
102
{ACAD_REACTORS
330
489
102
}
330
3A7
100
AcDbEntity
  8
0
100
AcDbPolyline
 90
        4
 70
     1
 43
0.0
 10
-4540.728148721998
 20
1652.237676634911
 10
-4340.506595943788
 20
1652.237676634911
 10
-4340.506595943788
 20
1627.491192583671
 10
-4540.728148721998
 20
1627.491192583671
  0
HATCH
  5
506
330
3A7
100
AcDbEntity
  8
0
 62
    10
100
AcDbHatch
 10
0.0
 20
0.0
 30
0.0
210
0.0
220
0.0
230
1.0
  2
SOLID
 70
     1
 71
     0
 91
        2
 92
        7
 72
     1
 73
     1
 93
        2
 10
-4409.257694281706
 20
1652.237676634911
 42
0.0
 10
-4371.866273994975
 20
1652.237676634911
 42
1.0
 97
        0
 92
        7
 72
     1
 73
     1
 93
        2
 10
-4509.368470670808
 20
1652.237676634911
 42
0.0
 10
-4471.977050384081
 20
1652.237676634911
 42
1.0
 97
        0
 75
     0
 76
     1
 47
0.7767292908497679
 98
        2
 10
-4390.947143552006
 20
1662.198977975596
 10
-4481.919248408459
 20
1658.315344726841
  0
HATCH
  5
507
330
3A7
100
AcDbEntity
  8
0
 62
    70
100
AcDbHatch
 10
0.0
 20
0.0
 30
0.0
210
0.0
220
0.0
230
1.0
  2
SOLID
 70
     1
 71
     0
 91
        1
 92
        7
 72
     0
 73
     1
 93
        4
 10
-4340.506595943792
 20
1652.237676634919
 10
-4540.728148721998
 20
1652.237676634911
 10
-4540.728148721998
 20
1627.491192583664
 10
-4340.506595943788
 20
1627.491192583657
 97
        0
 75
     0
 76
     1
 47
0.7767292908497679
 98
        1
 10
-4408.052992185704
 20
1643.557501886381
  0
LINE
  5
508
330
3A7
100
AcDbEntity
  8
0
100
AcDbLine
 10
-4809.228354492603
 20
1538.74598705925
 30
0.0
 11
-4809.228354492599
 21
1010.961602647767
 31
0.0
  0
LINE
  5
509
102
{ACAD_REACTORS
330
3AC
102
}
330
3A7
100
AcDbEntity
  8
0
100
AcDbLine
 10
-4890.488468846077
 20
1525.837027793342
 30
0.0
 11
-4890.488468846077
 21
1023.870561913681
 31
0.0
  0
LINE
  5
50A
102
{ACAD_REACTORS
330
3AC
102
}
330
3A7
100
AcDbEntity
  8
0
100
AcDbLine
 10
-4925.488468846073
 20
1525.837027793342
 30
0.0
 11
-4925.488468846073
 21
1023.870561913681
 31
0.0
  0
LINE
  5
50B
102
{ACAD_REACTORS
330
3AC
102
}
330
3A7
100
AcDbEntity
  8
0
100
AcDbLine
 10
-5190.25837792132
 20
1525.837027793342
 30
0.0
 11
-5190.25837792132
 21
1023.870561913681
 31
0.0
  0
LINE
  5
50C
102
{ACAD_REACTORS
330
3AC
102
}
330
3A7
100
AcDbEntity
  8
0
100
AcDbLine
 10
-5225.258377921317
 20
1525.837027793342
 30
0.0
 11
-5225.258377921317
 21
1023.870561913681
 31
0.0
  0
ARC
  5
50D
330
3A7
100
AcDbEntity
  8
0
 62
     3
100
AcDbCircle
 10
-5207.75837792132
 20
1006.016990842319
 30
0.0
 40
25.0
100
AcDbArc
 50
0.0
 51
45.5729959990155
  0
ARC
  5
50E
330
3A7
100
AcDbEntity
  8
0
 62
     3
100
AcDbCircle
 10
-5207.75837792132
 20
1006.016990842319
 30
0.0
 40
25.0
100
AcDbArc
 50
134.4270040009844
 51
180.0
  0
LINE
  5
50F
330
3A7
100
AcDbEntity
  8
0
 62
     3
100
AcDbLine
 10
-5225.258377921317
 20
1006.014874080879
 30
0.0
 11
-5225.258377921321
 21
1006.014386535345
 31
0.0
  0
LINE
  5
510
102
{ACAD_REACTORS
330
3AC
102
}
330
3A7
100
AcDbEntity
  8
0
 62
     3
100
AcDbLine
 10
-5225.258377921321
 20
1023.870561913681
 30
0.0
 11
-5190.25837792132
 21
1023.870561913681
 31
0.0
  0
ARC
  5
511
330
3A7
100
AcDbEntity
  8
0
 62
     3
100
AcDbCircle
 10
-4907.988468846077
 20
1006.016990842319
 30
0.0
 40
25.0
100
AcDbArc
 50
0.0
 51
45.5729959990155
  0
ARC
  5
512
330
3A7
100
AcDbEntity
  8
0
 62
     3
100
AcDbCircle
 10
-4907.988468846077
 20
1006.016990842319
 30
0.0
 40
25.0
100
AcDbArc
 50
134.4270040009844
 51
180.0
  0
LINE
  5
513
330
3A7
100
AcDbEntity
  8
0
 62
     3
100
AcDbLine
 10
-4925.488468846073
 20
1006.014874080879
 30
0.0
 11
-4925.488468846077
 21
1006.014386535345
 31
0.0
  0
LINE
  5
514
102
{ACAD_REACTORS
330
3AC
102
}
330
3A7
100
AcDbEntity
  8
0
 62
     3
100
AcDbLine
 10
-4925.488468846077
 20
1023.870561913681
 30
0.0
 11
-4890.488468846077
 21
1023.870561913681
 31
0.0
  0
LWPOLYLINE
  5
515
330
3A7
100
AcDbEntity
  8
0
100
AcDbPolyline
 90
        8
 70
     1
 43
0.0
 10
-4809.228354492603
 20
900.9616026477671
 10
-4709.2283544926
 20
900.9616026477598
 42
0.4142135623730951
 10
-4704.228354492599
 20
905.9616026477597
 10
-4704.228354492599
 20
1005.961602647767
 42
0.4142135623730849
 10
-4709.2283544926
 20
1010.961602647767
 10
-4809.228354492599
 20
1010.961602647767
 42
0.4142135623730951
 10
-4814.228354492599
 20
1005.961602647767
 10
-4814.228354492603
 20
905.9616026477669
 42
0.4142135623730849
  0
ARC
  5
516
330
3A7
100
AcDbEntity
  8
0
100
AcDbCircle
 10
-5207.75837792132
 20
1543.690598864705
 30
0.0
 40
25.0
100
AcDbArc
 50
314.4270040009844
 51
0.0
  0
LINE
  5
517
102
{ACAD_REACTORS
330
3AC
102
}
330
3A7
100
AcDbEntity
  8
0
100
AcDbLine
 10
-5225.258377921321
 20
1525.837027793342
 30
0.0
 11
-5190.25837792132
 21
1525.837027793342
 31
0.0
  0
ARC
  5
518
330
3A7
100
AcDbEntity
  8
0
100
AcDbCircle
 10
-5207.75837792132
 20
1543.690598864705
 30
0.0
 40
25.0
100
AcDbArc
 50
180.0
 51
225.5729959990155
  0
ARC
  5
519
330
3A7
100
AcDbEntity
  8
0
100
AcDbCircle
 10
-4907.988468846077
 20
1543.690598864705
 30
0.0
 40
25.0
100
AcDbArc
 50
314.4270040009844
 51
0.0
  0
LINE
  5
51A
102
{ACAD_REACTORS
330
3AC
102
}
330
3A7
100
AcDbEntity
  8
0
100
AcDbLine
 10
-4925.488468846077
 20
1525.837027793342
 30
0.0
 11
-4890.488468846077
 21
1525.837027793342
 31
0.0
  0
ARC
  5
51B
330
3A7
100
AcDbEntity
  8
0
100
AcDbCircle
 10
-4907.988468846077
 20
1543.690598864705
 30
0.0
 40
25.0
100
AcDbArc
 50
180.0
 51
225.5729959990155
  0
LINE
  5
51C
330
3A7
100
AcDbEntity
  8
0
100
AcDbLine
 10
-4704.228354492599
 20
1643.74598705925
 30
0.0
 11
-4540.728148721998
 21
1643.74598705925
 31
0.0
  0
LWPOLYLINE
  5
51D
330
3A7
100
AcDbEntity
  8
0
100
AcDbPolyline
 90
        8
 70
     1
 43
0.0
 10
-4809.228354492603
 20
1538.74598705925
 10
-4709.2283544926
 20
1538.745987059242
 42
0.4142135623730951
 10
-4704.228354492599
 20
1543.745987059242
 10
-4704.228354492599
 20
1643.74598705925
 42
0.4142135623730849
 10
-4709.2283544926
 20
1648.74598705925
 10
-4809.228354492599
 20
1648.74598705925
 42
0.4142135623730951
 10
-4814.228354492599
 20
1643.74598705925
 10
-4814.228354492603
 20
1543.74598705925
 42
0.4142135623730849
  0
ARC
  5
51E
330
3A7
100
AcDbEntity
  8
0
100
AcDbCircle
 10
-4490.672760527446
 20
1652.237676634911
 30
0.0
 40
18.6957101433645
100
AcDbArc
 50
0.0
 51
180.0
  0
HATCH
  5
51F
330
3A7
100
AcDbEntity
  8
0
 62
    30
100
AcDbHatch
 10
0.0
 20
0.0
 30
0.0
210
0.0
220
0.0
230
1.0
  2
SOLID
 70
     1
 71
     0
 91
        2
 92
        7
 72
     1
 73
     1
 93
        6
 10
-3931.870267566657
 20
1542.904400673993
 42
0.0
 10
-4064.703751883702
 20
1542.904400673993
 42
-0.3985590994709883
 10
-4069.696533139627
 20
1538.172980886425
 42
0.0
 10
-4164.563480725872
 20
1538.172980886425
 42
0.0
 10
-4164.563480725872
 20
1523.567416672034
 42
0.0
 10
-3898.492288835645
 20
1523.56741667202
 42
0.0320247909552557
 97
        0
 92
        7
 72
     1
 73
     1
 93
        7
 10
-3893.855147242895
 20
1025.473380483199
 42
0.0
 10
-4164.563480725872
 20
1025.473380483199
 42
0.0
 10
-4164.563480725872
 20
1011.258383760374
 42
0.0
 10
-4070.921413604181
 20
1011.258383760381
 42
-0.0708895668696227
 10
-4069.524819105033
 20
1011.059375720898
 42
-0.3998858753457836
 10
-4064.697081825772
 20
1006.136396481226
 42
0.0
 10
-3925.685564403546
 20
1006.136396481226
 42
0.0309176435392412
 97
        0
 75
     0
 76
     1
 47
2.588098981122097
 98
        2
 10
-3982.374170425227
 20
1531.901376330599
 10
-4037.769411946454
 20
1014.766568228595
  0
LINE
  5
520
102
{ACAD_REACTORS
330
525
102
}
330
3A7
100
AcDbEntity
  8
0
100
AcDbLine
 10
-4164.563480725872
 20
1523.747283042452
 30
0.0
 11
-4164.563480725872
 21
1025.473380483199
 31
0.0
  0
LINE
  5
521
330
3A7
100
AcDbEntity
  8
0
100
AcDbLine
 10
-4164.563480725872
 20
1011.062325161787
 30
0.0
 11
-4164.563480725872
 21
1538.172980886425
 31
0.0
  0
ARC
  5
522
330
3A7
100
AcDbEntity
  8
0
100
AcDbCircle
 10
-4066.241109464896
 20
1273.197802145943
 30
0.0
 40
335.2341085902283
100
AcDbArc
 50
270.2639887034412
 51
89.73601129655873
  0
ARC
  5
523
102
{ACAD_REACTORS
330
525
102
}
330
3A7
100
AcDbEntity
  8
0
100
AcDbCircle
 10
-4065.979703903551
 20
1272.939543673637
 30
0.0
 40
301.4404832298143
100
AcDbArc
 50
270.2438972044028
 51
89.70721767778803
  0
HATCH
  5
524
330
3A7
100
AcDbEntity
  8
0
 62
    50
100
AcDbHatch
 10
0.0
 20
0.0
 30
0.0
210
0.0
220
0.0
230
1.0
  2
SOLID
 70
     1
 71
     0
 91
        1
 92
        7
 72
     1
 73
     1
 93
        4
 10
-4064.696533139631
 20
971.5017915545322
 42
0.0
 10
-4064.696533139631
 20
937.9672518581427
 42
0.9954031098254118
 10
-4064.696533139623
 20
1608.428352433737
 42
0.0
 10
-4064.696533139623
 20
1574.377295792728
 42
-0.9957522253130191
 97
        0
 75
     0
 76
     1
 47
3.550999638198877
 98
        1
 10
-3928.380964913816
 20
1558.832550098741
  0
HATCH
  5
525
330
3A7
100
AcDbEntity
  8
0
 62
    50
100
AcDbHatch
 10
0.0
 20
0.0
 30
0.0
210
0.0
220
0.0
230
1.0
  2
SOLID
 70
     1
 71
     1
 91
        1
 92
        7
 72
     1
 73
     1
 93
        4
 10
-4164.563480725872
 20
1025.473380483199
 42
0.0
 10
-3893.855147242895
 20
1025.473380483199
 42
0.5285003451181573
 10
-3898.49228883564
 20
1523.56741667202
 42
0.0
 10
-4164.563480725872
 20
1523.567416672027
 42
0.0
 97
        4
330
52C
330
520
330
527
330
523
 75
     0
 76
     1
 47
2.596708625795336
 98
        1
 10
-4057.772284459646
 20
1344.191599683166
  0
LINE
  5
526
330
3A7
100
AcDbEntity
  8
0
100
AcDbLine
 10
-3925.685564403535
 20
1006.136396481226
 30
0.0
 11
-4064.697081825765
 21
1006.136396481226
 31
0.0
  0
LINE
  5
527
102
{ACAD_REACTORS
330
525
102
}
330
3A7
100
AcDbEntity
  8
0
100
AcDbLine
 10
-3893.855147242891
 20
1025.473380483199
 30
0.0
 11
-4164.563480725872
 21
1025.473380483199
 31
0.0
  0
LWPOLYLINE
  5
528
330
3A7
100
AcDbEntity
  8
0
100
AcDbPolyline
 90
        8
 70
     1
 43
0.0
 10
-4170.921413604184
 20
901.2583837603814
 10
-4070.921413604181
 20
901.2583837603742
 42
0.4142135623730951
 10
-4065.921413604181
 20
906.2583837603742
 10
-4065.921413604181
 20
1006.258383760381
 42
0.4142135623730849
 10
-4070.921413604181
 20
1011.258383760381
 10
-4170.921413604181
 20
1011.258383760381
 42
0.4142135623730951
 10
-4175.921413604181
 20
1006.258383760381
 10
-4175.921413604185
 20
906.2583837603815
 42
0.4142135623730849
  0
LWPOLYLINE
  5
529
330
3A7
100
AcDbEntity
  8
0
100
AcDbPolyline
 90
        8
 70
     1
 43
0.0
 10
-4169.696533139631
 20
901.0623251617799
 10
-4069.696533139631
 20
901.0623251617872
 42
0.4142135623730951
 10
-4064.696533139631
 20
906.0623251617871
 10
-4064.696533139631
 20
1006.062325161787
 42
0.4142135623730951
 10
-4069.696533139631
 20
1011.062325161787
 10
-4169.696533139631
 20
1011.062325161787
 42
0.4142135623730951
 10
-4174.696533139631
 20
1006.062325161787
 10
-4174.696533139631
 20
906.0623251617798
 42
0.4142135623730951
  0
LINE
  5
52A
330
3A7
100
AcDbEntity
  8
0
100
AcDbLine
 10
-3858.066291748237
 20
1006.136396481226
 30
0.0
 11
-3863.60815763655
 21
1006.136396481226
 31
0.0
  0
LINE
  5
52B
330
3A7
100
AcDbEntity
  8
0
100
AcDbLine
 10
-3931.870267566653
 20
1542.904400673993
 30
0.0
 11
-4065.710425629604
 21
1542.904400673993
 31
0.0
  0
LINE
  5
52C
102
{ACAD_REACTORS
330
525
102
}
330
3A7
100
AcDbEntity
  8
0
100
AcDbLine
 10
-3898.492288835648
 20
1523.56741667202
 30
0.0
 11
-4164.563480725872
 21
1523.567416672027
 31
0.0
  0
LINE
  5
52D
330
3A7
100
AcDbEntity
  8
0
100
AcDbLine
 10
-4175.939254099946
 20
1643.687881439407
 30
0.0
 11
-4340.506595943788
 21
1643.687881439407
 31
0.0
  0
ARC
  5
52E
330
3A7
100
AcDbEntity
  8
0
100
AcDbCircle
 10
-4390.561984138341
 20
1652.237676634911
 30
0.0
 40
18.6957101433645
100
AcDbArc
 50
0.0
 51
180.0
  0
LWPOLYLINE
  5
52F
330
3A7
100
AcDbEntity
  8
0
100
AcDbPolyline
 90
        8
 70
     1
 43
0.0
 10
-4170.939254099951
 20
1538.687881439407
 10
-4070.939254099947
 20
1538.6878814394
 42
0.4142135623730951
 10
-4065.939254099947
 20
1543.6878814394
 10
-4065.939254099947
 20
1643.687881439407
 42
0.4142135623730849
 10
-4070.939254099947
 20
1648.687881439407
 10
-4170.939254099947
 20
1648.687881439407
 42
0.4142135623730951
 10
-4175.939254099946
 20
1643.687881439407
 10
-4175.93925409995
 20
1543.687881439407
 42
0.4142135623730849
  0
LWPOLYLINE
  5
530
330
3A7
100
AcDbEntity
  8
0
100
AcDbPolyline
 90
        8
 70
     1
 43
0.0
 10
-4169.696533139624
 20
1538.172980886425
 10
-4069.696533139624
 20
1538.172980886425
 42
0.4142135623730951
 10
-4064.696533139623
 20
1543.172980886425
 10
-4064.696533139623
 20
1643.172980886425
 42
0.4142135623730951
 10
-4069.696533139624
 20
1648.172980886425
 10
-4169.696533139624
 20
1648.172980886425
 42
0.4142135623730951
 10
-4174.696533139623
 20
1643.172980886425
 10
-4174.696533139623
 20
1543.172980886425
 42
0.4142135623730951
  0
LINE
  5
531
330
3A7
100
AcDbEntity
  8
0
100
AcDbLine
 10
-3858.066291748237
 20
1542.904400673993
 30
0.0
 11
-3867.142495022923
 21
1542.904400673993
 31
0.0
  0
HATCH
  5
532
330
3A7
100
AcDbEntity
  8
0
 62
   150
100
AcDbHatch
 10
0.0
 20
0.0
 30
0.0
210
0.0
220
0.0
230
1.0
  2
SOLID
 70
     1
 71
     0
 91
        2
 92
        7
 72
     0
 73
     1
 93
        4
 10
-1999.048657351431
 20
1006.136396481226
 10
-2928.557474549834
 20
1006.136396481226
 10
-2928.557474549834
 20
1025.473380483199
 10
-1999.048657351431
 20
1025.473380483199
 97
        0
 92
        7
 72
     0
 73
     1
 93
        4
 10
-1999.048657351439
 20
1523.56741667202
 10
-2928.557474549841
 20
1523.56741667202
 10
-2928.557474549834
 20
1542.904400674
 10
-1999.048657351431
 20
1542.904400674007
 97
        0
 75
     0
 76
     1
 47
2.231880503813954
 98
        2
 10
-2372.008224870343
 20
1014.943192274549
 10
-2474.781843541441
 20
1539.435154837505
  0
LINE
  5
533
330
3A7
100
AcDbEntity
  8
0
100
AcDbLine
 10
-2928.557474549841
 20
1006.136396481226
 30
0.0
 11
-2928.557474549841
 21
1025.473380483199
 31
0.0
  0
LINE
  5
534
330
3A7
100
AcDbEntity
  8
0
100
AcDbLine
 10
-2928.557474549841
 20
1542.904400674
 30
0.0
 11
-2928.557474549841
 21
1523.56741667202
 31
0.0
  0
LINE
  5
535
330
3A7
100
AcDbEntity
  8
0
100
AcDbLine
 10
-2163.079625092326
 20
1426.215704110349
 30
0.0
 11
-2133.740752813468
 21
1452.220613630248
 31
0.0
  0
LINE
  5
536
330
3A7
100
AcDbEntity
  8
0
100
AcDbLine
 10
-2175.748683576381
 20
1144.829247254019
 30
0.0
 11
-2183.083401646097
 21
1182.836422706175
 31
0.0
  0
LINE
  5
537
330
3A7
100
AcDbEntity
  8
0
100
AcDbLine
 10
-1999.048657351431
 20
1006.136396481226
 30
0.0
 11
-1999.048657351431
 21
1025.473380483199
 31
0.0
  0
LINE
  5
538
330
3A7
100
AcDbEntity
  8
0
100
AcDbLine
 10
-2158.412077229786
 20
1117.490752630539
 30
0.0
 11
-2175.748683576381
 21
1144.829247254019
 31
0.0
  0
LINE
  5
539
330
3A7
100
AcDbEntity
  8
0
100
AcDbLine
 10
-2133.740752813468
 20
1096.820183524971
 30
0.0
 11
-2158.412077229786
 21
1117.490752630539
 31
0.0
  0
LINE
  5
53A
330
3A7
100
AcDbEntity
  8
0
100
AcDbLine
 10
-2107.069050741785
 20
1081.483954833755
 30
0.0
 11
-2133.740752813468
 21
1096.820183524971
 31
0.0
  0
LINE
  5
53B
330
3A7
100
AcDbEntity
  8
0
100
AcDbLine
 10
-2093.06640715415
 20
1068.148103797903
 30
0.0
 11
-2107.069050741785
 21
1081.483954833755
 31
0.0
  0
LINE
  5
53C
330
3A7
100
AcDbEntity
  8
0
100
AcDbLine
 10
-2085.731689084426
 20
1054.145460210275
 30
0.0
 11
-2093.06640715415
 21
1068.148103797903
 31
0.0
  0
LINE
  5
53D
330
3A7
100
AcDbEntity
  8
0
100
AcDbLine
 10
-2083.064518877257
 20
1038.142438967253
 30
0.0
 11
-2085.731689084426
 21
1054.145460210275
 31
0.0
  0
LINE
  5
53E
330
3A7
100
AcDbEntity
  8
0
100
AcDbLine
 10
-2083.064518877257
 20
1025.473380483199
 30
0.0
 11
-2083.064518877257
 21
1038.142438967253
 31
0.0
  0
LINE
  5
53F
330
3A7
100
AcDbEntity
  8
0
100
AcDbLine
 10
-2184.750383025577
 20
1274.853794853508
 30
0.0
 11
-2183.083401646097
 21
1366.204374449043
 31
0.0
  0
LINE
  5
540
330
3A7
100
AcDbEntity
  8
0
100
AcDbLine
 10
-2183.083401646097
 20
1182.836422706175
 30
0.0
 11
-2184.750383025577
 21
1274.853794853508
 31
0.0
  0
LINE
  5
541
330
3A7
100
AcDbEntity
  8
0
100
AcDbLine
 10
-2177.749061231759
 20
1398.210416935071
 30
0.0
 11
-2163.079625092326
 21
1426.215704110349
 31
0.0
  0
LINE
  5
542
330
3A7
100
AcDbEntity
  8
0
100
AcDbLine
 10
-2183.083401646097
 20
1366.204374449043
 30
0.0
 11
-2177.749061231759
 21
1398.210416935071
 31
0.0
  0
LINE
  5
543
330
3A7
100
AcDbEntity
  8
0
100
AcDbLine
 10
-2083.064518877257
 20
1510.898358187965
 30
0.0
 11
-2083.064518877257
 21
1523.56741667202
 31
0.0
  0
LINE
  5
544
330
3A7
100
AcDbEntity
  8
0
100
AcDbLine
 10
-2086.398481636217
 20
1492.228166737783
 30
0.0
 11
-2083.064518877257
 21
1510.898358187965
 31
0.0
  0
LINE
  5
545
330
3A7
100
AcDbEntity
  8
0
100
AcDbLine
 10
-2095.066784809514
 20
1478.225523150147
 30
0.0
 11
-2086.398481636217
 21
1492.228166737783
 31
0.0
  0
LINE
  5
546
330
3A7
100
AcDbEntity
  8
0
100
AcDbLine
 10
-2107.069050741785
 20
1468.223634873262
 30
0.0
 11
-2095.066784809514
 21
1478.225523150147
 31
0.0
  0
LINE
  5
547
330
3A7
100
AcDbEntity
  8
0
100
AcDbLine
 10
-2133.740752813468
 20
1452.220613630248
 30
0.0
 11
-2107.069050741785
 21
1468.223634873262
 31
0.0
  0
LINE
  5
548
330
3A7
100
AcDbEntity
  8
0
100
AcDbLine
 10
-1999.048657351431
 20
1542.904400674007
 30
0.0
 11
-1999.048657351439
 21
1523.56741667202
 31
0.0
  0
ARC
  5
549
102
{ACAD_REACTORS
330
489
102
}
330
3A7
100
AcDbEntity
  8
0
100
AcDbCircle
 10
-4440.617372332886
 20
2970.173857785303
 30
0.0
 40
21.00396538145651
100
AcDbArc
 50
0.0
 51
180.0
  0
ENDBLK
  5
3A9
330
3A7
100
AcDbEntity
  8
0
100
AcDbBlockEnd
  0
ENDSEC
  0
SECTION
  2
ENTITIES
  0
INSERT
  5
54A
330
1F
100
AcDbEntity
  8
0
100
AcDbBlockReference
  2
ADKY
 10
10555.48411307786
 20
1700.040476636583
 30
0.0
  0
MTEXT
  5
54B
330
1F
100
AcDbEntity
  8
0
100
AcDbMText
 10
1864.940209872049
 20
6860.459237029427
 30
0.0
 40
250.0
 41
11605.02
 71
     1
 72
     5
  1
{\Fisocp.shx;Hoogte: 250cm\PVrije Valhoogte: 215cm}
1001
ACAD
1000
MTEXTBEGIN
1070
    73
1070
     1
1070
    44
1040
1.0
1070
    74
1070
     0
1000
MTEXTEND
  0
ENDSEC
  0
SECTION
  2
OBJECTS
  0
DICTIONARY
  5
C
330
0
100
AcDbDictionary
  3
ACAD_GROUP
350
D
  3
ACAD_LAYOUT
350
1A
  3
ACAD_MLINESTYLE
350
17
  3
ACAD_PLOTSETTINGS
350
19
  3
ACAD_PLOTSTYLENAME
350
E
  3
ACDBHEADERROUNDTRIPXREC
350
54E
  0
DICTIONARY
  5
5D
330
2
100
AcDbDictionary
280
     1
  3
ACAD_LAYERSTATES
360
5E
  0
DICTIONARY
  5
56F
330
1F
100
AcDbDictionary
280
     1
  3
ACAD_LAYOUTSELFREF
360
570
  0
DICTIONARY
  5
571
330
50
100
AcDbDictionary
280
     1
  3
ACAD_LAYOUTSELFREF
360
572
  0
DICTIONARY
  5
D
102
{ACAD_REACTORS
330
C
102
}
330
C
100
AcDbDictionary
  0
DICTIONARY
  5
1A
102
{ACAD_REACTORS
330
C
102
}
330
C
100
AcDbDictionary
  0
DICTIONARY
  5
17
102
{ACAD_REACTORS
330
C
102
}
330
C
100
AcDbDictionary
  3
STANDARD
350
18
  0
DICTIONARY
  5
19
102
{ACAD_REACTORS
330
C
102
}
330
C
100
AcDbDictionary
  0
ACDBDICTIONARYWDFLT
  5
E
102
{ACAD_REACTORS
330
C
102
}
330
C
100
AcDbDictionary
281
     1
  3
Normal
350
F
100
AcDbDictionaryWithDefault
340
F
  0
DICTIONARY
  5
54E
102
{ACAD_REACTORS
330
C
102
}
330
C
100
AcDbDictionary
  3
CEPSNTYPE
350
558
  3
DIMSTYLEDATA
350
55C
  3
FINGERPRINTGUID
350
559
  3
HYPERLINKBASE
350
551
  3
INSUNITS
350
557
  3
LAYOUTDICT
350
553
  3
LWETCUNION
350
556
  3
PLOTSETDICT
350
554
  3
PLOTSTYLNAMDICT
350
555
  3
PSVPSCALE
350
55B
  3
PUCSBASE
350
55F
  3
PUCSORGBACK
350
565
  3
PUCSORGBOTTOM
350
561
  3
PUCSORGFRONT
350
564
  3
PUCSORGLEFT
350
562
  3
PUCSORGRIGHT
350
563
  3
PUCSORGTOP
350
560
  3
PUCSORTHOREF
350
55D
  3
PUCSORTHOVIEW
350
55E
  3
STYLESHEET
350
552
  3
TSTACKALIGN
350
54F
  3
TSTACKSIZE
350
550
  3
UCSBASE
350
568
  3
UCSORGBACK
350
56E
  3
UCSORGBOTTOM
350
56A
  3
UCSORGFRONT
350
56D
  3
UCSORGLEFT
350
56B
  3
UCSORGRIGHT
350
56C
  3
UCSORGTOP
350
569
  3
UCSORTHOREF
350
566
  3
UCSORTHOVIEW
350
567
  3
VERSIONGUID
350
55A
  0
DICTIONARY
  5
5E
102
{ACAD_REACTORS
330
5D
102
}
330
5D
100
AcDbDictionary
  0
XRECORD
  5
570
102
{ACAD_REACTORS
330
56F
102
}
330
56F
100
AcDbXrecord
340
1F
  0
XRECORD
  5
572
102
{ACAD_REACTORS
330
571
102
}
330
571
100
AcDbXrecord
340
50
  0
MLINESTYLE
  5
18
102
{ACAD_REACTORS
330
17
102
}
330
17
100
AcDbMlineStyle
  2
STANDARD
 70
     0
  3

 62
   256
 51
90.0
 52
90.0
 71
     2
 49
0.5
 62
   256
  6
BYLAYER
 49
-0.5
 62
   256
  6
BYLAYER
  0
ACDBPLACEHOLDER
  5
F
102
{ACAD_REACTORS
330
E
102
}
330
E
100
AcDbPlaceHolder
280
     0
  0
XRECORD
  5
558
102
{ACAD_REACTORS
330
54E
102
}
330
54E
100
AcDbXrecord
 90
        0
  0
XRECORD
  5
55C
102
{ACAD_REACTORS
330
54E
102
}
330
54E
100
AcDbXrecord
1000
DSTYLE
1002
{
1070
   278
 70
    44
1002
}
  0
XRECORD
  5
559
102
{ACAD_REACTORS
330
54E
102
}
330
54E
100
AcDbXrecord
  1
{FDEAD578-A652-11D2-9A35-0060089B3A3F}
  0
XRECORD
  5
551
102
{ACAD_REACTORS
330
54E
102
}
330
54E
100
AcDbXrecord
  1

  0
XRECORD
  5
557
102
{ACAD_REACTORS
330
54E
102
}
330
54E
100
AcDbXrecord
 90
        4
  0
XRECORD
  5
553
102
{ACAD_REACTORS
330
54E
102
}
330
54E
100
AcDbXrecord
340
1A
  0
XRECORD
  5
556
102
{ACAD_REACTORS
330
54E
102
}
330
54E
100
AcDbXrecord
 90
    10781
  0
XRECORD
  5
554
102
{ACAD_REACTORS
330
54E
102
}
330
54E
100
AcDbXrecord
340
19
  0
XRECORD
  5
555
102
{ACAD_REACTORS
330
54E
102
}
330
54E
100
AcDbXrecord
340
E
  0
XRECORD
  5
55B
102
{ACAD_REACTORS
330
54E
102
}
330
54E
100
AcDbXrecord
 40
0.0
  0
XRECORD
  5
55F
102
{ACAD_REACTORS
330
54E
102
}
330
54E
100
AcDbXrecord
340
0
  0
XRECORD
  5
565
102
{ACAD_REACTORS
330
54E
102
}
330
54E
100
AcDbXrecord
 10
0.0
 20
0.0
 30
0.0
  0
XRECORD
  5
561
102
{ACAD_REACTORS
330
54E
102
}
330
54E
100
AcDbXrecord
 10
0.0
 20
0.0
 30
0.0
  0
XRECORD
  5
564
102
{ACAD_REACTORS
330
54E
102
}
330
54E
100
AcDbXrecord
 10
0.0
 20
0.0
 30
0.0
  0
XRECORD
  5
562
102
{ACAD_REACTORS
330
54E
102
}
330
54E
100
AcDbXrecord
 10
0.0
 20
0.0
 30
0.0
  0
XRECORD
  5
563
102
{ACAD_REACTORS
330
54E
102
}
330
54E
100
AcDbXrecord
 10
0.0
 20
0.0
 30
0.0
  0
XRECORD
  5
560
102
{ACAD_REACTORS
330
54E
102
}
330
54E
100
AcDbXrecord
 10
0.0
 20
0.0
 30
0.0
  0
XRECORD
  5
55D
102
{ACAD_REACTORS
330
54E
102
}
330
54E
100
AcDbXrecord
340
0
  0
XRECORD
  5
55E
102
{ACAD_REACTORS
330
54E
102
}
330
54E
100
AcDbXrecord
 70
     0
  0
XRECORD
  5
552
102
{ACAD_REACTORS
330
54E
102
}
330
54E
100
AcDbXrecord
  1

  0
XRECORD
  5
54F
102
{ACAD_REACTORS
330
54E
102
}
330
54E
100
AcDbXrecord
 90
        1
  0
XRECORD
  5
550
102
{ACAD_REACTORS
330
54E
102
}
330
54E
100
AcDbXrecord
 90
       70
  0
XRECORD
  5
568
102
{ACAD_REACTORS
330
54E
102
}
330
54E
100
AcDbXrecord
340
0
  0
XRECORD
  5
56E
102
{ACAD_REACTORS
330
54E
102
}
330
54E
100
AcDbXrecord
 10
0.0
 20
0.0
 30
0.0
  0
XRECORD
  5
56A
102
{ACAD_REACTORS
330
54E
102
}
330
54E
100
AcDbXrecord
 10
0.0
 20
0.0
 30
0.0
  0
XRECORD
  5
56D
102
{ACAD_REACTORS
330
54E
102
}
330
54E
100
AcDbXrecord
 10
0.0
 20
0.0
 30
0.0
  0
XRECORD
  5
56B
102
{ACAD_REACTORS
330
54E
102
}
330
54E
100
AcDbXrecord
 10
0.0
 20
0.0
 30
0.0
  0
XRECORD
  5
56C
102
{ACAD_REACTORS
330
54E
102
}
330
54E
100
AcDbXrecord
 10
0.0
 20
0.0
 30
0.0
  0
XRECORD
  5
569
102
{ACAD_REACTORS
330
54E
102
}
330
54E
100
AcDbXrecord
 10
0.0
 20
0.0
 30
0.0
  0
XRECORD
  5
566
102
{ACAD_REACTORS
330
54E
102
}
330
54E
100
AcDbXrecord
340
0
  0
XRECORD
  5
567
102
{ACAD_REACTORS
330
54E
102
}
330
54E
100
AcDbXrecord
 70
     0
  0
XRECORD
  5
55A
102
{ACAD_REACTORS
330
54E
102
}
330
54E
100
AcDbXrecord
  1
{E2190122-EE43-4638-8795-2A0A15BBD955}
  0
ENDSEC
  0
EOF
