  0
SECTION
  2
HEADER
  9
$ACADVER
  1
AC1014
  9
$ACADMAINTVER
 70
     9
  9
$DWGCODEPAGE
  3
ANSI_1252
  9
$INSBASE
 10
0.0
 20
0.0
 30
0.0
  9
$EXTMIN
 10
-293.5585862045463
 20
-371.3732925628592
 30
-0.0000000349181948
  9
$EXTMAX
 10
7514.061870676375
 20
7023.714023934734
 30
0.0000000814935746
  9
$LIMMIN
 10
0.0
 20
0.0
  9
$LIMMAX
 10
420.0
 20
297.0
  9
$ORTHOMODE
 70
     0
  9
$REGENMODE
 70
     1
  9
$FILLMODE
 70
     1
  9
$QTEXTMODE
 70
     0
  9
$MIRRTEXT
 70
     1
  9
$DRAGMODE
 70
     2
  9
$LTSCALE
 40
1.0
  9
$OSMODE
 70
   511
  9
$ATTMODE
 70
     1
  9
$TEXTSIZE
 40
2.5
  9
$TRACEWID
 40
1.0
  9
$TEXTSTYLE
  7
STANDARD
  9
$CLAYER
  8
0
  9
$CELTYPE
  6
BYLAYER
  9
$CECOLOR
 62
   256
  9
$CELTSCALE
 40
1.0
  9
$DELOBJ
 70
     1
  9
$DISPSILH
 70
     0
  9
$DIMSCALE
 40
1.0
  9
$DIMASZ
 40
2.5
  9
$DIMEXO
 40
0.625
  9
$DIMDLI
 40
3.75
  9
$DIMRND
 40
0.0
  9
$DIMDLE
 40
0.0
  9
$DIMEXE
 40
1.25
  9
$DIMTP
 40
0.0
  9
$DIMTM
 40
0.0
  9
$DIMTXT
 40
2.5
  9
$DIMCEN
 40
2.5
  9
$DIMTSZ
 40
0.0
  9
$DIMTOL
 70
     0
  9
$DIMLIM
 70
     0
  9
$DIMTIH
 70
     0
  9
$DIMTOH
 70
     0
  9
$DIMSE1
 70
     0
  9
$DIMSE2
 70
     0
  9
$DIMTAD
 70
     1
  9
$DIMZIN
 70
     8
  9
$DIMBLK
  1

  9
$DIMASO
 70
     1
  9
$DIMSHO
 70
     1
  9
$DIMPOST
  1

  9
$DIMAPOST
  1

  9
$DIMALT
 70
     0
  9
$DIMALTD
 70
     3
  9
$DIMALTF
 40
0.03937007874016
  9
$DIMLFAC
 40
1.0
  9
$DIMTOFL
 70
     1
  9
$DIMTVP
 40
0.0
  9
$DIMTIX
 70
     0
  9
$DIMSOXD
 70
     0
  9
$DIMSAH
 70
     0
  9
$DIMBLK1
  1

  9
$DIMBLK2
  1

  9
$DIMSTYLE
  2
ISO-25
  9
$DIMCLRD
 70
     0
  9
$DIMCLRE
 70
     0
  9
$DIMCLRT
 70
     0
  9
$DIMTFAC
 40
1.0
  9
$DIMGAP
 40
0.625
  9
$DIMJUST
 70
     0
  9
$DIMSD1
 70
     0
  9
$DIMSD2
 70
     0
  9
$DIMTOLJ
 70
     0
  9
$DIMTZIN
 70
     8
  9
$DIMALTZ
 70
     0
  9
$DIMALTTZ
 70
     0
  9
$DIMFIT
 70
     3
  9
$DIMUPT
 70
     0
  9
$DIMUNIT
 70
     2
  9
$DIMDEC
 70
     2
  9
$DIMTDEC
 70
     2
  9
$DIMALTU
 70
     2
  9
$DIMALTTD
 70
     3
  9
$DIMTXSTY
  7
STANDARD
  9
$DIMAUNIT
 70
     0
  9
$LUNITS
 70
     2
  9
$LUPREC
 70
     4
  9
$SKETCHINC
 40
1.0
  9
$FILLETRAD
 40
10.0
  9
$AUNITS
 70
     0
  9
$AUPREC
 70
     0
  9
$MENU
  1
.
  9
$ELEVATION
 40
0.0
  9
$PELEVATION
 40
0.0
  9
$THICKNESS
 40
0.0
  9
$LIMCHECK
 70
     0
  9
$BLIPMODE
 70
     0
  9
$CHAMFERA
 40
10.0
  9
$CHAMFERB
 40
10.0
  9
$CHAMFERC
 40
20.0
  9
$CHAMFERD
 40
0.0
  9
$SKPOLY
 70
     0
  9
$TDCREATE
 40
2453125.635288623
  9
$TDUPDATE
 40
2453186.712557315
  9
$TDINDWG
 40
0.0011769329
  9
$TDUSRTIMER
 40
0.0011769329
  9
$USRTIMER
 70
     1
  9
$ANGBASE
 50
0.0
  9
$ANGDIR
 70
     0
  9
$PDMODE
 70
     0
  9
$PDSIZE
 40
0.0
  9
$PLINEWID
 40
0.0
  9
$COORDS
 70
     2
  9
$SPLFRAME
 70
     0
  9
$SPLINETYPE
 70
     6
  9
$SPLINESEGS
 70
     8
  9
$ATTDIA
 70
     0
  9
$ATTREQ
 70
     1
  9
$HANDLING
 70
-16383
  9
$HANDSEED
  5
3B1
  9
$SURFTAB1
 70
     6
  9
$SURFTAB2
 70
     6
  9
$SURFTYPE
 70
     6
  9
$SURFU
 70
     6
  9
$SURFV
 70
     6
  9
$UCSNAME
  2

  9
$UCSORG
 10
0.0
 20
0.0
 30
0.0
  9
$UCSXDIR
 10
1.0
 20
0.0
 30
0.0
  9
$UCSYDIR
 10
0.0
 20
1.0
 30
0.0
  9
$PUCSNAME
  2

  9
$PUCSORG
 10
0.0
 20
0.0
 30
0.0
  9
$PUCSXDIR
 10
1.0
 20
0.0
 30
0.0
  9
$PUCSYDIR
 10
0.0
 20
1.0
 30
0.0
  9
$USERI1
 70
     0
  9
$USERI2
 70
     0
  9
$USERI3
 70
     0
  9
$USERI4
 70
     0
  9
$USERI5
 70
     0
  9
$USERR1
 40
0.0
  9
$USERR2
 40
0.0
  9
$USERR3
 40
0.0
  9
$USERR4
 40
0.0
  9
$USERR5
 40
0.0
  9
$WORLDVIEW
 70
     1
  9
$SHADEDGE
 70
     3
  9
$SHADEDIF
 70
    70
  9
$TILEMODE
 70
     1
  9
$MAXACTVP
 70
    64
  9
$PINSBASE
 10
0.0
 20
0.0
 30
0.0
  9
$PLIMCHECK
 70
     0
  9
$PEXTMIN
 10
0.0
 20
0.0
 30
0.0
  9
$PEXTMAX
 10
0.0
 20
0.0
 30
0.0
  9
$PLIMMIN
 10
0.0
 20
0.0
  9
$PLIMMAX
 10
12.0
 20
9.0
  9
$UNITMODE
 70
     0
  9
$VISRETAIN
 70
     1
  9
$PLINEGEN
 70
     0
  9
$PSLTSCALE
 70
     1
  9
$TREEDEPTH
 70
  3020
  9
$PICKSTYLE
 70
     0
  9
$CMLSTYLE
  2
STANDARD
  9
$CMLJUST
 70
     0
  9
$CMLSCALE
 40
20.0
  9
$PROXYGRAPHICS
 70
     1
  9
$MEASUREMENT
 70
     1
  0
ENDSEC
  0
SECTION
  2
CLASSES
  0
CLASS
  1
ACDBDICTIONARYWDFLT
  2
AcDbDictionaryWithDefault
  3
AutoCAD 2000
 90
        0
280
     0
281
     0
  0
CLASS
  1
ACDBPLACEHOLDER
  2
AcDbPlaceHolder
  3
AutoCAD 2000
 90
        0
280
     0
281
     0
  0
CLASS
  1
LAYOUT
  2
AcDbLayout
  3
AutoCAD 2000
 90
        0
280
     0
281
     0
  0
CLASS
  1
LONG_TRANSACTION
  2
AcDbLongTransaction
  3
AutoCAD 2000
 90
        0
280
     0
281
     0
  0
CLASS
  1
LWPOLYLINE
  2
AcDbPolyline
  3
AutoCAD 2000
 90
        0
280
     0
281
     1
  0
CLASS
  1
HATCH
  2
AcDbHatch
  3
AutoCAD 2000
 90
        0
280
     0
281
     1
  0
CLASS
  1
XRECORD
  2
AcDbXrecord
  3
AutoCAD 2000
 90
        0
280
     0
281
     0
  0
ENDSEC
  0
SECTION
  2
TABLES
  0
TABLE
  2
VPORT
  5
8
330
0
100
AcDbSymbolTable
 70
     2
  0
VPORT
  5
388
330
8
100
AcDbSymbolTableRecord
100
AcDbViewportTableRecord
  2
*ACTIVE
 70
     0
 10
0.0
 20
0.0
 11
1.0
 21
1.0
 12
3610.251642235914
 22
3326.170365685937
 13
0.0
 23
0.0
 14
10.0
 24
10.0
 15
10.0
 25
10.0
 16
0.0
 26
0.0
 36
1.0
 17
0.0
 27
0.0
 37
0.0
 40
7482.94974005994
 41
1.720238095238095
 42
50.0
 43
0.0
 44
0.0
 50
0.0
 51
0.0
 71
     0
 72
   100
 73
     1
 74
     3
 75
     0
 76
     0
 77
     0
 78
     0
  0
ENDTAB
  0
TABLE
  2
LTYPE
  5
5
330
0
100
AcDbSymbolTable
 70
     1
  0
LTYPE
  5
14
330
5
100
AcDbSymbolTableRecord
100
AcDbLinetypeTableRecord
  2
BYBLOCK
 70
     0
  3

 72
    65
 73
     0
 40
0.0
  0
LTYPE
  5
15
330
5
100
AcDbSymbolTableRecord
100
AcDbLinetypeTableRecord
  2
BYLAYER
 70
     0
  3

 72
    65
 73
     0
 40
0.0
  0
LTYPE
  5
16
330
5
100
AcDbSymbolTableRecord
100
AcDbLinetypeTableRecord
  2
CONTINUOUS
 70
     0
  3
Solid line
 72
    65
 73
     0
 40
0.0
  0
ENDTAB
  0
TABLE
  2
LAYER
  5
2
102
{ACAD_XDICTIONARY
360
5D
102
}
330
0
100
AcDbSymbolTable
 70
     1
  0
LAYER
  5
10
330
2
100
AcDbSymbolTableRecord
100
AcDbLayerTableRecord
  2
0
 70
     0
 62
     7
  6
CONTINUOUS
  0
ENDTAB
  0
TABLE
  2
STYLE
  5
3
330
0
100
AcDbSymbolTable
 70
     1
  0
STYLE
  5
11
330
3
100
AcDbSymbolTableRecord
100
AcDbTextStyleTableRecord
  2
STANDARD
 70
     0
 40
0.0
 41
1.0
 50
0.0
 71
     0
 42
2.5
  3
txt
  4

  0
ENDTAB
  0
TABLE
  2
VIEW
  5
6
330
0
100
AcDbSymbolTable
 70
     0
  0
ENDTAB
  0
TABLE
  2
UCS
  5
7
330
0
100
AcDbSymbolTable
 70
     0
  0
ENDTAB
  0
TABLE
  2
APPID
  5
9
330
0
100
AcDbSymbolTable
 70
     2
  0
APPID
  5
12
330
9
100
AcDbSymbolTableRecord
100
AcDbRegAppTableRecord
  2
ACAD
 70
     0
  0
APPID
  5
3B0
330
9
100
AcDbSymbolTableRecord
100
AcDbRegAppTableRecord
  2
CONTENTBLOCKICON
 70
     0
  0
ENDTAB
  0
TABLE
  2
DIMSTYLE
  5
A
330
0
100
AcDbSymbolTable
 70
     1
  0
DIMSTYLE
105
27
330
A
100
AcDbSymbolTableRecord
100
AcDbDimStyleTableRecord
  2
ISO-25
 70
     0
  3

  4

  5

  6

  7

 40
1.0
 41
2.5
 42
0.625
 43
3.75
 44
1.25
 45
0.0
 46
0.0
 47
0.0
 48
0.0
140
2.5
141
2.5
142
0.0
143
0.03937007874016
144
1.0
145
0.0
146
1.0
147
0.625
 71
     0
 72
     0
 73
     0
 74
     0
 75
     0
 76
     0
 77
     1
 78
     8
170
     0
171
     3
172
     1
173
     0
174
     0
175
     0
176
     0
177
     0
178
     0
270
     2
271
     2
272
     2
273
     2
274
     3
340
11
275
     0
280
     0
281
     0
282
     0
283
     0
284
     8
285
     0
286
     0
287
     3
288
     0
  0
ENDTAB
  0
TABLE
  2
BLOCK_RECORD
  5
1
330
0
100
AcDbSymbolTable
 70
     2
  0
BLOCK_RECORD
  5
1F
102
{ACAD_XDICTIONARY
360
3AA
102
}
330
1
100
AcDbSymbolTableRecord
100
AcDbBlockTableRecord
  2
*MODEL_SPACE
  0
BLOCK_RECORD
  5
50
102
{ACAD_XDICTIONARY
360
3AC
102
}
330
1
100
AcDbSymbolTableRecord
100
AcDbBlockTableRecord
  2
*PAPER_SPACE
  0
BLOCK_RECORD
  5
279
330
1
100
AcDbSymbolTableRecord
100
AcDbBlockTableRecord
  2
ADKX
1001
ACAD
1000
DesignCenter Data
1002
{
1070
     1
1070
     4
1002
}
1001
CONTENTBLOCKICON
1071
        0
1004
2800000020000000200000000100080000000000000400000000000000000000000000000000000000000000000080000080000000808000800000008000800080800000C0C0C000C0DCC000F0CAA6000020400000206000002080000020A0000020C0000020E00000400000004020000040400000406000004080000040A0
1004
000040C0000040E00000600000006020000060400000606000006080000060A0000060C0000060E00000800000008020000080400000806000008080000080A0000080C0000080E00000A0000000A0200000A0400000A0600000A0800000A0A00000A0C00000A0E00000C0000000C0200000C0400000C0600000C0800000C0
1004
A00000C0C00000C0E00000E0000000E0200000E0400000E0600000E0800000E0A00000E0C00000E0E00040000000400020004000400040006000400080004000A0004000C0004000E00040200000402020004020400040206000402080004020A0004020C0004020E000404000004040200040404000404060004040800040
1004
40A0004040C0004040E00040600000406020004060400040606000406080004060A0004060C0004060E00040800000408020004080400040806000408080004080A0004080C0004080E00040A0000040A0200040A0400040A0600040A0800040A0A00040A0C00040A0E00040C0000040C0200040C0400040C0600040C08000
1004
40C0A00040C0C00040C0E00040E0000040E0200040E0400040E0600040E0800040E0A00040E0C00040E0E00080000000800020008000400080006000800080008000A0008000C0008000E00080200000802020008020400080206000802080008020A0008020C0008020E00080400000804020008040400080406000804080
1004
008040A0008040C0008040E00080600000806020008060400080606000806080008060A0008060C0008060E00080800000808020008080400080806000808080008080A0008080C0008080E00080A0000080A0200080A0400080A0600080A0800080A0A00080A0C00080A0E00080C0000080C0200080C0400080C0600080C0
1004
800080C0A00080C0C00080C0E00080E0000080E0200080E0400080E0600080E0800080E0A00080E0C00080E0E000C0000000C0002000C0004000C0006000C0008000C000A000C000C000C000E000C0200000C0202000C0204000C0206000C0208000C020A000C020C000C020E000C0400000C0402000C0404000C0406000C0
1004
408000C040A000C040C000C040E000C0600000C0602000C0604000C0606000C0608000C060A000C060C000C060E000C0800000C0802000C0804000C0806000C0808000C080A000C080C000C080E000C0A00000C0A02000C0A04000C0A06000C0A08000C0A0A000C0A0C000C0A0E000C0C00000C0C02000C0C04000C0C06000
1004
C0C08000C0C0A000F0FBFF00A4A0A000808080000000FF0000FF000000FFFF00FF000000FF00FF00FFFF0000FFFFFF00FFFFFFFFFFFFFFFFFFFFFFFFFFFFFFFFFFFFFFFFFFFFFFFFFFFFFFFFFFFFFFFFFFFFFFFFFFFFFFFFFFFFFFFFFFFFFFFFFFFFFFFFFFFFFFFFFFFFFFFFFFFFFFFFFFFFFFFFFFFFFFFFFFFFFFFF000000
1004
00000000000000FFFFFFFFFFFFFFFFFFFFFFFFFFFFFFFFFFFFFFFF0000FFFFFFFFFFFFFFFFFFFF00000000FFFFFFFFFFFFFFFFFFFFFFFFFFFF0000FFFFFFFFFFFFFFFFFFFFFFFFFFFFFFFF00FFFFFFFFFFFFFFFFFFFFFF0000FFFFFFFFFFFFFFFFFFFFFFFFFFFFFFFFFFFFFF00FFFFFFFFFFFFFFFFFFFF00FFFFFFFFFFFFFF
1004
FFFFFFFFFFFFFFFFFFFFFFFFFF00FFFFFFFFFFFFFFFFFF00FFFFFFFFFFFFFFFFFFFFFFFFFFFFFFFFFFFFFFFFFFFF00FFFFFFFFFFFFFFFF00FFFFFFFFFFFFFFFFFFFFFFFFFFFFFFFFFFFFFFFFFFFFFF00FFFFFFFFFFFF00FFFFFFFFFFFFFFFFFFFFFFFFFFFFFFFFFFFFFFFFFFFFFFFF00FFFFFFFFFFFF00FFFFFFFFFFFFFF00
1004
FBFFFFFFFFFFFFFF0000FFFFFFFFFFFF00FFFFFFFFFFFF00FFFFFFFFFFFFFFFFFBFBFFFFFFFFFF0000FFFFFFFFFFFFFF00FFFFFFFFFFFF00FFFFFFFFFFFFFFFFFFFFFB00000000FFFFFFFFFFFFFFFFFF00FFFFFFFFFF00FFFFFFFFFFFFFFFFFFFFFFFF0000FFFFFFFFFFFFFFFFFFFFFFFF00FFFFFFFF00FFFFFFFFFFFFFFFF
1004
FFFFFFFFFF00FFFFFFFFFFFFFFFFFFFFFFFF00FFFFFFFF00FFFFFFFFFFFFFFFFFFFFFFFFFF00FFFFFFFFFFFFFFFFFFFFFFFF00FFFFFF00FFFFFFFFFFFFFFFFFFFFFFFFFFFF00FFFFFFFFFFFFFFFFFFFFFFFF00FFFFFF00FFFFFFFFFFFFFFFFFFFFFFFFFFFF00FFFFFFFFFF0000FFFFFFFFFF00FFFFFF00FFFFFFFFFFFFFFFF
1004
FFFFFFFFFFFF00FFFFFF00000000FFFFFFFFFF00FFFF00FFFFFFFFFF000000000000000000000000000000000000FFFFFFFFFF00FFFF00FFFFFFFFFFFF00FF0000000000000000FF000000000000FFFFFFFFFF00FFFF00FFFFFFFFFF00000000000000000000003C000000000000FFFFFFFFFF00FFFFFF00FFFFFFFFFFFFFF
1004
FFFFFFFFFFFFFF0000000000FF0000FFFFFFFFFF00FFFFFF00FFFFFFFFFFFFFFFFFFFFFFFFFFFFFFFFFFFFFF000000FFFFFFFFFF00FFFFFF00FFFFFFFFFFFFFFFFFFFFFFFFFFFFFFFFFFFFFFFFFFFFFFFFFFFF00FFFFFFFF00FFFFFFFFFFFFFFFFFFFFFFFFFFFFFFFFFFFFFFFFFFFFFFFFFFFF00FFFFFFFFFF0000FFFFFFFF
1004
FFFFFFFFFFFFFFFFFFFFFFFFFFFFFFFFFFFFFFFF00FFFFFFFFFFFFFF000000000000FFFFFFFFFFFFFFFFFFFFFFFFFFFFFFFFFF00FFFFFFFFFFFFFFFFFFFFFFFFFFFF0000000000000000FFFFFFFFFFFF000000FFFFFFFFFFFFFFFFFFFFFFFFFFFFFFFFFFFFFFFFFFFFFF000000000000FFFFFFFFFFFFFFFFFFFFFFFFFFFFFF
1004
FFFFFFFFFFFFFFFFFFFFFFFFFFFFFFFFFFFFFFFFFFFFFFFFFFFFFFFFFFFFFFFFFFFFFFFFFFFFFFFFFFFFFFFFFFFFFFFFFFFFFFFFFFFFFFFF
  0
ENDTAB
  0
ENDSEC
  0
SECTION
  2
BLOCKS
  0
BLOCK
  5
20
330
1F
100
AcDbEntity
  8
0
100
AcDbBlockBegin
  2
*MODEL_SPACE
 70
     0
 10
0.0
 20
0.0
 30
0.0
  3
*MODEL_SPACE
  1

  0
ENDBLK
  5
21
330
1F
100
AcDbEntity
  8
0
100
AcDbBlockEnd
  0
BLOCK
  5
52
330
50
100
AcDbEntity
 67
     1
  8
0
100
AcDbBlockBegin
  2
*PAPER_SPACE
 70
     0
 10
0.0
 20
0.0
 30
0.0
  3
*PAPER_SPACE
  1

  0
ENDBLK
  5
53
330
50
100
AcDbEntity
 67
     1
  8
0
100
AcDbBlockEnd
  0
BLOCK
  5
27A
330
279
100
AcDbEntity
  8
0
100
AcDbBlockBegin
  2
ADKX
 70
     0
 10
0.0
 20
0.0
 30
0.0
  3
ADKX
  1

  0
LWPOLYLINE
  5
27C
330
279
100
AcDbEntity
  8
0
100
AcDbPolyline
 90
       12
 70
     1
 43
0.0
 10
2748.103236804318
 20
-3869.990311525707
 42
-0.3154580927336222
 10
915.3163964589319
 20
-2585.867475766059
 10
67.45101733320438
 20
-252.1690210084566
 42
-0.0873426639852836
 10
-22.71295163188303
 20
260.0441822533535
 10
-22.71295163188303
 20
987.8616300539611
 42
-0.392194583381847
 10
1363.758301814853
 20
2483.559200990697
 10
5550.97006818404
 20
2801.383414004063
 42
-0.4365807940020165
 10
7164.498814737306
 20
1305.68584306733
 10
7164.498814737306
 20
-65.35891583956299
 42
-0.0270737838626246
 10
7155.71581787824
 20
-227.4448484289318
 10
6948.843703630252
 20
-2130.702023891885
 42
-0.3828464130841605
 10
5010.261599547032
 20
-3869.990311525707
  0
HATCH
  5
27D
330
279
100
AcDbEntity
  8
0
 62
    30
100
AcDbHatch
 10
0.0
 20
0.0
 30
0.0
210
0.0
220
0.0
230
1.0
  2
SOLID
 70
     1
 71
     1
 91
        2
 92
        7
 72
     1
 73
     1
 93
        8
 10
5105.466557295053
 20
-1990.073026198028
 42
0.4142135623734025
 10
5107.300082125327
 20
-1983.243810525865
 42
0.0
 10
5057.343173706462
 20
-1896.616405501668
 42
0.4142135623730815
 10
5050.513958034305
 20
-1894.7828806714
 42
0.0
 10
4963.886553010098
 20
-1944.73978909027
 42
0.4142135623730085
 10
4962.05302817983
 20
-1951.569004762419
 42
0.0
 10
5012.009936598686
 20
-2038.196409786632
 42
0.4142135623731097
 10
5018.839152270842
 20
-2040.0299346169
 42
0.0
 97
        1
330
2E0
 92
        7
 72
     1
 73
     1
 93
        8
 10
2704.904682713075
 20
-1894.813240122831
 42
0.414213562373094
 10
2698.067120163665
 20
-1896.615388391667
 42
0.0
 10
2647.712977357912
 20
-1983.012496574164
 42
0.4142135623730649
 10
2649.515125626748
 20
-1989.850059123572
 42
0.0
 10
2735.912233809249
 20
-2040.20420192933
 42
0.4142135623731389
 10
2742.749796358657
 20
-2038.402053660494
 42
0.0
 10
2793.103939164407
 20
-1952.004945477986
 42
0.414213562373097
 10
2791.301790895571
 20
-1945.167382928579
 42
0.0
 97
        1
330
28B
 75
     0
 76
     1
 47
3.623270268543325
 98
        2
 10
5017.046788969083
 20
-2006.490374840629
 10
2728.377829924639
 20
-1952.141290124921
  0
LWPOLYLINE
  5
27E
330
279
100
AcDbEntity
  8
0
100
AcDbPolyline
 90
        6
 70
     0
 43
0.0
 10
2768.955052357653
 20
-1918.296675649988
 10
2800.68831735898
 20
-1862.523058374929
 42
-0.1240875912408807
 10
2874.946812707209
 20
-1788.2645630267
 10
3645.717472453054
 20
-1342.713590937325
 42
-0.1233823300365213
 10
3747.077608439321
 20
-1315.611950299288
 10
3810.932028348665
 20
-1315.611950299288
  0
LWPOLYLINE
  5
27F
330
279
100
AcDbEntity
  8
0
100
AcDbPolyline
 90
        6
 70
     0
 43
0.0
 10
2739.274787410474
 20
-1901.409628352456
 10
2771.180444159172
 20
-1845.333019521386
 42
-0.1247293581332155
 10
2857.652689608387
 20
-1758.818688498337
 10
3628.874620769571
 20
-1313.006854873507
 42
-0.1239769402989771
 10
3746.818654066641
 20
-1281.46388309537
 10
3810.932028348665
 20
-1281.46388309537
  0
HATCH
  5
280
330
279
100
AcDbEntity
  8
0
 62
    50
100
AcDbHatch
 10
0.0
 20
0.0
 30
0.0
210
0.0
220
0.0
230
1.0
  2
SOLID
 70
     1
 71
     0
 91
        2
 92
        7
 72
     1
 73
     1
 93
       12
 10
4954.726715270524
 20
-1862.523058375213
 42
0.0
 10
4986.45998027169
 20
-1918.296675649988
 42
0.0
 10
5015.819038524983
 20
-1900.84508325412
 42
0.0
 10
4984.234588470302
 20
-1845.333019521633
 42
0.1247293581332318
 10
4897.762343021174
 20
-1758.818688498468
 42
0.0
 10
4126.540411860092
 20
-1313.006854873711
 42
0.1239769402993836
 10
4008.596378562686
 20
-1281.46388309537
 42
0.0
 10
3944.483004280648
 20
-1281.46388309537
 42
0.0
 10
3944.483004280648
 20
-1315.611950299288
 42
0.0
 10
4008.33742418992
 20
-1315.611950299288
 42
-0.1233823300362473
 10
4109.697560175997
 20
-1342.713590937165
 42
0.0
 10
4880.468219921945
 20
-1788.264563026591
 42
-0.1240875912415202
 97
        0
 92
        7
 72
     1
 73
     1
 93
       12
 10
2857.65268960814
 20
-1758.818688498468
 42
0.1247293581328367
 10
2771.180444159216
 20
-1845.333019521306
 42
0.0
 10
2739.274787410459
 20
-1901.409628352463
 42
0.0
 10
2768.955052357624
 20
-1918.296675649981
 42
0.0
 10
2800.688317358907
 20
-1862.523058375053
 42
-0.124087591241307
 10
2874.946812707398
 20
-1788.264563026591
 42
0.0
 10
3645.717472452996
 20
-1342.713590937368
 42
-0.1233823300367372
 10
3747.077608439437
 20
-1315.611950299288
 42
0.0
 10
3810.932028348665
 20
-1315.611950299288
 42
0.0
 10
3810.896229235272
 20
-1281.46388309537
 42
0.0
 10
3746.818654066656
 20
-1281.46388309537
 42
0.1239769402991774
 10
3628.874620769412
 20
-1313.006854873594
 42
0.0
 97
        0
 75
     0
 76
     1
 47
6.578508944040135
 98
        2
 10
4917.964234574413
 20
-1798.958719373506
 10
3186.011508344285
 20
-1575.289383812727
  0
HATCH
  5
281
330
279
100
AcDbEntity
  8
0
 62
    50
100
AcDbHatch
 10
0.0
 20
0.0
 30
0.0
210
0.0
220
0.0
230
1.0
  2
SOLID
 70
     1
 71
     0
 91
        1
 92
        7
 72
     0
 73
     1
 93
        4
 10
3591.228389296017
 20
859.9740789131969
 10
3556.592245468424
 20
859.9740789131969
 10
3556.592245468424
 20
364.3644755913042
 10
3591.228389296017
 20
364.3644755913042
 97
        0
 75
     0
 76
     1
 47
1.950875136170907
 98
        1
 10
3584.147767698369
 20
437.1838843882938
  0
HATCH
  5
282
330
279
100
AcDbEntity
  8
0
 62
   150
100
AcDbHatch
 10
0.0
 20
0.0
 30
0.0
210
0.0
220
0.0
230
1.0
  2
SOLID
 70
     1
 71
     0
 91
        2
 92
        7
 72
     1
 73
     1
 93
        4
 10
3598.518605545227
 20
877.5350986918125
 42
0.0
 10
3549.236743700551
 20
877.5350986918125
 42
0.2009685438464969
 10
3556.592245468439
 20
859.9740789131969
 42
0.0
 10
3591.163103777354
 20
859.9740789131969
 42
0.2009685438464102
 97
        0
 92
        7
 72
     1
 73
     1
 93
        4
 10
3591.228389295988
 20
364.3644755913042
 42
0.0
 10
3556.592245468439
 20
364.3644755913042
 42
0.2004846722166156
 10
3549.269386459875
 20
346.8356461407015
 42
0.0
 10
3598.551248304552
 20
346.8356461407015
 42
0.200484672216724
 97
        0
 75
     0
 76
     1
 47
1.950875136170907
 98
        2
 10
3566.571571305647
 20
866.3764159202905
 10
3564.618665103864
 20
353.2962561013623
  0
LINE
  5
283
330
279
100
AcDbEntity
  8
0
100
AcDbLine
 10
3556.592245468439
 20
859.9740789131969
 30
0.0
 11
3591.163103777354
 21
859.9740789131969
 31
0.0
  0
LINE
  5
284
330
279
100
AcDbEntity
  8
0
100
AcDbLine
 10
3591.228389296017
 20
346.8356461407015
 30
0.0
 11
3556.592245468439
 21
346.8356461407015
 31
0.0
  0
LINE
  5
285
330
279
100
AcDbEntity
  8
0
100
AcDbLine
 10
3556.592245468439
 20
364.3644755913042
 30
0.0
 11
3591.228389296002
 21
364.3644755913042
 31
0.0
  0
LINE
  5
286
330
279
100
AcDbEntity
  8
0
100
AcDbLine
 10
3928.780634922156
 20
977.5699227347136
 30
0.0
 11
1495.58065011398
 21
977.5699227347136
 31
0.0
  0
LINE
  5
287
102
{ACAD_REACTORS
330
2F2
102
}
330
279
100
AcDbEntity
  8
0
100
AcDbLine
 10
1495.58065011398
 20
877.5350986918125
 30
0.0
 11
3928.780634922156
 21
877.5350986918125
 31
0.0
  0
LINE
  5
288
102
{ACAD_REACTORS
330
2F2
102
}
330
279
100
AcDbEntity
  8
0
100
AcDbLine
 10
1495.58065011398
 20
346.8356461407015
 30
0.0
 11
3928.780634922156
 21
346.8356461407015
 31
0.0
  0
LINE
  5
289
102
{ACAD_REACTORS
330
2D5
102
}
330
279
100
AcDbEntity
  8
0
100
AcDbLine
 10
1495.58065011398
 20
246.8008220978004
 30
0.0
 11
3928.780634922156
 21
246.8008220978004
 31
0.0
  0
HATCH
  5
28A
330
279
100
AcDbEntity
  8
0
 62
   250
100
AcDbHatch
 10
0.0
 20
0.0
 30
0.0
210
0.0
220
0.0
230
1.0
  2
SOLID
 70
     1
 71
     0
 91
        2
 92
        7
 72
     0
 73
     1
 93
        4
 10
3928.780634922156
 20
977.5699227347136
 10
1495.580650113984
 20
977.5699227347208
 10
1495.58065011398
 20
877.5350986918125
 10
3928.780634922152
 20
877.5350986918052
 97
        0
 92
        7
 72
     0
 73
     1
 93
        4
 10
3928.780634922159
 20
346.8356461407015
 10
1495.58065011398
 20
346.8356461407052
 10
1495.58065011398
 20
246.8008220978004
 10
3928.780634922152
 20
246.8008220978004
 97
        0
 75
     0
 76
     1
 47
8.300017189956793
 98
        4
 10
3090.755735288089
 20
933.9030972128744
 10
3057.521022369101
 20
352.9017586887998
 10
3398.176739681343
 20
892.402961071442
 10
3348.324850516923
 20
294.8016437515975
  0
LWPOLYLINE
  5
28B
102
{ACAD_REACTORS
330
27D
102
}
330
279
100
AcDbEntity
  8
0
100
AcDbPolyline
 90
        8
 70
     1
 43
0.0
 10
2791.301790895572
 20
-1945.167382928579
 10
2704.904682713072
 20
-1894.813240122829
 42
0.4142135623730951
 10
2698.067120163663
 20
-1896.615388391671
 10
2647.712977357913
 20
-1983.012496574163
 42
0.4142135623731003
 10
2649.515125626747
 20
-1989.850059123572
 10
2735.912233809248
 20
-2040.20420192933
 42
0.4142135623731053
 10
2742.749796358656
 20
-2038.402053660495
 10
2793.103939164407
 20
-1952.004945477987
 42
0.4142135623730951
  0
ARC
  5
28C
330
279
100
AcDbEntity
  8
0
100
AcDbCircle
 10
2744.858937644143
 20
-1925.398864654911
 30
0.0
 40
25.01742560929995
100
AcDbArc
 50
102.2903901740068
 51
135.1646039804289
  0
ARC
  5
28D
330
279
100
AcDbEntity
  8
0
100
AcDbCircle
 10
2744.858937644143
 20
-1925.398864654911
 30
0.0
 40
25.01742560929995
100
AcDbArc
 50
344.3662422396856
 51
16.66924803545716
  0
LINE
  5
28E
330
279
100
AcDbEntity
  8
0
100
AcDbLine
 10
2739.274787410474
 20
-1901.409628352456
 30
0.0
 11
2768.955052357653
 21
-1918.296675649988
 31
0.0
  0
HATCH
  5
28F
330
279
100
AcDbEntity
  8
0
 62
    50
100
AcDbHatch
 10
0.0
 20
0.0
 30
0.0
210
0.0
220
0.0
230
1.0
  2
SOLID
 70
     1
 71
     0
 91
        1
 92
        7
 72
     0
 73
     1
 93
        4
 10
2113.875859221275
 20
859.9740789131969
 10
2079.239715393697
 20
859.9740789131969
 10
2079.239715393697
 20
364.3644755912896
 10
2113.87585922126
 20
364.3644755913187
 97
        0
 75
     0
 76
     1
 47
1.950875136170907
 98
        1
 10
2106.795237623655
 20
437.1838843882938
  0
HATCH
  5
290
330
279
100
AcDbEntity
  8
0
 62
   150
100
AcDbHatch
 10
0.0
 20
0.0
 30
0.0
210
0.0
220
0.0
230
1.0
  2
SOLID
 70
     1
 71
     0
 91
        2
 92
        7
 72
     1
 73
     1
 93
        4
 10
2121.166075470485
 20
877.5350986918125
 42
0.0
 10
2071.884213625837
 20
877.5350986918125
 42
0.2009685438464969
 10
2079.239715393711
 20
859.9740789131969
 42
0.0
 10
2113.810573702625
 20
859.9740789131969
 42
0.2009685438464102
 97
        0
 92
        7
 72
     1
 73
     1
 93
        4
 10
2113.875859221275
 20
364.3644755913042
 42
0.0
 10
2079.239715393697
 20
364.3644755913042
 42
0.2004846722166156
 10
2071.916856385162
 20
346.8356461407015
 42
0.0
 10
2121.198718229824
 20
346.8356461407015
 42
0.200484672216724
 97
        0
 75
     0
 76
     1
 47
1.950875136170907
 98
        2
 10
2089.219041230919
 20
866.3764159202905
 10
2087.266135029122
 20
353.2962561013623
  0
LINE
  5
291
330
279
100
AcDbEntity
  8
0
100
AcDbLine
 10
2079.239715393697
 20
859.9740789131825
 30
0.0
 11
2079.239715393697
 21
364.3644755913042
 31
0.0
  0
LINE
  5
292
330
279
100
AcDbEntity
  8
0
100
AcDbLine
 10
2113.875859221275
 20
860.0385796937258
 30
0.0
 11
2113.875859221275
 21
364.3644755913042
 31
0.0
  0
HATCH
  5
293
330
279
100
AcDbEntity
  8
0
 62
    50
100
AcDbHatch
 10
0.0
 20
0.0
 30
0.0
210
0.0
220
0.0
230
1.0
  2
SOLID
 70
     1
 71
     0
 91
        1
 92
        7
 72
     0
 73
     1
 93
        4
 10
1621.425015863037
 20
859.9740789131969
 10
1586.788872035444
 20
859.9740789131969
 10
1586.788872035459
 20
364.3644755912896
 10
1621.425015863023
 20
364.3644755913042
 97
        0
 75
     0
 76
     1
 47
1.950875136170907
 98
        1
 10
1614.344394265403
 20
437.1838843882938
  0
HATCH
  5
294
330
279
100
AcDbEntity
  8
0
 62
   150
100
AcDbHatch
 10
0.0
 20
0.0
 30
0.0
210
0.0
220
0.0
230
1.0
  2
SOLID
 70
     1
 71
     0
 91
        2
 92
        7
 72
     1
 73
     1
 93
        4
 10
1621.359730344388
 20
859.9740789131969
 42
0.2009685438464102
 10
1628.715232112247
 20
877.5350986918125
 42
0.0
 10
1579.4333702676
 20
877.5350986918125
 42
0.2009685438464648
 10
1586.788872035459
 20
859.9740789131969
 42
0.0
 97
        0
 92
        7
 72
     1
 73
     1
 93
        4
 10
1628.747874871572
 20
346.8356461407015
 42
0.200484672216692
 10
1621.425015863037
 20
364.3644755913042
 42
0.0
 10
1586.788872035459
 20
364.3644755913042
 42
0.2004846722165835
 10
1579.466013026924
 20
346.8356461407015
 42
0.0
 97
        0
 75
     0
 76
     1
 47
1.950875136170907
 98
        2
 10
1596.768197872682
 20
866.3764159202905
 10
1594.815291670884
 20
353.2962561013623
  0
LINE
  5
295
330
279
100
AcDbEntity
  8
0
 62
   250
100
AcDbLine
 10
1586.788872035459
 20
859.9740789131825
 30
0.0
 11
1586.788872035459
 21
364.3644755913042
 31
0.0
  0
LINE
  5
296
330
279
100
AcDbEntity
  8
0
 62
   250
100
AcDbLine
 10
1621.425015863037
 20
860.0385796937258
 30
0.0
 11
1621.425015863037
 21
364.3644755913042
 31
0.0
  0
HATCH
  5
297
330
279
100
AcDbEntity
  8
0
 62
    30
100
AcDbHatch
 10
0.0
 20
0.0
 30
0.0
210
0.0
220
0.0
230
1.0
  2
SOLID
 70
     1
 71
     0
 91
        4
 92
        7
 72
     0
 73
     1
 93
        4
 10
1495.580650113965
 20
982.7187739722207
 10
1476.456345517543
 20
982.7187739722207
 10
1476.456345517543
 20
872.7540225426997
 10
1495.58065011398
 20
872.7540225426997
 97
        0
 92
        7
 72
     0
 73
     1
 93
        4
 10
1476.456345517543
 20
982.7187739722207
 10
1456.596490744332
 20
982.7187739722207
 10
1456.596490744332
 20
872.7540225426997
 10
1476.456345517543
 20
872.7540225426997
 97
        0
 92
        7
 72
     0
 73
     1
 93
        4
 10
1495.580650113965
 20
351.9844973781942
 10
1476.456345517543
 20
351.9844973782087
 10
1476.456345517543
 20
242.0197459487021
 10
1495.58065011398
 20
242.0197459486876
 97
        0
 92
        7
 72
     0
 73
     1
 93
        4
 10
1476.456345517543
 20
351.9844973782087
 10
1456.596490744332
 20
351.9844973781942
 10
1456.596490744332
 20
242.0197459486876
 10
1476.456345517543
 20
242.0197459486876
 97
        0
 75
     0
 76
     1
 47
2.339559730848378
 98
        4
 10
1491.080305508838
 20
914.7445602297443
 10
1467.660406458052
 20
912.4050848386028
 10
1484.054428950278
 20
280.7237516634409
 10
1465.318447605218
 20
283.0633900160678
  0
LINE
  5
298
330
279
100
AcDbEntity
  8
0
 62
   250
100
AcDbLine
 10
1621.425015863037
 20
346.8356461407015
 30
0.0
 11
1586.788872035459
 21
346.8356461407015
 31
0.0
  0
LINE
  5
299
330
279
100
AcDbEntity
  8
0
 62
   250
100
AcDbLine
 10
1586.788872035459
 20
364.3644755913042
 30
0.0
 11
1621.425015863037
 21
364.3644755913042
 31
0.0
  0
LWPOLYLINE
  5
29A
330
279
100
AcDbEntity
  8
0
100
AcDbPolyline
 90
        4
 70
     1
 43
0.0
 10
1495.58065011398
 20
242.0197459486876
 10
1476.456345517543
 20
242.0197459486876
 10
1476.456345517543
 20
351.9844973782087
 10
1495.58065011398
 20
351.9844973782087
  0
LWPOLYLINE
  5
29B
330
279
100
AcDbEntity
  8
0
100
AcDbPolyline
 90
        4
 70
     1
 43
0.0
 10
1476.456345517543
 20
351.9844973782087
 10
1456.596490744332
 20
351.9844973782087
 10
1456.596490744332
 20
242.0197459486876
 10
1476.456345517543
 20
242.0197459486876
  0
ARC
  5
29C
330
279
100
AcDbEntity
  8
0
 62
   250
100
AcDbCircle
 10
1604.106943949248
 20
346.8356461407015
 30
0.0
 40
24.64093092233088
100
AcDbArc
 50
134.6534736332982
 51
180.0
  0
ARC
  5
29D
330
279
100
AcDbEntity
  8
0
 62
   250
100
AcDbCircle
 10
1604.106943949248
 20
346.8356461407015
 30
0.0
 40
24.64093092233088
100
AcDbArc
 50
0.0
 51
45.34652636670176
  0
LINE
  5
29E
330
279
100
AcDbEntity
  8
0
100
AcDbLine
 10
2113.875859221275
 20
346.8356461407015
 30
0.0
 11
2079.239715393697
 21
346.8356461407015
 31
0.0
  0
LINE
  5
29F
330
279
100
AcDbEntity
  8
0
100
AcDbLine
 10
2079.239715393697
 20
364.3644755913042
 30
0.0
 11
2113.875859221275
 21
364.3644755913042
 31
0.0
  0
ARC
  5
2A0
330
279
100
AcDbEntity
  8
0
100
AcDbCircle
 10
2096.557787307486
 20
346.8356461407015
 30
0.0
 40
24.64093092233088
100
AcDbArc
 50
134.6534736332982
 51
180.0
  0
ARC
  5
2A1
330
279
100
AcDbEntity
  8
0
100
AcDbCircle
 10
2096.557787307486
 20
346.8356461407015
 30
0.0
 40
24.64093092233088
100
AcDbArc
 50
0.0
 51
45.34652636670176
  0
LINE
  5
2A2
330
279
100
AcDbEntity
  8
0
 62
   250
100
AcDbLine
 10
1586.788872035459
 20
859.9740789131969
 30
0.0
 11
1621.359730344388
 21
859.9740789131969
 31
0.0
  0
LWPOLYLINE
  5
2A3
330
279
100
AcDbEntity
  8
0
100
AcDbPolyline
 90
        4
 70
     1
 43
0.0
 10
1476.456345517543
 20
982.7187739722207
 10
1456.596490744332
 20
982.7187739722207
 10
1456.596490744332
 20
872.7540225426997
 10
1476.456345517543
 20
872.7540225426997
  0
LWPOLYLINE
  5
2A4
330
279
100
AcDbEntity
  8
0
100
AcDbPolyline
 90
        4
 70
     1
 43
0.0
 10
1495.58065011398
 20
872.7540225426997
 10
1476.456345517543
 20
872.7540225426997
 10
1476.456345517543
 20
982.7187739722207
 10
1495.58065011398
 20
982.7187739722207
  0
ARC
  5
2A5
330
279
100
AcDbEntity
  8
0
 62
   250
100
AcDbCircle
 10
1604.074301189923
 20
877.5350986918125
 30
0.0
 40
24.64093092233088
100
AcDbArc
 50
180.0
 51
225.4531265288126
  0
LINE
  5
2A6
330
279
100
AcDbEntity
  8
0
 62
   250
100
AcDbLine
 10
1621.359730344388
 20
859.9740789131969
 30
0.0
 11
1621.425015863037
 21
859.9740789131969
 31
0.0
  0
ARC
  5
2A7
330
279
100
AcDbEntity
  8
0
 62
   250
100
AcDbCircle
 10
1604.074301189923
 20
877.5350986918125
 30
0.0
 40
24.64093092233088
100
AcDbArc
 50
314.5468734711873
 51
0.0
  0
LINE
  5
2A8
330
279
100
AcDbEntity
  8
0
100
AcDbLine
 10
2079.239715393697
 20
859.9740789131969
 30
0.0
 11
2113.810573702625
 21
859.9740789131969
 31
0.0
  0
ARC
  5
2A9
330
279
100
AcDbEntity
  8
0
100
AcDbCircle
 10
2096.525144548161
 20
877.5350986918125
 30
0.0
 40
24.64093092233088
100
AcDbArc
 50
180.0
 51
225.4531265288126
  0
LINE
  5
2AA
330
279
100
AcDbEntity
  8
0
100
AcDbLine
 10
2113.810573702625
 20
859.9740789131969
 30
0.0
 11
2113.875859221275
 21
859.9740789131969
 31
0.0
  0
ARC
  5
2AB
330
279
100
AcDbEntity
  8
0
100
AcDbCircle
 10
2096.525144548161
 20
877.5350986918125
 30
0.0
 40
24.64093092233088
100
AcDbArc
 50
314.5468734711873
 51
0.0
  0
LINE
  5
2AC
330
279
100
AcDbEntity
  8
0
100
AcDbLine
 10
3556.592245468439
 20
859.9740789131825
 30
0.0
 11
3556.592245468439
 21
364.3644755913042
 31
0.0
  0
HATCH
  5
2AD
330
279
100
AcDbEntity
  8
0
 62
    50
100
AcDbHatch
 10
0.0
 20
0.0
 30
0.0
210
0.0
220
0.0
230
1.0
  2
SOLID
 70
     1
 71
     0
 91
        1
 92
        7
 72
     0
 73
     1
 93
        4
 10
2557.044840734865
 20
859.9740789131969
 10
2522.408696907273
 20
859.9740789131969
 10
2522.408696907302
 20
364.3644755912751
 10
2557.044840734865
 20
364.3644755913042
 97
        0
 75
     0
 76
     1
 47
1.950875136170907
 98
        1
 10
2549.964219137232
 20
437.1838843882938
  0
HATCH
  5
2AE
330
279
100
AcDbEntity
  8
0
 62
   150
100
AcDbHatch
 10
0.0
 20
0.0
 30
0.0
210
0.0
220
0.0
230
1.0
  2
SOLID
 70
     1
 71
     0
 91
        2
 92
        7
 72
     1
 73
     1
 93
        4
 10
2564.335056984075
 20
877.5350986918125
 42
0.0
 10
2515.053195139413
 20
877.5350986918125
 42
0.2009685438464969
 10
2522.408696907287
 20
859.9740789131969
 42
0.0
 10
2556.979555216216
 20
859.9740789131969
 42
0.2009685438464102
 97
        0
 92
        7
 72
     1
 73
     1
 93
        4
 10
2557.04484073485
 20
364.3644755913042
 42
0.0
 10
2522.408696907287
 20
364.3644755913042
 42
0.2004846722166156
 10
2515.085837898738
 20
346.8356461407015
 42
0.0
 10
2564.367699743399
 20
346.8356461407015
 42
0.200484672216724
 97
        0
 75
     0
 76
     1
 47
1.950875136170907
 98
        2
 10
2532.38802274451
 20
866.3764159202905
 10
2530.435116542713
 20
353.2962561013623
  0
HATCH
  5
2AF
330
279
100
AcDbEntity
  8
0
 62
    50
100
AcDbHatch
 10
0.0
 20
0.0
 30
0.0
210
0.0
220
0.0
230
1.0
  2
SOLID
 70
     1
 71
     0
 91
        1
 92
        7
 72
     0
 73
     1
 93
        4
 10
2950.931960403765
 20
859.9740789131969
 10
2916.295816576202
 20
859.9740789131969
 10
2916.295816576202
 20
364.3644755912896
 10
2950.931960403765
 20
364.3644755913042
 97
        0
 75
     0
 76
     1
 47
1.950875136170907
 98
        1
 10
2943.85133880616
 20
437.1838843882938
  0
HATCH
  5
2B0
330
279
100
AcDbEntity
  8
0
 62
   150
100
AcDbHatch
 10
0.0
 20
0.0
 30
0.0
210
0.0
220
0.0
230
1.0
  2
SOLID
 70
     1
 71
     0
 91
        2
 92
        7
 72
     1
 73
     1
 93
        4
 10
2958.22217665299
 20
877.5350986918125
 42
0.0
 10
2908.940314808342
 20
877.5350986918125
 42
0.2009685438464969
 10
2916.295816576216
 20
859.9740789131969
 42
0.0
 10
2950.86667488513
 20
859.9740789131969
 42
0.2009685438464102
 97
        0
 92
        7
 72
     1
 73
     1
 93
        4
 10
2950.931960403779
 20
364.3644755913042
 42
0.0
 10
2916.295816576202
 20
364.3644755913042
 42
0.2004846722166156
 10
2908.972957567667
 20
346.8356461407015
 42
0.0
 10
2958.254819412328
 20
346.8356461407015
 42
0.200484672216724
 97
        0
 75
     0
 76
     1
 47
1.950875136170907
 98
        2
 10
2926.275142413424
 20
866.3764159202905
 10
2924.322236211627
 20
353.2962561013623
  0
HATCH
  5
2B1
330
279
100
AcDbEntity
  8
0
 62
    50
100
AcDbHatch
 10
0.0
 20
0.0
 30
0.0
210
0.0
220
0.0
230
1.0
  2
SOLID
 70
     1
 71
     0
 91
        1
 92
        7
 72
     0
 73
     1
 93
        4
 10
3295.537218228047
 20
859.9740789131969
 10
3260.901074400468
 20
859.9740789131969
 10
3260.901074400468
 20
364.3644755912896
 10
3295.537218228032
 20
364.3644755913042
 97
        0
 75
     0
 76
     1
 47
1.950875136170907
 98
        1
 10
3288.456596630398
 20
437.1838843882938
  0
LINE
  5
2B2
330
279
100
AcDbEntity
  8
0
100
AcDbLine
 10
2522.408696907287
 20
859.9740789131825
 30
0.0
 11
2522.408696907287
 21
364.3644755913042
 31
0.0
  0
LINE
  5
2B3
330
279
100
AcDbEntity
  8
0
100
AcDbLine
 10
2557.044840734865
 20
860.0385796937258
 30
0.0
 11
2557.044840734865
 21
364.3644755913042
 31
0.0
  0
LINE
  5
2B4
330
279
100
AcDbEntity
  8
0
100
AcDbLine
 10
2916.295816576202
 20
859.9740789131825
 30
0.0
 11
2916.295816576202
 21
364.3644755913042
 31
0.0
  0
LINE
  5
2B5
330
279
100
AcDbEntity
  8
0
100
AcDbLine
 10
2950.931960403779
 20
860.0385796937258
 30
0.0
 11
2950.931960403779
 21
364.3644755913042
 31
0.0
  0
LINE
  5
2B6
330
279
100
AcDbEntity
  8
0
100
AcDbLine
 10
3260.901074400468
 20
859.9740789131825
 30
0.0
 11
3260.901074400468
 21
364.3644755913042
 31
0.0
  0
LINE
  5
2B7
330
279
100
AcDbEntity
  8
0
100
AcDbLine
 10
3295.537218228047
 20
860.0385796937258
 30
0.0
 11
3295.537218228032
 21
364.3644755913042
 31
0.0
  0
HATCH
  5
2B8
330
279
100
AcDbEntity
  8
0
 62
   150
100
AcDbHatch
 10
0.0
 20
0.0
 30
0.0
210
0.0
220
0.0
230
1.0
  2
SOLID
 70
     1
 71
     0
 91
        2
 92
        7
 72
     1
 73
     1
 93
        4
 10
3302.827434477257
 20
877.5350986918125
 42
0.0
 10
3253.54557263258
 20
877.5350986918125
 42
0.2009685438464969
 10
3260.901074400468
 20
859.9740789131969
 42
0.0
 10
3295.471932709383
 20
859.9740789131969
 42
0.2009685438464102
 97
        0
 92
        7
 72
     1
 73
     1
 93
        4
 10
3295.537218228018
 20
364.3644755913042
 42
0.0
 10
3260.901074400468
 20
364.3644755913042
 42
0.2004846722166156
 10
3253.578215391905
 20
346.8356461407015
 42
0.0
 10
3302.860077236581
 20
346.8356461407015
 42
0.200484672216724
 97
        0
 75
     0
 76
     1
 47
1.950875136170907
 98
        2
 10
3270.880400237676
 20
866.3764159202905
 10
3268.927494035894
 20
353.2962561013623
  0
ARC
  5
2B9
330
279
100
AcDbEntity
  8
0
100
AcDbCircle
 10
2539.726768821076
 20
346.8356461407015
 30
0.0
 40
24.64093092233088
100
AcDbArc
 50
134.6534736332982
 51
180.0
  0
LINE
  5
2BA
330
279
100
AcDbEntity
  8
0
100
AcDbLine
 10
2557.044840734865
 20
346.8356461407015
 30
0.0
 11
2522.408696907287
 21
346.8356461407015
 31
0.0
  0
ARC
  5
2BB
330
279
100
AcDbEntity
  8
0
100
AcDbCircle
 10
2539.726768821076
 20
346.8356461407015
 30
0.0
 40
24.64093092233088
100
AcDbArc
 50
0.0
 51
45.34652636670176
  0
LINE
  5
2BC
330
279
100
AcDbEntity
  8
0
100
AcDbLine
 10
2522.408696907287
 20
364.3644755913042
 30
0.0
 11
2557.044840734865
 21
364.3644755913042
 31
0.0
  0
LINE
  5
2BD
330
279
100
AcDbEntity
  8
0
100
AcDbLine
 10
2950.931960403779
 20
346.8356461407015
 30
0.0
 11
2916.295816576202
 21
346.8356461407015
 31
0.0
  0
LINE
  5
2BE
330
279
100
AcDbEntity
  8
0
100
AcDbLine
 10
2916.295816576202
 20
364.3644755913042
 30
0.0
 11
2950.931960403779
 21
364.3644755913042
 31
0.0
  0
ARC
  5
2BF
330
279
100
AcDbEntity
  8
0
100
AcDbCircle
 10
2933.61388848999
 20
346.8356461407015
 30
0.0
 40
24.64093092233088
100
AcDbArc
 50
134.6534736332982
 51
180.0
  0
ARC
  5
2C0
330
279
100
AcDbEntity
  8
0
100
AcDbCircle
 10
2933.61388848999
 20
346.8356461407015
 30
0.0
 40
24.64093092233088
100
AcDbArc
 50
0.0
 51
45.34652636670176
  0
LINE
  5
2C1
330
279
100
AcDbEntity
  8
0
100
AcDbLine
 10
3295.537218228047
 20
346.8356461407015
 30
0.0
 11
3260.901074400468
 21
346.8356461407015
 31
0.0
  0
LINE
  5
2C2
330
279
100
AcDbEntity
  8
0
100
AcDbLine
 10
3260.901074400468
 20
364.3644755913042
 30
0.0
 11
3295.537218228032
 21
364.3644755913042
 31
0.0
  0
ARC
  5
2C3
330
279
100
AcDbEntity
  8
0
100
AcDbCircle
 10
3278.219146314257
 20
346.8356461407015
 30
0.0
 40
24.64093092233088
100
AcDbArc
 50
134.6534736332982
 51
180.0
  0
ARC
  5
2C4
330
279
100
AcDbEntity
  8
0
100
AcDbCircle
 10
3278.219146314257
 20
346.8356461407015
 30
0.0
 40
24.64093092233088
100
AcDbArc
 50
0.0
 51
45.34652636670176
  0
ARC
  5
2C5
330
279
100
AcDbEntity
  8
0
100
AcDbCircle
 10
3573.910317382228
 20
346.8356461407015
 30
0.0
 40
24.64093092233088
100
AcDbArc
 50
134.6534736332982
 51
180.0
  0
ARC
  5
2C6
330
279
100
AcDbEntity
  8
0
100
AcDbCircle
 10
2539.694126061752
 20
877.5350986918125
 30
0.0
 40
24.64093092233088
100
AcDbArc
 50
180.0
 51
225.4531265288126
  0
LINE
  5
2C7
330
279
100
AcDbEntity
  8
0
100
AcDbLine
 10
2556.979555216216
 20
859.9740789131969
 30
0.0
 11
2557.044840734865
 21
859.9740789131969
 31
0.0
  0
ARC
  5
2C8
330
279
100
AcDbEntity
  8
0
100
AcDbCircle
 10
2539.694126061752
 20
877.5350986918125
 30
0.0
 40
24.64093092233088
100
AcDbArc
 50
314.5468734711873
 51
0.0
  0
LINE
  5
2C9
330
279
100
AcDbEntity
  8
0
100
AcDbLine
 10
2522.408696907287
 20
859.9740789131969
 30
0.0
 11
2556.979555216216
 21
859.9740789131969
 31
0.0
  0
LINE
  5
2CA
330
279
100
AcDbEntity
  8
0
100
AcDbLine
 10
2916.295816576202
 20
859.9740789131969
 30
0.0
 11
2950.86667488513
 21
859.9740789131969
 31
0.0
  0
ARC
  5
2CB
330
279
100
AcDbEntity
  8
0
100
AcDbCircle
 10
2933.581245730666
 20
877.5350986918125
 30
0.0
 40
24.64093092233088
100
AcDbArc
 50
180.0
 51
225.4531265288126
  0
LINE
  5
2CC
330
279
100
AcDbEntity
  8
0
100
AcDbLine
 10
2950.86667488513
 20
859.9740789131969
 30
0.0
 11
2950.931960403779
 21
859.9740789131969
 31
0.0
  0
ARC
  5
2CD
330
279
100
AcDbEntity
  8
0
100
AcDbCircle
 10
2933.581245730666
 20
877.5350986918125
 30
0.0
 40
24.64093092233088
100
AcDbArc
 50
314.5468734711873
 51
0.0
  0
LINE
  5
2CE
330
279
100
AcDbEntity
  8
0
100
AcDbLine
 10
3260.901074400468
 20
859.9740789131969
 30
0.0
 11
3295.471932709383
 21
859.9740789131969
 31
0.0
  0
ARC
  5
2CF
330
279
100
AcDbEntity
  8
0
100
AcDbCircle
 10
3278.186503554918
 20
877.5350986918125
 30
0.0
 40
24.64093092233088
100
AcDbArc
 50
180.0
 51
225.4531265288126
  0
LINE
  5
2D0
330
279
100
AcDbEntity
  8
0
100
AcDbLine
 10
3295.471932709383
 20
859.9740789131969
 30
0.0
 11
3295.537218228047
 21
859.9740789131969
 31
0.0
  0
ARC
  5
2D1
330
279
100
AcDbEntity
  8
0
100
AcDbCircle
 10
3278.186503554918
 20
877.5350986918125
 30
0.0
 40
24.64093092233088
100
AcDbArc
 50
314.5468734711873
 51
0.0
  0
ARC
  5
2D2
330
279
100
AcDbEntity
  8
0
100
AcDbCircle
 10
3573.877674622889
 20
877.5350986918125
 30
0.0
 40
24.64093092233088
100
AcDbArc
 50
180.0
 51
225.4531265288126
  0
LINE
  5
2D3
102
{ACAD_REACTORS
330
2D5
102
}
330
279
100
AcDbEntity
  8
0
100
AcDbLine
 10
3828.924563166182
 20
246.8008220978004
 30
0.0
 11
3828.924563166196
 21
-1350.302050315986
 31
0.0
  0
LINE
  5
2D4
102
{ACAD_REACTORS
330
2D5
102
}
330
279
100
AcDbEntity
  8
0
100
AcDbLine
 10
3925.94843665038
 20
-1350.302050315986
 30
0.0
 11
3925.94843665038
 21
246.8008220978004
 31
0.0
  0
HATCH
  5
2D5
330
279
100
AcDbEntity
  8
0
 62
   250
100
AcDbHatch
 10
0.0
 20
0.0
 30
0.0
210
0.0
220
0.0
230
1.0
  2
SOLID
 70
     1
 71
     1
 91
        1
 92
        7
 72
     0
 73
     1
 93
        4
 10
3828.924563166196
 20
-1350.302050315986
 10
3925.94843665038
 20
-1350.302050315986
 10
3925.948436650381
 20
246.8008220978004
 10
3828.924563166181
 20
246.8008220978004
 97
        4
330
289
330
2D3
330
2D8
330
2D4
 75
     0
 76
     1
 47
7.520801578397686
 98
        1
 10
3870.995508517202
 20
-278.1254001839338
  0
LWPOLYLINE
  5
2D6
330
279
100
AcDbEntity
  8
0
100
AcDbPolyline
 90
        6
 70
     0
 43
0.0
 10
4986.45998027169
 20
-1918.296675649988
 10
4954.726715270363
 20
-1862.523058374929
 42
0.1240875912408807
 10
4880.468219922135
 20
-1788.2645630267
 10
4109.697560176289
 20
-1342.713590937325
 42
0.1233823300365213
 10
4008.337424190022
 20
-1315.611950299288
 10
3944.483004280662
 20
-1315.611950299288
  0
LWPOLYLINE
  5
2D7
330
279
100
AcDbEntity
  8
0
100
AcDbPolyline
 90
        6
 70
     0
 43
0.0
 10
5016.14024521887
 20
-1901.409628352456
 10
4984.234588470156
 20
-1845.333019521386
 42
0.1247293581332155
 10
4897.762343020941
 20
-1758.818688498337
 10
4126.540411859757
 20
-1313.006854873507
 42
0.1239769402989771
 10
4008.596378562701
 20
-1281.46388309537
 10
3944.483004280662
 20
-1281.46388309537
  0
LWPOLYLINE
  5
2D8
102
{ACAD_REACTORS
330
2D5
102
}
330
279
100
AcDbEntity
  8
0
100
AcDbPolyline
 90
        4
 70
     1
 43
0.0
 10
3822.707516314671
 20
-1375.302050315986
 10
3932.707516314671
 20
-1375.302050315986
 10
3932.707516314671
 20
-1350.302050315986
 10
3822.707516314671
 20
-1350.302050315986
  0
HATCH
  5
2D9
330
279
100
AcDbEntity
  8
0
 62
    30
100
AcDbHatch
 10
0.0
 20
0.0
 30
0.0
210
0.0
220
0.0
230
1.0
  2
SOLID
 70
     1
 71
     0
 91
        1
 92
        7
 72
     0
 73
     1
 93
        4
 10
3932.707516314657
 20
-1350.302050315986
 10
3822.707516314671
 20
-1350.302050315971
 10
3822.707516314671
 20
-1375.302050315986
 10
3932.707516314671
 20
-1375.302050315986
 97
        0
 75
     0
 76
     1
 47
1.246836124787238
 98
        1
 10
3855.967408903938
 20
-1360.087600727107
  0
ARC
  5
2DA
330
279
100
AcDbEntity
  8
0
100
AcDbCircle
 10
3828.924563166196
 20
-1298.808933103712
 30
0.0
 40
25.01742560929995
100
AcDbArc
 50
222.1947363040141
 51
270.0
  0
ARC
  5
2DB
330
279
100
AcDbEntity
  8
0
100
AcDbCircle
 10
3828.924563166196
 20
-1298.808933103712
 30
0.0
 40
25.01742560929995
100
AcDbArc
 50
90.0
 51
136.1066065093782
  0
LINE
  5
2DC
330
279
100
AcDbEntity
  8
0
100
AcDbLine
 10
3810.896229235272
 20
-1281.463883095355
 30
0.0
 11
3810.932028348665
 21
-1315.611950299288
 31
0.0
  0
ARC
  5
2DD
330
279
100
AcDbEntity
  8
0
100
AcDbCircle
 10
3925.94843665038
 20
-1298.808933103712
 30
0.0
 40
25.01742560929995
100
AcDbArc
 50
270.0
 51
317.8052636959859
  0
ARC
  5
2DE
330
279
100
AcDbEntity
  8
0
100
AcDbCircle
 10
3925.94843665038
 20
-1298.808933103712
 30
0.0
 40
25.01742560929995
100
AcDbArc
 50
42.19473630401409
 51
90.0
  0
LINE
  5
2DF
330
279
100
AcDbEntity
  8
0
100
AcDbLine
 10
3944.483004280662
 20
-1281.46388309537
 30
0.0
 11
3944.483004280662
 21
-1315.611950299288
 31
0.0
  0
LWPOLYLINE
  5
2E0
102
{ACAD_REACTORS
330
27D
102
}
330
279
100
AcDbEntity
  8
0
100
AcDbPolyline
 90
        8
 70
     1
 43
0.0
 10
5107.300082125329
 20
-1983.24381052587
 10
5057.34317370646
 20
-1896.616405501663
 42
0.4142135623730902
 10
5050.513958034301
 20
-1894.782880671402
 10
4963.886553010095
 20
-1944.739789090272
 42
0.4142135623730912
 10
4962.053028179834
 20
-1951.569004762423
 10
5012.009936598689
 20
-2038.196409786637
 42
0.4142135623731039
 10
5018.839152270847
 20
-2040.029934616898
 10
5105.466557295053
 20
-1990.073026198028
 42
0.4142135623730974
  0
ARC
  5
2E1
330
279
100
AcDbEntity
  8
0
100
AcDbCircle
 10
5010.481122221833
 20
-1925.286405510851
 30
0.0
 40
25.01742560929995
100
AcDbArc
 50
44.85358940847139
 51
77.68020508941394
  0
LINE
  5
2E2
330
279
100
AcDbEntity
  8
0
100
AcDbLine
 10
5015.819038524983
 20
-1900.84508325412
 30
0.0
 11
4986.45998027169
 21
-1918.296675649988
 31
0.0
  0
ARC
  5
2E3
330
279
100
AcDbEntity
  8
0
100
AcDbCircle
 10
5010.481122221833
 20
-1925.286405510851
 30
0.0
 40
25.01742560929995
100
AcDbArc
 50
163.7759330919108
 51
195.0894004553727
  0
HATCH
  5
2E4
330
279
100
AcDbEntity
  8
0
 62
    70
100
AcDbHatch
 10
0.0
 20
0.0
 30
0.0
210
0.0
220
0.0
230
1.0
  2
SOLID
 70
     1
 71
     0
 91
       13
 92
        7
 72
     0
 73
     1
 93
        6
 10
4570.204493912728
 20
941.2854351124547
 10
4570.204493912728
 20
284.5563145269547
 10
5505.979812086843
 20
-42.68147855575125
 10
5653.747773432296
 20
-73.19877492057321
 10
5653.747773432296
 20
1298.473388003505
 10
5505.979812086857
 20
1267.956091638683
 97
        0
 92
       22
 72
     0
 73
     1
 93
        8
 10
4784.61991265814
 20
787.174826101676
 10
4800.681647587007
 20
809.1258638377762
 10
4843.512940730615
 20
809.6612550020649
 10
4860.110066823755
 20
788.7809995945567
 10
4860.110066823755
 20
685.9858960498963
 10
4843.512940730615
 20
665.1056406423881
 10
4800.681647587007
 20
665.6410318066768
 10
4784.61991265814
 20
687.5920695427916
 97
        0
 92
       22
 72
     0
 73
     1
 93
       10
 10
4909.018663897796
 20
630.8406061275014
 10
4941.945220501939
 20
632.9821707846853
 10
4985.579600392004
 20
584.7969659981167
 10
4985.579600392004
 20
508.7714206682135
 10
4941.1421337555
 20
460.0508247173561
 10
4909.018663897796
 20
462.7277805388435
 10
4904.735534583443
 20
469.1524745103666
 10
4900.987796433364
 20
479.3249066319836
 10
4922.938834169478
 20
546.7841933331651
 10
4902.593969926259
 20
616.3850446915307
 97
        0
 92
       22
 72
     0
 73
     1
 93
        8
 10
4965.770127313072
 20
884.6160180033761
 10
4965.770127313072
 20
984.198774562275
 10
4981.831862241938
 20
1006.149812298375
 10
5024.663155385547
 20
1006.685203462664
 10
5041.260281478687
 20
985.8049480551558
 10
5041.260281478687
 20
883.0098445104955
 10
5024.663155385539
 20
862.1295891029872
 10
4981.831862241938
 20
862.6649802672904
 97
        0
 92
       22
 72
     0
 73
     1
 93
       10
 10
5117.821217972894
 20
768.9715265156405
 10
5139.772255708994
 20
836.4308132168366
 10
5119.427391465774
 20
906.0316645751877
 10
5125.852085437312
 20
920.4872260111583
 10
5158.778642041469
 20
922.6287906683278
 10
5202.413021931518
 20
874.4435858817737
 10
5202.413021931518
 20
798.4180405518705
 10
5157.975555295029
 20
749.697444601013
 10
5125.852085437326
 20
752.3744004224859
 10
5121.568956122958
 20
758.7990943940381
 97
        0
 92
       22
 72
     0
 73
     1
 93
        8
 10
4910.089446226389
 20
399.0162319877122
 10
4952.920739369996
 20
399.5516231520155
 10
4969.517865463138
 20
378.6713677444927
 10
4969.517865463138
 20
275.8762641998323
 10
4952.920739369996
 20
254.9960087923241
 10
4910.089446226389
 20
255.5313999566274
 10
4894.027711297537
 20
277.4824376927276
 10
4894.027711297537
 20
377.0651942516119
 97
        0
 92
       22
 72
     0
 73
     1
 93
        8
 10
5104.971830029811
 20
532.8640230614978
 10
5121.033564958669
 20
554.8150607975981
 10
5163.864858102278
 20
555.3504519618868
 10
5180.461984195418
 20
534.4701965543785
 10
5180.461984195418
 20
431.6750930097182
 10
5163.864858102271
 20
410.79483760221
 10
5121.033564958662
 20
411.3302287665133
 10
5104.971830029803
 20
433.281266502599
 97
        0
 92
       22
 72
     0
 73
     1
 93
       10
 10
5291.823346368801
 20
608.3541772270978
 10
5298.248040340338
 20
622.8097386630829
 10
5331.174596944496
 20
624.9513033202524
 10
5374.808976834544
 20
576.7660985336983
 10
5374.808976834544
 20
500.740553203795
 10
5330.371510198055
 20
452.0199572529377
 10
5298.248040340338
 20
454.6969130744105
 10
5293.964911025984
 20
461.1216070459481
 10
5290.217172875919
 20
471.2940391675506
 10
5312.16821061202
 20
538.7533258687467
 97
        0
 92
       22
 72
     0
 73
     1
 93
        8
 10
5331.977683690936
 20
805.9135168520146
 10
5331.977683690936
 20
905.496273410899
 10
5348.039418619787
 20
927.4473111469992
 10
5390.870711763396
 20
927.9827023112879
 10
5407.46783785655
 20
907.1024469037798
 10
5407.46783785655
 20
804.3073433591194
 10
5390.870711763403
 20
783.4270879516111
 10
5348.039418619787
 20
783.9624791159145
 97
        0
 92
       22
 72
     0
 73
     1
 93
        8
 10
5232.93031829634
 20
311.2120810433111
 10
5275.761611439949
 20
311.7474722076144
 10
5292.358737533096
 20
290.8672168001062
 10
5292.358737533096
 20
188.0721132554458
 10
5275.761611439949
 20
167.1918578479376
 10
5232.93031829634
 20
167.7272490122263
 10
5216.868583367489
 20
189.6782867483266
 10
5216.868583367489
 20
289.2610433072109
 97
        0
 92
       22
 72
     0
 73
     1
 93
        8
 10
5497.948944622424
 20
666.1764229709802
 10
5514.010679551276
 20
688.1274607070804
 10
5556.841972694884
 20
688.6628518713692
 10
5573.439098788039
 20
667.7825964638609
 10
5573.439098788039
 20
564.9874929192005
 10
5556.841972694884
 20
544.1072375116923
 10
5514.010679551276
 20
544.6426286759956
 10
5497.948944622424
 20
566.5936664120813
 97
        0
 92
       22
 72
     0
 73
     1
 93
       10
 10
5526.860067494351
 20
887.2929738248636
 10
5548.811105230466
 20
954.7522605260452
 10
5528.466240987246
 20
1024.35311188441
 10
5534.890934958784
 20
1038.808673320381
 10
5567.817491562927
 20
1040.95023797755
 10
5611.451871452991
 20
992.7650331909967
 10
5611.451871452991
 20
916.7394878610934
 10
5567.014404816494
 20
868.0188919102361
 10
5534.890934958784
 20
870.6958477317234
 10
5530.607805644415
 20
877.1205417032756
 97
        0
 92
       22
 72
     0
 73
     1
 93
       10
 10
5452.440695657329
 20
379.7421500730993
 10
5485.367252261486
 20
381.8837147302687
 10
5529.001632151535
 20
333.6985099437147
 10
5529.001632151535
 20
257.6729646138114
 10
5484.564165515045
 20
208.9523686629541
 10
5452.440695657343
 20
211.6293244844269
 10
5448.157566342975
 20
218.0540184559645
 10
5444.40982819291
 20
228.2264505775815
 10
5466.360865929011
 20
295.685737278763
 10
5446.016001685798
 20
365.2865886371287
 97
        0
 75
     0
 76
     1
 47
2.721598632278727
 98
       13
 10
4704.565743863196
 20
783.4048385472847
 10
4704.565743863196
 20
783.4048385472847
 10
4704.565743863196
 20
783.4048385472847
 10
4704.565743863196
 20
783.4048385472847
 10
4704.565743863196
 20
783.4048385472847
 10
4704.565743863196
 20
783.4048385472847
 10
4704.565743863196
 20
783.4048385472847
 10
4704.565743863196
 20
783.4048385472847
 10
4704.565743863196
 20
783.4048385472847
 10
4704.565743863196
 20
783.4048385472847
 10
4704.565743863196
 20
783.4048385472847
 10
4704.565743863196
 20
783.4048385472847
 10
4704.565743863196
 20
783.4048385472847
  0
LINE
  5
2E5
330
279
100
AcDbEntity
  8
0
100
AcDbLine
 10
4570.204493912728
 20
284.5563145269547
 30
0.0
 11
5505.979812086843
 21
-42.68147855575125
 31
0.0
  0
LINE
  5
2E6
330
279
100
AcDbEntity
  8
0
100
AcDbLine
 10
5505.979812086843
 20
1267.956091638683
 30
0.0
 11
4570.204493912728
 21
941.2854351124547
 31
0.0
  0
LWPOLYLINE
  5
2E7
102
{ACAD_REACTORS
330
2F4
102
}
330
279
100
AcDbEntity
  8
0
100
AcDbPolyline
 90
        4
 70
     1
 43
0.0
 10
4570.204493912728
 20
349.7038870054598
 10
4523.905713851017
 20
349.7038870054598
 10
4523.905713851017
 20
876.1061172418918
 10
4570.204493912728
 20
876.1061172418918
  0
LINE
  5
2E8
330
279
100
AcDbEntity
  8
0
100
AcDbLine
 10
4570.204493912728
 20
941.2854351124547
 30
0.0
 11
4570.204493912728
 21
284.5563145269547
 31
0.0
  0
HATCH
  5
2E9
330
279
100
AcDbEntity
  8
0
 62
    50
100
AcDbHatch
 10
0.0
 20
0.0
 30
0.0
210
0.0
220
0.0
230
1.0
  2
SOLID
 70
     1
 71
     0
 91
        1
 92
        7
 72
     0
 73
     1
 93
        4
 10
3837.269923430931
 20
859.9740789131969
 10
3802.633779603354
 20
859.9740789131969
 10
3802.633779603368
 20
364.3644755912896
 10
3837.269923430931
 20
364.3644755913042
 97
        0
 75
     0
 76
     1
 47
1.950875136170907
 98
        1
 10
3830.189301833312
 20
437.1838843882938
  0
HATCH
  5
2EA
330
279
100
AcDbEntity
  8
0
 62
   150
100
AcDbHatch
 10
0.0
 20
0.0
 30
0.0
210
0.0
220
0.0
230
1.0
  2
SOLID
 70
     1
 71
     0
 91
        2
 92
        7
 72
     1
 73
     1
 93
        4
 10
3844.560139680141
 20
877.5350986918125
 42
0.0
 10
3795.278277835494
 20
877.5350986918125
 42
0.2009685438464969
 10
3802.633779603368
 20
859.9740789131969
 42
0.0
 10
3837.204637912282
 20
859.9740789131969
 42
0.2009685438464102
 97
        0
 92
        7
 72
     1
 73
     1
 93
        4
 10
3837.269923430931
 20
364.3644755913042
 42
0.0
 10
3802.633779603354
 20
364.3644755913042
 42
0.2004846722166156
 10
3795.310920594818
 20
346.8356461407015
 42
0.0
 10
3844.59278243948
 20
346.8356461407015
 42
0.200484672216724
 97
        0
 75
     0
 76
     1
 47
1.950875136170907
 98
        2
 10
3812.613105440576
 20
866.3764159202905
 10
3810.660199238779
 20
353.2962561013623
  0
LINE
  5
2EB
330
279
100
AcDbEntity
  8
0
100
AcDbLine
 10
3591.228389296017
 20
860.0385796937258
 30
0.0
 11
3591.228389296002
 21
364.3644755913042
 31
0.0
  0
LINE
  5
2EC
330
279
100
AcDbEntity
  8
0
100
AcDbLine
 10
3802.633779603354
 20
859.9740789131825
 30
0.0
 11
3802.633779603354
 21
364.3644755913042
 31
0.0
  0
LINE
  5
2ED
102
{ACAD_REACTORS
330
2F2
102
}
330
279
100
AcDbEntity
  8
0
100
AcDbLine
 10
3837.269923430931
 20
860.0385796937258
 30
0.0
 11
3837.269923430931
 21
364.3644755913042
 31
0.0
  0
LINE
  5
2EE
102
{ACAD_REACTORS
330
2F2
102
}
330
279
100
AcDbEntity
  8
0
100
AcDbLine
 10
4503.905713851017
 20
349.7038870054598
 30
0.0
 11
4503.905713851017
 21
876.1061172418918
 31
0.0
  0
LINE
  5
2EF
330
279
100
AcDbEntity
  8
0
100
AcDbLine
 10
4523.905713851017
 20
349.7038870054598
 30
0.0
 11
4523.905713851017
 21
876.1061172418918
 31
0.0
  0
LINE
  5
2F0
330
279
100
AcDbEntity
  8
0
 62
     3
100
AcDbLine
 10
4523.905713851017
 20
876.1061172418918
 30
0.0
 11
4523.905713851017
 21
349.7038870054598
 31
0.0
  0
HATCH
  5
2F1
330
279
100
AcDbEntity
  8
0
 62
    30
100
AcDbHatch
 10
0.0
 20
0.0
 30
0.0
210
0.0
220
0.0
230
1.0
  2
SOLID
 70
     1
 71
     0
 91
        6
 92
        7
 72
     0
 73
     1
 93
        4
 10
3948.272714606987
 20
982.7187739722353
 10
3928.78063492217
 20
982.7187739722207
 10
3928.780634922156
 20
872.3862474543198
 10
3948.272714606987
 20
872.3862474543198
 97
        0
 92
        7
 72
     0
 73
     1
 93
        4
 10
3967.397019203409
 20
982.7187739722353
 10
3948.272714606987
 20
982.7187739722207
 10
3948.272714606987
 20
872.3862474543198
 10
3967.397019203409
 20
872.3862474543198
 97
        0
 92
        7
 72
     0
 73
     1
 93
        4
 10
3948.272714606972
 20
351.9844973781942
 10
3928.780634922156
 20
351.9844973782087
 10
3928.78063492217
 20
241.6519708603077
 10
3948.272714606987
 20
241.6519708603077
 97
        0
 92
        7
 72
     0
 73
     1
 93
        4
 10
3967.397019203423
 20
351.9844973782087
 10
3948.272714606987
 20
351.9844973782233
 10
3948.272714606972
 20
241.6519708603077
 10
3967.397019203394
 20
241.6519708603077
 97
        0
 92
        7
 72
     1
 73
     1
 93
        8
 10
4569.850281168625
 20
981.1061172418916
 42
0.4142135623730951
 10
4564.850281168626
 20
986.1061172418917
 42
0.0
 10
4464.850281168625
 20
986.1061172418917
 42
0.4142135623730951
 10
4459.850281168626
 20
981.1061172418916
 42
0.0
 10
4459.850281168626
 20
881.1061172418916
 42
0.4142135623730951
 10
4464.850281168625
 20
876.1061172418918
 42
0.0
 10
4564.850281168626
 20
876.1061172418918
 42
0.4142135623730951
 10
4569.850281168625
 20
881.1061172418916
 42
0.0
 97
        0
 92
        7
 72
     1
 73
     1
 93
        8
 10
4569.850281168625
 20
344.7038870054598
 42
0.4142135623730951
 10
4564.850281168626
 20
349.7038870054598
 42
0.0
 10
4464.850281168625
 20
349.7038870054598
 42
0.4142135623730951
 10
4459.850281168626
 20
344.7038870054598
 42
0.0
 10
4459.850281168626
 20
244.7038870054598
 42
0.4142135623730951
 10
4464.850281168625
 20
239.7038870054598
 42
0.0
 10
4564.850281168626
 20
239.7038870054598
 42
0.4142135623730951
 10
4569.850281168625
 20
244.7038870054598
 42
0.0
 97
        0
 75
     0
 76
     1
 47
2.839104083486171
 98
        6
 10
3937.644715008914
 20
901.2524885985399
 10
3957.539254890178
 20
889.896179494673
 10
3940.486792134825
 20
307.8797083423919
 10
3951.855100638355
 20
296.5232383934121
 10
4551.530922286509
 20
932.4826603243923
 10
4506.057994761685
 20
307.8797083423919
  0
HATCH
  5
2F2
330
279
100
AcDbEntity
  8
0
 62
   250
100
AcDbHatch
 10
0.0
 20
0.0
 30
0.0
210
0.0
220
0.0
230
1.0
  2
SOLID
 70
     1
 71
     1
 91
        1
 92
        7
 72
     1
 73
     1
 93
       20
 10
4503.905713851017
 20
876.1061172418918
 42
0.0
 10
4459.850281168626
 20
876.1061172418918
 42
0.0
 10
4459.850281168626
 20
977.5699227347137
 42
0.0
 10
3967.39701920341
 20
977.5699227347136
 42
0.0
 10
3967.397019203409
 20
872.3862474543198
 42
0.0
 10
3948.272714606987
 20
872.3862474543198
 42
0.0
 10
3928.780634922155
 20
872.3862474543199
 42
0.0
 10
3928.780634922155
 20
877.5350986918125
 42
0.0
 10
3844.560139680148
 20
877.5350986918125
 42
-0.2000000000001027
 10
3837.269923430931
 20
860.0385796937008
 42
0.0
 10
3837.269923430931
 20
364.3644755912926
 42
-0.2004846722166054
 10
3844.592782439473
 20
346.8356461407015
 42
0.0
 10
3928.780634922156
 20
346.8356461407015
 42
0.0
 10
3928.780634922155
 20
351.9844973782087
 42
0.0
 10
3948.272714606987
 20
351.9844973782087
 42
0.0
 10
3967.397019203408
 20
351.9844973782087
 42
0.0
 10
3967.39701920341
 20
264.7038870054598
 42
0.0
 10
4459.850281168626
 20
264.7038870054598
 42
0.0
 10
4459.850281168626
 20
349.7038870054598
 42
0.0
 10
4503.905713851017
 20
349.7038870054598
 42
0.0
 97
       14
330
315
330
302
330
30F
330
310
330
287
330
30B
330
2ED
330
2F8
330
288
330
2FC
330
2FB
330
2F5
330
2FD
330
2EE
 75
     0
 76
     1
 47
3.042209499609478
 98
        1
 10
4215.477139526111
 20
604.2604927357092
  0
HATCH
  5
2F3
330
279
100
AcDbEntity
  8
0
 62
   150
100
AcDbHatch
 10
0.0
 20
0.0
 30
0.0
210
0.0
220
0.0
230
1.0
  2
SOLID
 70
     1
 71
     0
 91
        1
 92
        7
 72
     0
 73
     1
 93
        4
 10
4523.905713851003
 20
876.1061172418918
 10
4503.905713851002
 20
876.1061172418918
 10
4503.905713851017
 20
349.7038870054598
 10
4523.905713851017
 20
349.7038870054452
 97
        0
 75
     0
 76
     1
 47
4.694293360222218
 98
        1
 10
4514.590478579447
 20
585.6887507888964
  0
HATCH
  5
2F4
330
279
100
AcDbEntity
  8
0
 62
   250
100
AcDbHatch
 10
0.0
 20
0.0
 30
0.0
210
0.0
220
0.0
230
1.0
  2
SOLID
 70
     1
 71
     1
 91
        1
 92
        7
 72
     0
 73
     1
 93
        4
 10
4570.204493912728
 20
876.1061172418918
 10
4523.905713851017
 20
876.1061172418918
 10
4523.905713851017
 20
349.7038870054598
 10
4570.204493912729
 20
349.7038870054598
 97
        1
330
2E7
 75
     0
 76
     1
 47
1.552538807914906
 98
        1
 10
4551.300066005212
 20
627.1564471076194
  0
LINE
  5
2F5
102
{ACAD_REACTORS
330
2F2
102
}
330
279
100
AcDbEntity
  8
0
100
AcDbLine
 10
4459.850281168626
 20
264.7038870054598
 30
0.0
 11
3967.397019203409
 21
264.7038870054598
 31
0.0
  0
ARC
  5
2F6
330
279
100
AcDbEntity
  8
0
100
AcDbCircle
 10
3573.910317382228
 20
346.8356461407015
 30
0.0
 40
24.64093092233088
100
AcDbArc
 50
0.0
 51
45.34652636670176
  0
LINE
  5
2F7
330
279
100
AcDbEntity
  8
0
100
AcDbLine
 10
3837.269923430931
 20
346.8356461407015
 30
0.0
 11
3802.633779603354
 21
346.8356461407015
 31
0.0
  0
ARC
  5
2F8
102
{ACAD_REACTORS
330
2F2
102
}
330
279
100
AcDbEntity
  8
0
100
AcDbCircle
 10
3819.951851517142
 20
346.8356461407015
 30
0.0
 40
24.64093092233088
100
AcDbArc
 50
0.0
 51
45.34652636670176
  0
LINE
  5
2F9
330
279
100
AcDbEntity
  8
0
100
AcDbLine
 10
3802.633779603354
 20
364.3644755913042
 30
0.0
 11
3837.269923430931
 21
364.3644755913042
 31
0.0
  0
ARC
  5
2FA
330
279
100
AcDbEntity
  8
0
100
AcDbCircle
 10
3819.951851517142
 20
346.8356461407015
 30
0.0
 40
24.64093092233088
100
AcDbArc
 50
134.6534736332982
 51
180.0
  0
LWPOLYLINE
  5
2FB
102
{ACAD_REACTORS
330
2F2
102
}
330
279
100
AcDbEntity
  8
0
100
AcDbPolyline
 90
        4
 70
     1
 43
0.0
 10
3967.397019203409
 20
241.6519708603077
 10
3948.272714606987
 20
241.6519708603077
 10
3948.272714606987
 20
351.9844973782087
 10
3967.397019203409
 20
351.9844973782087
  0
LWPOLYLINE
  5
2FC
102
{ACAD_REACTORS
330
2F2
102
}
330
279
100
AcDbEntity
  8
0
100
AcDbPolyline
 90
        4
 70
     1
 43
0.0
 10
3948.272714606987
 20
351.9844973782087
 10
3928.780634922156
 20
351.9844973782087
 10
3928.780634922156
 20
241.6519708603077
 10
3948.272714606987
 20
241.6519708603077
  0
LWPOLYLINE
  5
2FD
102
{ACAD_REACTORS
330
2F2
102
}
330
279
100
AcDbEntity
  8
0
100
AcDbPolyline
 90
        8
 70
     1
 43
0.0
 10
4459.850281168626
 20
344.7038870054598
 10
4459.850281168626
 20
244.7038870054598
 42
0.4142135623730951
 10
4464.850281168625
 20
239.7038870054598
 10
4564.850281168626
 20
239.7038870054598
 42
0.4142135623730951
 10
4569.850281168625
 20
244.7038870054598
 10
4569.850281168625
 20
344.7038870054598
 42
0.4142135623730951
 10
4564.850281168626
 20
349.7038870054598
 10
4464.850281168625
 20
349.7038870054598
 42
0.4142135623730951
  0
LINE
  5
2FE
330
279
100
AcDbEntity
  8
0
100
AcDbLine
 10
4562.118059612177
 20
999.2411300190648
 30
0.0
 11
3832.018692543765
 21
999.2411300190648
 31
0.0
  0
HATCH
  5
2FF
330
279
100
AcDbEntity
  8
0
 62
    10
100
AcDbHatch
 10
0.0
 20
0.0
 30
0.0
210
0.0
220
0.0
230
1.0
  2
SOLID
 70
     1
 71
     0
 91
        2
 92
        7
 72
     1
 73
     1
 93
        2
 10
4404.878964259848
 20
999.2411300190648
 42
1.0
 10
4327.534328167624
 20
999.2411300190648
 42
0.0
 97
        0
 92
        7
 72
     1
 73
     1
 93
        2
 10
4089.550832499218
 20
999.2411300190793
 42
1.0
 10
4012.206196406992
 20
999.2411300190648
 42
0.0
 97
        0
 75
     0
 76
     1
 47
2.054966041547646
 98
        2
 10
4365.191347290841
 20
1009.016043020055
 10
4046.671601239249
 20
1013.130265342005
  0
HATCH
  5
300
330
279
100
AcDbEntity
  8
0
 62
     4
100
AcDbHatch
 10
0.0
 20
0.0
 30
0.0
210
0.0
220
0.0
230
1.0
  2
SOLID
 70
     1
 71
     0
 91
        3
 92
        7
 72
     1
 73
     1
 93
        3
 10
4431.652107522523
 20
999.2411300190648
 42
0.0
 10
4450.775781281619
 20
999.2411300190648
 42
0.4894351530564882
 10
4402.541626355966
 20
1036.71271203197
 42
-0.3427909203673021
 97
        0
 92
        7
 72
     1
 73
     1
 93
        2
 10
4273.98804164223
 20
999.2411300190793
 42
1.0
 10
4196.643405550005
 20
999.2411300190648
 42
0.0
 97
        0
 92
        7
 72
     1
 73
     1
 93
        3
 10
3962.909615161398
 20
999.2411300190648
 42
0.0
 10
4012.206196406992
 20
999.2411300190648
 42
-0.2235473832412309
 10
4026.230223830315
 20
1029.040625861023
 42
0.6345913753681723
 97
        0
 75
     0
 76
     1
 47
2.054966041547646
 98
        3
 10
4435.060185046669
 20
1015.18737650298
 10
4239.838414194942
 20
1015.18737650298
 10
3989.132557289041
 20
1017.244487663956
  0
HATCH
  5
301
330
279
100
AcDbEntity
  8
0
 62
     6
100
AcDbHatch
 10
0.0
 20
0.0
 30
0.0
210
0.0
220
0.0
230
1.0
  2
SOLID
 70
     1
 71
     0
 91
        2
 92
        7
 72
     1
 73
     1
 93
        3
 10
4431.652107522538
 20
999.2411300190648
 42
0.5219667480029689
 10
4379.593217845081
 20
1035.522638849586
 42
-0.3140891564316131
 10
4404.878964259848
 20
999.2411300190648
 42
0.0
 97
        0
 92
        7
 72
     1
 73
     1
 93
        2
 10
3878.765450621495
 20
999.2411300190648
 42
0.0
 10
3956.110086713719
 20
999.2411300190648
 42
1.0
 97
        0
 75
     0
 76
     1
 47
2.054966041547646
 98
        2
 10
4416.565498981166
 20
1009.016043020055
 10
3933.648471234867
 20
1021.358709985935
  0
LINE
  5
302
102
{ACAD_REACTORS
330
2F2
102
}
330
279
100
AcDbEntity
  8
0
100
AcDbLine
 10
3967.397019203409
 20
977.5699227347136
 30
0.0
 11
4459.850281168626
 21
977.5699227347136
 31
0.0
  0
HATCH
  5
303
330
279
100
AcDbEntity
  8
0
 62
    70
100
AcDbHatch
 10
0.0
 20
0.0
 30
0.0
210
0.0
220
0.0
230
1.0
  2
SOLID
 70
     1
 71
     0
 91
        1
 92
        7
 72
     1
 73
     1
 93
       12
 10
4464.850281168625
 20
986.1061172418917
 42
0.0
 10
4562.118059612177
 20
986.1061172418917
 42
0.0
 10
4562.118059612163
 20
999.2411300190648
 42
0.0
 10
3832.018692543779
 20
999.2411300190793
 42
0.0
 10
3832.018692543765
 20
977.5699227347136
 42
0.0
 10
3928.780634922156
 20
977.5699227347281
 42
0.0
 10
3928.780634922156
 20
982.7187739722061
 42
0.0
 10
3948.272714606987
 20
982.7187739722207
 42
0.0
 10
3967.397019203409
 20
982.7187739722207
 42
0.0
 10
3967.397019203394
 20
977.5699227347136
 42
0.0
 10
4459.850281168626
 20
977.5699227347136
 42
0.0
 10
4459.850281168626
 20
981.1061172418916
 42
-0.4142135623730951
 97
        0
 75
     0
 76
     1
 47
3.042209499609478
 98
        1
 10
4166.751132456941
 20
984.5368068171296
  0
ARC
  5
304
330
279
100
AcDbEntity
  8
0
100
AcDbCircle
 10
4001.58193320751
 20
999.2411300190793
 30
0.0
 40
38.67231804611583
100
AcDbArc
 50
50.40456204683759
 51
180.0
  0
ARC
  5
305
330
279
100
AcDbEntity
  8
0
100
AcDbCircle
 10
3917.437768667607
 20
999.2411300190793
 30
0.0
 40
38.67231804611583
100
AcDbArc
 50
0.0
 51
180.0
  0
ARC
  5
306
330
279
100
AcDbEntity
  8
0
100
AcDbCircle
 10
4050.878514453105
 20
999.2411300190793
 30
0.0
 40
38.67231804611583
100
AcDbArc
 50
0.0
 51
180.0
  0
LINE
  5
307
330
279
100
AcDbEntity
  8
0
100
AcDbLine
 10
3591.163103777354
 20
859.9740789131969
 30
0.0
 11
3591.228389296017
 21
859.9740789131969
 31
0.0
  0
ARC
  5
308
330
279
100
AcDbEntity
  8
0
100
AcDbCircle
 10
3573.877674622889
 20
877.5350986918125
 30
0.0
 40
24.64093092233088
100
AcDbArc
 50
314.5468734711873
 51
0.0
  0
ARC
  5
309
330
279
100
AcDbEntity
  8
0
100
AcDbCircle
 10
3819.919208757818
 20
877.5350986918125
 30
0.0
 40
24.64093092233088
100
AcDbArc
 50
180.0
 51
225.4531265288126
  0
LINE
  5
30A
330
279
100
AcDbEntity
  8
0
100
AcDbLine
 10
3837.204637912282
 20
859.9740789131969
 30
0.0
 11
3837.269923430931
 21
859.9740789131969
 31
0.0
  0
ARC
  5
30B
102
{ACAD_REACTORS
330
2F2
102
}
330
279
100
AcDbEntity
  8
0
100
AcDbCircle
 10
3819.919208757818
 20
877.5350986918125
 30
0.0
 40
24.64093092233088
100
AcDbArc
 50
314.5468734711873
 51
0.0
  0
LINE
  5
30C
330
279
100
AcDbEntity
  8
0
100
AcDbLine
 10
3802.633779603354
 20
859.9740789131969
 30
0.0
 11
3837.204637912282
 21
859.9740789131969
 31
0.0
  0
LINE
  5
30D
330
279
100
AcDbEntity
  8
0
100
AcDbLine
 10
3832.018692543765
 20
999.2411300190648
 30
0.0
 11
3832.018692543765
 21
984.4190344276354
 31
0.0
  0
LINE
  5
30E
330
279
100
AcDbEntity
  8
0
100
AcDbLine
 10
3832.018692543765
 20
999.2411300190648
 30
0.0
 11
3832.018692543765
 21
977.5699227347136
 31
0.0
  0
LWPOLYLINE
  5
30F
102
{ACAD_REACTORS
330
2F2
102
}
330
279
100
AcDbEntity
  8
0
100
AcDbPolyline
 90
        4
 70
     1
 43
0.0
 10
3967.397019203409
 20
872.3862474543198
 10
3948.272714606987
 20
872.3862474543198
 10
3948.272714606987
 20
982.7187739722207
 10
3967.397019203409
 20
982.7187739722207
  0
LWPOLYLINE
  5
310
102
{ACAD_REACTORS
330
2F2
102
}
330
279
100
AcDbEntity
  8
0
100
AcDbPolyline
 90
        4
 70
     1
 43
0.0
 10
3948.272714606987
 20
982.7187739722207
 10
3928.780634922156
 20
982.7187739722207
 10
3928.780634922156
 20
872.3862474543198
 10
3948.272714606987
 20
872.3862474543198
  0
ARC
  5
311
330
279
100
AcDbEntity
  8
0
100
AcDbCircle
 10
4412.103463235506
 20
999.2411300190793
 30
0.0
 40
38.67231804610492
100
AcDbArc
 50
0.0
 51
104.3150032685406
  0
ARC
  5
312
330
279
100
AcDbEntity
  8
0
100
AcDbCircle
 10
4392.979789476426
 20
999.2411300190793
 30
0.0
 40
38.67231804611583
100
AcDbArc
 50
0.0
 51
110.2522467423264
  0
ARC
  5
313
330
279
100
AcDbEntity
  8
0
100
AcDbCircle
 10
4235.315723596118
 20
999.2411300190793
 30
0.0
 40
38.67231804611583
100
AcDbArc
 50
0.0
 51
180.0
  0
ARC
  5
314
330
279
100
AcDbEntity
  8
0
100
AcDbCircle
 10
4366.206646213736
 20
999.2411300190793
 30
0.0
 40
38.67231804611583
100
AcDbArc
 50
0.0
 51
180.0
  0
LWPOLYLINE
  5
315
102
{ACAD_REACTORS
330
2F2
102
}
330
279
100
AcDbEntity
  8
0
100
AcDbPolyline
 90
        8
 70
     1
 43
0.0
 10
4459.850281168626
 20
981.1061172418916
 10
4459.850281168626
 20
881.1061172418916
 42
0.4142135623730951
 10
4464.850281168625
 20
876.1061172418918
 10
4564.850281168626
 20
876.1061172418918
 42
0.4142135623730951
 10
4569.850281168625
 20
881.1061172418916
 10
4569.850281168625
 20
981.1061172418916
 42
0.4142135623730951
 10
4564.850281168626
 20
986.1061172418917
 10
4464.850281168625
 20
986.1061172418917
 42
0.4142135623730951
  0
LINE
  5
316
330
279
100
AcDbEntity
  8
0
100
AcDbLine
 10
4562.118059612177
 20
986.1061172418917
 30
0.0
 11
4562.118059612177
 21
999.2411300190648
 31
0.0
  0
LINE
  5
317
102
{ACAD_REACTORS
330
31D
102
}
330
279
100
AcDbEntity
  8
0
100
AcDbLine
 10
4941.1421337555
 20
460.0508247173561
 30
0.0
 11
4985.579600392004
 21
508.7714206682135
 31
0.0
  0
LINE
  5
318
102
{ACAD_REACTORS
330
31D
102
}
330
279
100
AcDbEntity
  8
0
100
AcDbLine
 10
4922.938834169471
 20
546.7841933331651
 30
0.0
 11
4900.987796433371
 21
479.3249066319836
 31
0.0
  0
LINE
  5
319
102
{ACAD_REACTORS
330
31D
102
}
330
279
100
AcDbEntity
  8
0
100
AcDbLine
 10
5374.808976834544
 20
500.740553203795
 30
0.0
 11
5374.808976834544
 21
576.7660985336983
 31
0.0
  0
LINE
  5
31A
102
{ACAD_REACTORS
330
31D
102
}
330
279
100
AcDbEntity
  8
0
100
AcDbLine
 10
5312.16821061202
 20
538.7533258687467
 30
0.0
 11
5290.217172875919
 21
471.2940391675506
 31
0.0
  0
LINE
  5
31B
102
{ACAD_REACTORS
330
31D
102
}
330
279
100
AcDbEntity
  8
0
100
AcDbLine
 10
5180.461984195418
 20
431.6750930097182
 30
0.0
 11
5180.461984195418
 21
534.4701965543785
 31
0.0
  0
LINE
  5
31C
102
{ACAD_REACTORS
330
31D
102
}
330
279
100
AcDbEntity
  8
0
100
AcDbLine
 10
5104.971830029803
 20
532.8640230614978
 30
0.0
 11
5104.971830029803
 21
433.281266502599
 31
0.0
  0
HATCH
  5
31D
330
279
100
AcDbEntity
  8
0
 62
    30
100
AcDbHatch
 10
0.0
 20
0.0
 30
0.0
210
0.0
220
0.0
230
1.0
  2
SOLID
 70
     1
 71
     1
 91
       12
 92
        7
 72
     0
 73
     1
 93
        8
 10
4860.110066823755
 20
788.7809995945576
 10
4843.512940730614
 20
809.6612550020648
 10
4800.681647587005
 20
809.1258638377761
 10
4784.619912658139
 20
787.174826101676
 10
4784.619912658142
 20
687.5920695427915
 10
4800.681647587007
 20
665.6410318066768
 10
4843.512940730615
 20
665.1056406423881
 10
4860.110066823755
 20
685.9858960498961
 97
        8
330
350
330
348
330
34A
330
349
330
34E
330
347
330
352
330
34F
 92
        7
 72
     0
 73
     1
 93
        8
 10
5041.260281478687
 20
985.8049480551565
 10
5024.663155385546
 20
1006.685203462664
 10
4981.831862241938
 20
1006.149812298375
 10
4965.770127313072
 20
984.198774562275
 10
4965.770127313072
 20
884.6160180033916
 10
4981.831862241938
 20
862.6649802672904
 10
5024.663155385547
 20
862.1295891029873
 10
5041.260281478687
 20
883.0098445104955
 97
        8
330
345
330
351
330
346
330
35C
330
35D
330
35B
330
35E
330
35F
 92
        7
 72
     0
 73
     1
 93
       10
 10
5158.778642041469
 20
922.628790668328
 10
5125.852085437319
 20
920.4872260111581
 10
5119.427391465773
 20
906.031664575188
 10
5139.772255708994
 20
836.4308132168201
 10
5117.821217972894
 20
768.9715265156419
 10
5121.568956122958
 20
758.7990943940226
 10
5125.852085437319
 20
752.3744004225005
 10
5157.975555295029
 20
749.6974446010129
 10
5202.413021931518
 20
798.4180405518704
 10
5202.413021931517
 20
874.4435858817727
 97
       10
330
364
330
365
330
361
330
362
330
354
330
35A
330
359
330
353
330
363
330
360
 92
        7
 72
     0
 73
     1
 93
        8
 10
5331.977683690935
 20
905.4962734108991
 10
5331.977683690936
 20
805.9135168520144
 10
5348.039418619786
 20
783.9624791159
 10
5390.870711763396
 20
783.4270879516109
 10
5407.46783785655
 20
804.3073433591192
 10
5407.467837856549
 20
907.1024469037803
 10
5390.870711763396
 20
927.9827023112879
 10
5348.039418619788
 20
927.4473111469994
 97
        8
330
37A
330
376
330
378
330
377
330
374
330
37B
330
375
330
379
 92
        7
 72
     0
 73
     1
 93
       10
 10
5548.811105230459
 20
954.7522605260445
 10
5526.860067494358
 20
887.2929738248645
 10
5530.60780564443
 20
877.1205417032463
 10
5534.890934958785
 20
870.6958477317236
 10
5567.014404816486
 20
868.0188919102361
 10
5611.451871452991
 20
916.7394878610929
 10
5611.451871452991
 20
992.765033190996
 10
5567.817491562934
 20
1040.95023797755
 10
5534.890934958784
 20
1038.808673320381
 10
5528.466240987247
 20
1024.35311188441
 97
       10
330
384
330
367
330
369
330
36A
330
37C
330
37D
330
368
330
381
330
382
330
366
 92
        7
 72
     0
 73
     1
 93
        8
 10
5497.948944622424
 20
666.1764229709802
 10
5497.948944622425
 20
566.5936664120793
 10
5514.010679551276
 20
544.6426286759956
 10
5556.841972694885
 20
544.1072375116923
 10
5573.439098788038
 20
564.9874929191992
 10
5573.439098788039
 20
667.7825964638598
 10
5556.841972694885
 20
688.6628518713692
 10
5514.010679551276
 20
688.1274607070804
 97
        8
330
373
330
371
330
372
330
36B
330
37F
330
37E
330
380
330
36C
 92
        7
 72
     0
 73
     1
 93
       10
 10
5331.174596944496
 20
624.9513033202523
 10
5298.248040340345
 20
622.8097386630829
 10
5291.823346368801
 20
608.3541772270982
 10
5312.168210612019
 20
538.7533258687453
 10
5290.21717287592
 20
471.2940391675512
 10
5293.964911025985
 20
461.1216070459483
 10
5298.248040340345
 20
454.6969130744106
 10
5330.371510198055
 20
452.0199572529376
 10
5374.808976834544
 20
500.740553203795
 10
5374.808976834543
 20
576.766098533698
 97
       10
330
36D
330
36E
330
36F
330
31A
330
33C
330
33D
330
33B
330
33E
330
319
330
370
 92
        7
 72
     0
 73
     1
 93
       10
 10
5485.367252261485
 20
381.8837147302689
 10
5452.440695657343
 20
379.7421500730993
 10
5446.016001685791
 20
365.28658863713
 10
5466.360865929011
 20
295.6857372787613
 10
5444.40982819291
 20
228.2264505775811
 10
5448.157566342975
 20
218.0540184559616
 10
5452.440695657344
 20
211.6293244844268
 10
5484.564165515045
 20
208.9523686629541
 10
5529.001632151535
 20
257.6729646138116
 10
5529.001632151536
 20
333.698509943714
 97
       10
330
33F
330
341
330
334
330
338
330
339
330
337
330
333
330
342
330
340
330
343
 92
        7
 72
     0
 73
     1
 93
        8
 10
5232.93031829634
 20
311.2120810433111
 10
5216.868583367489
 20
289.261043307224
 10
5216.868583367489
 20
189.6782867483257
 10
5232.93031829634
 20
167.7272490122263
 10
5275.761611439948
 20
167.1918578479376
 10
5292.358737533104
 20
188.0721132554455
 10
5292.358737533104
 20
290.8672168001059
 10
5275.761611439948
 20
311.7474722076143
 97
        8
330
32F
330
32C
330
32D
330
31F
330
336
330
335
330
33A
330
320
 92
        7
 72
     0
 73
     1
 93
        8
 10
5121.03356495867
 20
554.8150607975981
 10
5104.971830029803
 20
532.864023061499
 10
5104.971830029803
 20
433.2812665025981
 10
5121.033564958668
 20
411.3302287665132
 10
5163.864858102278
 20
410.7948376022099
 10
5180.461984195417
 20
431.675093009717
 10
5180.461984195418
 20
534.4701965543776
 10
5163.864858102278
 20
555.3504519618868
 97
        8
330
355
330
31C
330
32E
330
330
330
331
330
31B
330
357
330
358
 92
        7
 72
     0
 73
     1
 93
        8
 10
4952.920739369996
 20
399.5516231520155
 10
4910.08944622639
 20
399.0162319877122
 10
4894.027711297537
 20
377.0651942516258
 10
4894.027711297536
 20
277.4824376927282
 10
4910.089446226389
 20
255.5313999566274
 10
4952.920739369996
 20
254.9960087923386
 10
4969.517865463136
 20
275.8762641998469
 10
4969.517865463138
 20
378.6713677445065
 97
        8
330
321
330
324
330
323
330
325
330
326
330
322
330
32A
330
32B
 92
        7
 72
     0
 73
     1
 93
       10
 10
4941.945220501946
 20
632.9821707846709
 10
4909.018663897796
 20
630.8406061275014
 10
4902.59396992626
 20
616.3850446915307
 10
4922.93883416947
 20
546.7841933331648
 10
4900.987796433371
 20
479.3249066319839
 10
4904.735534583443
 20
469.1524745103682
 10
4909.018663897797
 20
462.7277805388433
 10
4941.1421337555
 20
460.0508247173561
 10
4985.579600392003
 20
508.7714206682135
 10
4985.579600392004
 20
584.796965998117
 97
       10
330
34D
330
34B
330
34C
330
318
330
327
330
329
330
328
330
317
330
356
330
344
 75
     0
 76
     1
 47
2.204275466911288
 98
       27
 10
4824.248393569701
 20
745.0585178442265
 10
5004.999011428146
 20
906.1384799997609
 10
5124.029893465594
 20
828.9083803368262
 10
5124.029893465594
 20
828.9083803368262
 10
5124.029893465594
 20
828.9083803368262
 10
5124.029893465594
 20
828.9083803368262
 10
5124.029893465594
 20
828.9083803368262
 10
5124.029893465594
 20
828.9083803368262
 10
5124.029893465594
 20
828.9083803368262
 10
5124.029893465594
 20
828.9083803368262
 10
5124.029893465594
 20
828.9083803368262
 10
5124.029893465594
 20
828.9083803368262
 10
5124.029893465594
 20
828.9083803368262
 10
5124.029893465594
 20
828.9083803368262
 10
5124.029893465594
 20
828.9083803368262
 10
4815.431300801042
 20
740.6453151724995
 10
5013.816104196804
 20
897.3121570121579
 10
5172.523946913402
 20
826.701737823037
 10
5381.930116269977
 20
842.147823640305
 10
5575.906373281387
 20
928.2042462908425
 10
5529.616593025747
 20
645.7626518902102
 10
5355.478794743808
 20
544.2601434224047
 10
5463.488310820429
 20
319.1895249074145
 10
5256.286414656023
 20
264.0251091797249
 10
5146.072625387233
 20
462.6169234435942
 10
4919.032270493342
 20
352.288174344037
 10
4969.730597133318
 20
542.0535832644668
  0
LINE
  5
31E
330
279
100
AcDbEntity
  8
0
100
AcDbLine
 10
5653.747773432296
 20
-73.19877492057321
 30
0.0
 11
5653.747773432296
 21
1298.473388003505
 31
0.0
  0
LINE
  5
31F
102
{ACAD_REACTORS
330
31D
102
}
330
279
100
AcDbEntity
  8
0
100
AcDbLine
 10
5232.93031829634
 20
167.7272490122263
 30
0.0
 11
5275.761611439949
 21
167.1918578479376
 31
0.0
  0
LINE
  5
320
102
{ACAD_REACTORS
330
31D
102
}
330
279
100
AcDbEntity
  8
0
100
AcDbLine
 10
5275.761611439949
 20
311.7474722076144
 30
0.0
 11
5232.93031829634
 21
311.2120810433111
 31
0.0
  0
LINE
  5
321
102
{ACAD_REACTORS
330
31D
102
}
330
279
100
AcDbEntity
  8
0
100
AcDbLine
 10
4910.089446226389
 20
399.0162319877122
 30
0.0
 11
4894.027711297537
 21
377.0651942516265
 31
0.0
  0
LINE
  5
322
102
{ACAD_REACTORS
330
31D
102
}
330
279
100
AcDbEntity
  8
0
100
AcDbLine
 10
4969.517865463138
 20
275.8762641998468
 30
0.0
 11
4969.517865463138
 21
378.6713677445072
 31
0.0
  0
LINE
  5
323
102
{ACAD_REACTORS
330
31D
102
}
330
279
100
AcDbEntity
  8
0
100
AcDbLine
 10
4894.027711297537
 20
277.4824376927276
 30
0.0
 11
4910.089446226389
 21
255.5313999566274
 31
0.0
  0
LINE
  5
324
102
{ACAD_REACTORS
330
31D
102
}
330
279
100
AcDbEntity
  8
0
100
AcDbLine
 10
4894.027711297537
 20
377.0651942516265
 30
0.0
 11
4894.027711297537
 21
277.4824376927276
 31
0.0
  0
LINE
  5
325
102
{ACAD_REACTORS
330
31D
102
}
330
279
100
AcDbEntity
  8
0
100
AcDbLine
 10
4910.089446226389
 20
255.5313999566274
 30
0.0
 11
4952.920739369996
 21
254.9960087923386
 31
0.0
  0
LINE
  5
326
102
{ACAD_REACTORS
330
31D
102
}
330
279
100
AcDbEntity
  8
0
100
AcDbLine
 10
4952.920739369996
 20
254.9960087923386
 30
0.0
 11
4969.517865463138
 21
275.8762641998468
 31
0.0
  0
LINE
  5
327
102
{ACAD_REACTORS
330
31D
102
}
330
279
100
AcDbEntity
  8
0
100
AcDbLine
 10
4900.987796433371
 20
479.3249066319836
 30
0.0
 11
4904.735534583443
 21
469.1524745103666
 31
0.0
  0
LINE
  5
328
102
{ACAD_REACTORS
330
31D
102
}
330
279
100
AcDbEntity
  8
0
100
AcDbLine
 10
4909.018663897796
 20
462.7277805388435
 30
0.0
 11
4941.1421337555
 21
460.0508247173561
 31
0.0
  0
LINE
  5
329
102
{ACAD_REACTORS
330
31D
102
}
330
279
100
AcDbEntity
  8
0
100
AcDbLine
 10
4904.735534583443
 20
469.1524745103666
 30
0.0
 11
4909.018663897796
 21
462.7277805388435
 31
0.0
  0
LINE
  5
32A
102
{ACAD_REACTORS
330
31D
102
}
330
279
100
AcDbEntity
  8
0
100
AcDbLine
 10
4969.517865463138
 20
378.6713677445072
 30
0.0
 11
4952.920739369996
 21
399.5516231520155
 31
0.0
  0
LINE
  5
32B
102
{ACAD_REACTORS
330
31D
102
}
330
279
100
AcDbEntity
  8
0
100
AcDbLine
 10
4952.920739369996
 20
399.5516231520155
 30
0.0
 11
4910.089446226389
 21
399.0162319877122
 31
0.0
  0
LINE
  5
32C
102
{ACAD_REACTORS
330
31D
102
}
330
279
100
AcDbEntity
  8
0
100
AcDbLine
 10
5216.868583367489
 20
289.2610433072254
 30
0.0
 11
5216.868583367489
 21
189.6782867483266
 31
0.0
  0
LINE
  5
32D
102
{ACAD_REACTORS
330
31D
102
}
330
279
100
AcDbEntity
  8
0
100
AcDbLine
 10
5216.868583367489
 20
189.6782867483266
 30
0.0
 11
5232.93031829634
 21
167.7272490122263
 31
0.0
  0
LINE
  5
32E
102
{ACAD_REACTORS
330
31D
102
}
330
279
100
AcDbEntity
  8
0
100
AcDbLine
 10
5104.971830029803
 20
433.281266502599
 30
0.0
 11
5121.033564958669
 21
411.3302287665133
 31
0.0
  0
LINE
  5
32F
102
{ACAD_REACTORS
330
31D
102
}
330
279
100
AcDbEntity
  8
0
100
AcDbLine
 10
5232.93031829634
 20
311.2120810433111
 30
0.0
 11
5216.868583367489
 21
289.2610433072254
 31
0.0
  0
LINE
  5
330
102
{ACAD_REACTORS
330
31D
102
}
330
279
100
AcDbEntity
  8
0
100
AcDbLine
 10
5121.033564958669
 20
411.3302287665133
 30
0.0
 11
5163.864858102278
 21
410.79483760221
 31
0.0
  0
LINE
  5
331
102
{ACAD_REACTORS
330
31D
102
}
330
279
100
AcDbEntity
  8
0
100
AcDbLine
 10
5163.864858102278
 20
410.79483760221
 30
0.0
 11
5180.461984195418
 21
431.6750930097182
 31
0.0
  0
LINE
  5
332
330
279
100
AcDbEntity
  8
0
100
AcDbLine
 10
5505.979812086843
 20
-42.68147855575125
 30
0.0
 11
5653.747773432296
 21
-73.19877492057321
 31
0.0
  0
LINE
  5
333
102
{ACAD_REACTORS
330
31D
102
}
330
279
100
AcDbEntity
  8
0
100
AcDbLine
 10
5484.564165515045
 20
208.9523686629541
 30
0.0
 11
5529.001632151535
 21
257.6729646138114
 31
0.0
  0
LINE
  5
334
102
{ACAD_REACTORS
330
31D
102
}
330
279
100
AcDbEntity
  8
0
100
AcDbLine
 10
5466.360865929011
 20
295.685737278763
 30
0.0
 11
5444.40982819291
 21
228.2264505775815
 31
0.0
  0
LINE
  5
335
102
{ACAD_REACTORS
330
31D
102
}
330
279
100
AcDbEntity
  8
0
100
AcDbLine
 10
5292.358737533104
 20
188.0721132554458
 30
0.0
 11
5292.358737533104
 21
290.8672168001062
 31
0.0
  0
LINE
  5
336
102
{ACAD_REACTORS
330
31D
102
}
330
279
100
AcDbEntity
  8
0
100
AcDbLine
 10
5275.761611439949
 20
167.1918578479376
 30
0.0
 11
5292.358737533104
 21
188.0721132554458
 31
0.0
  0
LINE
  5
337
102
{ACAD_REACTORS
330
31D
102
}
330
279
100
AcDbEntity
  8
0
100
AcDbLine
 10
5452.440695657343
 20
211.6293244844269
 30
0.0
 11
5484.564165515045
 21
208.9523686629541
 31
0.0
  0
LINE
  5
338
102
{ACAD_REACTORS
330
31D
102
}
330
279
100
AcDbEntity
  8
0
100
AcDbLine
 10
5444.40982819291
 20
228.2264505775815
 30
0.0
 11
5448.157566342975
 21
218.0540184559645
 31
0.0
  0
LINE
  5
339
102
{ACAD_REACTORS
330
31D
102
}
330
279
100
AcDbEntity
  8
0
100
AcDbLine
 10
5448.157566342975
 20
218.0540184559645
 30
0.0
 11
5452.440695657343
 21
211.6293244844269
 31
0.0
  0
LINE
  5
33A
102
{ACAD_REACTORS
330
31D
102
}
330
279
100
AcDbEntity
  8
0
100
AcDbLine
 10
5292.358737533104
 20
290.8672168001062
 30
0.0
 11
5275.761611439949
 21
311.7474722076144
 31
0.0
  0
LINE
  5
33B
102
{ACAD_REACTORS
330
31D
102
}
330
279
100
AcDbEntity
  8
0
100
AcDbLine
 10
5298.248040340345
 20
454.6969130744105
 30
0.0
 11
5330.371510198055
 21
452.0199572529377
 31
0.0
  0
LINE
  5
33C
102
{ACAD_REACTORS
330
31D
102
}
330
279
100
AcDbEntity
  8
0
100
AcDbLine
 10
5290.217172875919
 20
471.2940391675506
 30
0.0
 11
5293.964911025984
 21
461.1216070459481
 31
0.0
  0
LINE
  5
33D
102
{ACAD_REACTORS
330
31D
102
}
330
279
100
AcDbEntity
  8
0
100
AcDbLine
 10
5293.964911025984
 20
461.1216070459481
 30
0.0
 11
5298.248040340345
 21
454.6969130744105
 31
0.0
  0
LINE
  5
33E
102
{ACAD_REACTORS
330
31D
102
}
330
279
100
AcDbEntity
  8
0
100
AcDbLine
 10
5330.371510198055
 20
452.0199572529377
 30
0.0
 11
5374.808976834544
 21
500.740553203795
 31
0.0
  0
LINE
  5
33F
102
{ACAD_REACTORS
330
31D
102
}
330
279
100
AcDbEntity
  8
0
100
AcDbLine
 10
5452.440695657343
 20
379.7421500730993
 30
0.0
 11
5446.016001685791
 21
365.2865886371287
 31
0.0
  0
LINE
  5
340
102
{ACAD_REACTORS
330
31D
102
}
330
279
100
AcDbEntity
  8
0
100
AcDbLine
 10
5529.001632151535
 20
333.6985099437147
 30
0.0
 11
5485.367252261486
 21
381.8837147302687
 31
0.0
  0
LINE
  5
341
102
{ACAD_REACTORS
330
31D
102
}
330
279
100
AcDbEntity
  8
0
100
AcDbLine
 10
5446.016001685791
 20
365.2865886371287
 30
0.0
 11
5466.360865929011
 21
295.685737278763
 31
0.0
  0
LINE
  5
342
102
{ACAD_REACTORS
330
31D
102
}
330
279
100
AcDbEntity
  8
0
100
AcDbLine
 10
5529.001632151535
 20
257.6729646138114
 30
0.0
 11
5529.001632151535
 21
333.6985099437147
 31
0.0
  0
LINE
  5
343
102
{ACAD_REACTORS
330
31D
102
}
330
279
100
AcDbEntity
  8
0
100
AcDbLine
 10
5485.367252261486
 20
381.8837147302687
 30
0.0
 11
5452.440695657343
 21
379.7421500730993
 31
0.0
  0
LINE
  5
344
102
{ACAD_REACTORS
330
31D
102
}
330
279
100
AcDbEntity
  8
0
100
AcDbLine
 10
4985.579600392004
 20
584.7969659981167
 30
0.0
 11
4941.945220501946
 21
632.9821707846709
 31
0.0
  0
LINE
  5
345
102
{ACAD_REACTORS
330
31D
102
}
330
279
100
AcDbEntity
  8
0
100
AcDbLine
 10
4981.831862241938
 20
1006.149812298375
 30
0.0
 11
4965.770127313072
 21
984.198774562275
 31
0.0
  0
LINE
  5
346
102
{ACAD_REACTORS
330
31D
102
}
330
279
100
AcDbEntity
  8
0
100
AcDbLine
 10
4965.770127313072
 20
884.6160180033907
 30
0.0
 11
4981.831862241938
 21
862.6649802672904
 31
0.0
  0
LINE
  5
347
102
{ACAD_REACTORS
330
31D
102
}
330
279
100
AcDbEntity
  8
0
100
AcDbLine
 10
4860.110066823755
 20
685.9858960498963
 30
0.0
 11
4860.110066823755
 21
788.7809995945567
 31
0.0
  0
LINE
  5
348
102
{ACAD_REACTORS
330
31D
102
}
330
279
100
AcDbEntity
  8
0
100
AcDbLine
 10
4784.61991265814
 20
787.174826101676
 30
0.0
 11
4784.61991265814
 21
687.5920695427916
 31
0.0
  0
LINE
  5
349
102
{ACAD_REACTORS
330
31D
102
}
330
279
100
AcDbEntity
  8
0
100
AcDbLine
 10
4800.681647587007
 20
665.6410318066768
 30
0.0
 11
4843.512940730615
 21
665.1056406423881
 31
0.0
  0
LINE
  5
34A
102
{ACAD_REACTORS
330
31D
102
}
330
279
100
AcDbEntity
  8
0
100
AcDbLine
 10
4784.61991265814
 20
687.5920695427916
 30
0.0
 11
4800.681647587007
 21
665.6410318066768
 31
0.0
  0
LINE
  5
34B
102
{ACAD_REACTORS
330
31D
102
}
330
279
100
AcDbEntity
  8
0
100
AcDbLine
 10
4909.018663897796
 20
630.8406061275014
 30
0.0
 11
4902.593969926259
 21
616.3850446915307
 31
0.0
  0
LINE
  5
34C
102
{ACAD_REACTORS
330
31D
102
}
330
279
100
AcDbEntity
  8
0
100
AcDbLine
 10
4902.593969926259
 20
616.3850446915307
 30
0.0
 11
4922.938834169471
 21
546.7841933331651
 31
0.0
  0
LINE
  5
34D
102
{ACAD_REACTORS
330
31D
102
}
330
279
100
AcDbEntity
  8
0
100
AcDbLine
 10
4941.945220501946
 20
632.9821707846709
 30
0.0
 11
4909.018663897796
 21
630.8406061275014
 31
0.0
  0
LINE
  5
34E
102
{ACAD_REACTORS
330
31D
102
}
330
279
100
AcDbEntity
  8
0
100
AcDbLine
 10
4843.512940730615
 20
665.1056406423881
 30
0.0
 11
4860.110066823755
 21
685.9858960498963
 31
0.0
  0
LINE
  5
34F
102
{ACAD_REACTORS
330
31D
102
}
330
279
100
AcDbEntity
  8
0
100
AcDbLine
 10
4843.512940730615
 20
809.6612550020649
 30
0.0
 11
4800.681647587007
 21
809.1258638377762
 31
0.0
  0
LINE
  5
350
102
{ACAD_REACTORS
330
31D
102
}
330
279
100
AcDbEntity
  8
0
100
AcDbLine
 10
4800.681647587007
 20
809.1258638377762
 30
0.0
 11
4784.61991265814
 21
787.174826101676
 31
0.0
  0
LINE
  5
351
102
{ACAD_REACTORS
330
31D
102
}
330
279
100
AcDbEntity
  8
0
100
AcDbLine
 10
4965.770127313072
 20
984.198774562275
 30
0.0
 11
4965.770127313072
 21
884.6160180033907
 31
0.0
  0
LINE
  5
352
102
{ACAD_REACTORS
330
31D
102
}
330
279
100
AcDbEntity
  8
0
100
AcDbLine
 10
4860.110066823755
 20
788.7809995945567
 30
0.0
 11
4843.512940730615
 21
809.6612550020649
 31
0.0
  0
LINE
  5
353
102
{ACAD_REACTORS
330
31D
102
}
330
279
100
AcDbEntity
  8
0
100
AcDbLine
 10
5157.975555295029
 20
749.697444601013
 30
0.0
 11
5202.413021931518
 21
798.4180405518705
 31
0.0
  0
LINE
  5
354
102
{ACAD_REACTORS
330
31D
102
}
330
279
100
AcDbEntity
  8
0
100
AcDbLine
 10
5117.821217972894
 20
768.9715265156405
 30
0.0
 11
5121.568956122958
 21
758.7990943940235
 31
0.0
  0
LINE
  5
355
102
{ACAD_REACTORS
330
31D
102
}
330
279
100
AcDbEntity
  8
0
100
AcDbLine
 10
5121.033564958669
 20
554.8150607975981
 30
0.0
 11
5104.971830029803
 21
532.8640230614978
 31
0.0
  0
LINE
  5
356
102
{ACAD_REACTORS
330
31D
102
}
330
279
100
AcDbEntity
  8
0
100
AcDbLine
 10
4985.579600392004
 20
508.7714206682135
 30
0.0
 11
4985.579600392004
 21
584.7969659981167
 31
0.0
  0
LINE
  5
357
102
{ACAD_REACTORS
330
31D
102
}
330
279
100
AcDbEntity
  8
0
100
AcDbLine
 10
5180.461984195418
 20
534.4701965543785
 30
0.0
 11
5163.864858102278
 21
555.3504519618868
 31
0.0
  0
LINE
  5
358
102
{ACAD_REACTORS
330
31D
102
}
330
279
100
AcDbEntity
  8
0
100
AcDbLine
 10
5163.864858102278
 20
555.3504519618868
 30
0.0
 11
5121.033564958669
 21
554.8150607975981
 31
0.0
  0
LINE
  5
359
102
{ACAD_REACTORS
330
31D
102
}
330
279
100
AcDbEntity
  8
0
100
AcDbLine
 10
5125.852085437319
 20
752.3744004225004
 30
0.0
 11
5157.975555295029
 21
749.697444601013
 31
0.0
  0
LINE
  5
35A
102
{ACAD_REACTORS
330
31D
102
}
330
279
100
AcDbEntity
  8
0
100
AcDbLine
 10
5121.568956122958
 20
758.7990943940235
 30
0.0
 11
5125.852085437319
 21
752.3744004225004
 31
0.0
  0
LINE
  5
35B
102
{ACAD_REACTORS
330
31D
102
}
330
279
100
AcDbEntity
  8
0
100
AcDbLine
 10
5041.260281478687
 20
883.0098445104955
 30
0.0
 11
5041.260281478687
 21
985.8049480551558
 31
0.0
  0
LINE
  5
35C
102
{ACAD_REACTORS
330
31D
102
}
330
279
100
AcDbEntity
  8
0
100
AcDbLine
 10
4981.831862241938
 20
862.6649802672904
 30
0.0
 11
5024.663155385547
 21
862.1295891029872
 31
0.0
  0
LINE
  5
35D
102
{ACAD_REACTORS
330
31D
102
}
330
279
100
AcDbEntity
  8
0
100
AcDbLine
 10
5024.663155385547
 20
862.1295891029872
 30
0.0
 11
5041.260281478687
 21
883.0098445104955
 31
0.0
  0
LINE
  5
35E
102
{ACAD_REACTORS
330
31D
102
}
330
279
100
AcDbEntity
  8
0
100
AcDbLine
 10
5041.260281478687
 20
985.8049480551558
 30
0.0
 11
5024.663155385547
 21
1006.685203462664
 31
0.0
  0
LINE
  5
35F
102
{ACAD_REACTORS
330
31D
102
}
330
279
100
AcDbEntity
  8
0
100
AcDbLine
 10
5024.663155385547
 20
1006.685203462664
 30
0.0
 11
4981.831862241938
 21
1006.149812298375
 31
0.0
  0
LINE
  5
360
102
{ACAD_REACTORS
330
31D
102
}
330
279
100
AcDbEntity
  8
0
100
AcDbLine
 10
5202.413021931518
 20
874.4435858817737
 30
0.0
 11
5158.778642041469
 21
922.6287906683278
 31
0.0
  0
LINE
  5
361
102
{ACAD_REACTORS
330
31D
102
}
330
279
100
AcDbEntity
  8
0
100
AcDbLine
 10
5119.427391465774
 20
906.0316645751877
 30
0.0
 11
5139.772255708994
 21
836.430813216822
 31
0.0
  0
LINE
  5
362
102
{ACAD_REACTORS
330
31D
102
}
330
279
100
AcDbEntity
  8
0
100
AcDbLine
 10
5139.772255708994
 20
836.430813216822
 30
0.0
 11
5117.821217972894
 21
768.9715265156405
 31
0.0
  0
LINE
  5
363
102
{ACAD_REACTORS
330
31D
102
}
330
279
100
AcDbEntity
  8
0
100
AcDbLine
 10
5202.413021931518
 20
798.4180405518705
 30
0.0
 11
5202.413021931518
 21
874.4435858817737
 31
0.0
  0
LINE
  5
364
102
{ACAD_REACTORS
330
31D
102
}
330
279
100
AcDbEntity
  8
0
100
AcDbLine
 10
5158.778642041469
 20
922.6287906683278
 30
0.0
 11
5125.852085437319
 21
920.4872260111583
 31
0.0
  0
LINE
  5
365
102
{ACAD_REACTORS
330
31D
102
}
330
279
100
AcDbEntity
  8
0
100
AcDbLine
 10
5125.852085437319
 20
920.4872260111583
 30
0.0
 11
5119.427391465774
 21
906.0316645751877
 31
0.0
  0
LINE
  5
366
102
{ACAD_REACTORS
330
31D
102
}
330
279
100
AcDbEntity
  8
0
100
AcDbLine
 10
5611.451871452991
 20
992.7650331909967
 30
0.0
 11
5567.817491562934
 21
1040.95023797755
 31
0.0
  0
LINE
  5
367
102
{ACAD_REACTORS
330
31D
102
}
330
279
100
AcDbEntity
  8
0
100
AcDbLine
 10
5534.890934958784
 20
1038.808673320381
 30
0.0
 11
5528.466240987246
 21
1024.35311188441
 31
0.0
  0
LINE
  5
368
102
{ACAD_REACTORS
330
31D
102
}
330
279
100
AcDbEntity
  8
0
100
AcDbLine
 10
5534.890934958784
 20
870.6958477317234
 30
0.0
 11
5567.014404816486
 21
868.0188919102361
 31
0.0
  0
LINE
  5
369
102
{ACAD_REACTORS
330
31D
102
}
330
279
100
AcDbEntity
  8
0
100
AcDbLine
 10
5528.466240987246
 20
1024.35311188441
 30
0.0
 11
5548.811105230459
 21
954.7522605260452
 31
0.0
  0
LINE
  5
36A
102
{ACAD_REACTORS
330
31D
102
}
330
279
100
AcDbEntity
  8
0
100
AcDbLine
 10
5548.811105230459
 20
954.7522605260452
 30
0.0
 11
5526.860067494358
 21
887.2929738248636
 31
0.0
  0
LINE
  5
36B
102
{ACAD_REACTORS
330
31D
102
}
330
279
100
AcDbEntity
  8
0
100
AcDbLine
 10
5514.010679551276
 20
544.6426286759956
 30
0.0
 11
5556.841972694884
 21
544.1072375116923
 31
0.0
  0
LINE
  5
36C
102
{ACAD_REACTORS
330
31D
102
}
330
279
100
AcDbEntity
  8
0
100
AcDbLine
 10
5556.841972694884
 20
688.6628518713692
 30
0.0
 11
5514.010679551276
 21
688.1274607070804
 31
0.0
  0
LINE
  5
36D
102
{ACAD_REACTORS
330
31D
102
}
330
279
100
AcDbEntity
  8
0
100
AcDbLine
 10
5331.174596944496
 20
624.9513033202524
 30
0.0
 11
5298.248040340345
 21
622.8097386630829
 31
0.0
  0
LINE
  5
36E
102
{ACAD_REACTORS
330
31D
102
}
330
279
100
AcDbEntity
  8
0
100
AcDbLine
 10
5298.248040340345
 20
622.8097386630829
 30
0.0
 11
5291.823346368801
 21
608.3541772270978
 31
0.0
  0
LINE
  5
36F
102
{ACAD_REACTORS
330
31D
102
}
330
279
100
AcDbEntity
  8
0
100
AcDbLine
 10
5291.823346368801
 20
608.3541772270978
 30
0.0
 11
5312.16821061202
 21
538.7533258687467
 31
0.0
  0
LINE
  5
370
102
{ACAD_REACTORS
330
31D
102
}
330
279
100
AcDbEntity
  8
0
100
AcDbLine
 10
5374.808976834544
 20
576.7660985336983
 30
0.0
 11
5331.174596944496
 21
624.9513033202524
 31
0.0
  0
LINE
  5
371
102
{ACAD_REACTORS
330
31D
102
}
330
279
100
AcDbEntity
  8
0
100
AcDbLine
 10
5497.948944622424
 20
666.1764229709802
 30
0.0
 11
5497.948944622424
 21
566.5936664120813
 31
0.0
  0
LINE
  5
372
102
{ACAD_REACTORS
330
31D
102
}
330
279
100
AcDbEntity
  8
0
100
AcDbLine
 10
5497.948944622424
 20
566.5936664120813
 30
0.0
 11
5514.010679551276
 21
544.6426286759956
 31
0.0
  0
LINE
  5
373
102
{ACAD_REACTORS
330
31D
102
}
330
279
100
AcDbEntity
  8
0
100
AcDbLine
 10
5514.010679551276
 20
688.1274607070804
 30
0.0
 11
5497.948944622424
 21
666.1764229709802
 31
0.0
  0
LINE
  5
374
102
{ACAD_REACTORS
330
31D
102
}
330
279
100
AcDbEntity
  8
0
100
AcDbLine
 10
5390.870711763396
 20
783.4270879516111
 30
0.0
 11
5407.46783785655
 21
804.3073433591194
 31
0.0
  0
LINE
  5
375
102
{ACAD_REACTORS
330
31D
102
}
330
279
100
AcDbEntity
  8
0
100
AcDbLine
 10
5407.46783785655
 20
907.1024469037798
 30
0.0
 11
5390.870711763396
 21
927.9827023112879
 31
0.0
  0
LINE
  5
376
102
{ACAD_REACTORS
330
31D
102
}
330
279
100
AcDbEntity
  8
0
100
AcDbLine
 10
5331.977683690936
 20
905.496273410899
 30
0.0
 11
5331.977683690936
 21
805.9135168520146
 31
0.0
  0
LINE
  5
377
102
{ACAD_REACTORS
330
31D
102
}
330
279
100
AcDbEntity
  8
0
100
AcDbLine
 10
5348.039418619787
 20
783.9624791158999
 30
0.0
 11
5390.870711763396
 21
783.4270879516111
 31
0.0
  0
LINE
  5
378
102
{ACAD_REACTORS
330
31D
102
}
330
279
100
AcDbEntity
  8
0
100
AcDbLine
 10
5331.977683690936
 20
805.9135168520146
 30
0.0
 11
5348.039418619787
 21
783.9624791158999
 31
0.0
  0
LINE
  5
379
102
{ACAD_REACTORS
330
31D
102
}
330
279
100
AcDbEntity
  8
0
100
AcDbLine
 10
5390.870711763396
 20
927.9827023112879
 30
0.0
 11
5348.039418619787
 21
927.4473111469992
 31
0.0
  0
LINE
  5
37A
102
{ACAD_REACTORS
330
31D
102
}
330
279
100
AcDbEntity
  8
0
100
AcDbLine
 10
5348.039418619787
 20
927.4473111469992
 30
0.0
 11
5331.977683690936
 21
905.496273410899
 31
0.0
  0
LINE
  5
37B
102
{ACAD_REACTORS
330
31D
102
}
330
279
100
AcDbEntity
  8
0
100
AcDbLine
 10
5407.46783785655
 20
804.3073433591194
 30
0.0
 11
5407.46783785655
 21
907.1024469037798
 31
0.0
  0
LINE
  5
37C
102
{ACAD_REACTORS
330
31D
102
}
330
279
100
AcDbEntity
  8
0
100
AcDbLine
 10
5526.860067494358
 20
887.2929738248636
 30
0.0
 11
5530.60780564443
 21
877.1205417032465
 31
0.0
  0
LINE
  5
37D
102
{ACAD_REACTORS
330
31D
102
}
330
279
100
AcDbEntity
  8
0
100
AcDbLine
 10
5530.60780564443
 20
877.1205417032465
 30
0.0
 11
5534.890934958784
 21
870.6958477317234
 31
0.0
  0
LINE
  5
37E
102
{ACAD_REACTORS
330
31D
102
}
330
279
100
AcDbEntity
  8
0
100
AcDbLine
 10
5573.439098788039
 20
564.9874929192005
 30
0.0
 11
5573.439098788039
 21
667.7825964638609
 31
0.0
  0
LINE
  5
37F
102
{ACAD_REACTORS
330
31D
102
}
330
279
100
AcDbEntity
  8
0
100
AcDbLine
 10
5556.841972694884
 20
544.1072375116923
 30
0.0
 11
5573.439098788039
 21
564.9874929192005
 31
0.0
  0
LINE
  5
380
102
{ACAD_REACTORS
330
31D
102
}
330
279
100
AcDbEntity
  8
0
100
AcDbLine
 10
5573.439098788039
 20
667.7825964638609
 30
0.0
 11
5556.841972694884
 21
688.6628518713692
 31
0.0
  0
LINE
  5
381
102
{ACAD_REACTORS
330
31D
102
}
330
279
100
AcDbEntity
  8
0
100
AcDbLine
 10
5567.014404816486
 20
868.0188919102361
 30
0.0
 11
5611.451871452991
 21
916.7394878610934
 31
0.0
  0
LINE
  5
382
102
{ACAD_REACTORS
330
31D
102
}
330
279
100
AcDbEntity
  8
0
100
AcDbLine
 10
5611.451871452991
 20
916.7394878610934
 30
0.0
 11
5611.451871452991
 21
992.7650331909967
 31
0.0
  0
LINE
  5
383
330
279
100
AcDbEntity
  8
0
100
AcDbLine
 10
5505.979812086843
 20
1267.956091638683
 30
0.0
 11
5653.747773432296
 21
1298.473388003505
 31
0.0
  0
LINE
  5
384
102
{ACAD_REACTORS
330
31D
102
}
330
279
100
AcDbEntity
  8
0
100
AcDbLine
 10
5567.817491562934
 20
1040.95023797755
 30
0.0
 11
5534.890934958784
 21
1038.808673320381
 31
0.0
  0
ENDBLK
  5
27B
330
279
100
AcDbEntity
  8
0
100
AcDbBlockEnd
  0
ENDSEC
  0
SECTION
  2
ENTITIES
  0
INSERT
  5
385
330
1F
100
AcDbEntity
  8
0
100
AcDbBlockReference
  2
ADKX
 10
22.7128560809008
 20
3869.990226354734
 30
0.0
  0
MTEXT
  5
386
330
1F
100
AcDbEntity
  8
0
100
AcDbMText
 10
2182.638923182414
 20
5941.956799989566
 30
0.0
 40
250.0
 41
9704.53
 71
     1
 72
     5
  1
{\Fisocp.shx;Hoogte:250cm\PVrije Valhoogte: 215cm}
1001
ACAD
1000
MTEXTBEGIN
1070
    73
1070
     1
1070
    44
1040
1.0
1070
    74
1070
     0
1000
MTEXTEND
  0
ENDSEC
  0
SECTION
  2
OBJECTS
  0
DICTIONARY
  5
C
330
0
100
AcDbDictionary
  3
ACAD_GROUP
350
D
  3
ACAD_LAYOUT
350
1A
  3
ACAD_MLINESTYLE
350
17
  3
ACAD_PLOTSETTINGS
350
19
  3
ACAD_PLOTSTYLENAME
350
E
  3
ACDBHEADERROUNDTRIPXREC
350
389
  0
DICTIONARY
  5
5D
330
2
100
AcDbDictionary
280
     1
  3
ACAD_LAYERSTATES
360
5E
  0
DICTIONARY
  5
3AA
330
1F
100
AcDbDictionary
280
     1
  3
ACAD_LAYOUTSELFREF
360
3AB
  0
DICTIONARY
  5
3AC
330
50
100
AcDbDictionary
280
     1
  3
ACAD_LAYOUTSELFREF
360
3AD
  0
DICTIONARY
  5
D
102
{ACAD_REACTORS
330
C
102
}
330
C
100
AcDbDictionary
  0
DICTIONARY
  5
1A
102
{ACAD_REACTORS
330
C
102
}
330
C
100
AcDbDictionary
  0
DICTIONARY
  5
17
102
{ACAD_REACTORS
330
C
102
}
330
C
100
AcDbDictionary
  3
STANDARD
350
18
  0
DICTIONARY
  5
19
102
{ACAD_REACTORS
330
C
102
}
330
C
100
AcDbDictionary
  0
ACDBDICTIONARYWDFLT
  5
E
102
{ACAD_REACTORS
330
C
102
}
330
C
100
AcDbDictionary
281
     1
  3
Normal
350
F
100
AcDbDictionaryWithDefault
340
F
  0
DICTIONARY
  5
389
102
{ACAD_REACTORS
330
C
102
}
330
C
100
AcDbDictionary
  3
CEPSNTYPE
350
393
  3
DIMSTYLEDATA
350
397
  3
FINGERPRINTGUID
350
394
  3
HYPERLINKBASE
350
38C
  3
INSUNITS
350
392
  3
LAYOUTDICT
350
38E
  3
LWETCUNION
350
391
  3
PLOTSETDICT
350
38F
  3
PLOTSTYLNAMDICT
350
390
  3
PSVPSCALE
350
396
  3
PUCSBASE
350
39A
  3
PUCSORGBACK
350
3A0
  3
PUCSORGBOTTOM
350
39C
  3
PUCSORGFRONT
350
39F
  3
PUCSORGLEFT
350
39D
  3
PUCSORGRIGHT
350
39E
  3
PUCSORGTOP
350
39B
  3
PUCSORTHOREF
350
398
  3
PUCSORTHOVIEW
350
399
  3
STYLESHEET
350
38D
  3
TSTACKALIGN
350
38A
  3
TSTACKSIZE
350
38B
  3
UCSBASE
350
3A3
  3
UCSORGBACK
350
3A9
  3
UCSORGBOTTOM
350
3A5
  3
UCSORGFRONT
350
3A8
  3
UCSORGLEFT
350
3A6
  3
UCSORGRIGHT
350
3A7
  3
UCSORGTOP
350
3A4
  3
UCSORTHOREF
350
3A1
  3
UCSORTHOVIEW
350
3A2
  3
VERSIONGUID
350
395
  0
DICTIONARY
  5
5E
102
{ACAD_REACTORS
330
5D
102
}
330
5D
100
AcDbDictionary
  0
XRECORD
  5
3AB
102
{ACAD_REACTORS
330
3AA
102
}
330
3AA
100
AcDbXrecord
340
1F
  0
XRECORD
  5
3AD
102
{ACAD_REACTORS
330
3AC
102
}
330
3AC
100
AcDbXrecord
340
50
  0
MLINESTYLE
  5
18
102
{ACAD_REACTORS
330
17
102
}
330
17
100
AcDbMlineStyle
  2
STANDARD
 70
     0
  3

 62
   256
 51
90.0
 52
90.0
 71
     2
 49
0.5
 62
   256
  6
BYLAYER
 49
-0.5
 62
   256
  6
BYLAYER
  0
ACDBPLACEHOLDER
  5
F
102
{ACAD_REACTORS
330
E
102
}
330
E
100
AcDbPlaceHolder
280
     0
  0
XRECORD
  5
393
102
{ACAD_REACTORS
330
389
102
}
330
389
100
AcDbXrecord
 90
        0
  0
XRECORD
  5
397
102
{ACAD_REACTORS
330
389
102
}
330
389
100
AcDbXrecord
1000
DSTYLE
1002
{
1070
   278
 70
    44
1002
}
  0
XRECORD
  5
394
102
{ACAD_REACTORS
330
389
102
}
330
389
100
AcDbXrecord
  1
{FDEAD578-A652-11D2-9A35-0060089B3A3F}
  0
XRECORD
  5
38C
102
{ACAD_REACTORS
330
389
102
}
330
389
100
AcDbXrecord
  1

  0
XRECORD
  5
392
102
{ACAD_REACTORS
330
389
102
}
330
389
100
AcDbXrecord
 90
        4
  0
XRECORD
  5
38E
102
{ACAD_REACTORS
330
389
102
}
330
389
100
AcDbXrecord
340
1A
  0
XRECORD
  5
391
102
{ACAD_REACTORS
330
389
102
}
330
389
100
AcDbXrecord
 90
    10781
  0
XRECORD
  5
38F
102
{ACAD_REACTORS
330
389
102
}
330
389
100
AcDbXrecord
340
19
  0
XRECORD
  5
390
102
{ACAD_REACTORS
330
389
102
}
330
389
100
AcDbXrecord
340
E
  0
XRECORD
  5
396
102
{ACAD_REACTORS
330
389
102
}
330
389
100
AcDbXrecord
 40
0.0
  0
XRECORD
  5
39A
102
{ACAD_REACTORS
330
389
102
}
330
389
100
AcDbXrecord
340
0
  0
XRECORD
  5
3A0
102
{ACAD_REACTORS
330
389
102
}
330
389
100
AcDbXrecord
 10
0.0
 20
0.0
 30
0.0
  0
XRECORD
  5
39C
102
{ACAD_REACTORS
330
389
102
}
330
389
100
AcDbXrecord
 10
0.0
 20
0.0
 30
0.0
  0
XRECORD
  5
39F
102
{ACAD_REACTORS
330
389
102
}
330
389
100
AcDbXrecord
 10
0.0
 20
0.0
 30
0.0
  0
XRECORD
  5
39D
102
{ACAD_REACTORS
330
389
102
}
330
389
100
AcDbXrecord
 10
0.0
 20
0.0
 30
0.0
  0
XRECORD
  5
39E
102
{ACAD_REACTORS
330
389
102
}
330
389
100
AcDbXrecord
 10
0.0
 20
0.0
 30
0.0
  0
XRECORD
  5
39B
102
{ACAD_REACTORS
330
389
102
}
330
389
100
AcDbXrecord
 10
0.0
 20
0.0
 30
0.0
  0
XRECORD
  5
398
102
{ACAD_REACTORS
330
389
102
}
330
389
100
AcDbXrecord
340
0
  0
XRECORD
  5
399
102
{ACAD_REACTORS
330
389
102
}
330
389
100
AcDbXrecord
 70
     0
  0
XRECORD
  5
38D
102
{ACAD_REACTORS
330
389
102
}
330
389
100
AcDbXrecord
  1

  0
XRECORD
  5
38A
102
{ACAD_REACTORS
330
389
102
}
330
389
100
AcDbXrecord
 90
        1
  0
XRECORD
  5
38B
102
{ACAD_REACTORS
330
389
102
}
330
389
100
AcDbXrecord
 90
       70
  0
XRECORD
  5
3A3
102
{ACAD_REACTORS
330
389
102
}
330
389
100
AcDbXrecord
340
0
  0
XRECORD
  5
3A9
102
{ACAD_REACTORS
330
389
102
}
330
389
100
AcDbXrecord
 10
0.0
 20
0.0
 30
0.0
  0
XRECORD
  5
3A5
102
{ACAD_REACTORS
330
389
102
}
330
389
100
AcDbXrecord
 10
0.0
 20
0.0
 30
0.0
  0
XRECORD
  5
3A8
102
{ACAD_REACTORS
330
389
102
}
330
389
100
AcDbXrecord
 10
0.0
 20
0.0
 30
0.0
  0
XRECORD
  5
3A6
102
{ACAD_REACTORS
330
389
102
}
330
389
100
AcDbXrecord
 10
0.0
 20
0.0
 30
0.0
  0
XRECORD
  5
3A7
102
{ACAD_REACTORS
330
389
102
}
330
389
100
AcDbXrecord
 10
0.0
 20
0.0
 30
0.0
  0
XRECORD
  5
3A4
102
{ACAD_REACTORS
330
389
102
}
330
389
100
AcDbXrecord
 10
0.0
 20
0.0
 30
0.0
  0
XRECORD
  5
3A1
102
{ACAD_REACTORS
330
389
102
}
330
389
100
AcDbXrecord
340
0
  0
XRECORD
  5
3A2
102
{ACAD_REACTORS
330
389
102
}
330
389
100
AcDbXrecord
 70
     0
  0
XRECORD
  5
395
102
{ACAD_REACTORS
330
389
102
}
330
389
100
AcDbXrecord
  1
{B73A693F-D584-4D06-8850-796163F05B85}
  0
ENDSEC
  0
EOF
