  0
SECTION
  2
HEADER
  9
$ACADVER
  1
AC1014
  9
$ACADMAINTVER
 70
     9
  9
$DWGCODEPAGE
  3
ANSI_1252
  9
$INSBASE
 10
0.0
 20
0.0
 30
0.0
  9
$EXTMIN
 10
-298.6461567599908
 20
10024.84748981249
 30
-0.0000000000112498
  9
$EXTMAX
 10
10075.17986755274
 20
18058.11650487087
 30
0.0000000000002956
  9
$LIMMIN
 10
0.0
 20
0.0
  9
$LIMMAX
 10
420.0
 20
297.0
  9
$ORTHOMODE
 70
     1
  9
$REGENMODE
 70
     1
  9
$FILLMODE
 70
     1
  9
$QTEXTMODE
 70
     0
  9
$MIRRTEXT
 70
     1
  9
$DRAGMODE
 70
     2
  9
$LTSCALE
 40
1.0
  9
$OSMODE
 70
   511
  9
$ATTMODE
 70
     1
  9
$TEXTSIZE
 40
2.5
  9
$TRACEWID
 40
1.0
  9
$TEXTSTYLE
  7
STANDARD
  9
$CLAYER
  8
0
  9
$CELTYPE
  6
BYLAYER
  9
$CECOLOR
 62
    84
  9
$CELTSCALE
 40
1.0
  9
$DELOBJ
 70
     1
  9
$DISPSILH
 70
     0
  9
$DIMSCALE
 40
1.0
  9
$DIMASZ
 40
2.5
  9
$DIMEXO
 40
0.625
  9
$DIMDLI
 40
3.75
  9
$DIMRND
 40
0.0
  9
$DIMDLE
 40
0.0
  9
$DIMEXE
 40
1.25
  9
$DIMTP
 40
0.0
  9
$DIMTM
 40
0.0
  9
$DIMTXT
 40
2.5
  9
$DIMCEN
 40
2.5
  9
$DIMTSZ
 40
0.0
  9
$DIMTOL
 70
     0
  9
$DIMLIM
 70
     0
  9
$DIMTIH
 70
     0
  9
$DIMTOH
 70
     0
  9
$DIMSE1
 70
     0
  9
$DIMSE2
 70
     0
  9
$DIMTAD
 70
     1
  9
$DIMZIN
 70
     8
  9
$DIMBLK
  1

  9
$DIMASO
 70
     1
  9
$DIMSHO
 70
     1
  9
$DIMPOST
  1

  9
$DIMAPOST
  1

  9
$DIMALT
 70
     0
  9
$DIMALTD
 70
     3
  9
$DIMALTF
 40
0.03937007874016
  9
$DIMLFAC
 40
1.0
  9
$DIMTOFL
 70
     1
  9
$DIMTVP
 40
0.0
  9
$DIMTIX
 70
     0
  9
$DIMSOXD
 70
     0
  9
$DIMSAH
 70
     0
  9
$DIMBLK1
  1

  9
$DIMBLK2
  1

  9
$DIMSTYLE
  2
ISO-25
  9
$DIMCLRD
 70
     0
  9
$DIMCLRE
 70
     0
  9
$DIMCLRT
 70
     0
  9
$DIMTFAC
 40
1.0
  9
$DIMGAP
 40
0.625
  9
$DIMJUST
 70
     0
  9
$DIMSD1
 70
     0
  9
$DIMSD2
 70
     0
  9
$DIMTOLJ
 70
     0
  9
$DIMTZIN
 70
     8
  9
$DIMALTZ
 70
     0
  9
$DIMALTTZ
 70
     0
  9
$DIMFIT
 70
     3
  9
$DIMUPT
 70
     0
  9
$DIMUNIT
 70
     2
  9
$DIMDEC
 70
     2
  9
$DIMTDEC
 70
     2
  9
$DIMALTU
 70
     2
  9
$DIMALTTD
 70
     3
  9
$DIMTXSTY
  7
STANDARD
  9
$DIMAUNIT
 70
     0
  9
$LUNITS
 70
     2
  9
$LUPREC
 70
     4
  9
$SKETCHINC
 40
1.0
  9
$FILLETRAD
 40
10.0
  9
$AUNITS
 70
     0
  9
$AUPREC
 70
     0
  9
$MENU
  1
.
  9
$ELEVATION
 40
0.0
  9
$PELEVATION
 40
0.0
  9
$THICKNESS
 40
0.0
  9
$LIMCHECK
 70
     0
  9
$BLIPMODE
 70
     0
  9
$CHAMFERA
 40
10.0
  9
$CHAMFERB
 40
10.0
  9
$CHAMFERC
 40
20.0
  9
$CHAMFERD
 40
0.0
  9
$SKPOLY
 70
     0
  9
$TDCREATE
 40
2453124.668441099
  9
$TDUPDATE
 40
2453186.702365613
  9
$TDINDWG
 40
0.0083089120
  9
$TDUSRTIMER
 40
0.0083087384
  9
$USRTIMER
 70
     1
  9
$ANGBASE
 50
0.0
  9
$ANGDIR
 70
     0
  9
$PDMODE
 70
     0
  9
$PDSIZE
 40
0.0
  9
$PLINEWID
 40
0.0
  9
$COORDS
 70
     2
  9
$SPLFRAME
 70
     0
  9
$SPLINETYPE
 70
     6
  9
$SPLINESEGS
 70
     8
  9
$ATTDIA
 70
     0
  9
$ATTREQ
 70
     1
  9
$HANDLING
 70
-16383
  9
$HANDSEED
  5
7F8
  9
$SURFTAB1
 70
     6
  9
$SURFTAB2
 70
     6
  9
$SURFTYPE
 70
     6
  9
$SURFU
 70
     6
  9
$SURFV
 70
     6
  9
$UCSNAME
  2

  9
$UCSORG
 10
0.0
 20
0.0
 30
0.0
  9
$UCSXDIR
 10
1.0
 20
0.0
 30
0.0
  9
$UCSYDIR
 10
0.0
 20
1.0
 30
0.0
  9
$PUCSNAME
  2

  9
$PUCSORG
 10
0.0
 20
0.0
 30
0.0
  9
$PUCSXDIR
 10
1.0
 20
0.0
 30
0.0
  9
$PUCSYDIR
 10
0.0
 20
1.0
 30
0.0
  9
$USERI1
 70
     0
  9
$USERI2
 70
     0
  9
$USERI3
 70
     0
  9
$USERI4
 70
     0
  9
$USERI5
 70
     0
  9
$USERR1
 40
0.0
  9
$USERR2
 40
0.0
  9
$USERR3
 40
0.0
  9
$USERR4
 40
0.0
  9
$USERR5
 40
0.0
  9
$WORLDVIEW
 70
     1
  9
$SHADEDGE
 70
     3
  9
$SHADEDIF
 70
    70
  9
$TILEMODE
 70
     1
  9
$MAXACTVP
 70
    64
  9
$PINSBASE
 10
0.0
 20
0.0
 30
0.0
  9
$PLIMCHECK
 70
     0
  9
$PEXTMIN
 10
0.0
 20
0.0
 30
0.0
  9
$PEXTMAX
 10
0.0
 20
0.0
 30
0.0
  9
$PLIMMIN
 10
0.0
 20
0.0
  9
$PLIMMAX
 10
12.0
 20
9.0
  9
$UNITMODE
 70
     0
  9
$VISRETAIN
 70
     1
  9
$PLINEGEN
 70
     0
  9
$PSLTSCALE
 70
     1
  9
$TREEDEPTH
 70
  3020
  9
$PICKSTYLE
 70
     0
  9
$CMLSTYLE
  2
STANDARD
  9
$CMLJUST
 70
     0
  9
$CMLSCALE
 40
20.0
  9
$PROXYGRAPHICS
 70
     1
  9
$MEASUREMENT
 70
     1
  0
ENDSEC
  0
SECTION
  2
CLASSES
  0
CLASS
  1
ACDBDICTIONARYWDFLT
  2
AcDbDictionaryWithDefault
  3
AutoCAD 2000
 90
        0
280
     0
281
     0
  0
CLASS
  1
ACDBPLACEHOLDER
  2
AcDbPlaceHolder
  3
AutoCAD 2000
 90
        0
280
     0
281
     0
  0
CLASS
  1
LAYOUT
  2
AcDbLayout
  3
AutoCAD 2000
 90
        0
280
     0
281
     0
  0
CLASS
  1
DICTIONARYVAR
  2
AcDbDictionaryVar
  3
AutoCAD 2000
 90
        0
280
     0
281
     0
  0
CLASS
  1
SORTENTSTABLE
  2
AcDbSortentsTable
  3
AutoCAD 2000
 90
        0
280
     0
281
     0
  0
CLASS
  1
LONG_TRANSACTION
  2
AcDbLongTransaction
  3
AutoCAD 2000
 90
        0
280
     0
281
     0
  0
CLASS
  1
LWPOLYLINE
  2
AcDbPolyline
  3
AutoCAD 2000
 90
        0
280
     0
281
     1
  0
CLASS
  1
HATCH
  2
AcDbHatch
  3
AutoCAD 2000
 90
        0
280
     0
281
     1
  0
CLASS
  1
XRECORD
  2
AcDbXrecord
  3
AutoCAD 2000
 90
        0
280
     0
281
     0
  0
ENDSEC
  0
SECTION
  2
TABLES
  0
TABLE
  2
VPORT
  5
8
330
0
100
AcDbSymbolTable
 70
     2
  0
VPORT
  5
7D0
330
8
100
AcDbSymbolTableRecord
100
AcDbViewportTableRecord
  2
*ACTIVE
 70
     0
 10
0.0
 20
0.0
 11
1.0
 21
1.0
 12
4888.266855396377
 22
14041.48199734168
 13
0.0
 23
0.0
 14
10.0
 24
10.0
 15
10.0
 25
10.0
 16
0.0
 26
0.0
 36
1.0
 17
0.0
 27
0.0
 37
0.0
 40
8128.713795435304
 41
1.720238095238095
 42
50.0
 43
0.0
 44
0.0
 50
0.0
 51
0.0
 71
     0
 72
   100
 73
     1
 74
     3
 75
     0
 76
     0
 77
     0
 78
     0
  0
ENDTAB
  0
TABLE
  2
LTYPE
  5
5
330
0
100
AcDbSymbolTable
 70
     1
  0
LTYPE
  5
14
330
5
100
AcDbSymbolTableRecord
100
AcDbLinetypeTableRecord
  2
BYBLOCK
 70
     0
  3

 72
    65
 73
     0
 40
0.0
  0
LTYPE
  5
15
330
5
100
AcDbSymbolTableRecord
100
AcDbLinetypeTableRecord
  2
BYLAYER
 70
     0
  3

 72
    65
 73
     0
 40
0.0
  0
LTYPE
  5
16
330
5
100
AcDbSymbolTableRecord
100
AcDbLinetypeTableRecord
  2
CONTINUOUS
 70
     0
  3
Solid line
 72
    65
 73
     0
 40
0.0
  0
ENDTAB
  0
TABLE
  2
LAYER
  5
2
102
{ACAD_XDICTIONARY
360
5D
102
}
330
0
100
AcDbSymbolTable
 70
     1
  0
LAYER
  5
10
330
2
100
AcDbSymbolTableRecord
100
AcDbLayerTableRecord
  2
0
 70
     0
 62
     7
  6
CONTINUOUS
  0
ENDTAB
  0
TABLE
  2
STYLE
  5
3
330
0
100
AcDbSymbolTable
 70
     1
  0
STYLE
  5
11
330
3
100
AcDbSymbolTableRecord
100
AcDbTextStyleTableRecord
  2
STANDARD
 70
     0
 40
0.0
 41
1.0
 50
0.0
 71
     0
 42
2.5
  3
txt
  4

  0
ENDTAB
  0
TABLE
  2
VIEW
  5
6
330
0
100
AcDbSymbolTable
 70
     0
  0
ENDTAB
  0
TABLE
  2
UCS
  5
7
330
0
100
AcDbSymbolTable
 70
     0
  0
ENDTAB
  0
TABLE
  2
APPID
  5
9
330
0
100
AcDbSymbolTable
 70
     2
  0
APPID
  5
12
330
9
100
AcDbSymbolTableRecord
100
AcDbRegAppTableRecord
  2
ACAD
 70
     0
  0
APPID
  5
7F7
330
9
100
AcDbSymbolTableRecord
100
AcDbRegAppTableRecord
  2
CONTENTBLOCKICON
 70
     0
  0
ENDTAB
  0
TABLE
  2
DIMSTYLE
  5
A
330
0
100
AcDbSymbolTable
 70
     1
  0
DIMSTYLE
105
27
330
A
100
AcDbSymbolTableRecord
100
AcDbDimStyleTableRecord
  2
ISO-25
 70
     0
  3

  4

  5

  6

  7

 40
1.0
 41
2.5
 42
0.625
 43
3.75
 44
1.25
 45
0.0
 46
0.0
 47
0.0
 48
0.0
140
2.5
141
2.5
142
0.0
143
0.03937007874016
144
1.0
145
0.0
146
1.0
147
0.625
 71
     0
 72
     0
 73
     0
 74
     0
 75
     0
 76
     0
 77
     1
 78
     8
170
     0
171
     3
172
     1
173
     0
174
     0
175
     0
176
     0
177
     0
178
     0
270
     2
271
     2
272
     2
273
     2
274
     3
340
11
275
     0
280
     0
281
     0
282
     0
283
     0
284
     8
285
     0
286
     0
287
     3
288
     0
  0
ENDTAB
  0
TABLE
  2
BLOCK_RECORD
  5
1
330
0
100
AcDbSymbolTable
 70
     2
  0
BLOCK_RECORD
  5
1F
102
{ACAD_XDICTIONARY
360
54B
102
}
330
1
100
AcDbSymbolTableRecord
100
AcDbBlockTableRecord
  2
*MODEL_SPACE
  0
BLOCK_RECORD
  5
50
102
{ACAD_XDICTIONARY
360
7F3
102
}
330
1
100
AcDbSymbolTableRecord
100
AcDbBlockTableRecord
  2
*PAPER_SPACE
  0
BLOCK_RECORD
  5
558
330
1
100
AcDbSymbolTableRecord
100
AcDbBlockTableRecord
  2
ADKV
1001
ACAD
1000
DesignCenter Data
1002
{
1070
     1
1070
     4
1002
}
1001
CONTENTBLOCKICON
1071
        0
1004
2800000020000000200000000100080000000000000400000000000000000000000000000000000000000000000080000080000000808000800000008000800080800000C0C0C000C0DCC000F0CAA6000020400000206000002080000020A0000020C0000020E00000400000004020000040400000406000004080000040A0
1004
000040C0000040E00000600000006020000060400000606000006080000060A0000060C0000060E00000800000008020000080400000806000008080000080A0000080C0000080E00000A0000000A0200000A0400000A0600000A0800000A0A00000A0C00000A0E00000C0000000C0200000C0400000C0600000C0800000C0
1004
A00000C0C00000C0E00000E0000000E0200000E0400000E0600000E0800000E0A00000E0C00000E0E00040000000400020004000400040006000400080004000A0004000C0004000E00040200000402020004020400040206000402080004020A0004020C0004020E000404000004040200040404000404060004040800040
1004
40A0004040C0004040E00040600000406020004060400040606000406080004060A0004060C0004060E00040800000408020004080400040806000408080004080A0004080C0004080E00040A0000040A0200040A0400040A0600040A0800040A0A00040A0C00040A0E00040C0000040C0200040C0400040C0600040C08000
1004
40C0A00040C0C00040C0E00040E0000040E0200040E0400040E0600040E0800040E0A00040E0C00040E0E00080000000800020008000400080006000800080008000A0008000C0008000E00080200000802020008020400080206000802080008020A0008020C0008020E00080400000804020008040400080406000804080
1004
008040A0008040C0008040E00080600000806020008060400080606000806080008060A0008060C0008060E00080800000808020008080400080806000808080008080A0008080C0008080E00080A0000080A0200080A0400080A0600080A0800080A0A00080A0C00080A0E00080C0000080C0200080C0400080C0600080C0
1004
800080C0A00080C0C00080C0E00080E0000080E0200080E0400080E0600080E0800080E0A00080E0C00080E0E000C0000000C0002000C0004000C0006000C0008000C000A000C000C000C000E000C0200000C0202000C0204000C0206000C0208000C020A000C020C000C020E000C0400000C0402000C0404000C0406000C0
1004
408000C040A000C040C000C040E000C0600000C0602000C0604000C0606000C0608000C060A000C060C000C060E000C0800000C0802000C0804000C0806000C0808000C080A000C080C000C080E000C0A00000C0A02000C0A04000C0A06000C0A08000C0A0A000C0A0C000C0A0E000C0C00000C0C02000C0C04000C0C06000
1004
C0C08000C0C0A000F0FBFF00A4A0A000808080000000FF0000FF000000FFFF00FF000000FF00FF00FFFF0000FFFFFF00FFFFFFFFFFFFFFFFFFFFFFFFFFFFFFFFFFFFFFFFFFFFFFFFFFFFFFFFFFFFFFFFFFFFFFFFFFFFFFFFFFFFFFFFFFFFFFFFFFFFFFFFFFFFFFFFFFFFFFFFFFFFFFFFFFFFFFFFFFFFFFFFFFFFFFFFFFFFFF
1004
FFFFFFFFFFFFFFFFFFFFFFFFFFFFFFFFFFFFFFFFFFFFFFFFFFFFFFFFFFFFFFFFFFFFFFFFFFFFFFFFFFFFFFFFFFFFFFFFFFFFFFFFFFFFFFFFFFFFFFFFFFFFFFFFFFFFFFFFFFFFFFFFFFFFFFFFFFFFFFFFFFFFFFFFFFFFFFFFFFFF0000000000000000FF0000000000000000FFFFFFFFFFFFFFFFFFFFFFFF000000FFFFFFFFFF
1004
FFFFFF0000FFFFFFFFFFFF00FFFFFFFFFFFFFFFFFFFFFFFF00FFFFFFFFFFFFFFFFFFFFFFFFFFFFFFFFFFFF00FFFFFFFFFFFFFFFFFFFFFF00FFFFFFFFFFFFFFFFFFFFFFFFFFFFFFFFFFFFFF00FFFFFFFFFFFFFFFFFFFFFF00FFFFFFFFFFFFFFFFFFFFFFFFFFFFFFFFFFFFFFFF00FFFFFFFFFFFFFFFFFF00FFFFFFFFFBFBFFFF
1004
FFFFFBFBFFFFFFE0FFE0FFFFFFFF00FFFFFFFFFFFFFFFF00FFFFFFFFFFFFFBFFFFFBFFFFFFFFFFE0FBE0FFFFFFFF00FFFFFFFFFFFFFF00FFFFFFFFFFFFFFFF0000FFFFFFFFFFFFE0FFE0FFFFFFFFFF00FFFFFFFFFFFF00FFFFFFFFFFFFFFFF0000FFFFFFFFFFFFE0FFE0FFFFFFFFFFFF00FFFFFFFF00FFFFFFFFFFFFFFFFFF
1004
0000FFFFFFFFFFFF27FF27FFFFFFFFFFFFFF00FFFFFF00FFFFFFFFFFFFFFFFFF0000FFFFFFFFFFFF27FB27FFFF3CFFFFFFFF00FFFF00FFFFFFFF0000000000000000000000000000002121213C3CFFFFFFFF00FFFF00FFFFFFFFE0FBFFFBFBFB00FF00FBFBFBFBFBFB2121213C3CFFFFFFFF00FFFF00FFFFFFFF0000000000
1004
000000000000000000002121213C3CFFFFFFFF00FFFFFF00FFFFFFFFFFFFFFFFFFFFFFFFFFFFFFFFFF21E021213C3CFFFFFFFF00FFFFFF00FFFFFFFFFFFFFFFFFFFFFFFFFFFFFFFFFFFFE0FFFFFFFFFFFFFFFF00FFFFFF00FFFFFFFFFFFFFFFFFFFFFFFFFFFFFFFFFFFFE0FFFFFFFFFFFFFF00FFFFFFFFFF0000FFFFFFFFFF
1004
FFFFFFFFFFFFFFFFFFFFFFE0FFFFFFFFFFFFFF00FFFFFFFFFFFFFF00000000000000000000000000FFFFFFFFFFFFFFFFFFFF00FFFFFFFFFFFFFFFFFFFFFFFFFFFFFFFFFFFFFFFF00FFFFFFFFFFFFFFFFFF00FFFFFFFFFFFFFFFFFFFFFFFFFFFFFFFFFFFFFFFFFFFF00FFFFFFFFFFFF0000FFFFFFFFFFFFFFFFFFFFFFFFFFFF
1004
FFFFFFFFFFFFFFFFFFFF000000000000FFFFFFFFFFFFFFFFFFFFFFFFFFFFFFFFFFFFFFFFFFFFFFFFFFFFFFFFFFFFFFFFFFFFFFFFFFFFFFFFFFFFFFFFFFFFFFFFFFFFFFFFFFFFFFFFFFFFFFFFFFFFFFFFFFFFFFFFFFFFFFFFFFFFFFFFFFFFFFFFFFFFFFFFFFFFFFFFFFFFFFFFFFFFFFFFFFFFFFFFFFFFFFFFFFFFFFFFFFFFFF
1004
FFFFFFFFFFFFFFFFFFFFFFFFFFFFFFFFFFFFFFFFFFFFFFFFFFFFFFFFFFFFFFFFFFFFFFFFFFFFFFFFFFFFFFFFFFFFFFFFFFFFFFFFFFFFFFFF
  0
ENDTAB
  0
ENDSEC
  0
SECTION
  2
BLOCKS
  0
BLOCK
  5
20
330
1F
100
AcDbEntity
  8
0
100
AcDbBlockBegin
  2
*MODEL_SPACE
 70
     0
 10
0.0
 20
0.0
 30
0.0
  3
*MODEL_SPACE
  1

  0
ENDBLK
  5
21
330
1F
100
AcDbEntity
  8
0
100
AcDbBlockEnd
  0
BLOCK
  5
52
330
50
100
AcDbEntity
 67
     1
  8
0
100
AcDbBlockBegin
  2
*PAPER_SPACE
 70
     0
 10
0.0
 20
0.0
 30
0.0
  3
*PAPER_SPACE
  1

  0
ENDBLK
  5
53
330
50
100
AcDbEntity
 67
     1
  8
0
100
AcDbBlockEnd
  0
BLOCK
  5
559
330
558
100
AcDbEntity
  8
0
 62
    84
100
AcDbBlockBegin
  2
ADKV
 70
     0
 10
0.0
 20
0.0
 30
0.0
  3
ADKV
  1

  0
HATCH
  5
55B
330
558
100
AcDbEntity
  8
0
 62
   250
100
AcDbHatch
 10
0.0
 20
0.0
 30
0.0
210
0.0
220
0.0
230
1.0
  2
SOLID
 70
     1
 71
     1
 91
        1
 92
        7
 72
     1
 73
     1
 93
       20
 10
-1157.673837345544
 20
4702.185195537452
 42
0.0
 10
-1201.729270027936
 20
4702.185195537452
 42
0.0
 10
-1201.729270027936
 20
4803.649001030273
 42
0.0
 10
-1694.182531993152
 20
4803.649001030273
 42
0.0
 10
-1694.182531993152
 20
4698.465325749871
 42
0.0
 10
-1713.306836589574
 20
4698.465325749872
 42
0.0
 10
-1732.798916274405
 20
4698.465325749871
 42
0.0
 10
-1732.798916274405
 20
4703.614176987372
 42
0.0
 10
-1817.019411516412
 20
4703.614176987372
 42
-0.200000000000102
 10
-1824.309627765629
 20
4686.11765798926
 42
0.0
 10
-1824.309627765629
 20
4190.443553886852
 42
-0.2004846722166059
 10
-1816.986768757088
 20
4172.914724436261
 42
0.0
 10
-1732.798916274405
 20
4172.914724436261
 42
0.0
 10
-1732.798916274405
 20
4178.06357567376
 42
0.0
 10
-1713.306836589574
 20
4178.06357567376
 42
0.0
 10
-1694.182531993152
 20
4178.06357567376
 42
0.0
 10
-1694.182531993152
 20
4090.782965301012
 42
0.0
 10
-1201.729270027936
 20
4090.782965301012
 42
0.0
 10
-1201.729270027936
 20
4175.782965301012
 42
0.0
 10
-1157.673837345544
 20
4175.782965301012
 42
0.0
 97
       14
330
672
330
7C4
330
589
330
58A
330
58C
330
5D5
330
5D3
330
5D8
330
58D
330
594
330
593
330
7C2
330
67F
330
66E
 75
     0
 76
     1
 47
3.042209499609478
 98
        1
 10
-1446.10241167045
 20
4430.339571031261
  0
HATCH
  5
55C
330
558
100
AcDbEntity
  8
0
 62
   250
100
AcDbHatch
 10
0.0
 20
0.0
 30
0.0
210
0.0
220
0.0
230
1.0
  2
SOLID
 70
     1
 71
     0
 91
        4
 92
        7
 72
     0
 73
     1
 93
        4
 10
688.4271255703934
 20
4803.297096772862
 10
-1091.729270027935
 20
4803.297096772862
 10
-1091.729270027935
 20
4703.346052083383
 10
688.4271255703934
 20
4703.34605208339
 97
        0
 92
        7
 72
     0
 73
     1
 93
        4
 10
688.4271255704079
 20
4168.015033068477
 10
-1091.729270027935
 20
4168.015033068484
 10
-1091.729270027935
 20
4073.146244888623
 10
688.4271255703934
 20
4073.14624488863
 97
        0
 92
        7
 72
     0
 73
     1
 93
        4
 10
-1732.798916274405
 20
4803.649001030265
 10
-4165.998901082581
 20
4803.649001030273
 10
-4165.998901082581
 20
4703.614176987372
 10
-1732.79891627439
 20
4703.614176987365
 97
        0
 92
        7
 72
     0
 73
     1
 93
        4
 10
-1732.798916274405
 20
4172.914724436261
 10
-4165.998901082581
 20
4172.914724436268
 10
-4165.998901082566
 20
4072.87990039336
 10
-1732.79891627439
 20
4072.87990039336
 97
        0
 75
     0
 76
     1
 47
8.3478220542372
 98
        4
 10
-161.3422591061826
 20
4760.874852341876
 10
-203.1250530608958
 20
4126.440242182245
 10
-2768.580081472362
 20
4777.570415322334
 10
-2877.214977967218
 20
4143.135966007815
  0
HATCH
  5
55D
330
558
100
AcDbEntity
  8
0
 62
   150
100
AcDbHatch
 10
0.0
 20
0.0
 30
0.0
210
0.0
220
0.0
230
1.0
  2
SOLID
 70
     1
 71
     0
 91
        2
 92
        7
 72
     1
 73
     1
 93
        4
 10
-4040.219820852176
 20
4686.053157208749
 42
0.200968543846423
 10
-4032.864319084306
 20
4703.614176987372
 42
0.0
 10
-4082.146180928968
 20
4703.614176987372
 42
0.2009685438464221
 10
-4074.790679161099
 20
4686.053157208749
 42
0.0
 97
        0
 92
        7
 72
     1
 73
     1
 93
        4
 10
-4032.831676324982
 20
4172.914724436259
 42
0.2004846722166775
 10
-4040.154535333527
 20
4190.443553886857
 42
0.0
 10
-4074.790679161106
 20
4190.443553886849
 42
0.2004846722165484
 10
-4082.113538169644
 20
4172.914724436261
 42
0.0
 97
        0
 75
     0
 76
     1
 47
1.950875136170907
 98
        2
 10
-4064.811353323879
 20
4692.45549421585
 10
-4066.764259525676
 20
4179.375334396914
  0
HATCH
  5
55E
330
558
100
AcDbEntity
  8
0
 62
    30
100
AcDbHatch
 10
0.0
 20
0.0
 30
0.0
210
0.0
220
0.0
230
1.0
  2
SOLID
 70
     1
 71
     0
 91
        4
 92
        7
 72
     0
 73
     1
 93
        4
 10
-4165.998901082596
 20
4808.797852267773
 10
-4185.123205679018
 20
4808.797852267773
 10
-4185.123205679018
 20
4698.83310083826
 10
-4165.998901082581
 20
4698.83310083826
 97
        0
 92
        7
 72
     0
 73
     1
 93
        4
 10
-4185.123205679018
 20
4808.797852267773
 10
-4204.983060452228
 20
4808.797852267773
 10
-4204.983060452228
 20
4698.833100838252
 10
-4185.123205679018
 20
4698.83310083826
 97
        0
 92
        7
 72
     0
 73
     1
 93
        4
 10
-4165.998901082596
 20
4178.063575673753
 10
-4185.123205679018
 20
4178.06357567376
 10
-4185.123205679018
 20
4068.098824244255
 10
-4165.998901082581
 20
4068.098824244247
 97
        0
 92
        7
 72
     0
 73
     1
 93
        4
 10
-4185.123205679018
 20
4178.06357567376
 10
-4204.983060452228
 20
4178.063575673753
 10
-4204.983060452228
 20
4068.098824244247
 10
-4185.123205679018
 20
4068.098824244247
 97
        0
 75
     0
 76
     1
 47
2.339559730848378
 98
        4
 10
-4170.499245687723
 20
4740.823638525297
 10
-4193.919144738509
 20
4738.484163134155
 10
-4177.525122246282
 20
4106.802829958993
 10
-4196.261103591343
 20
4109.14246831162
  0
HATCH
  5
55F
330
558
100
AcDbEntity
  8
0
 62
   250
100
AcDbHatch
 10
0.0
 20
0.0
 30
0.0
210
0.0
220
0.0
230
1.0
  2
SOLID
 70
     1
 71
     1
 91
        1
 92
        7
 72
     0
 73
     1
 93
        4
 10
-1832.654988030364
 20
2475.777027979573
 10
-1735.63111454618
 20
2475.777027979573
 10
-1735.63111454618
 20
4072.87990039336
 10
-1832.654988030379
 20
4072.87990039336
 97
        4
330
58E
330
574
330
581
330
575
 75
     0
 76
     1
 47
7.520801578397686
 98
        1
 10
-1790.584042679358
 20
3547.953678111618
  0
HATCH
  5
560
330
558
100
AcDbEntity
  8
0
 62
   150
100
AcDbHatch
 10
0.0
 20
0.0
 30
0.0
210
0.0
220
0.0
230
1.0
  2
SOLID
 70
     1
 71
     0
 91
        1
 92
        7
 72
     1
 73
     1
 93
        4
 10
1247.866076524092
 20
5018.382239582031
 42
0.0
 10
1289.874007287013
 20
5018.382239582031
 42
0.0
 10
1289.874007287013
 20
6133.259386178673
 42
1.0
 10
1247.866076524092
 20
6133.259386178673
 42
0.0
 97
        0
 75
     0
 76
     1
 47
3.819930990568736
 98
        1
 10
1267.266104791968
 20
5618.45706772137
  0
HATCH
  5
561
330
558
100
AcDbEntity
  8
0
 62
    50
100
AcDbHatch
 10
0.0
 20
0.0
 30
0.0
210
0.0
220
0.0
230
1.0
  2
SOLID
 70
     1
 71
     0
 91
        2
 92
        7
 72
     1
 73
     1
 93
       12
 10
-706.8528359260381
 20
1963.556019920339
 42
0.0
 10
-675.1195709248714
 20
1907.782402645563
 42
0.0
 10
-645.7605126715789
 20
1925.233995041431
 42
0.0
 10
-677.3449627262598
 20
1980.746058773918
 42
0.1247293581332318
 10
-763.8172081753873
 20
2067.260389797076
 42
0.0
 10
-1535.039139336469
 20
2513.072223421841
 42
0.1239769402993836
 10
-1652.983172633874
 20
2544.615195200189
 42
0.0
 10
-1717.096546915913
 20
2544.615195200189
 42
0.0
 10
-1717.096546915913
 20
2510.467127996264
 42
0.0
 10
-1653.24212700664
 20
2510.467127996264
 42
-0.1233823300362473
 10
-1551.881991020564
 20
2483.365487358387
 42
0.0
 10
-781.1113312746165
 20
2037.814515268961
 42
-0.1240875912415202
 97
        0
 92
        7
 72
     1
 73
     1
 93
       12
 10
-2803.926861588421
 20
2067.260389797076
 42
0.1247293581328367
 10
-2890.399107037345
 20
1980.746058774246
 42
0.0
 10
-2922.304763786101
 20
1924.669449943088
 42
0.0
 10
-2892.624498838937
 20
1907.782402645571
 42
0.0
 10
-2860.891233837654
 20
1963.556019920499
 42
-0.124087591241307
 10
-2786.632738489163
 20
2037.814515268961
 42
0.0
 10
-2015.862078743564
 20
2483.365487358183
 42
-0.1233823300367372
 10
-1914.501942757124
 20
2510.467127996264
 42
0.0
 10
-1850.647522847896
 20
2510.467127996264
 42
0.0
 10
-1850.683321961288
 20
2544.615195200182
 42
0.0
 10
-1914.760897129905
 20
2544.615195200189
 42
0.1239769402991774
 10
-2032.704930427149
 20
2513.07222342195
 42
0.0
 97
        0
 75
     0
 76
     1
 47
6.578508944040135
 98
        2
 10
-743.6153166221483
 20
2027.120358922045
 10
-2475.568042852275
 20
2250.789694482824
  0
HATCH
  5
562
330
558
100
AcDbEntity
  8
0
 62
    50
100
AcDbHatch
 10
0.0
 20
0.0
 30
0.0
210
0.0
220
0.0
230
1.0
  2
SOLID
 70
     1
 71
     0
 91
       40
 92
        7
 72
     1
 73
     1
 93
        5
 10
-1109.063938072489
 20
4633.982814103379
 42
0.0
 10
-1137.673837345544
 20
4633.982814103379
 42
0.0
 10
-1137.673837345529
 20
4617.982814103372
 42
0.0
 10
-1109.063938072489
 20
4617.982814103379
 42
-0.1045602762569047
 10
-1110.755394939129
 20
4625.982814103379
 42
-0.1045602762569047
 97
        0
 92
        7
 72
     1
 73
     1
 93
        6
 10
-985.3956963380333
 20
4633.982814103379
 42
0.0
 10
-1072.918190064156
 20
4633.982814103379
 42
-0.1045602762569047
 10
-1071.226733197516
 20
4625.982814103379
 42
-0.1045602762569047
 10
-1072.918190064156
 20
4617.982814103379
 42
0.0
 10
-985.3956963380333
 20
4617.982814103379
 42
-0.1045602762569047
 10
-987.0871532046731
 20
4625.982814103379
 42
-0.1045602762569047
 97
        0
 92
        7
 72
     1
 73
     1
 93
        6
 10
-862.292149771325
 20
4633.982814103379
 42
0.0
 10
-949.2499483296997
 20
4633.982814103379
 42
-0.1045602762569047
 10
-947.55849146306
 20
4625.982814103379
 42
-0.1045602762569047
 10
-949.2499483296997
 20
4617.982814103379
 42
0.0
 10
-862.292149771325
 20
4617.982814103379
 42
-0.1045602762569047
 10
-863.9836066379649
 20
4625.982814103379
 42
-0.1045602762569047
 97
        0
 92
        7
 72
     1
 73
     1
 93
        6
 10
-740.3153649035084
 20
4625.982814103379
 42
-0.1045602762567723
 10
-738.6239080368832
 20
4633.982814103371
 42
0.0
 10
-826.1464017629915
 20
4633.982814103379
 42
-0.1045602762569047
 10
-824.4549448963516
 20
4625.982814103379
 42
-0.1045602762569047
 10
-826.1464017629915
 20
4617.982814103379
 42
0.0
 10
-738.6239080368686
 20
4617.982814103372
 42
-0.1045602762569977
 97
        0
 92
        7
 72
     1
 73
     1
 93
        6
 10
-614.3909711346932
 20
4633.982814103364
 42
0.0
 10
-702.4781600285205
 20
4633.982814103371
 42
-0.1045602762567723
 10
-700.7867031618952
 20
4625.982814103379
 42
-0.1045602762569977
 10
-702.4781600285351
 20
4617.982814103372
 42
0.0
 10
-614.3909711346786
 20
4617.982814103372
 42
-0.1045602762569977
 10
-616.0824280013184
 20
4625.982814103379
 42
-0.1045602762566793
 97
        0
 92
        7
 72
     1
 73
     1
 93
        6
 10
-490.1580342325032
 20
4633.982814103364
 42
0.0
 10
-578.2452231263305
 20
4633.982814103364
 42
-0.1045602762566793
 10
-576.5537662597052
 20
4625.982814103379
 42
-0.1045602762569977
 10
-578.2452231263451
 20
4617.982814103372
 42
0.0
 10
-490.1580342324887
 20
4617.982814103365
 42
-0.1045602762570908
 10
-491.8494910991284
 20
4625.982814103379
 42
-0.1045602762566793
 97
        0
 92
        7
 72
     1
 73
     1
 93
        6
 10
-365.3604021625651
 20
4633.982814103357
 42
0.0
 10
-454.0122862241405
 20
4633.982814103364
 42
-0.1045602762566793
 10
-452.3208293575152
 20
4625.982814103379
 42
-0.1045602762570908
 10
-454.0122862241551
 20
4617.982814103365
 42
0.0
 10
-365.3604021625505
 20
4617.982814103365
 42
-0.1045602762570908
 10
-367.0518590291903
 20
4625.982814103379
 42
-0.1045602762565862
 97
        0
 92
        7
 72
     1
 73
     1
 93
        6
 10
-242.2542269592668
 20
4625.982814103379
 42
-0.1045602762566793
 10
-240.5627700926415
 20
4633.982814103364
 42
0.0
 10
-329.2146541542024
 20
4633.982814103364
 42
-0.1045602762566793
 10
-327.5231972875772
 20
4625.982814103379
 42
-0.1045602762570908
 10
-329.214654154217
 20
4617.982814103365
 42
0.0
 10
-240.562770092627
 20
4617.982814103357
 42
-0.1045602762571838
 97
        0
 92
        7
 72
     1
 73
     1
 93
        6
 10
-115.765138022718
 20
4633.982814103357
 42
0.0
 10
-204.4170220842788
 20
4633.982814103364
 42
-0.1045602762566793
 10
-202.7255652176536
 20
4625.982814103379
 42
-0.1045602762571838
 10
-204.4170220842934
 20
4617.982814103357
 42
0.0
 10
-115.7651380227034
 20
4617.982814103365
 42
-0.1045602762570908
 10
-117.4565948893432
 20
4625.982814103379
 42
-0.1045602762565862
 97
        0
 92
        7
 72
     1
 73
     1
 93
        6
 10
9.032494047205545
 20
4633.982814103357
 42
0.0
 10
-79.6193900143553
 20
4633.982814103357
 42
-0.1045602762565862
 10
-77.92793314773007
 20
4625.982814103379
 42
-0.1045602762570908
 10
-79.61939001436985
 20
4617.982814103365
 42
0.0
 10
9.032494047220097
 20
4617.982814103357
 42
-0.1045602762571838
 10
7.341037180580315
 20
4625.982814103379
 42
-0.1045602762565862
 97
        0
 92
        7
 72
     1
 73
     1
 93
        6
 10
7.341037180580315
 20
4500.620486865715
 42
-0.1045602762567723
 10
9.032494047205545
 20
4508.620486865708
 42
0.0
 10
-79.61939001436985
 20
4508.620486865715
 42
-0.1045602762569047
 10
-77.92793314773007
 20
4500.620486865715
 42
-0.1045602762570908
 10
-79.61939001436985
 20
4492.6204868657
 42
0.0
 10
9.032494047220097
 20
4492.6204868657
 42
-0.1045602762570908
 97
        0
 92
        7
 72
     1
 73
     1
 93
        6
 10
-117.4565948893432
 20
4500.620486865715
 42
-0.1045602762569047
 10
-115.7651380227034
 20
4508.620486865715
 42
0.0
 10
-204.4170220842934
 20
4508.620486865715
 42
-0.1045602762569047
 10
-202.7255652176536
 20
4500.620486865715
 42
-0.1045602762570908
 10
-204.4170220842934
 20
4492.6204868657
 42
0.0
 10
-115.7651380227034
 20
4492.6204868657
 42
-0.1045602762570908
 97
        0
 92
        7
 72
     1
 73
     1
 93
        6
 10
-242.2542269592668
 20
4500.620486865715
 42
-0.1045602762569047
 10
-240.562770092627
 20
4508.620486865715
 42
0.0
 10
-329.214654154217
 20
4508.620486865715
 42
-0.1045602762569047
 10
-327.5231972875772
 20
4500.620486865715
 42
-0.1045602762570908
 10
-329.214654154217
 20
4492.6204868657
 42
0.0
 10
-240.562770092627
 20
4492.6204868657
 42
-0.1045602762570908
 97
        0
 92
        7
 72
     1
 73
     1
 93
        6
 10
-365.3604021625505
 20
4508.620486865715
 42
0.0
 10
-454.0122862241551
 20
4508.620486865722
 42
-0.1045602762569977
 10
-452.3208293575152
 20
4500.620486865715
 42
-0.1045602762569977
 10
-454.0122862241551
 20
4492.620486865708
 42
0.0
 10
-365.3604021625505
 20
4492.6204868657
 42
-0.1045602762570908
 10
-367.0518590291903
 20
4500.620486865715
 42
-0.1045602762569047
 97
        0
 92
        7
 72
     1
 73
     1
 93
        6
 10
-491.8494910991284
 20
4500.620486865715
 42
-0.1045602762569977
 10
-490.1580342324887
 20
4508.620486865722
 42
0.0
 10
-578.2452231263451
 20
4508.620486865729
 42
-0.1045602762570908
 10
-576.5537662597052
 20
4500.620486865715
 42
-0.1045602762570908
 10
-578.2452231263451
 20
4492.6204868657
 42
0.0
 10
-490.1580342324887
 20
4492.620486865708
 42
-0.1045602762569977
 97
        0
 92
        7
 72
     1
 73
     1
 93
        6
 10
-616.0824280013184
 20
4500.620486865715
 42
-0.1045602762570908
 10
-614.3909711346786
 20
4508.620486865729
 42
0.0
 10
-702.4781600285351
 20
4508.620486865729
 42
-0.1045602762570908
 10
-700.7867031618952
 20
4500.620486865715
 42
-0.1045602762571838
 10
-702.4781600285351
 20
4492.620486865693
 42
0.0
 10
-614.3909711346786
 20
4492.6204868657
 42
-0.1045602762570908
 97
        0
 92
        7
 72
     1
 73
     1
 93
        6
 10
-740.3153649035084
 20
4500.620486865715
 42
-0.1045602762570908
 10
-738.6239080368686
 20
4508.620486865729
 42
0.0
 10
-826.1464017629915
 20
4508.620486865729
 42
-0.1045602762570908
 10
-824.4549448963516
 20
4500.620486865715
 42
-0.1045602762571838
 10
-826.1464017629915
 20
4492.620486865693
 42
0.0
 10
-738.6239080368686
 20
4492.620486865693
 42
-0.1045602762571838
 97
        0
 92
        7
 72
     1
 73
     1
 93
        6
 10
-863.9836066379649
 20
4500.620486865715
 42
-0.1045602762569977
 10
-862.292149771325
 20
4508.620486865722
 42
0.0
 10
-949.2499483296997
 20
4508.620486865722
 42
-0.1045602762569977
 10
-947.55849146306
 20
4500.620486865715
 42
-0.1045602762571838
 10
-949.2499483296997
 20
4492.620486865693
 42
0.0
 10
-862.292149771325
 20
4492.620486865693
 42
-0.1045602762571838
 97
        0
 92
        7
 72
     1
 73
     1
 93
        6
 10
-987.0871532046731
 20
4500.620486865715
 42
-0.1045602762569047
 10
-985.3956963380333
 20
4508.620486865715
 42
0.0
 10
-1072.918190064156
 20
4508.620486865715
 42
-0.1045602762569047
 10
-1071.226733197516
 20
4500.620486865715
 42
-0.1045602762567723
 10
-1072.918190064141
 20
4492.620486865722
 42
0.0
 10
-985.3956963380333
 20
4492.6204868657
 42
-0.1045602762570908
 97
        0
 92
        7
 72
     1
 73
     1
 93
        5
 10
-1109.063938072489
 20
4508.620486865715
 42
0.0
 10
-1137.673837345544
 20
4508.620486865722
 42
0.0
 10
-1137.673837345559
 20
4492.620486865715
 42
0.0
 10
-1109.063938072504
 20
4492.620486865729
 42
-0.1045602762566793
 10
-1110.755394939129
 20
4500.620486865715
 42
-0.1045602762569047
 97
        0
 92
        7
 72
     1
 73
     1
 93
        5
 10
-1110.755394939129
 20
4375.822854795791
 42
-0.1045602762570908
 10
-1109.063938072489
 20
4383.822854795806
 42
0.0
 10
-1137.673837345544
 20
4383.822854795798
 42
0.0
 10
-1137.673837345544
 20
4367.822854795798
 42
0.0
 10
-1109.063938072489
 20
4367.822854795791
 42
-0.1045602762569047
 97
        0
 92
        7
 72
     1
 73
     1
 93
        5
 10
-1109.063938072504
 20
4258.46052755812
 42
0.0
 10
-1137.673837345529
 20
4258.46052755812
 42
0.0
 10
-1137.673837345544
 20
4242.46052755812
 42
0.0
 10
-1109.063938072489
 20
4242.460527558113
 42
-0.1045602762570908
 10
-1110.755394939129
 20
4250.460527558127
 42
-0.1045602762567723
 97
        0
 92
        7
 72
     1
 73
     1
 93
        6
 10
-987.0871532046731
 20
4375.822854795791
 42
-0.1045602762569977
 10
-985.3956963380333
 20
4383.822854795798
 42
0.0
 10
-1072.918190064156
 20
4383.822854795806
 42
-0.1045602762570908
 10
-1071.226733197516
 20
4375.822854795791
 42
-0.1045602762569047
 10
-1072.918190064156
 20
4367.822854795791
 42
0.0
 10
-985.3956963380479
 20
4367.822854795798
 42
-0.1045602762567723
 97
        0
 92
        7
 72
     1
 73
     1
 93
        6
 10
-985.3956963380479
 20
4258.460527558113
 42
0.0
 10
-1072.918190064141
 20
4258.46052755812
 42
-0.1045602762567723
 10
-1071.226733197516
 20
4250.460527558127
 42
-0.1045602762570908
 10
-1072.918190064156
 20
4242.460527558113
 42
0.0
 10
-985.3956963380333
 20
4242.460527558127
 42
-0.1045602762569047
 10
-987.0871532046731
 20
4250.460527558127
 42
-0.1045602762566793
 97
        0
 92
        7
 72
     1
 73
     1
 93
        6
 10
-862.292149771325
 20
4383.822854795806
 42
0.0
 10
-949.2499483296997
 20
4383.822854795798
 42
-0.1045602762569977
 10
-947.55849146306
 20
4375.822854795791
 42
-0.1045602762567723
 10
-949.2499483296851
 20
4367.822854795798
 42
0.0
 10
-862.2921497713395
 20
4367.822854795806
 42
-0.1045602762566793
 10
-863.9836066379649
 20
4375.822854795791
 42
-0.1045602762570908
 97
        0
 92
        7
 72
     1
 73
     1
 93
        6
 10
-863.9836066379649
 20
4250.460527558127
 42
-0.1045602762566793
 10
-862.2921497713395
 20
4258.460527558113
 42
0.0
 10
-949.2499483296851
 20
4258.460527558113
 42
-0.1045602762566793
 10
-947.55849146306
 20
4250.460527558127
 42
-0.1045602762567723
 10
-949.2499483296851
 20
4242.460527558134
 42
0.0
 10
-862.292149771325
 20
4242.460527558127
 42
-0.1045602762569047
 97
        0
 92
        7
 72
     1
 73
     1
 93
        6
 10
-738.6239080368686
 20
4383.822854795806
 42
0.0
 10
-826.1464017629915
 20
4383.822854795806
 42
-0.1045602762570908
 10
-824.4549448963516
 20
4375.822854795791
 42
-0.1045602762566793
 10
-826.1464017629769
 20
4367.822854795806
 42
0.0
 10
-738.6239080368832
 20
4367.822854795798
 42
-0.1045602762567723
 10
-740.3153649035084
 20
4375.822854795791
 42
-0.1045602762570908
 97
        0
 92
        7
 72
     1
 73
     1
 93
        6
 10
-614.3909711346786
 20
4383.822854795813
 42
0.0
 10
-702.4781600285351
 20
4383.822854795806
 42
-0.1045602762570908
 10
-700.7867031618952
 20
4375.822854795791
 42
-0.1045602762567723
 10
-702.4781600285205
 20
4367.822854795798
 42
0.0
 10
-614.3909711346786
 20
4367.822854795791
 42
-0.1045602762569047
 10
-616.0824280013184
 20
4375.822854795791
 42
-0.1045602762571838
 97
        0
 92
        7
 72
     1
 73
     1
 93
        6
 10
-616.0824280013184
 20
4250.460527558127
 42
-0.1045602762566793
 10
-614.3909711346932
 20
4258.460527558113
 42
0.0
 10
-702.4781600285205
 20
4258.460527558113
 42
-0.1045602762566793
 10
-700.7867031618952
 20
4250.460527558127
 42
-0.1045602762567723
 10
-702.4781600285205
 20
4242.460527558134
 42
0.0
 10
-614.3909711346932
 20
4242.460527558134
 42
-0.1045602762567723
 97
        0
 92
        7
 72
     1
 73
     1
 93
        6
 10
-740.3153649035084
 20
4250.460527558127
 42
-0.1045602762566793
 10
-738.6239080368832
 20
4258.460527558113
 42
0.0
 10
-826.1464017629769
 20
4258.460527558113
 42
-0.1045602762566793
 10
-824.4549448963516
 20
4250.460527558127
 42
-0.1045602762569047
 10
-826.1464017629915
 20
4242.460527558127
 42
0.0
 10
-738.6239080368832
 20
4242.460527558134
 42
-0.1045602762567723
 97
        0
 92
        7
 72
     1
 73
     1
 93
        6
 10
-490.1580342324741
 20
4383.822854795828
 42
0.0
 10
-578.2452231263451
 20
4383.822854795813
 42
-0.1045602762571838
 10
-576.5537662597052
 20
4375.822854795791
 42
-0.1045602762569047
 10
-578.2452231263451
 20
4367.822854795791
 42
0.0
 10
-490.1580342325032
 20
4367.822854795806
 42
-0.1045602762566793
 10
-491.8494910991284
 20
4375.822854795791
 42
-0.1045602762574092
 97
        0
 92
        7
 72
     1
 73
     1
 93
        6
 10
-491.8494910991284
 20
4250.460527558127
 42
-0.1045602762567723
 10
-490.1580342325032
 20
4258.46052755812
 42
0.0
 10
-578.2452231263305
 20
4258.460527558113
 42
-0.1045602762566793
 10
-576.5537662597052
 20
4250.460527558127
 42
-0.1045602762567723
 10
-578.2452231263305
 20
4242.460527558134
 42
0.0
 10
-490.1580342324887
 20
4242.460527558127
 42
-0.1045602762569047
 97
        0
 92
        7
 72
     1
 73
     1
 93
        6
 10
-367.0518590291903
 20
4375.822854795791
 42
-0.1045602762574092
 10
-365.360402162536
 20
4383.822854795828
 42
0.0
 10
-454.0122862241696
 20
4383.822854795828
 42
-0.1045602762574092
 10
-452.3208293575152
 20
4375.822854795791
 42
-0.1045602762566793
 10
-454.0122862241405
 20
4367.822854795806
 42
0.0
 10
-365.3604021625651
 20
4367.822854795806
 42
-0.1045602762566793
 97
        0
 92
        7
 72
     1
 73
     1
 93
        6
 10
-367.0518590291903
 20
4250.460527558127
 42
-0.1045602762567723
 10
-365.3604021625651
 20
4258.46052755812
 42
0.0
 10
-454.0122862241405
 20
4258.46052755812
 42
-0.1045602762567723
 10
-452.3208293575152
 20
4250.460527558127
 42
-0.1045602762569047
 10
-454.0122862241551
 20
4242.460527558127
 42
0.0
 10
-365.3604021625505
 20
4242.460527558127
 42
-0.1045602762569047
 97
        0
 92
        7
 72
     1
 73
     1
 93
        6
 10
-240.5627700926124
 20
4383.822854795828
 42
0.0
 10
-329.2146541542315
 20
4383.822854795828
 42
-0.1045602762574092
 10
-327.5231972875772
 20
4375.822854795791
 42
-0.1045602762566793
 10
-329.2146541542024
 20
4367.822854795806
 42
0.0
 10
-240.5627700926415
 20
4367.822854795798
 42
-0.1045602762567723
 10
-242.2542269592668
 20
4375.822854795791
 42
-0.1045602762574092
 97
        0
 92
        7
 72
     1
 73
     1
 93
        6
 10
-240.562770092627
 20
4258.460527558134
 42
0.0
 10
-329.2146541542024
 20
4258.46052755812
 42
-0.1045602762567723
 10
-327.5231972875772
 20
4250.460527558127
 42
-0.1045602762569047
 10
-329.214654154217
 20
4242.460527558127
 42
0.0
 10
-240.5627700926415
 20
4242.460527558134
 42
-0.1045602762567723
 10
-242.2542269592668
 20
4250.460527558127
 42
-0.1045602762569977
 97
        0
 92
        7
 72
     1
 73
     1
 93
        6
 10
-117.4565948893432
 20
4375.822854795791
 42
-0.1045602762572768
 10
-115.7651380227034
 20
4383.822854795821
 42
0.0
 10
-204.4170220843079
 20
4383.822854795828
 42
-0.1045602762574092
 10
-202.7255652176536
 20
4375.822854795791
 42
-0.1045602762567723
 10
-204.4170220842788
 20
4367.822854795798
 42
0.0
 10
-115.765138022718
 20
4367.822854795798
 42
-0.1045602762567723
 97
        0
 92
        7
 72
     1
 73
     1
 93
        6
 10
-115.7651380227034
 20
4258.460527558127
 42
0.0
 10
-204.4170220842934
 20
4258.460527558134
 42
-0.1045602762569977
 10
-202.7255652176536
 20
4250.460527558127
 42
-0.1045602762567723
 10
-204.4170220842788
 20
4242.460527558134
 42
0.0
 10
-115.765138022718
 20
4242.460527558134
 42
-0.1045602762567723
 10
-117.4565948893432
 20
4250.460527558127
 42
-0.1045602762569047
 97
        0
 92
        7
 72
     1
 73
     1
 93
        6
 10
9.032494047220097
 20
4383.822854795821
 42
0.0
 10
-79.61939001436985
 20
4383.822854795821
 42
-0.1045602762572768
 10
-77.92793314773007
 20
4375.822854795791
 42
-0.1045602762569047
 10
-79.61939001436985
 20
4367.822854795791
 42
0.0
 10
9.032494047205545
 20
4367.822854795798
 42
-0.1045602762567723
 10
7.341037180580315
 20
4375.822854795791
 42
-0.1045602762572768
 97
        0
 92
        7
 72
     1
 73
     1
 93
        6
 10
9.032494047220097
 20
4258.460527558127
 42
0.0
 10
-79.61939001436985
 20
4258.460527558127
 42
-0.1045602762569047
 10
-77.92793314773007
 20
4250.460527558127
 42
-0.1045602762567723
 10
-79.6193900143553
 20
4242.460527558134
 42
0.0
 10
9.032494047205545
 20
4242.460527558134
 42
-0.1045602762567723
 10
7.341037180580315
 20
4250.460527558127
 42
-0.1045602762569047
 97
        0
 75
     0
 76
     1
 47
1.721950397761119
 98
       40
 10
-1130.898190070773
 20
4625.497916358072
 10
-1018.457000485577
 20
4625.497916358072
 10
-915.0112777013127
 20
4626.99554530355
 10
-813.0649015470552
 20
4624.000287412622
 10
-663.1437240861851
 20
4625.497916358072
 10
-543.2067208195367
 20
4626.99554530355
 10
-427.7671444638545
 20
4625.497916358072
 10
-288.340473944394
 20
4621.005029521664
 10
-138.4192964834655
 20
4628.49317424903
 10
-43.96873401066113
 20
4625.497916358072
 10
-31.97518692877201
 20
4495.202267960602
 10
-168.4034706777456
 20
4498.197686696643
 10
-283.8427405438997
 20
4499.695315642122
 10
-400.7813570400612
 20
4501.192944587601
 10
-537.209640789093
 20
4499.695315642122
 10
-676.6366177980817
 20
4498.197686696643
 10
-778.5829939523392
 20
4498.197686696643
 10
-924.0067445022432
 20
4498.197686696643
 10
-1024.454080516021
 20
4499.695315642122
 10
-1129.398843440765
 20
4504.18820247853
 10
-1123.402069899791
 20
4373.892714926173
 10
-1120.403683129305
 20
4252.58300104663
 10
-1036.44762759791
 20
4373.892714926173
 10
-1024.454080516021
 20
4251.085372101152
 10
-916.5106243313202
 20
4375.390343871651
 10
-888.0254902775195
 20
4248.08995336508
 10
-778.5829939523392
 20
4375.390343871651
 10
-652.6492171447171
 20
4375.390343871651
 10
-661.6443774561775
 20
4246.592324419631
 10
-771.086873781358
 20
4248.08995336508
 10
-525.2160937071457
 20
4376.887972817101
 10
-528.2144804776326
 20
4248.08995336508
 10
-412.7752106114785
 20
4373.892714926173
 10
-414.2742507519578
 20
4249.587743155673
 10
-277.8459670029842
 20
4379.883230708059
 10
-282.3437004034203
 20
4251.085372101152
 10
-168.4034706777456
 20
4372.39492513558
 10
-160.9073505068226
 20
4254.080629992109
 10
-48.46646741115546
 20
4379.883230708059
 10
-37.97196046974568
 20
4252.58300104663
  0
HATCH
  5
563
330
558
100
AcDbEntity
  8
0
 62
    50
100
AcDbHatch
 10
0.0
 20
0.0
 30
0.0
210
0.0
220
0.0
230
1.0
  2
SOLID
 70
     1
 71
     0
 91
       24
 92
        7
 72
     1
 73
     1
 93
        6
 10
133.8301261171436
 20
4633.98281410335
 42
0.0
 10
45.17824205556826
 20
4633.982814103364
 42
-0.1045602762566793
 10
46.86969892219349
 20
4625.982814103379
 42
-0.1045602762571838
 10
45.17824205555371
 20
4617.982814103357
 42
0.0
 10
133.8301261171582
 20
4617.982814103372
 42
-0.1045602762569977
 10
132.1386692505184
 20
4625.982814103379
 42
-0.1045602762564932
 97
        0
 92
        7
 72
     1
 73
     1
 93
        6
 10
132.1386692505184
 20
4500.620486865715
 42
-0.1045602762567723
 10
133.8301261171436
 20
4508.620486865708
 42
0.0
 10
45.17824205556826
 20
4508.620486865708
 42
-0.1045602762567723
 10
46.86969892219349
 20
4500.620486865715
 42
-0.1045602762570908
 10
45.17824205555371
 20
4492.6204868657
 42
0.0
 10
133.8301261171582
 20
4492.620486865708
 42
-0.1045602762569977
 97
        0
 92
        7
 72
     1
 73
     1
 93
        6
 10
133.8301261171727
 20
4383.822854795828
 42
0.0
 10
45.17824205555371
 20
4383.822854795821
 42
-0.1045602762572768
 10
46.86969892219349
 20
4375.822854795791
 42
-0.1045602762567723
 10
45.17824205556826
 20
4367.822854795798
 42
0.0
 10
133.8301261171436
 20
4367.822854795806
 42
-0.1045602762566793
 10
132.1386692505184
 20
4375.822854795791
 42
-0.1045602762574092
 97
        0
 92
        7
 72
     1
 73
     1
 93
        6
 10
132.1386692505184
 20
4250.460527558127
 42
-0.1045602762569047
 10
133.8301261171582
 20
4258.460527558127
 42
0.0
 10
45.17824205555371
 20
4258.460527558127
 42
-0.1045602762569047
 10
46.86969892219349
 20
4250.460527558127
 42
-0.1045602762567723
 10
45.17824205556826
 20
4242.460527558134
 42
0.0
 10
133.8301261171436
 20
4242.460527558134
 42
-0.1045602762567723
 97
        0
 92
        7
 72
     1
 73
     1
 93
        6
 10
258.6277581870672
 20
4633.982814103357
 42
0.0
 10
169.9758741255063
 20
4633.982814103357
 42
-0.1045602762565862
 10
171.6673309921316
 20
4625.982814103379
 42
-0.1045602762569977
 10
169.9758741254918
 20
4617.982814103372
 42
0.0
 10
258.6277581870817
 20
4617.982814103372
 42
-0.1045602762569977
 10
256.9363013204419
 20
4625.982814103379
 42
-0.1045602762565862
 97
        0
 92
        7
 72
     1
 73
     1
 93
        6
 10
256.9363013204419
 20
4500.620486865715
 42
-0.1045602762566793
 10
258.6277581870672
 20
4508.620486865701
 42
0.0
 10
169.9758741255063
 20
4508.620486865708
 42
-0.1045602762567723
 10
171.6673309921316
 20
4500.620486865715
 42
-0.1045602762569977
 10
169.9758741254918
 20
4492.620486865708
 42
0.0
 10
258.6277581870817
 20
4492.6204868657
 42
-0.1045602762570908
 97
        0
 92
        7
 72
     1
 73
     1
 93
        6
 10
258.6277581870817
 20
4383.822854795813
 42
0.0
 10
169.9758741254918
 20
4383.822854795821
 42
-0.1045602762572768
 10
171.6673309921316
 20
4375.822854795791
 42
-0.1045602762566793
 10
169.9758741255063
 20
4367.822854795806
 42
0.0
 10
258.6277581870672
 20
4367.822854795806
 42
-0.1045602762566793
 10
256.9363013204419
 20
4375.822854795791
 42
-0.1045602762571838
 97
        0
 92
        7
 72
     1
 73
     1
 93
        6
 10
256.9363013204419
 20
4250.460527558127
 42
-0.1045602762569977
 10
258.6277581870817
 20
4258.460527558134
 42
0.0
 10
169.9758741254918
 20
4258.460527558134
 42
-0.1045602762569977
 10
171.6673309921316
 20
4250.460527558127
 42
-0.1045602762567723
 10
169.9758741255063
 20
4242.460527558134
 42
0.0
 10
258.6277581870672
 20
4242.460527558134
 42
-0.1045602762567723
 97
        0
 92
        7
 72
     1
 73
     1
 93
        6
 10
381.7339333903655
 20
4625.982814103379
 42
-0.1045602762566793
 10
383.4253902569908
 20
4633.982814103364
 42
0.0
 10
294.7735061954299
 20
4633.982814103357
 42
-0.1045602762565862
 10
296.4649630620551
 20
4625.982814103379
 42
-0.1045602762569977
 10
294.7735061954153
 20
4617.982814103372
 42
0.0
 10
383.4253902570053
 20
4617.982814103379
 42
-0.1045602762569047
 97
        0
 92
        7
 72
     1
 73
     1
 93
        6
 10
381.7339333903655
 20
4500.620486865715
 42
-0.1045602762567723
 10
383.4253902569908
 20
4508.620486865708
 42
0.0
 10
294.7735061954299
 20
4508.620486865701
 42
-0.1045602762566793
 10
296.4649630620551
 20
4500.620486865715
 42
-0.1045602762570908
 10
294.7735061954153
 20
4492.6204868657
 42
0.0
 10
383.4253902570053
 20
4492.620486865693
 42
-0.1045602762571838
 97
        0
 92
        7
 72
     1
 73
     1
 93
        6
 10
383.4253902570053
 20
4383.822854795806
 42
0.0
 10
294.7735061954153
 20
4383.822854795813
 42
-0.1045602762571838
 10
296.4649630620551
 20
4375.822854795791
 42
-0.1045602762566793
 10
294.7735061954299
 20
4367.822854795806
 42
0.0
 10
383.4253902569908
 20
4367.822854795798
 42
-0.1045602762567723
 10
381.7339333903655
 20
4375.822854795791
 42
-0.1045602762570908
 97
        0
 92
        7
 72
     1
 73
     1
 93
        6
 10
381.7339333903655
 20
4250.460527558127
 42
-0.1045602762569047
 10
383.4253902570053
 20
4258.460527558127
 42
0.0
 10
294.7735061954153
 20
4258.460527558134
 42
-0.1045602762569977
 10
296.4649630620551
 20
4250.460527558127
 42
-0.1045602762567723
 10
294.7735061954299
 20
4242.460527558134
 42
0.0
 10
383.4253902570053
 20
4242.460527558127
 42
-0.1045602762569047
 97
        0
 92
        7
 72
     1
 73
     1
 93
        6
 10
507.0936319914472
 20
4633.982814103371
 42
0.0
 10
419.5711382653534
 20
4633.982814103364
 42
-0.1045602762566793
 10
421.2625951319787
 20
4625.982814103379
 42
-0.1045602762569047
 10
419.571138265339
 20
4617.982814103379
 42
0.0
 10
507.0936319914617
 20
4617.982814103379
 42
-0.1045602762569047
 10
505.4021751248219
 20
4625.982814103379
 42
-0.1045602762567723
 97
        0
 92
        7
 72
     1
 73
     1
 93
        6
 10
507.0936319914472
 20
4508.620486865701
 42
0.0
 10
419.5711382653534
 20
4508.620486865708
 42
-0.1045602762567723
 10
421.2625951319787
 20
4500.620486865715
 42
-0.1045602762571838
 10
419.571138265339
 20
4492.620486865693
 42
0.0
 10
507.0936319914617
 20
4492.620486865693
 42
-0.1045602762571838
 10
505.4021751248219
 20
4500.620486865715
 42
-0.1045602762566793
 97
        0
 92
        7
 72
     1
 73
     1
 93
        6
 10
505.4021751248219
 20
4375.822854795791
 42
-0.1045602762569047
 10
507.0936319914617
 20
4383.822854795791
 42
0.0
 10
419.571138265339
 20
4383.822854795798
 42
-0.1045602762569977
 10
421.2625951319787
 20
4375.822854795791
 42
-0.1045602762567723
 10
419.5711382653534
 20
4367.822854795798
 42
0.0
 10
507.0936319914617
 20
4367.822854795791
 42
-0.1045602762569047
 97
        0
 92
        7
 72
     1
 73
     1
 93
        6
 10
507.0936319914617
 20
4258.460527558127
 42
0.0
 10
419.571138265339
 20
4258.460527558127
 42
-0.1045602762569047
 10
421.2625951319787
 20
4250.460527558127
 42
-0.1045602762569047
 10
419.571138265339
 20
4242.460527558127
 42
0.0
 10
507.0936319914617
 20
4242.460527558127
 42
-0.1045602762569047
 10
505.4021751248219
 20
4250.460527558127
 42
-0.1045602762569047
 97
        0
 92
        7
 72
     1
 73
     1
 93
        6
 10
629.6351120270119
 20
4625.982814103379
 42
-0.1045602762569047
 10
631.3265688936517
 20
4633.982814103379
 42
0.0
 10
543.2393799998099
 20
4633.982814103371
 42
-0.1045602762567723
 10
544.9308368664351
 20
4625.982814103379
 42
-0.1045602762569047
 10
543.2393799997953
 20
4617.982814103379
 42
0.0
 10
631.3265688936517
 20
4617.982814103379
 42
-0.1045602762569047
 97
        0
 92
        7
 72
     1
 73
     1
 93
        6
 10
631.3265688936371
 20
4508.620486865701
 42
0.0
 10
543.2393799998099
 20
4508.620486865701
 42
-0.1045602762566793
 10
544.9308368664351
 20
4500.620486865715
 42
-0.1045602762571838
 10
543.2393799997953
 20
4492.620486865693
 42
0.0
 10
631.3265688936517
 20
4492.6204868657
 42
-0.1045602762570908
 10
629.6351120270119
 20
4500.620486865715
 42
-0.1045602762566793
 97
        0
 92
        7
 72
     1
 73
     1
 93
        6
 10
631.3265688936371
 20
4383.822854795783
 42
0.0
 10
543.2393799997953
 20
4383.822854795791
 42
-0.1045602762569047
 10
544.9308368664351
 20
4375.822854795791
 42
-0.1045602762569047
 10
543.2393799997953
 20
4367.822854795791
 42
0.0
 10
631.3265688936517
 20
4367.822854795784
 42
-0.1045602762569977
 10
629.6351120270119
 20
4375.822854795791
 42
-0.1045602762567723
 97
        0
 92
        7
 72
     1
 73
     1
 93
        6
 10
631.3265688936371
 20
4258.46052755812
 42
0.0
 10
543.2393799997953
 20
4258.460527558127
 42
-0.1045602762569047
 10
544.9308368664351
 20
4250.460527558127
 42
-0.1045602762569047
 10
543.2393799997953
 20
4242.460527558127
 42
0.0
 10
631.3265688936517
 20
4242.460527558127
 42
-0.1045602762569047
 10
629.6351120270119
 20
4250.460527558127
 42
-0.1045602762567723
 97
        0
 92
        7
 72
     1
 73
     1
 93
        5
 10
688.4271255704079
 20
4633.982814103386
 42
0.0
 10
667.4723169019853
 20
4633.982814103379
 42
-0.1045602762569047
 10
669.163773768625
 20
4625.982814103379
 42
-0.1045602762569047
 10
667.4723169019853
 20
4617.982814103379
 42
0.0
 10
688.4271255704079
 20
4617.982814103379
 42
0.0
 97
        0
 92
        7
 72
     1
 73
     1
 93
        5
 10
688.4271255704079
 20
4508.620486865694
 42
0.0
 10
667.4723169019999
 20
4508.620486865701
 42
-0.1045602762566793
 10
669.163773768625
 20
4500.620486865715
 42
-0.1045602762570908
 10
667.4723169019853
 20
4492.6204868657
 42
0.0
 10
688.4271255704079
 20
4492.6204868657
 42
0.0
 97
        0
 92
        7
 72
     1
 73
     1
 93
        5
 10
688.4271255704079
 20
4383.822854795783
 42
0.0
 10
667.4723169019999
 20
4383.822854795783
 42
-0.1045602762567723
 10
669.163773768625
 20
4375.822854795791
 42
-0.1045602762569977
 10
667.4723169019853
 20
4367.822854795784
 42
0.0
 10
688.4271255704079
 20
4367.822854795784
 42
0.0
 97
        0
 92
        7
 72
     1
 73
     1
 93
        5
 10
688.4271255704079
 20
4258.460527558113
 42
0.0
 10
667.4723169019999
 20
4258.46052755812
 42
-0.1045602762567723
 10
669.163773768625
 20
4250.460527558127
 42
-0.1045602762569047
 10
667.4723169019853
 20
4242.460527558127
 42
0.0
 10
688.4271255704079
 20
4242.460527558127
 42
0.0
 97
        0
 75
     0
 76
     1
 47
2.707435418786317
 98
       24
 10
100.8729929803375
 20
4627.137571547661
 10
81.90129298109969
 20
4497.180662980375
 10
92.74243954608392
 20
4375.345950617528
 10
90.0321529048233
 20
4248.09654801515
 10
211.9938258030306
 20
4627.137571547661
 10
206.5732525205094
 20
4497.180662980375
 10
211.9938258030306
 20
4375.345950617528
 10
214.7041124442912
 20
4248.09654801515
 10
331.2452120599773
 20
4624.430065582753
 10
336.6657853424985
 20
4497.180662980375
 10
336.6657853424985
 20
4378.053456582434
 10
333.9554987012379
 20
4248.09654801515
 10
472.1788914469507
 20
4627.137571547661
 10
469.4686048056901
 20
4502.595514065047
 10
458.6274582407058
 20
4372.638605497763
 10
466.7583181644295
 20
4250.803893134914
 10
586.0097044213762
 20
4624.430065582753
 10
580.5891311389132
 20
4502.595514065047
 10
586.0097044213762
 20
4380.7608017022
 10
583.2994177801738
 20
4253.511399099822
 10
678.1585307553614
 20
4624.430065582753
 10
678.1585307553614
 20
4502.595514065047
 10
675.4482441141008
 20
4375.345950617528
 10
675.4482441141008
 20
4250.803893134914
  0
HATCH
  5
564
330
558
100
AcDbEntity
  8
0
 62
    84
100
AcDbHatch
 10
0.0
 20
0.0
 30
0.0
210
0.0
220
0.0
230
1.0
  2
SOLID
 70
     1
 71
     1
 91
        1
 92
        1
 93
        4
 72
     1
 10
1849.312958240712
 20
5018.382239582046
 11
1849.312958240712
 21
3857.496406911734
 72
     1
 10
1849.312958240712
 20
3857.496406911734
 11
688.4271255704079
 21
3857.496406911734
 72
     1
 10
688.4271255704079
 20
3857.496406911734
 11
688.4271255704079
 21
5018.382239582046
 72
     1
 10
688.4271255704079
 20
5018.382239582046
 11
1849.312958240712
 21
5018.382239582046
 97
        1
330
5FA
 75
     0
 76
     1
 98
        1
 10
-5686.346321638804
 20
-10044.2395224411
  0
HATCH
  5
565
330
558
100
AcDbEntity
  8
0
 62
   250
100
AcDbHatch
 10
0.0
 20
0.0
 30
0.0
210
0.0
220
0.0
230
1.0
  2
SOLID
 70
     1
 71
     0
 91
       56
 92
        1
 93
        1
 72
     2
 10
-967.3228223338664
 20
4625.982814103379
 40
19.76433087080659
 50
0.0
 51
360.0
 73
     1
 97
        0
 92
        1
 93
        1
 72
     2
 10
-967.3228223338664
 20
4500.620486865715
 40
19.76433087080659
 50
0.0
 51
360.0
 73
     1
 97
        0
 92
        1
 93
        1
 72
     2
 10
-967.3228223338664
 20
4375.822854795791
 40
19.76433087080659
 50
0.0
 51
360.0
 73
     1
 97
        0
 92
        1
 93
        1
 72
     2
 10
-967.3228223338664
 20
4250.460527558127
 40
19.76433087080659
 50
0.0
 51
360.0
 73
     1
 97
        0
 92
        1
 93
        1
 72
     2
 10
-844.2192757671582
 20
4250.460527558127
 40
19.76433087080659
 50
0.0
 51
360.0
 73
     1
 97
        0
 92
        1
 93
        1
 72
     2
 10
-844.2192757671582
 20
4375.822854795791
 40
19.76433087080659
 50
0.0
 51
360.0
 73
     1
 97
        0
 92
        1
 93
        1
 72
     2
 10
-844.2192757671582
 20
4500.620486865715
 40
19.76433087080659
 50
0.0
 51
360.0
 73
     1
 97
        0
 92
        1
 93
        1
 72
     2
 10
-844.2192757671582
 20
4625.982814103379
 40
19.76433087080659
 50
0.0
 51
360.0
 73
     1
 97
        0
 92
        1
 93
        1
 72
     2
 10
-720.5510340327018
 20
4625.982814103379
 40
19.76433087080659
 50
0.0
 51
360.0
 73
     1
 97
        0
 92
        1
 93
        1
 72
     2
 10
-720.5510340327018
 20
4500.620486865715
 40
19.76433087080659
 50
0.0
 51
360.0
 73
     1
 97
        0
 92
        1
 93
        1
 72
     2
 10
-720.5510340327018
 20
4375.822854795791
 40
19.76433087080659
 50
0.0
 51
360.0
 73
     1
 97
        0
 92
        1
 93
        1
 72
     2
 10
-720.5510340327018
 20
4250.460527558127
 40
19.76433087080659
 50
0.0
 51
360.0
 73
     1
 97
        0
 92
        1
 93
        1
 72
     2
 10
-596.3180971305119
 20
4625.982814103379
 40
19.76433087080659
 50
0.0
 51
360.0
 73
     1
 97
        0
 92
        1
 93
        1
 72
     2
 10
-596.3180971305119
 20
4500.620486865715
 40
19.76433087080659
 50
0.0
 51
360.0
 73
     1
 97
        0
 92
        1
 93
        1
 72
     2
 10
-596.3180971305119
 20
4375.822854795791
 40
19.76433087080659
 50
0.0
 51
360.0
 73
     1
 97
        0
 92
        1
 93
        1
 72
     2
 10
-596.3180971305119
 20
4250.460527558127
 40
19.76433087080659
 50
0.0
 51
360.0
 73
     1
 97
        0
 92
        1
 93
        1
 72
     2
 10
-472.0851602283219
 20
4625.982814103379
 40
19.76433087080659
 50
0.0
 51
360.0
 73
     1
 97
        0
 92
        1
 93
        1
 72
     2
 10
-472.0851602283219
 20
4500.620486865715
 40
19.76433087080659
 50
0.0
 51
360.0
 73
     1
 97
        0
 92
        1
 93
        1
 72
     2
 10
-472.0851602283219
 20
4375.822854795791
 40
19.76433087080659
 50
0.0
 51
360.0
 73
     1
 97
        0
 92
        1
 93
        1
 72
     2
 10
-472.0851602283219
 20
4250.460527558127
 40
19.76433087080659
 50
0.0
 51
360.0
 73
     1
 97
        0
 92
        1
 93
        1
 72
     2
 10
-347.2875281583838
 20
4625.982814103379
 40
19.76433087080659
 50
0.0
 51
360.0
 73
     1
 97
        0
 92
        1
 93
        1
 72
     2
 10
-347.2875281583838
 20
4500.620486865715
 40
19.76433087080659
 50
0.0
 51
360.0
 73
     1
 97
        0
 92
        1
 93
        1
 72
     2
 10
-347.2875281583838
 20
4375.822854795791
 40
19.76433087080659
 50
0.0
 51
360.0
 73
     1
 97
        0
 92
        1
 93
        1
 72
     2
 10
-347.2875281583838
 20
4250.460527558127
 40
19.76433087080659
 50
0.0
 51
360.0
 73
     1
 97
        0
 92
        1
 93
        1
 72
     2
 10
-222.4898960884602
 20
4625.982814103379
 40
19.76433087080659
 50
0.0
 51
360.0
 73
     1
 97
        0
 92
        1
 93
        1
 72
     2
 10
-222.4898960884602
 20
4500.620486865715
 40
19.76433087080659
 50
0.0
 51
360.0
 73
     1
 97
        0
 92
        1
 93
        1
 72
     2
 10
-222.4898960884602
 20
4375.822854795791
 40
19.76433087080659
 50
0.0
 51
360.0
 73
     1
 97
        0
 92
        1
 93
        1
 72
     2
 10
-222.4898960884602
 20
4250.460527558127
 40
19.76433087080659
 50
0.0
 51
360.0
 73
     1
 97
        0
 92
        1
 93
        1
 72
     2
 10
-97.69226401853666
 20
4625.982814103379
 40
19.76433087080659
 50
0.0
 51
360.0
 73
     1
 97
        0
 92
        1
 93
        1
 72
     2
 10
-97.69226401853666
 20
4500.620486865715
 40
19.76433087080659
 50
0.0
 51
360.0
 73
     1
 97
        0
 92
        1
 93
        1
 72
     2
 10
-97.69226401853666
 20
4375.822854795791
 40
19.76433087080659
 50
0.0
 51
360.0
 73
     1
 97
        0
 92
        1
 93
        1
 72
     2
 10
-97.69226401853666
 20
4250.460527558127
 40
19.76433087080659
 50
0.0
 51
360.0
 73
     1
 97
        0
 92
        1
 93
        1
 72
     2
 10
27.1053680513869
 20
4625.982814103379
 40
19.76433087080659
 50
0.0
 51
360.0
 73
     1
 97
        0
 92
        1
 93
        1
 72
     2
 10
27.1053680513869
 20
4500.620486865715
 40
19.76433087080659
 50
0.0
 51
360.0
 73
     1
 97
        0
 92
        1
 93
        1
 72
     2
 10
27.1053680513869
 20
4375.822854795791
 40
19.76433087080659
 50
0.0
 51
360.0
 73
     1
 97
        0
 92
        1
 93
        1
 72
     2
 10
27.1053680513869
 20
4250.460527558127
 40
19.76433087080659
 50
0.0
 51
360.0
 73
     1
 97
        0
 92
        1
 93
        1
 72
     2
 10
151.903000121325
 20
4625.982814103379
 40
19.76433087080659
 50
0.0
 51
360.0
 73
     1
 97
        0
 92
        1
 93
        1
 72
     2
 10
151.903000121325
 20
4500.620486865715
 40
19.76433087080659
 50
0.0
 51
360.0
 73
     1
 97
        0
 92
        1
 93
        1
 72
     2
 10
151.903000121325
 20
4375.822854795791
 40
19.76433087080659
 50
0.0
 51
360.0
 73
     1
 97
        0
 92
        1
 93
        1
 72
     2
 10
151.903000121325
 20
4250.460527558127
 40
19.76433087080659
 50
0.0
 51
360.0
 73
     1
 97
        0
 92
        1
 93
        1
 72
     2
 10
276.7006321912485
 20
4250.460527558127
 40
19.76433087080659
 50
0.0
 51
360.0
 73
     1
 97
        0
 92
        1
 93
        1
 72
     2
 10
276.7006321912485
 20
4375.822854795791
 40
19.76433087080659
 50
0.0
 51
360.0
 73
     1
 97
        0
 92
        1
 93
        1
 72
     2
 10
276.7006321912485
 20
4500.620486865715
 40
19.76433087080659
 50
0.0
 51
360.0
 73
     1
 97
        0
 92
        1
 93
        1
 72
     2
 10
276.7006321912485
 20
4625.982814103379
 40
19.76433087080659
 50
0.0
 51
360.0
 73
     1
 97
        0
 92
        1
 93
        1
 72
     2
 10
401.4982642611721
 20
4625.982814103379
 40
19.76433087080659
 50
0.0
 51
360.0
 73
     1
 97
        0
 92
        1
 93
        1
 72
     2
 10
401.4982642611721
 20
4500.620486865715
 40
19.76433087080659
 50
0.0
 51
360.0
 73
     1
 97
        0
 92
        1
 93
        1
 72
     2
 10
401.4982642611721
 20
4375.822854795791
 40
19.76433087080659
 50
0.0
 51
360.0
 73
     1
 97
        0
 92
        1
 93
        1
 72
     2
 10
401.4982642611721
 20
4250.460527558127
 40
19.76433087080659
 50
0.0
 51
360.0
 73
     1
 97
        0
 92
        1
 93
        1
 72
     2
 10
525.1665059956285
 20
4625.982814103379
 40
19.76433087080659
 50
0.0
 51
360.0
 73
     1
 97
        0
 92
        1
 93
        1
 72
     2
 10
525.1665059956285
 20
4500.620486865715
 40
19.76433087080659
 50
0.0
 51
360.0
 73
     1
 97
        0
 92
        1
 93
        1
 72
     2
 10
525.1665059956285
 20
4375.822854795791
 40
19.76433087080659
 50
0.0
 51
360.0
 73
     1
 97
        0
 92
        1
 93
        1
 72
     2
 10
525.1665059956285
 20
4250.460527558127
 40
19.76433087080659
 50
0.0
 51
360.0
 73
     1
 97
        0
 92
        1
 93
        1
 72
     2
 10
649.3994428978185
 20
4625.982814103379
 40
19.76433087080659
 50
0.0
 51
360.0
 73
     1
 97
        0
 92
        1
 93
        1
 72
     2
 10
649.3994428978185
 20
4500.620486865715
 40
19.76433087080659
 50
0.0
 51
360.0
 73
     1
 97
        0
 92
        1
 93
        1
 72
     2
 10
649.3994428978185
 20
4375.822854795791
 40
19.76433087080659
 50
0.0
 51
360.0
 73
     1
 97
        0
 92
        1
 93
        1
 72
     2
 10
649.3994428978185
 20
4250.460527558127
 40
19.76433087080659
 50
0.0
 51
360.0
 73
     1
 97
        0
 75
     0
 76
     1
 98
        1
 10
76713.95071171578
 20
-52499.82688142256
  0
HATCH
  5
566
330
558
100
AcDbEntity
  8
0
 62
    70
100
AcDbHatch
 10
0.0
 20
0.0
 30
0.0
210
0.0
220
0.0
230
1.0
  2
SOLID
 70
     1
 71
     1
 91
       13
 92
        7
 72
     0
 73
     1
 93
        6
 10
2578.436829771403
 20
3782.888233731878
 10
2726.204791116863
 20
3752.370937367057
 10
2726.204791116863
 20
5124.043100291135
 10
2578.436829771403
 20
5093.52580392631
 10
1849.312958240712
 20
4838.553395518313
 10
1849.312958240713
 20
4037.418748884404
 97
        6
330
5FA
330
5FE
330
5FF
330
600
330
602
330
601
 92
       22
 72
     0
 73
     1
 93
        8
 10
2420.49643630434
 20
4123.397014223563
 10
2404.434701375503
 20
4145.348051959663
 10
2404.434701375503
 20
4244.930808518555
 10
2420.49643630434
 20
4266.881846254655
 10
2463.327729447963
 20
4267.417237418951
 10
2479.924855541103
 20
4246.536982011443
 10
2479.924855541102
 20
4143.741878466783
 10
2463.327729447963
 20
4122.861623059274
 97
        8
330
649
330
648
330
647
330
646
330
645
330
64C
330
64B
330
64A
 92
       22
 72
     0
 73
     1
 93
        7
 10
2621.268122915018
 20
4096.092064844517
 10
2594.271032074097
 20
4179.058734258075
 10
2639.471422501054
 20
4182.825433460326
 10
2683.908889137543
 20
4134.104837509468
 10
2683.908889137542
 20
4058.079292179565
 10
2640.274509247495
 20
4009.894087393005
 10
2596.89648886792
 20
4012.715422051832
 97
       10
330
637
330
636
330
635
330
634
330
633
330
63C
330
63B
330
63A
330
639
330
638
 92
       22
 72
     0
 73
     1
 93
        7
 10
2231.235659726022
 20
4128.215534702228
 10
2187.857639346448
 20
4131.036869361056
 10
2212.229273393547
 20
4214.413512153741
 10
2185.232182552625
 20
4297.380181567294
 10
2230.432572979582
 20
4301.146880769549
 10
2274.870039616085
 20
4252.426284818691
 10
2274.870039616085
 20
4176.400739488788
 97
       10
330
618
330
617
330
616
330
615
330
61E
330
61D
330
61C
330
61B
330
61A
330
619
 92
       22
 72
     0
 73
     1
 93
        8
 10
2113.71729916324
 20
4065.039377315406
 10
2097.1201730701
 20
4044.159121907891
 10
2054.28887992649
 20
4044.694513072187
 10
2038.227144997639
 20
4066.645550808287
 10
2038.227144997639
 20
4166.228307367171
 10
2054.288879926491
 20
4188.179345103272
 10
2097.120173070098
 20
4188.714736267575
 10
2113.717299163239
 20
4167.834480860068
 97
        8
330
63F
330
63E
330
63D
330
644
330
643
330
642
330
641
330
640
 92
       22
 72
     0
 73
     1
 93
        8
 10
2586.467697235828
 20
4362.716864663481
 10
2570.405962306977
 20
4384.667902399581
 10
2570.405962306977
 20
4484.250658958473
 10
2586.467697235828
 20
4506.201696694574
 10
2629.298990379451
 20
4506.737087858871
 10
2645.896116472592
 20
4485.856832451363
 10
2645.896116472592
 20
4383.061728906701
 10
2629.298990379451
 20
4362.181473499192
 97
        8
330
661
330
660
330
65F
330
65E
330
65D
330
664
330
663
330
662
 92
       22
 72
     0
 73
     1
 93
        7
 10
2403.631614629048
 20
4425.893022050309
 10
2360.253594249491
 20
4428.714356709138
 10
2384.625228296572
 20
4512.090999501823
 10
2357.628137455651
 20
4595.057668915382
 10
2402.828527882607
 20
4598.824368117625
 10
2447.265994519097
 20
4550.103772166774
 10
2447.265994519097
 20
4474.078226836864
 97
       10
330
622
330
621
330
620
330
61F
330
628
330
627
330
626
330
625
330
624
330
623
 92
       22
 72
     0
 73
     1
 93
        8
 10
1932.567084508321
 20
4262.063325776005
 10
1915.969958415168
 20
4241.183070368498
 10
1873.138665271558
 20
4241.718461532786
 10
1857.076930342707
 20
4263.669499268887
 10
1857.076930342707
 20
4363.252255827777
 10
1873.138665271559
 20
4385.203293563877
 10
1915.969958415167
 20
4385.738684728174
 10
1932.567084508322
 20
4364.858429320666
 97
        8
330
605
330
604
330
603
330
60A
330
609
330
608
330
607
330
606
 92
       22
 72
     0
 73
     1
 93
        8
 10
2236.32187578683
 20
4495.493873408675
 10
2193.490582643221
 20
4496.029264572964
 10
2177.428847714371
 20
4517.980302309065
 10
2177.428847714371
 20
4617.563058867956
 10
2193.490582643222
 20
4639.514096604056
 10
2236.321875786831
 20
4640.049487768352
 10
2252.919001879971
 20
4619.169232360845
 10
2252.919001879971
 20
4516.374128816183
 97
        8
330
650
330
64F
330
64E
330
64D
330
654
330
653
330
652
330
651
 92
       22
 72
     0
 73
     1
 93
        7
 10
2014.402238186508
 20
4417.862154585884
 10
1971.024217806933
 20
4420.683489244714
 10
1995.395851854031
 20
4504.060132037396
 10
1968.39876101311
 20
4587.026801450952
 10
2013.599151440067
 20
4590.793500653204
 10
2058.036618076556
 20
4542.072904702347
 10
2058.036618076556
 20
4466.047359372445
 97
       10
330
60E
330
60D
330
60C
330
60B
330
614
330
613
330
612
330
611
330
610
330
60F
 92
       22
 72
     0
 73
     1
 93
        7
 10
2538.817883613563
 20
4755.1585880918
 10
2511.820792772656
 20
4838.125257505366
 10
2557.021183199598
 20
4841.891956707609
 10
2601.458649836087
 20
4793.171360756751
 10
2601.458649836088
 20
4717.145815426848
 10
2557.824269946039
 20
4668.960610640293
 10
2514.446249566481
 20
4671.781945299112
 97
       10
330
62D
330
62C
330
62B
330
62A
330
629
330
632
330
631
330
630
330
62F
330
62E
 92
       22
 72
     0
 73
     1
 93
        8
 10
2025.37775705455
 20
4651.292702218546
 10
1982.546463910941
 20
4651.828093382849
 10
1966.484728982089
 20
4673.779131118943
 10
1966.484728982089
 20
4773.361887677834
 10
1982.546463910941
 20
4795.312925413934
 10
2025.37775705455
 20
4795.848316578231
 10
2041.974883147704
 20
4774.968061170723
 10
2041.974883147704
 20
4672.172957626062
 97
        8
330
668
330
667
330
666
330
665
330
66C
330
66B
330
66A
330
669
 92
       22
 72
     0
 73
     1
 93
        8
 10
2348.218629124501
 20
4739.096853162947
 10
2305.387335980908
 20
4739.632244327244
 10
2289.325601052042
 20
4761.583282063337
 10
2289.325601052041
 20
4861.166038622235
 10
2305.387335980908
 20
4883.117076358336
 10
2348.2186291245
 20
4883.652467522625
 10
2364.815755217656
 20
4862.772212115118
 10
2364.815755217656
 20
4759.977108570455
 97
        8
330
658
330
657
330
656
330
655
330
65C
330
65B
330
65A
330
659
 75
     0
 76
     1
 47
9.376694780567449
 98
       13
 10
2383.526369999395
 20
3920.259566517575
 10
2383.526369999395
 20
3920.259566517575
 10
2383.526369999395
 20
3920.259566517575
 10
2383.526369999395
 20
3920.259566517575
 10
2383.526369999395
 20
3920.259566517575
 10
2383.526369999395
 20
3920.259566517575
 10
2383.526369999395
 20
3920.259566517575
 10
2383.526369999395
 20
3920.259566517575
 10
2383.526369999395
 20
3920.259566517575
 10
2383.526369999395
 20
3920.259566517575
 10
2383.526369999395
 20
3920.259566517575
 10
2383.526369999395
 20
3920.259566517575
 10
2383.526369999395
 20
3920.259566517575
  0
HATCH
  5
567
330
558
100
AcDbEntity
  8
0
 62
    50
100
AcDbHatch
 10
0.0
 20
0.0
 30
0.0
210
0.0
220
0.0
230
1.0
  2
SOLID
 70
     1
 71
     0
 91
        1
 92
        7
 72
     0
 73
     1
 93
        4
 10
-3547.703691975286
 20
4686.053157208747
 10
-3582.339835802864
 20
4686.053157208749
 10
-3582.339835802864
 20
4190.443553886849
 10
-3547.703691975286
 20
4190.443553886857
 97
        0
 75
     0
 76
     1
 47
1.950875136170907
 98
        1
 10
-3554.784313572905
 20
4263.262962683846
  0
HATCH
  5
568
330
558
100
AcDbEntity
  8
0
 62
   150
100
AcDbHatch
 10
0.0
 20
0.0
 30
0.0
210
0.0
220
0.0
230
1.0
  2
SOLID
 70
     1
 71
     0
 91
        2
 92
        7
 72
     1
 73
     1
 93
        4
 10
-3540.413475726076
 20
4703.614176987372
 42
0.0
 10
-3589.695337570723
 20
4703.614176987372
 42
0.2009685438464969
 10
-3582.33983580285
 20
4686.053157208749
 42
0.0
 10
-3547.768977493936
 20
4686.053157208749
 42
0.2009685438464102
 97
        0
 92
        7
 72
     1
 73
     1
 93
        4
 10
-3547.703691975286
 20
4190.443553886857
 42
0.0
 10
-3582.339835802864
 20
4190.443553886849
 42
0.2004846722166156
 10
-3589.662694811399
 20
4172.914724436261
 42
0.0
 10
-3540.380832966737
 20
4172.914724436261
 42
0.200484672216724
 97
        0
 75
     0
 76
     1
 47
1.950875136170907
 98
        2
 10
-3572.360509965641
 20
4692.45549421585
 10
-3574.313416167439
 20
4179.375334396914
  0
HATCH
  5
569
330
558
100
AcDbEntity
  8
0
 62
    50
100
AcDbHatch
 10
0.0
 20
0.0
 30
0.0
210
0.0
220
0.0
230
1.0
  2
SOLID
 70
     1
 71
     0
 91
        1
 92
        7
 72
     0
 73
     1
 93
        4
 10
-3104.534710461695
 20
4686.053157208749
 10
-3139.170854289288
 20
4686.053157208749
 10
-3139.170854289259
 20
4190.443553886835
 10
-3104.534710461695
 20
4190.443553886857
 97
        0
 75
     0
 76
     1
 47
1.950875136170907
 98
        1
 10
-3111.615332059329
 20
4263.262962683846
  0
HATCH
  5
56A
330
558
100
AcDbEntity
  8
0
 62
   150
100
AcDbHatch
 10
0.0
 20
0.0
 30
0.0
210
0.0
220
0.0
230
1.0
  2
SOLID
 70
     1
 71
     0
 91
        2
 92
        7
 72
     1
 73
     1
 93
        4
 10
-3097.244494212485
 20
4703.614176987372
 42
0.0
 10
-3146.526356057147
 20
4703.614176987372
 42
0.2009685438464969
 10
-3139.170854289274
 20
4686.053157208749
 42
0.0
 10
-3104.599995980345
 20
4686.053157208749
 42
0.2009685438464102
 97
        0
 92
        7
 72
     1
 73
     1
 93
        4
 10
-3104.53471046171
 20
4190.443553886857
 42
0.0
 10
-3139.170854289274
 20
4190.443553886849
 42
0.2004846722166156
 10
-3146.493713297823
 20
4172.914724436261
 42
0.0
 10
-3097.211851453161
 20
4172.914724436261
 42
0.200484672216724
 97
        0
 75
     0
 76
     1
 47
1.950875136170907
 98
        2
 10
-3129.191528452051
 20
4692.45549421585
 10
-3131.144434653848
 20
4179.375334396914
  0
HATCH
  5
56B
330
558
100
AcDbEntity
  8
0
 62
    50
100
AcDbHatch
 10
0.0
 20
0.0
 30
0.0
210
0.0
220
0.0
230
1.0
  2
SOLID
 70
     1
 71
     0
 91
        1
 92
        7
 72
     0
 73
     1
 93
        4
 10
-2710.647590792781
 20
4686.053157208747
 10
-2745.283734620359
 20
4686.053157208749
 10
-2745.283734620359
 20
4190.443553886847
 10
-2710.647590792781
 20
4190.443553886857
 97
        0
 75
     0
 76
     1
 47
1.950875136170907
 98
        1
 10
-2717.7282123904
 20
4263.262962683846
  0
HATCH
  5
56C
330
558
100
AcDbEntity
  8
0
 62
   150
100
AcDbHatch
 10
0.0
 20
0.0
 30
0.0
210
0.0
220
0.0
230
1.0
  2
SOLID
 70
     1
 71
     0
 91
        2
 92
        7
 72
     1
 73
     1
 93
        4
 10
-2703.357374543571
 20
4703.614176987372
 42
0.0
 10
-2752.639236388219
 20
4703.614176987372
 42
0.2009685438464969
 10
-2745.283734620345
 20
4686.053157208749
 42
0.0
 10
-2710.71287631143
 20
4686.053157208749
 42
0.2009685438464102
 97
        0
 92
        7
 72
     1
 73
     1
 93
        4
 10
-2710.647590792781
 20
4190.443553886857
 42
0.0
 10
-2745.283734620359
 20
4190.443553886849
 42
0.2004846722166156
 10
-2752.606593628894
 20
4172.914724436261
 42
0.0
 10
-2703.324731784232
 20
4172.914724436261
 42
0.200484672216724
 97
        0
 75
     0
 76
     1
 47
1.950875136170907
 98
        2
 10
-2735.304408783136
 20
4692.45549421585
 10
-2737.257314984934
 20
4179.375334396914
  0
HATCH
  5
56D
330
558
100
AcDbEntity
  8
0
 62
    50
100
AcDbHatch
 10
0.0
 20
0.0
 30
0.0
210
0.0
220
0.0
230
1.0
  2
SOLID
 70
     1
 71
     0
 91
        1
 92
        7
 72
     0
 73
     1
 93
        4
 10
-2366.042332968514
 20
4686.053157208749
 10
-2400.678476796092
 20
4686.053157208751
 10
-2400.678476796092
 20
4190.443553886851
 10
-2366.042332968529
 20
4190.443553886854
 97
        0
 75
     0
 76
     1
 47
1.950875136170907
 98
        1
 10
-2373.122954566162
 20
4263.262962683846
  0
HATCH
  5
56E
330
558
100
AcDbEntity
  8
0
 62
   150
100
AcDbHatch
 10
0.0
 20
0.0
 30
0.0
210
0.0
220
0.0
230
1.0
  2
SOLID
 70
     1
 71
     0
 91
        2
 92
        7
 72
     1
 73
     1
 93
        4
 10
-2358.752116719304
 20
4703.614176987372
 42
0.0
 10
-2408.033978563981
 20
4703.614176987372
 42
0.2009685438464969
 10
-2400.678476796092
 20
4686.053157208749
 42
0.0
 10
-2366.107618487178
 20
4686.053157208749
 42
0.2009685438464102
 97
        0
 92
        7
 72
     1
 73
     1
 93
        4
 10
-2366.042332968543
 20
4190.443553886857
 42
0.0
 10
-2400.678476796092
 20
4190.443553886849
 42
0.2004846722166156
 10
-2408.001335804656
 20
4172.914724436261
 42
0.0
 10
-2358.719473959979
 20
4172.914724436261
 42
0.200484672216724
 97
        0
 75
     0
 76
     1
 47
1.950875136170907
 98
        2
 10
-2390.699150958884
 20
4692.45549421585
 10
-2392.652057160666
 20
4179.375334396914
  0
HATCH
  5
56F
330
558
100
AcDbEntity
  8
0
 62
    50
100
AcDbHatch
 10
0.0
 20
0.0
 30
0.0
210
0.0
220
0.0
230
1.0
  2
SOLID
 70
     1
 71
     0
 91
        1
 92
        7
 72
     0
 73
     1
 93
        4
 10
-2070.351161900543
 20
4686.053157208751
 10
-2104.987305728122
 20
4686.053157208749
 10
-2104.987305728122
 20
4190.443553886849
 10
-2070.351161900558
 20
4190.443553886857
 97
        0
 75
     0
 76
     1
 47
1.950875136170907
 98
        1
 10
-2077.431783498192
 20
4263.262962683846
  0
HATCH
  5
570
330
558
100
AcDbEntity
  8
0
 62
   150
100
AcDbHatch
 10
0.0
 20
0.0
 30
0.0
210
0.0
220
0.0
230
1.0
  2
SOLID
 70
     1
 71
     0
 91
        2
 92
        7
 72
     1
 73
     1
 93
        4
 10
-2063.060945651334
 20
4703.614176987372
 42
0.0
 10
-2112.34280749601
 20
4703.614176987372
 42
0.2009685438464969
 10
-2104.987305728122
 20
4686.053157208749
 42
0.0
 10
-2070.416447419207
 20
4686.053157208749
 42
0.2009685438464102
 97
        0
 92
        7
 72
     1
 73
     1
 93
        4
 10
-2070.351161900573
 20
4190.443553886857
 42
0.0
 10
-2104.987305728122
 20
4190.443553886849
 42
0.2004846722166156
 10
-2112.310164736685
 20
4172.914724436261
 42
0.0
 10
-2063.028302892009
 20
4172.914724436261
 42
0.200484672216724
 97
        0
 75
     0
 76
     1
 47
1.950875136170907
 98
        2
 10
-2095.007979890913
 20
4692.45549421585
 10
-2096.960886092696
 20
4179.375334396914
  0
HATCH
  5
571
330
558
100
AcDbEntity
  8
0
 62
    50
100
AcDbHatch
 10
0.0
 20
0.0
 30
0.0
210
0.0
220
0.0
230
1.0
  2
SOLID
 70
     1
 71
     0
 91
        1
 92
        7
 72
     0
 73
     1
 93
        4
 10
-1824.309627765629
 20
4686.053157208747
 10
-1858.945771593207
 20
4686.053157208749
 10
-1858.945771593208
 20
4190.443553886847
 10
-1824.309627765629
 20
4190.443553886857
 97
        0
 75
     0
 76
     1
 47
1.950875136170907
 98
        1
 10
-1831.390249363248
 20
4263.262962683846
  0
HATCH
  5
572
330
558
100
AcDbEntity
  8
0
 62
   150
100
AcDbHatch
 10
0.0
 20
0.0
 30
0.0
210
0.0
220
0.0
230
1.0
  2
SOLID
 70
     1
 71
     0
 91
        2
 92
        7
 72
     1
 73
     1
 93
        4
 10
-1817.019411516419
 20
4703.614176987372
 42
0.0
 10
-1866.301273361066
 20
4703.614176987372
 42
0.2009685438464969
 10
-1858.945771593193
 20
4686.053157208749
 42
0.0
 10
-1824.374913284278
 20
4686.053157208749
 42
0.2009685438464102
 97
        0
 92
        7
 72
     1
 73
     1
 93
        4
 10
-1824.309627765629
 20
4190.443553886857
 42
0.0
 10
-1858.945771593207
 20
4190.443553886849
 42
0.2004846722166156
 10
-1866.268630601742
 20
4172.914724436261
 42
0.0
 10
-1816.98676875708
 20
4172.914724436261
 42
0.200484672216724
 97
        0
 75
     0
 76
     1
 47
1.950875136170907
 98
        2
 10
-1848.966445755984
 20
4692.45549421585
 10
-1850.919351957782
 20
4179.375334396914
  0
HATCH
  5
573
330
558
100
AcDbEntity
  8
0
 62
    50
100
AcDbHatch
 10
0.0
 20
0.0
 30
0.0
210
0.0
220
0.0
230
1.0
  2
SOLID
 70
     1
 71
     0
 91
        1
 92
        7
 72
     0
 73
     1
 93
        4
 10
-4040.154535333524
 20
4686.053157208749
 10
-4074.790679161102
 20
4686.053157208749
 10
-4074.790679161102
 20
4190.443553886849
 10
-4040.154535333524
 20
4190.443553886857
 97
        0
 75
     0
 76
     1
 47
1.950875136170907
 98
        1
 10
-4047.235156931157
 20
4263.262962683846
  0
LINE
  5
574
102
{ACAD_REACTORS
330
55F
102
}
330
558
100
AcDbEntity
  8
0
100
AcDbLine
 10
-1832.654988030379
 20
4072.87990039336
 30
0.0
 11
-1832.654988030364
 21
2475.777027979566
 31
0.0
  0
LINE
  5
575
102
{ACAD_REACTORS
330
55F
102
}
330
558
100
AcDbEntity
  8
0
100
AcDbLine
 10
-1735.63111454618
 20
2475.777027979566
 30
0.0
 11
-1735.63111454618
 21
4072.87990039336
 31
0.0
  0
LWPOLYLINE
  5
576
102
{ACAD_REACTORS
330
7C7
102
}
330
558
100
AcDbEntity
  8
0
100
AcDbPolyline
 90
        8
 70
     1
 43
0.0
 10
-554.2794690712326
 20
1842.835267769682
 10
-604.2363774901023
 20
1929.462672793888
 42
0.4142135623730902
 10
-611.0655931622605
 20
1931.296197624149
 10
-697.6929981864668
 20
1881.339289205279
 42
0.4142135623730912
 10
-699.5265230167278
 20
1874.510073533128
 10
-649.5696145978727
 20
1787.882668508915
 42
0.4142135623731039
 10
-642.7403989257145
 20
1786.049143678654
 10
-556.1129939015081
 20
1836.006052097523
 42
0.4142135623730974
  0
LWPOLYLINE
  5
577
102
{ACAD_REACTORS
330
7C7
102
}
330
558
100
AcDbEntity
  8
0
100
AcDbPolyline
 90
        8
 70
     1
 43
0.0
 10
-2870.277760300989
 20
1880.911695366972
 10
-2956.674868483489
 20
1931.265838172723
 42
0.4142135623730951
 10
-2963.512431032897
 20
1929.463689903881
 10
-3013.866573838648
 20
1843.066581721388
 42
0.4142135623731003
 10
-3012.064425569813
 20
1836.22901917198
 10
-2925.667317387313
 20
1785.874876366222
 42
0.4142135623731053
 10
-2918.829754837905
 20
1787.677024635057
 10
-2868.475612032154
 20
1874.074132817564
 42
0.4142135623730951
  0
ARC
  5
578
330
558
100
AcDbEntity
  8
0
100
AcDbCircle
 10
-2916.720613552417
 20
1900.68021364064
 30
0.0
 40
25.01742560929995
100
AcDbArc
 50
344.3662422397939
 51
16.6692480355695
  0
ARC
  5
579
330
558
100
AcDbEntity
  8
0
100
AcDbCircle
 10
-1832.654988030364
 20
2527.27014519184
 30
0.0
 40
25.01742560929995
100
AcDbArc
 50
90.0
 51
136.106606509458
  0
ARC
  5
57A
330
558
100
AcDbEntity
  8
0
100
AcDbCircle
 10
-1735.63111454618
 20
2527.27014519184
 30
0.0
 40
25.01742560929995
100
AcDbArc
 50
270.0
 51
317.8052636959923
  0
ARC
  5
57B
330
558
100
AcDbEntity
  8
0
100
AcDbCircle
 10
-651.0984289747284
 20
1900.7926727847
 30
0.0
 40
25.01742560929995
100
AcDbArc
 50
44.85358940850451
 51
77.68020508941195
  0
LWPOLYLINE
  5
57C
330
558
100
AcDbEntity
  8
0
100
AcDbPolyline
 90
        6
 70
     0
 43
0.0
 10
-675.1195709248714
 20
1907.782402645563
 10
-706.8528359261981
 20
1963.556019920623
 42
0.1240875912408807
 10
-781.1113312744273
 20
2037.814515268852
 10
-1551.881991020272
 20
2483.36548735822
 42
0.1233823300365213
 10
-1653.242127006538
 20
2510.467127996264
 10
-1717.096546915898
 20
2510.467127996264
  0
LWPOLYLINE
  5
57D
330
558
100
AcDbEntity
  8
0
100
AcDbPolyline
 90
        6
 70
     0
 43
0.0
 10
-645.4393059776921
 20
1924.669449943095
 10
-677.3449627264053
 20
1980.746058774166
 42
0.1247293581332155
 10
-763.8172081756201
 20
2067.260389797215
 10
-1535.039139336804
 20
2513.072223422037
 42
0.1239769402989771
 10
-1652.983172633859
 20
2544.615195200189
 10
-1717.096546915898
 20
2544.615195200189
  0
LWPOLYLINE
  5
57E
330
558
100
AcDbEntity
  8
0
100
AcDbPolyline
 90
        6
 70
     0
 43
0.0
 10
-2892.624498838907
 20
1907.782402645563
 10
-2860.891233837581
 20
1963.556019920623
 42
-0.1240875912408807
 10
-2786.632738489352
 20
2037.814515268852
 10
-2015.862078743506
 20
2483.36548735822
 42
-0.1233823300365213
 10
-1914.50194275724
 20
2510.467127996264
 10
-1850.647522847896
 20
2510.467127996264
  0
LWPOLYLINE
  5
57F
330
558
100
AcDbEntity
  8
0
100
AcDbPolyline
 90
        6
 70
     0
 43
0.0
 10
-2922.304763786087
 20
1924.669449943095
 10
-2890.399107037389
 20
1980.746058774166
 42
-0.1247293581332155
 10
-2803.926861588173
 20
2067.260389797215
 10
-2032.704930426989
 20
2513.072223422037
 42
-0.1239769402989771
 10
-1914.760897129919
 20
2544.615195200189
 10
-1850.647522847896
 20
2544.615195200189
  0
LINE
  5
580
330
558
100
AcDbEntity
  8
0
100
AcDbLine
 10
-645.7605126715789
 20
1925.233995041431
 30
0.0
 11
-675.1195709248714
 21
1907.782402645563
 31
0.0
  0
LWPOLYLINE
  5
581
102
{ACAD_REACTORS
330
55F
102
}
330
558
100
AcDbEntity
  8
0
100
AcDbPolyline
 90
        4
 70
     1
 43
0.0
 10
-1838.872034881889
 20
2450.777027979573
 10
-1728.87203488189
 20
2450.777027979573
 10
-1728.87203488189
 20
2475.777027979573
 10
-1838.872034881889
 20
2475.777027979573
  0
LINE
  5
582
330
558
100
AcDbEntity
  8
0
100
AcDbLine
 10
-1850.683321961288
 20
2544.615195200196
 30
0.0
 11
-1850.647522847896
 21
2510.467127996264
 31
0.0
  0
ARC
  5
583
330
558
100
AcDbEntity
  8
0
100
AcDbCircle
 10
-1832.654988030364
 20
2527.27014519184
 30
0.0
 40
25.01742560929995
100
AcDbArc
 50
222.1947363040076
 51
270.0
  0
LINE
  5
584
330
558
100
AcDbEntity
  8
0
100
AcDbLine
 10
-1717.096546915898
 20
2544.615195200189
 30
0.0
 11
-1717.096546915898
 21
2510.467127996264
 31
0.0
  0
ARC
  5
585
330
558
100
AcDbEntity
  8
0
100
AcDbCircle
 10
-1735.63111454618
 20
2527.27014519184
 30
0.0
 40
25.01742560929995
100
AcDbArc
 50
42.19473630400765
 51
90.0
  0
ARC
  5
586
330
558
100
AcDbEntity
  8
0
100
AcDbCircle
 10
-651.0984289747284
 20
1900.7926727847
 30
0.0
 40
25.01742560929995
100
AcDbArc
 50
163.7759330918356
 51
195.0894004553753
  0
LINE
  5
587
330
558
100
AcDbEntity
  8
0
100
AcDbLine
 10
-2922.304763786087
 20
1924.669449943095
 30
0.0
 11
-2892.624498838907
 21
1907.782402645563
 31
0.0
  0
ARC
  5
588
330
558
100
AcDbEntity
  8
0
100
AcDbCircle
 10
-2916.720613552417
 20
1900.68021364064
 30
0.0
 40
25.01742560929995
100
AcDbArc
 50
102.2903901740059
 51
135.164603980325
  0
LWPOLYLINE
  5
589
102
{ACAD_REACTORS
330
55B
102
}
330
558
100
AcDbEntity
  8
0
 62
   250
100
AcDbPolyline
 90
        4
 70
     1
 43
0.0
 10
-1694.182531993152
 20
4698.465325749872
 10
-1713.306836589574
 20
4698.465325749872
 10
-1713.306836589574
 20
4808.797852267773
 10
-1694.182531993152
 20
4808.797852267773
  0
LWPOLYLINE
  5
58A
102
{ACAD_REACTORS
330
55B
102
}
330
558
100
AcDbEntity
  8
0
 62
   250
100
AcDbPolyline
 90
        4
 70
     1
 43
0.0
 10
-1713.306836589574
 20
4808.797852267773
 10
-1732.798916274405
 20
4808.797852267773
 10
-1732.798916274405
 20
4698.465325749872
 10
-1713.306836589574
 20
4698.465325749872
  0
LINE
  5
58B
330
558
100
AcDbEntity
  8
0
100
AcDbLine
 10
-1732.798916274405
 20
4803.649001030273
 30
0.0
 11
-4165.998901082581
 21
4803.649001030273
 31
0.0
  0
LINE
  5
58C
102
{ACAD_REACTORS
330
55B
102
}
330
558
100
AcDbEntity
  8
0
100
AcDbLine
 10
-4165.998901082581
 20
4703.614176987372
 30
0.0
 11
-1732.798916274405
 21
4703.614176987372
 31
0.0
  0
LINE
  5
58D
102
{ACAD_REACTORS
330
55B
102
}
330
558
100
AcDbEntity
  8
0
100
AcDbLine
 10
-4165.998901082581
 20
4172.914724436261
 30
0.0
 11
-1732.798916274405
 21
4172.914724436261
 31
0.0
  0
LINE
  5
58E
102
{ACAD_REACTORS
330
55F
102
}
330
558
100
AcDbEntity
  8
0
100
AcDbLine
 10
-4165.998901082581
 20
4072.87990039336
 30
0.0
 11
-1732.798916274405
 21
4072.87990039336
 31
0.0
  0
LWPOLYLINE
  5
58F
330
558
100
AcDbEntity
  8
0
100
AcDbPolyline
 90
        4
 70
     1
 43
0.0
 10
-4165.998901082581
 20
4068.098824244247
 10
-4185.123205679018
 20
4068.098824244247
 10
-4185.123205679018
 20
4178.06357567376
 10
-4165.998901082581
 20
4178.06357567376
  0
LWPOLYLINE
  5
590
330
558
100
AcDbEntity
  8
0
100
AcDbPolyline
 90
        4
 70
     1
 43
0.0
 10
-4185.123205679018
 20
4178.06357567376
 10
-4204.983060452228
 20
4178.06357567376
 10
-4204.983060452228
 20
4068.098824244247
 10
-4185.123205679018
 20
4068.098824244247
  0
LWPOLYLINE
  5
591
330
558
100
AcDbEntity
  8
0
100
AcDbPolyline
 90
        4
 70
     1
 43
0.0
 10
-4165.998901082581
 20
4698.83310083826
 10
-4185.123205679018
 20
4698.83310083826
 10
-4185.123205679018
 20
4808.797852267773
 10
-4165.998901082581
 20
4808.797852267773
  0
LWPOLYLINE
  5
592
330
558
100
AcDbEntity
  8
0
100
AcDbPolyline
 90
        4
 70
     1
 43
0.0
 10
-4185.123205679018
 20
4808.797852267773
 10
-4204.983060452228
 20
4808.797852267773
 10
-4204.983060452228
 20
4698.83310083826
 10
-4185.123205679018
 20
4698.83310083826
  0
LWPOLYLINE
  5
593
102
{ACAD_REACTORS
330
55B
102
}
330
558
100
AcDbEntity
  8
0
 62
   250
100
AcDbPolyline
 90
        4
 70
     1
 43
0.0
 10
-1694.182531993152
 20
4067.73104915586
 10
-1713.306836589574
 20
4067.73104915586
 10
-1713.306836589574
 20
4178.06357567376
 10
-1694.182531993152
 20
4178.06357567376
  0
LWPOLYLINE
  5
594
102
{ACAD_REACTORS
330
55B
102
}
330
558
100
AcDbEntity
  8
0
 62
   250
100
AcDbPolyline
 90
        4
 70
     1
 43
0.0
 10
-1713.306836589574
 20
4178.06357567376
 10
-1732.798916274405
 20
4178.06357567376
 10
-1732.798916274405
 20
4067.73104915586
 10
-1713.306836589574
 20
4067.73104915586
  0
ARC
  5
595
330
558
100
AcDbEntity
  8
0
100
AcDbCircle
 10
-4057.505250006637
 20
4703.614176987372
 30
0.0
 40
24.64093092233088
100
AcDbArc
 50
180.0
 51
225.4531265287006
  0
LINE
  5
596
330
558
100
AcDbEntity
  8
0
100
AcDbLine
 10
-4074.790679161102
 20
4686.053157208742
 30
0.0
 11
-4074.790679161102
 21
4190.443553886849
 31
0.0
  0
LINE
  5
597
330
558
100
AcDbEntity
  8
0
100
AcDbLine
 10
-4040.154535333524
 20
4686.11765798927
 30
0.0
 11
-4040.154535333524
 21
4190.443553886857
 31
0.0
  0
LINE
  5
598
330
558
100
AcDbEntity
  8
0
100
AcDbLine
 10
-4040.219820852173
 20
4686.053157208749
 30
0.0
 11
-4040.154535333524
 21
4686.053157208749
 31
0.0
  0
ARC
  5
599
330
558
100
AcDbEntity
  8
0
100
AcDbCircle
 10
-4057.505250006637
 20
4703.614176987372
 30
0.0
 40
24.64093092233088
100
AcDbArc
 50
314.5468734712993
 51
0.0
  0
LINE
  5
59A
330
558
100
AcDbEntity
  8
0
100
AcDbLine
 10
-4074.790679161102
 20
4686.053157208749
 30
0.0
 11
-4040.219820852173
 21
4686.053157208749
 31
0.0
  0
LINE
  5
59B
330
558
100
AcDbEntity
  8
0
100
AcDbLine
 10
-4040.154535333524
 20
4172.914724436261
 30
0.0
 11
-4074.790679161102
 21
4172.914724436261
 31
0.0
  0
ARC
  5
59C
330
558
100
AcDbEntity
  8
0
100
AcDbCircle
 10
-4057.472607247313
 20
4172.914724436261
 30
0.0
 40
24.64093092233088
100
AcDbArc
 50
0.0
 51
45.34652636665846
  0
LINE
  5
59D
330
558
100
AcDbEntity
  8
0
100
AcDbLine
 10
-4074.790679161102
 20
4190.443553886849
 30
0.0
 11
-4040.154535333524
 21
4190.443553886857
 31
0.0
  0
ARC
  5
59E
330
558
100
AcDbEntity
  8
0
100
AcDbCircle
 10
-4057.472607247313
 20
4172.914724436261
 30
0.0
 40
24.64093092233088
100
AcDbArc
 50
134.6534736333415
 51
180.0
  0
ARC
  5
59F
330
558
100
AcDbEntity
  8
0
100
AcDbCircle
 10
-3565.0544066484
 20
4703.614176987372
 30
0.0
 40
24.64093092233088
100
AcDbArc
 50
180.0
 51
225.4531265287006
  0
LINE
  5
5A0
330
558
100
AcDbEntity
  8
0
100
AcDbLine
 10
-3582.339835802864
 20
4686.053157208742
 30
0.0
 11
-3582.339835802864
 21
4190.443553886849
 31
0.0
  0
LINE
  5
5A1
330
558
100
AcDbEntity
  8
0
100
AcDbLine
 10
-3547.703691975286
 20
4686.11765798927
 30
0.0
 11
-3547.703691975286
 21
4190.443553886857
 31
0.0
  0
LINE
  5
5A2
330
558
100
AcDbEntity
  8
0
100
AcDbLine
 10
-3547.768977493936
 20
4686.053157208749
 30
0.0
 11
-3547.703691975286
 21
4686.053157208749
 31
0.0
  0
ARC
  5
5A3
330
558
100
AcDbEntity
  8
0
100
AcDbCircle
 10
-3565.0544066484
 20
4703.614176987372
 30
0.0
 40
24.64093092233088
100
AcDbArc
 50
314.5468734712993
 51
0.0
  0
LINE
  5
5A4
330
558
100
AcDbEntity
  8
0
100
AcDbLine
 10
-3582.339835802864
 20
4686.053157208749
 30
0.0
 11
-3547.768977493936
 21
4686.053157208749
 31
0.0
  0
LINE
  5
5A5
330
558
100
AcDbEntity
  8
0
100
AcDbLine
 10
-3547.703691975286
 20
4172.914724436261
 30
0.0
 11
-3582.339835802864
 21
4172.914724436261
 31
0.0
  0
ARC
  5
5A6
330
558
100
AcDbEntity
  8
0
100
AcDbCircle
 10
-3565.021763889075
 20
4172.914724436261
 30
0.0
 40
24.64093092233088
100
AcDbArc
 50
0.0
 51
45.34652636665846
  0
LINE
  5
5A7
330
558
100
AcDbEntity
  8
0
100
AcDbLine
 10
-3582.339835802864
 20
4190.443553886849
 30
0.0
 11
-3547.703691975286
 21
4190.443553886857
 31
0.0
  0
ARC
  5
5A8
330
558
100
AcDbEntity
  8
0
100
AcDbCircle
 10
-3565.021763889075
 20
4172.914724436261
 30
0.0
 40
24.64093092233088
100
AcDbArc
 50
134.6534736333415
 51
180.0
  0
ARC
  5
5A9
330
558
100
AcDbEntity
  8
0
100
AcDbCircle
 10
-3121.885425134809
 20
4703.614176987372
 30
0.0
 40
24.64093092233088
100
AcDbArc
 50
180.0
 51
225.4531265287006
  0
LINE
  5
5AA
330
558
100
AcDbEntity
  8
0
100
AcDbLine
 10
-3139.170854289274
 20
4686.053157208742
 30
0.0
 11
-3139.170854289274
 21
4190.443553886849
 31
0.0
  0
LINE
  5
5AB
330
558
100
AcDbEntity
  8
0
100
AcDbLine
 10
-3104.534710461695
 20
4686.11765798927
 30
0.0
 11
-3104.534710461695
 21
4190.443553886857
 31
0.0
  0
LINE
  5
5AC
330
558
100
AcDbEntity
  8
0
100
AcDbLine
 10
-3104.599995980345
 20
4686.053157208749
 30
0.0
 11
-3104.534710461695
 21
4686.053157208749
 31
0.0
  0
ARC
  5
5AD
330
558
100
AcDbEntity
  8
0
100
AcDbCircle
 10
-3121.885425134809
 20
4703.614176987372
 30
0.0
 40
24.64093092233088
100
AcDbArc
 50
314.5468734712993
 51
0.0
  0
LINE
  5
5AE
330
558
100
AcDbEntity
  8
0
100
AcDbLine
 10
-3139.170854289274
 20
4686.053157208749
 30
0.0
 11
-3104.599995980345
 21
4686.053157208749
 31
0.0
  0
LINE
  5
5AF
330
558
100
AcDbEntity
  8
0
100
AcDbLine
 10
-3104.534710461695
 20
4172.914724436261
 30
0.0
 11
-3139.170854289274
 21
4172.914724436261
 31
0.0
  0
ARC
  5
5B0
330
558
100
AcDbEntity
  8
0
100
AcDbCircle
 10
-3121.852782375484
 20
4172.914724436261
 30
0.0
 40
24.64093092233088
100
AcDbArc
 50
0.0
 51
45.34652636665846
  0
LINE
  5
5B1
330
558
100
AcDbEntity
  8
0
100
AcDbLine
 10
-3139.170854289274
 20
4190.443553886849
 30
0.0
 11
-3104.534710461695
 21
4190.443553886857
 31
0.0
  0
ARC
  5
5B2
330
558
100
AcDbEntity
  8
0
100
AcDbCircle
 10
-3121.852782375484
 20
4172.914724436261
 30
0.0
 40
24.64093092233088
100
AcDbArc
 50
134.6534736333415
 51
180.0
  0
ARC
  5
5B3
330
558
100
AcDbEntity
  8
0
100
AcDbCircle
 10
-2727.998305465895
 20
4703.614176987372
 30
0.0
 40
24.64093092233088
100
AcDbArc
 50
180.0
 51
225.4531265287006
  0
LINE
  5
5B4
330
558
100
AcDbEntity
  8
0
100
AcDbLine
 10
-2745.283734620359
 20
4686.053157208742
 30
0.0
 11
-2745.283734620359
 21
4190.443553886849
 31
0.0
  0
LINE
  5
5B5
330
558
100
AcDbEntity
  8
0
100
AcDbLine
 10
-2710.647590792781
 20
4686.11765798927
 30
0.0
 11
-2710.647590792781
 21
4190.443553886857
 31
0.0
  0
LINE
  5
5B6
330
558
100
AcDbEntity
  8
0
100
AcDbLine
 10
-2710.71287631143
 20
4686.053157208749
 30
0.0
 11
-2710.647590792781
 21
4686.053157208749
 31
0.0
  0
ARC
  5
5B7
330
558
100
AcDbEntity
  8
0
100
AcDbCircle
 10
-2727.998305465895
 20
4703.614176987372
 30
0.0
 40
24.64093092233088
100
AcDbArc
 50
314.5468734712993
 51
0.0
  0
LINE
  5
5B8
330
558
100
AcDbEntity
  8
0
100
AcDbLine
 10
-2745.283734620359
 20
4686.053157208749
 30
0.0
 11
-2710.71287631143
 21
4686.053157208749
 31
0.0
  0
LINE
  5
5B9
330
558
100
AcDbEntity
  8
0
100
AcDbLine
 10
-2710.647590792781
 20
4172.914724436261
 30
0.0
 11
-2745.283734620359
 21
4172.914724436261
 31
0.0
  0
ARC
  5
5BA
330
558
100
AcDbEntity
  8
0
100
AcDbCircle
 10
-2727.96566270657
 20
4172.914724436261
 30
0.0
 40
24.64093092233088
100
AcDbArc
 50
0.0
 51
45.34652636665846
  0
LINE
  5
5BB
330
558
100
AcDbEntity
  8
0
100
AcDbLine
 10
-2745.283734620359
 20
4190.443553886849
 30
0.0
 11
-2710.647590792781
 21
4190.443553886857
 31
0.0
  0
ARC
  5
5BC
330
558
100
AcDbEntity
  8
0
100
AcDbCircle
 10
-2727.96566270657
 20
4172.914724436261
 30
0.0
 40
24.64093092233088
100
AcDbArc
 50
134.6534736333415
 51
180.0
  0
ARC
  5
5BD
330
558
100
AcDbEntity
  8
0
100
AcDbCircle
 10
-2383.393047641642
 20
4703.614176987372
 30
0.0
 40
24.64093092233088
100
AcDbArc
 50
180.0
 51
225.4531265287006
  0
LINE
  5
5BE
330
558
100
AcDbEntity
  8
0
100
AcDbLine
 10
-2400.678476796092
 20
4686.053157208742
 30
0.0
 11
-2400.678476796092
 21
4190.443553886849
 31
0.0
  0
LINE
  5
5BF
330
558
100
AcDbEntity
  8
0
100
AcDbLine
 10
-2366.042332968514
 20
4686.11765798927
 30
0.0
 11
-2366.042332968528
 21
4190.443553886857
 31
0.0
  0
LINE
  5
5C0
330
558
100
AcDbEntity
  8
0
100
AcDbLine
 10
-2366.107618487178
 20
4686.053157208749
 30
0.0
 11
-2366.042332968514
 21
4686.053157208749
 31
0.0
  0
ARC
  5
5C1
330
558
100
AcDbEntity
  8
0
100
AcDbCircle
 10
-2383.393047641642
 20
4703.614176987372
 30
0.0
 40
24.64093092233088
100
AcDbArc
 50
314.5468734712993
 51
0.0
  0
LINE
  5
5C2
330
558
100
AcDbEntity
  8
0
100
AcDbLine
 10
-2400.678476796092
 20
4686.053157208749
 30
0.0
 11
-2366.107618487178
 21
4686.053157208749
 31
0.0
  0
LINE
  5
5C3
330
558
100
AcDbEntity
  8
0
100
AcDbLine
 10
-2366.042332968514
 20
4172.914724436261
 30
0.0
 11
-2400.678476796092
 21
4172.914724436261
 31
0.0
  0
ARC
  5
5C4
330
558
100
AcDbEntity
  8
0
100
AcDbCircle
 10
-2383.360404882303
 20
4172.914724436261
 30
0.0
 40
24.64093092233088
100
AcDbArc
 50
0.0
 51
45.34652636665846
  0
LINE
  5
5C5
330
558
100
AcDbEntity
  8
0
100
AcDbLine
 10
-2400.678476796092
 20
4190.443553886849
 30
0.0
 11
-2366.042332968528
 21
4190.443553886857
 31
0.0
  0
ARC
  5
5C6
330
558
100
AcDbEntity
  8
0
100
AcDbCircle
 10
-2383.360404882303
 20
4172.914724436261
 30
0.0
 40
24.64093092233088
100
AcDbArc
 50
134.6534736333415
 51
180.0
  0
ARC
  5
5C7
330
558
100
AcDbEntity
  8
0
100
AcDbCircle
 10
-2087.701876573672
 20
4703.614176987372
 30
0.0
 40
24.64093092233088
100
AcDbArc
 50
180.0
 51
225.4531265287006
  0
LINE
  5
5C8
330
558
100
AcDbEntity
  8
0
100
AcDbLine
 10
-2104.987305728122
 20
4686.053157208742
 30
0.0
 11
-2104.987305728122
 21
4190.443553886849
 31
0.0
  0
LINE
  5
5C9
330
558
100
AcDbEntity
  8
0
100
AcDbLine
 10
-2070.351161900544
 20
4686.11765798927
 30
0.0
 11
-2070.351161900558
 21
4190.443553886857
 31
0.0
  0
LINE
  5
5CA
330
558
100
AcDbEntity
  8
0
100
AcDbLine
 10
-2070.416447419207
 20
4686.053157208749
 30
0.0
 11
-2070.351161900544
 21
4686.053157208749
 31
0.0
  0
ARC
  5
5CB
330
558
100
AcDbEntity
  8
0
100
AcDbCircle
 10
-2087.701876573672
 20
4703.614176987372
 30
0.0
 40
24.64093092233088
100
AcDbArc
 50
314.5468734712993
 51
0.0
  0
LINE
  5
5CC
330
558
100
AcDbEntity
  8
0
100
AcDbLine
 10
-2104.987305728122
 20
4686.053157208749
 30
0.0
 11
-2070.416447419207
 21
4686.053157208749
 31
0.0
  0
LINE
  5
5CD
330
558
100
AcDbEntity
  8
0
100
AcDbLine
 10
-2070.351161900544
 20
4172.914724436261
 30
0.0
 11
-2104.987305728122
 21
4172.914724436261
 31
0.0
  0
ARC
  5
5CE
330
558
100
AcDbEntity
  8
0
100
AcDbCircle
 10
-2087.669233814332
 20
4172.914724436261
 30
0.0
 40
24.64093092233088
100
AcDbArc
 50
0.0
 51
45.34652636665846
  0
LINE
  5
5CF
330
558
100
AcDbEntity
  8
0
100
AcDbLine
 10
-2104.987305728122
 20
4190.443553886849
 30
0.0
 11
-2070.351161900558
 21
4190.443553886857
 31
0.0
  0
ARC
  5
5D0
330
558
100
AcDbEntity
  8
0
100
AcDbCircle
 10
-2087.669233814332
 20
4172.914724436261
 30
0.0
 40
24.64093092233088
100
AcDbArc
 50
134.6534736333415
 51
180.0
  0
ARC
  5
5D1
330
558
100
AcDbEntity
  8
0
100
AcDbCircle
 10
-1841.660342438743
 20
4703.614176987372
 30
0.0
 40
24.64093092233088
100
AcDbArc
 50
180.0
 51
225.4531265287006
  0
LINE
  5
5D2
330
558
100
AcDbEntity
  8
0
100
AcDbLine
 10
-1858.945771593207
 20
4686.053157208742
 30
0.0
 11
-1858.945771593207
 21
4190.443553886849
 31
0.0
  0
LINE
  5
5D3
102
{ACAD_REACTORS
330
55B
102
}
330
558
100
AcDbEntity
  8
0
100
AcDbLine
 10
-1824.309627765629
 20
4686.11765798927
 30
0.0
 11
-1824.309627765629
 21
4190.443553886857
 31
0.0
  0
LINE
  5
5D4
330
558
100
AcDbEntity
  8
0
100
AcDbLine
 10
-1824.374913284278
 20
4686.053157208749
 30
0.0
 11
-1824.309627765629
 21
4686.053157208749
 31
0.0
  0
ARC
  5
5D5
102
{ACAD_REACTORS
330
55B
102
}
330
558
100
AcDbEntity
  8
0
100
AcDbCircle
 10
-1841.660342438743
 20
4703.614176987372
 30
0.0
 40
24.64093092233088
100
AcDbArc
 50
314.5468734712993
 51
0.0
  0
LINE
  5
5D6
330
558
100
AcDbEntity
  8
0
100
AcDbLine
 10
-1858.945771593207
 20
4686.053157208749
 30
0.0
 11
-1824.374913284278
 21
4686.053157208749
 31
0.0
  0
LINE
  5
5D7
330
558
100
AcDbEntity
  8
0
100
AcDbLine
 10
-1824.309627765629
 20
4172.914724436261
 30
0.0
 11
-1858.945771593207
 21
4172.914724436261
 31
0.0
  0
ARC
  5
5D8
102
{ACAD_REACTORS
330
55B
102
}
330
558
100
AcDbEntity
  8
0
100
AcDbCircle
 10
-1841.627699679418
 20
4172.914724436261
 30
0.0
 40
24.64093092233088
100
AcDbArc
 50
0.0
 51
45.34652636665846
  0
LINE
  5
5D9
330
558
100
AcDbEntity
  8
0
100
AcDbLine
 10
-1858.945771593207
 20
4190.443553886849
 30
0.0
 11
-1824.309627765629
 21
4190.443553886857
 31
0.0
  0
ARC
  5
5DA
330
558
100
AcDbEntity
  8
0
100
AcDbCircle
 10
-1841.627699679418
 20
4172.914724436261
 30
0.0
 40
24.64093092233088
100
AcDbArc
 50
134.6534736333415
 51
180.0
  0
HATCH
  5
5DB
330
558
100
AcDbEntity
  8
0
 62
   150
100
AcDbHatch
 10
0.0
 20
0.0
 30
0.0
210
0.0
220
0.0
230
1.0
  2
SOLID
 70
     1
 71
     0
 91
        2
 92
        7
 72
     0
 73
     1
 93
        4
 10
1000.486039809169
 20
1998.211076932842
 10
1000.486039809169
 20
2927.719894131245
 10
1019.823023811157
 20
2927.719894131238
 10
1019.823023811157
 20
1998.211076932842
 97
        0
 92
        7
 72
     0
 73
     1
 93
        4
 10
1517.917059999963
 20
1998.21107693285
 10
1517.917059999963
 20
2927.719894131252
 10
1537.254044001951
 20
2927.719894131245
 10
1537.254044001951
 20
1998.211076932842
 97
        0
 75
     0
 76
     1
 47
2.231880503813954
 98
        2
 10
1009.292835602493
 20
2371.170644451747
 10
1533.784798165448
 20
2473.944263122845
  0
HATCH
  5
5DC
330
558
100
AcDbEntity
  8
0
 62
    30
100
AcDbHatch
 10
0.0
 20
0.0
 30
0.0
210
0.0
220
0.0
230
1.0
  2
SOLID
 70
     1
 71
     0
 91
        2
 92
        7
 72
     0
 73
     1
 93
        4
 10
1000.486039809169
 20
2927.719894131245
 10
1000.486039809169
 20
3857.228711329648
 10
1019.823023811157
 20
3857.228711329648
 10
1019.823023811157
 20
2927.719894131245
 97
        0
 92
        7
 72
     1
 73
     1
 93
        5
 10
1517.917059999963
 20
2927.719894131252
 42
0.0
 10
1517.917059999963
 20
3853.615495318554
 42
0.003631856113254
 10
1520.584230207139
 20
3857.228711329648
 42
0.0
 10
1537.254044001936
 20
3857.228711329648
 42
0.0
 10
1537.254044001951
 20
2927.719894131245
 42
0.0
 97
        0
 75
     0
 76
     1
 47
3.387716884985549
 98
        2
 10
1011.17402800756
 20
3642.622786540101
 10
1529.49471945349
 20
3551.059009932593
  0
HATCH
  5
5DD
330
558
100
AcDbEntity
  8
0
 62
    50
100
AcDbHatch
 10
0.0
 20
0.0
 30
0.0
210
0.0
220
0.0
230
1.0
  2
SOLID
 70
     1
 71
     0
 91
        3
 92
        7
 72
     1
 73
     1
 93
       22
 10
1269.203438181386
 20
2183.912802606981
 42
0.0
 10
1177.186066034119
 20
2182.245821227508
 42
0.0
 10
1139.17889058197
 20
2174.911103157792
 42
0.0
 10
1111.840395958497
 20
2157.574496811197
 42
0.0
 10
1091.169826852929
 20
2132.903172394879
 42
0.0
 10
1075.833598161698
 20
2106.231470323182
 42
0.0
 10
1062.49774712586
 20
2092.228826735554
 42
0.0
 10
1048.495103538225
 20
2084.89410866583
 42
0.0
 10
1032.492082295197
 20
2082.226938458668
 42
0.0
 10
1019.823023811142
 20
2082.226938458668
 42
0.0
 10
1019.823023811157
 20
3857.228711329648
 42
0.0
 10
1020.489816362955
 20
3857.228711329648
 42
0.5047677450341376
 10
1517.917059999963
 20
3853.615495318554
 42
0.0
 10
1517.917059999963
 20
2082.226938458668
 42
0.0
 10
1505.248001515909
 20
2082.226938458668
 42
0.0
 10
1486.577810065733
 20
2085.560901217628
 42
0.0
 10
1472.575166478098
 20
2094.229204390925
 42
0.0
 10
1462.573278201205
 20
2106.231470323197
 42
0.0
 10
1446.570256958206
 20
2132.903172394879
 42
0.0
 10
1420.5653474383
 20
2162.242044673738
 42
0.0
 10
1392.560060263014
 20
2176.91148081317
 42
0.0
 10
1360.554017776987
 20
2182.245821227508
 42
0.0
 97
        0
 92
       22
 72
     1
 73
     1
 93
        2
 10
1066.84604279694
 20
3857.228711329648
 42
0.0
 10
1474.228003773139
 20
3857.228711329648
 42
-0.4582969605586812
 97
        0
 92
        7
 72
     1
 73
     1
 93
        5
 10
1020.489816362955
 20
3857.228711329648
 42
0.0
 10
1066.84604279694
 20
3857.228711329648
 42
0.4582969605586812
 10
1474.228003773139
 20
3857.228711329648
 42
0.0
 10
1517.917059999963
 20
3857.228711329648
 42
0.0
 10
1517.917059999963
 20
3853.615495318554
 42
-0.5047677450341411
 97
        0
 75
     0
 76
     1
 47
4.472321723810398
 98
        3
 10
1293.832195178329
 20
2534.518493248659
 10
1235.692050867845
 20
3818.615117438574
 10
1173.079538268037
 20
3773.873042603693
  0
ARC
  5
5DE
330
558
100
AcDbEntity
  8
0
100
AcDbCircle
 10
1270.53702328504
 20
4032.779210637571
 30
0.0
 40
268.9014565588423
100
AcDbArc
 50
220.7563149165168
 51
319.2436850834831
  0
ARC
  5
5DF
330
558
100
AcDbEntity
  8
0
100
AcDbCircle
 10
1270.53702328504
 20
4039.015212674807
 30
0.0
 40
309.1438787374797
100
AcDbArc
 50
216.0174788173781
 51
323.9825211826218
  0
LINE
  5
5E0
330
558
100
AcDbEntity
  8
0
100
AcDbLine
 10
1000.486039809169
 20
3857.228711329648
 30
0.0
 11
1000.486039809169
 21
1998.211076932842
 31
0.0
  0
LINE
  5
5E1
330
558
100
AcDbEntity
  8
0
100
AcDbLine
 10
1000.486039809169
 20
1998.211076932842
 30
0.0
 11
1019.823023811157
 21
1998.211076932842
 31
0.0
  0
LINE
  5
5E2
330
558
100
AcDbEntity
  8
0
100
AcDbLine
 10
1019.823023811157
 20
1998.211076932842
 30
0.0
 11
1019.823023811157
 21
3857.228711329648
 31
0.0
  0
LINE
  5
5E3
330
558
100
AcDbEntity
  8
0
100
AcDbLine
 10
1537.254044001936
 20
3857.228711329648
 30
0.0
 11
1537.254044001965
 21
1998.211076932842
 31
0.0
  0
LINE
  5
5E4
330
558
100
AcDbEntity
  8
0
100
AcDbLine
 10
1537.254044001965
 20
1998.211076932842
 30
0.0
 11
1517.917059999963
 21
1998.21107693285
 31
0.0
  0
LINE
  5
5E5
330
558
100
AcDbEntity
  8
0
100
AcDbLine
 10
1517.917059999963
 20
1998.21107693285
 30
0.0
 11
1517.917059999963
 21
3857.228711329648
 31
0.0
  0
LINE
  5
5E6
330
558
100
AcDbEntity
  8
0
100
AcDbLine
 10
1019.823023811157
 20
2082.226938458668
 30
0.0
 11
1032.492082295197
 21
2082.226938458668
 31
0.0
  0
LINE
  5
5E7
330
558
100
AcDbEntity
  8
0
100
AcDbLine
 10
1032.492082295197
 20
2082.226938458668
 30
0.0
 11
1048.495103538225
 21
2084.89410866583
 31
0.0
  0
LINE
  5
5E8
330
558
100
AcDbEntity
  8
0
100
AcDbLine
 10
1048.495103538225
 20
2084.89410866583
 30
0.0
 11
1062.497747125846
 21
2092.228826735554
 31
0.0
  0
LINE
  5
5E9
330
558
100
AcDbEntity
  8
0
100
AcDbLine
 10
1062.497747125846
 20
2092.228826735554
 30
0.0
 11
1075.833598161713
 21
2106.231470323189
 31
0.0
  0
LINE
  5
5EA
330
558
100
AcDbEntity
  8
0
100
AcDbLine
 10
1075.833598161713
 20
2106.231470323189
 30
0.0
 11
1091.169826852929
 21
2132.903172394879
 31
0.0
  0
LINE
  5
5EB
330
558
100
AcDbEntity
  8
0
100
AcDbLine
 10
1091.169826852929
 20
2132.903172394879
 30
0.0
 11
1111.840395958483
 21
2157.574496811197
 31
0.0
  0
LINE
  5
5EC
330
558
100
AcDbEntity
  8
0
100
AcDbLine
 10
1111.840395958483
 20
2157.574496811197
 30
0.0
 11
1139.17889058197
 21
2174.911103157792
 31
0.0
  0
LINE
  5
5ED
330
558
100
AcDbEntity
  8
0
100
AcDbLine
 10
1139.17889058197
 20
2174.911103157792
 30
0.0
 11
1177.186066034119
 21
2182.245821227508
 31
0.0
  0
LINE
  5
5EE
330
558
100
AcDbEntity
  8
0
100
AcDbLine
 10
1177.186066034119
 20
2182.245821227508
 30
0.0
 11
1269.203438181459
 21
2183.912802606988
 31
0.0
  0
LINE
  5
5EF
330
558
100
AcDbEntity
  8
0
100
AcDbLine
 10
1269.203438181459
 20
2183.912802606988
 30
0.0
 11
1360.554017776987
 21
2182.245821227508
 31
0.0
  0
LINE
  5
5F0
330
558
100
AcDbEntity
  8
0
100
AcDbLine
 10
1360.554017776987
 20
2182.245821227508
 30
0.0
 11
1392.560060263014
 21
2176.91148081317
 31
0.0
  0
LINE
  5
5F1
330
558
100
AcDbEntity
  8
0
100
AcDbLine
 10
1392.560060263014
 20
2176.91148081317
 30
0.0
 11
1420.5653474383
 21
2162.242044673738
 31
0.0
  0
LINE
  5
5F2
330
558
100
AcDbEntity
  8
0
100
AcDbLine
 10
1420.5653474383
 20
2162.242044673738
 30
0.0
 11
1446.570256958206
 21
2132.903172394879
 31
0.0
  0
LINE
  5
5F3
330
558
100
AcDbEntity
  8
0
100
AcDbLine
 10
1446.570256958206
 20
2132.903172394879
 30
0.0
 11
1462.573278201205
 21
2106.231470323189
 31
0.0
  0
LINE
  5
5F4
330
558
100
AcDbEntity
  8
0
100
AcDbLine
 10
1462.573278201205
 20
2106.231470323189
 30
0.0
 11
1472.575166478098
 21
2094.229204390925
 31
0.0
  0
LINE
  5
5F5
330
558
100
AcDbEntity
  8
0
100
AcDbLine
 10
1472.575166478098
 20
2094.229204390925
 30
0.0
 11
1486.577810065733
 21
2085.560901217628
 31
0.0
  0
LINE
  5
5F6
330
558
100
AcDbEntity
  8
0
100
AcDbLine
 10
1486.577810065733
 20
2085.560901217628
 30
0.0
 11
1505.248001515909
 21
2082.226938458668
 31
0.0
  0
LINE
  5
5F7
330
558
100
AcDbEntity
  8
0
100
AcDbLine
 10
1505.248001515909
 20
2082.226938458668
 30
0.0
 11
1517.917059999963
 21
2082.226938458668
 31
0.0
  0
LINE
  5
5F8
330
558
100
AcDbEntity
  8
0
100
AcDbLine
 10
1000.486039809169
 20
2927.719894131245
 30
0.0
 11
1019.823023811157
 21
2927.719894131245
 31
0.0
  0
LINE
  5
5F9
330
558
100
AcDbEntity
  8
0
100
AcDbLine
 10
1537.254044001951
 20
2927.719894131245
 30
0.0
 11
1517.917059999963
 21
2927.719894131252
 31
0.0
  0
LWPOLYLINE
  5
5FA
102
{ACAD_REACTORS
330
566
330
564
102
}
330
558
100
AcDbEntity
  8
0
100
AcDbPolyline
 90
        4
 70
     1
 43
0.0
 10
1849.312958240712
 20
5018.382239582046
 10
1849.312958240712
 20
3857.496406911734
 10
688.4271255704079
 20
3857.496406911734
 10
688.4271255704079
 20
5018.382239582046
  0
LWPOLYLINE
  5
5FB
330
558
100
AcDbEntity
  8
0
100
AcDbPolyline
 90
        4
 70
     1
 43
0.0
 10
977.1483004964538
 20
4729.661064656
 10
977.1483004964538
 20
4146.356696830596
 10
1560.591783314666
 20
4146.356696830596
 10
1560.591783314666
 20
4729.661064656
  0
LINE
  5
5FC
330
558
100
AcDbEntity
  8
0
100
AcDbLine
 10
688.4271255704079
 20
5018.382239582039
 30
0.0
 11
1849.312958240712
 21
3857.496406911734
 31
0.0
  0
LINE
  5
5FD
330
558
100
AcDbEntity
  8
0
100
AcDbLine
 10
688.4271255704079
 20
3857.496406911734
 30
0.0
 11
1849.312958240712
 21
5018.382239582039
 31
0.0
  0
LINE
  5
5FE
102
{ACAD_REACTORS
330
566
102
}
330
558
100
AcDbEntity
  8
0
100
AcDbLine
 10
1849.312958240712
 20
4838.553395518313
 30
0.0
 11
2578.43682977141
 21
5093.525803926314
 31
0.0
  0
LINE
  5
5FF
102
{ACAD_REACTORS
330
566
102
}
330
558
100
AcDbEntity
  8
0
100
AcDbLine
 10
2578.43682977141
 20
5093.525803926314
 30
0.0
 11
2726.204791116863
 21
5124.043100291135
 31
0.0
  0
LINE
  5
600
102
{ACAD_REACTORS
330
566
102
}
330
558
100
AcDbEntity
  8
0
100
AcDbLine
 10
2726.204791116863
 20
5124.043100291135
 30
0.0
 11
2726.204791116863
 21
3752.370937367057
 31
0.0
  0
LINE
  5
601
102
{ACAD_REACTORS
330
566
102
}
330
558
100
AcDbEntity
  8
0
100
AcDbLine
 10
2578.43682977141
 20
3782.888233731879
 30
0.0
 11
1849.234064001459
 21
4037.446290146109
 31
0.0
  0
LINE
  5
602
102
{ACAD_REACTORS
330
566
102
}
330
558
100
AcDbEntity
  8
0
100
AcDbLine
 10
2578.43682977141
 20
3782.888233731879
 30
0.0
 11
2726.204791116863
 21
3752.370937367057
 31
0.0
  0
LINE
  5
603
102
{ACAD_REACTORS
330
566
102
}
330
558
100
AcDbEntity
  8
0
100
AcDbLine
 10
1873.138665271559
 20
4385.203293563878
 30
0.0
 11
1915.969958415167
 21
4385.738684728174
 31
0.0
  0
LINE
  5
604
102
{ACAD_REACTORS
330
566
102
}
330
558
100
AcDbEntity
  8
0
100
AcDbLine
 10
1915.969958415167
 20
4385.738684728174
 30
0.0
 11
1932.567084508322
 21
4364.858429320666
 31
0.0
  0
LINE
  5
605
102
{ACAD_REACTORS
330
566
102
}
330
558
100
AcDbEntity
  8
0
100
AcDbLine
 10
1932.567084508322
 20
4364.858429320666
 30
0.0
 11
1932.567084508322
 21
4262.063325776005
 31
0.0
  0
LINE
  5
606
102
{ACAD_REACTORS
330
566
102
}
330
558
100
AcDbEntity
  8
0
100
AcDbLine
 10
1932.567084508322
 20
4262.063325776005
 30
0.0
 11
1915.969958415167
 21
4241.183070368498
 31
0.0
  0
LINE
  5
607
102
{ACAD_REACTORS
330
566
102
}
330
558
100
AcDbEntity
  8
0
100
AcDbLine
 10
1915.969958415167
 20
4241.183070368498
 30
0.0
 11
1873.138665271559
 21
4241.718461532786
 31
0.0
  0
LINE
  5
608
102
{ACAD_REACTORS
330
566
102
}
330
558
100
AcDbEntity
  8
0
100
AcDbLine
 10
1873.138665271559
 20
4241.718461532786
 30
0.0
 11
1857.076930342707
 21
4263.669499268886
 31
0.0
  0
LINE
  5
609
102
{ACAD_REACTORS
330
566
102
}
330
558
100
AcDbEntity
  8
0
100
AcDbLine
 10
1857.076930342707
 20
4263.669499268886
 30
0.0
 11
1857.076930342707
 21
4363.252255827777
 31
0.0
  0
LINE
  5
60A
102
{ACAD_REACTORS
330
566
102
}
330
558
100
AcDbEntity
  8
0
100
AcDbLine
 10
1857.076930342707
 20
4363.252255827777
 30
0.0
 11
1873.138665271559
 21
4385.203293563878
 31
0.0
  0
LINE
  5
60B
102
{ACAD_REACTORS
330
566
102
}
330
558
100
AcDbEntity
  8
0
100
AcDbLine
 10
1981.475681582363
 20
4588.116544831726
 30
0.0
 11
2013.599151440066
 21
4590.793500653206
 31
0.0
  0
LINE
  5
60C
102
{ACAD_REACTORS
330
566
102
}
330
558
100
AcDbEntity
  8
0
100
AcDbLine
 10
2013.599151440066
 20
4590.793500653206
 30
0.0
 11
2058.036618076556
 21
4542.072904702348
 31
0.0
  0
LINE
  5
60D
102
{ACAD_REACTORS
330
566
102
}
330
558
100
AcDbEntity
  8
0
100
AcDbLine
 10
2058.036618076556
 20
4542.072904702348
 30
0.0
 11
2058.036618076556
 21
4466.047359372445
 31
0.0
  0
LINE
  5
60E
102
{ACAD_REACTORS
330
566
102
}
330
558
100
AcDbEntity
  8
0
100
AcDbLine
 10
2058.036618076556
 20
4466.047359372445
 30
0.0
 11
2014.402238186506
 21
4417.862154585884
 31
0.0
  0
LINE
  5
60F
102
{ACAD_REACTORS
330
566
102
}
330
558
100
AcDbEntity
  8
0
100
AcDbLine
 10
2014.402238186506
 20
4417.862154585884
 30
0.0
 11
1981.475681582363
 21
4420.003719243061
 31
0.0
  0
LINE
  5
610
102
{ACAD_REACTORS
330
566
102
}
330
558
100
AcDbEntity
  8
0
100
AcDbLine
 10
1981.475681582363
 20
4420.003719243061
 30
0.0
 11
1975.050987610812
 21
4434.459280679031
 31
0.0
  0
LINE
  5
611
102
{ACAD_REACTORS
330
566
102
}
330
558
100
AcDbEntity
  8
0
100
AcDbLine
 10
1975.050987610812
 20
4434.459280679031
 30
0.0
 11
1995.395851854031
 21
4504.060132037397
 31
0.0
  0
LINE
  5
612
102
{ACAD_REACTORS
330
566
102
}
330
558
100
AcDbEntity
  8
0
100
AcDbLine
 10
1995.395851854031
 20
4504.060132037397
 30
0.0
 11
1973.444814117931
 21
4571.519418738579
 31
0.0
  0
LINE
  5
613
102
{ACAD_REACTORS
330
566
102
}
330
558
100
AcDbEntity
  8
0
100
AcDbLine
 10
1973.444814117931
 20
4571.519418738579
 30
0.0
 11
1977.192552267995
 21
4581.691850860188
 31
0.0
  0
LINE
  5
614
102
{ACAD_REACTORS
330
566
102
}
330
558
100
AcDbEntity
  8
0
100
AcDbLine
 10
1977.192552267995
 20
4581.691850860188
 30
0.0
 11
1981.475681582363
 21
4588.116544831726
 31
0.0
  0
LINE
  5
615
102
{ACAD_REACTORS
330
566
102
}
330
558
100
AcDbEntity
  8
0
100
AcDbLine
 10
2198.309103121879
 20
4298.469924948069
 30
0.0
 11
2230.432572979581
 21
4301.146880769549
 31
0.0
  0
LINE
  5
616
102
{ACAD_REACTORS
330
566
102
}
330
558
100
AcDbEntity
  8
0
100
AcDbLine
 10
2230.432572979581
 20
4301.146880769549
 30
0.0
 11
2274.870039616085
 21
4252.426284818692
 31
0.0
  0
LINE
  5
617
102
{ACAD_REACTORS
330
566
102
}
330
558
100
AcDbEntity
  8
0
100
AcDbLine
 10
2274.870039616085
 20
4252.426284818692
 30
0.0
 11
2274.870039616085
 21
4176.400739488788
 31
0.0
  0
LINE
  5
618
102
{ACAD_REACTORS
330
566
102
}
330
558
100
AcDbEntity
  8
0
100
AcDbLine
 10
2274.870039616085
 20
4176.400739488788
 30
0.0
 11
2231.235659726022
 21
4128.215534702227
 31
0.0
  0
LINE
  5
619
102
{ACAD_REACTORS
330
566
102
}
330
558
100
AcDbEntity
  8
0
100
AcDbLine
 10
2231.235659726022
 20
4128.215534702227
 30
0.0
 11
2198.309103121879
 21
4130.357099359404
 31
0.0
  0
LINE
  5
61A
102
{ACAD_REACTORS
330
566
102
}
330
558
100
AcDbEntity
  8
0
100
AcDbLine
 10
2198.309103121879
 20
4130.357099359404
 30
0.0
 11
2191.884409150327
 21
4144.812660795374
 31
0.0
  0
LINE
  5
61B
102
{ACAD_REACTORS
330
566
102
}
330
558
100
AcDbEntity
  8
0
100
AcDbLine
 10
2191.884409150327
 20
4144.812660795374
 30
0.0
 11
2212.229273393546
 21
4214.41351215374
 31
0.0
  0
LINE
  5
61C
102
{ACAD_REACTORS
330
566
102
}
330
558
100
AcDbEntity
  8
0
100
AcDbLine
 10
2212.229273393546
 20
4214.41351215374
 30
0.0
 11
2190.278235657446
 21
4281.872798854922
 31
0.0
  0
LINE
  5
61D
102
{ACAD_REACTORS
330
566
102
}
330
558
100
AcDbEntity
  8
0
100
AcDbLine
 10
2190.278235657446
 20
4281.872798854922
 30
0.0
 11
2194.02597380751
 21
4292.045230976532
 31
0.0
  0
LINE
  5
61E
102
{ACAD_REACTORS
330
566
102
}
330
558
100
AcDbEntity
  8
0
100
AcDbLine
 10
2194.02597380751
 20
4292.045230976532
 30
0.0
 11
2198.309103121879
 21
4298.469924948069
 31
0.0
  0
LINE
  5
61F
102
{ACAD_REACTORS
330
566
102
}
330
558
100
AcDbEntity
  8
0
100
AcDbLine
 10
2370.705058024905
 20
4596.147412296152
 30
0.0
 11
2402.828527882608
 21
4598.824368117624
 31
0.0
  0
LINE
  5
620
102
{ACAD_REACTORS
330
566
102
}
330
558
100
AcDbEntity
  8
0
100
AcDbLine
 10
2402.828527882608
 20
4598.824368117624
 30
0.0
 11
2447.265994519097
 21
4550.103772166774
 31
0.0
  0
LINE
  5
621
102
{ACAD_REACTORS
330
566
102
}
330
558
100
AcDbEntity
  8
0
100
AcDbLine
 10
2447.265994519097
 20
4550.103772166774
 30
0.0
 11
2447.265994519097
 21
4474.078226836864
 31
0.0
  0
LINE
  5
622
102
{ACAD_REACTORS
330
566
102
}
330
558
100
AcDbEntity
  8
0
100
AcDbLine
 10
2447.265994519097
 20
4474.078226836864
 30
0.0
 11
2403.631614629048
 21
4425.893022050309
 31
0.0
  0
LINE
  5
623
102
{ACAD_REACTORS
330
566
102
}
330
558
100
AcDbEntity
  8
0
100
AcDbLine
 10
2403.631614629048
 20
4425.893022050309
 30
0.0
 11
2370.705058024905
 21
4428.034586707486
 31
0.0
  0
LINE
  5
624
102
{ACAD_REACTORS
330
566
102
}
330
558
100
AcDbEntity
  8
0
100
AcDbLine
 10
2370.705058024905
 20
4428.034586707486
 30
0.0
 11
2364.280364053367
 21
4442.490148143457
 31
0.0
  0
LINE
  5
625
102
{ACAD_REACTORS
330
566
102
}
330
558
100
AcDbEntity
  8
0
100
AcDbLine
 10
2364.280364053367
 20
4442.490148143457
 30
0.0
 11
2384.625228296572
 21
4512.090999501823
 31
0.0
  0
LINE
  5
626
102
{ACAD_REACTORS
330
566
102
}
330
558
100
AcDbEntity
  8
0
100
AcDbLine
 10
2384.625228296572
 20
4512.090999501823
 30
0.0
 11
2362.674190560472
 21
4579.550286203004
 31
0.0
  0
LINE
  5
627
102
{ACAD_REACTORS
330
566
102
}
330
558
100
AcDbEntity
  8
0
100
AcDbLine
 10
2362.674190560472
 20
4579.550286203004
 30
0.0
 11
2366.421928710551
 21
4589.722718324614
 31
0.0
  0
LINE
  5
628
102
{ACAD_REACTORS
330
566
102
}
330
558
100
AcDbEntity
  8
0
100
AcDbLine
 10
2366.421928710551
 20
4589.722718324614
 30
0.0
 11
2370.705058024905
 21
4596.147412296152
 31
0.0
  0
LINE
  5
629
102
{ACAD_REACTORS
330
566
102
}
330
558
100
AcDbEntity
  8
0
100
AcDbLine
 10
2524.897713341895
 20
4839.215000886135
 30
0.0
 11
2557.021183199598
 21
4841.891956707608
 31
0.0
  0
LINE
  5
62A
102
{ACAD_REACTORS
330
566
102
}
330
558
100
AcDbEntity
  8
0
100
AcDbLine
 10
2557.021183199598
 20
4841.891956707608
 30
0.0
 11
2601.458649836088
 21
4793.17136075675
 31
0.0
  0
LINE
  5
62B
102
{ACAD_REACTORS
330
566
102
}
330
558
100
AcDbEntity
  8
0
100
AcDbLine
 10
2601.458649836088
 20
4793.17136075675
 30
0.0
 11
2601.458649836088
 21
4717.145815426848
 31
0.0
  0
LINE
  5
62C
102
{ACAD_REACTORS
330
566
102
}
330
558
100
AcDbEntity
  8
0
100
AcDbLine
 10
2601.458649836088
 20
4717.145815426848
 30
0.0
 11
2557.824269946038
 21
4668.960610640293
 31
0.0
  0
LINE
  5
62D
102
{ACAD_REACTORS
330
566
102
}
330
558
100
AcDbEntity
  8
0
100
AcDbLine
 10
2557.824269946038
 20
4668.960610640293
 30
0.0
 11
2524.897713341895
 21
4671.102175297463
 31
0.0
  0
LINE
  5
62E
102
{ACAD_REACTORS
330
566
102
}
330
558
100
AcDbEntity
  8
0
100
AcDbLine
 10
2524.897713341895
 20
4671.102175297463
 30
0.0
 11
2518.473019370358
 21
4685.557736733433
 31
0.0
  0
LINE
  5
62F
102
{ACAD_REACTORS
330
566
102
}
330
558
100
AcDbEntity
  8
0
100
AcDbLine
 10
2518.473019370358
 20
4685.557736733433
 30
0.0
 11
2538.817883613563
 21
4755.158588091799
 31
0.0
  0
LINE
  5
630
102
{ACAD_REACTORS
330
566
102
}
330
558
100
AcDbEntity
  8
0
100
AcDbLine
 10
2538.817883613563
 20
4755.158588091799
 30
0.0
 11
2516.866845877477
 21
4822.617874792981
 31
0.0
  0
LINE
  5
631
102
{ACAD_REACTORS
330
566
102
}
330
558
100
AcDbEntity
  8
0
100
AcDbLine
 10
2516.866845877477
 20
4822.617874792981
 30
0.0
 11
2520.614584027542
 21
4832.790306914597
 31
0.0
  0
LINE
  5
632
102
{ACAD_REACTORS
330
566
102
}
330
558
100
AcDbEntity
  8
0
100
AcDbLine
 10
2520.614584027542
 20
4832.790306914597
 30
0.0
 11
2524.897713341895
 21
4839.215000886135
 31
0.0
  0
LINE
  5
633
102
{ACAD_REACTORS
330
566
102
}
330
558
100
AcDbEntity
  8
0
100
AcDbLine
 10
2607.347952643336
 20
4180.148477638846
 30
0.0
 11
2639.471422501054
 21
4182.825433460326
 31
0.0
  0
LINE
  5
634
102
{ACAD_REACTORS
330
566
102
}
330
558
100
AcDbEntity
  8
0
100
AcDbLine
 10
2639.471422501054
 20
4182.825433460326
 30
0.0
 11
2683.908889137543
 21
4134.104837509468
 31
0.0
  0
LINE
  5
635
102
{ACAD_REACTORS
330
566
102
}
330
558
100
AcDbEntity
  8
0
100
AcDbLine
 10
2683.908889137543
 20
4134.104837509468
 30
0.0
 11
2683.908889137543
 21
4058.079292179566
 31
0.0
  0
LINE
  5
636
102
{ACAD_REACTORS
330
566
102
}
330
558
100
AcDbEntity
  8
0
100
AcDbLine
 10
2683.908889137543
 20
4058.079292179566
 30
0.0
 11
2640.274509247494
 21
4009.894087393004
 31
0.0
  0
LINE
  5
637
102
{ACAD_REACTORS
330
566
102
}
330
558
100
AcDbEntity
  8
0
100
AcDbLine
 10
2640.274509247494
 20
4009.894087393004
 30
0.0
 11
2607.347952643336
 21
4012.03565205018
 31
0.0
  0
LINE
  5
638
102
{ACAD_REACTORS
330
566
102
}
330
558
100
AcDbEntity
  8
0
100
AcDbLine
 10
2607.347952643336
 20
4012.03565205018
 30
0.0
 11
2600.923258671798
 21
4026.491213486152
 31
0.0
  0
LINE
  5
639
102
{ACAD_REACTORS
330
566
102
}
330
558
100
AcDbEntity
  8
0
100
AcDbLine
 10
2600.923258671798
 20
4026.491213486152
 30
0.0
 11
2621.268122915018
 21
4096.092064844517
 31
0.0
  0
LINE
  5
63A
102
{ACAD_REACTORS
330
566
102
}
330
558
100
AcDbEntity
  8
0
100
AcDbLine
 10
2621.268122915018
 20
4096.092064844517
 30
0.0
 11
2599.317085178918
 21
4163.551351545698
 31
0.0
  0
LINE
  5
63B
102
{ACAD_REACTORS
330
566
102
}
330
558
100
AcDbEntity
  8
0
100
AcDbLine
 10
2599.317085178918
 20
4163.551351545698
 30
0.0
 11
2603.064823328983
 21
4173.723783667308
 31
0.0
  0
LINE
  5
63C
102
{ACAD_REACTORS
330
566
102
}
330
558
100
AcDbEntity
  8
0
100
AcDbLine
 10
2603.064823328983
 20
4173.723783667308
 30
0.0
 11
2607.347952643336
 21
4180.148477638846
 31
0.0
  0
LINE
  5
63D
102
{ACAD_REACTORS
330
566
102
}
330
558
100
AcDbEntity
  8
0
100
AcDbLine
 10
2054.288879926491
 20
4188.179345103272
 30
0.0
 11
2097.120173070099
 21
4188.714736267575
 31
0.0
  0
LINE
  5
63E
102
{ACAD_REACTORS
330
566
102
}
330
558
100
AcDbEntity
  8
0
100
AcDbLine
 10
2097.120173070099
 20
4188.714736267575
 30
0.0
 11
2113.717299163239
 21
4167.834480860067
 31
0.0
  0
LINE
  5
63F
102
{ACAD_REACTORS
330
566
102
}
330
558
100
AcDbEntity
  8
0
100
AcDbLine
 10
2113.717299163239
 20
4167.834480860067
 30
0.0
 11
2113.717299163239
 21
4065.039377315406
 31
0.0
  0
LINE
  5
640
102
{ACAD_REACTORS
330
566
102
}
330
558
100
AcDbEntity
  8
0
100
AcDbLine
 10
2113.717299163239
 20
4065.039377315406
 30
0.0
 11
2097.120173070099
 21
4044.159121907891
 31
0.0
  0
LINE
  5
641
102
{ACAD_REACTORS
330
566
102
}
330
558
100
AcDbEntity
  8
0
100
AcDbLine
 10
2097.120173070099
 20
4044.159121907891
 30
0.0
 11
2054.288879926491
 21
4044.694513072187
 31
0.0
  0
LINE
  5
642
102
{ACAD_REACTORS
330
566
102
}
330
558
100
AcDbEntity
  8
0
100
AcDbLine
 10
2054.288879926491
 20
4044.694513072187
 30
0.0
 11
2038.227144997639
 21
4066.645550808288
 31
0.0
  0
LINE
  5
643
102
{ACAD_REACTORS
330
566
102
}
330
558
100
AcDbEntity
  8
0
100
AcDbLine
 10
2038.227144997639
 20
4066.645550808288
 30
0.0
 11
2038.227144997639
 21
4166.228307367171
 31
0.0
  0
LINE
  5
644
102
{ACAD_REACTORS
330
566
102
}
330
558
100
AcDbEntity
  8
0
100
AcDbLine
 10
2038.227144997639
 20
4166.228307367171
 30
0.0
 11
2054.288879926491
 21
4188.179345103272
 31
0.0
  0
LINE
  5
645
102
{ACAD_REACTORS
330
566
102
}
330
558
100
AcDbEntity
  8
0
100
AcDbLine
 10
2420.49643630434
 20
4266.881846254655
 30
0.0
 11
2463.327729447962
 21
4267.417237418951
 31
0.0
  0
LINE
  5
646
102
{ACAD_REACTORS
330
566
102
}
330
558
100
AcDbEntity
  8
0
100
AcDbLine
 10
2463.327729447962
 20
4267.417237418951
 30
0.0
 11
2479.924855541103
 21
4246.536982011443
 31
0.0
  0
LINE
  5
647
102
{ACAD_REACTORS
330
566
102
}
330
558
100
AcDbEntity
  8
0
100
AcDbLine
 10
2479.924855541103
 20
4246.536982011443
 30
0.0
 11
2479.924855541103
 21
4143.741878466783
 31
0.0
  0
LINE
  5
648
102
{ACAD_REACTORS
330
566
102
}
330
558
100
AcDbEntity
  8
0
100
AcDbLine
 10
2479.924855541103
 20
4143.741878466783
 30
0.0
 11
2463.327729447962
 21
4122.861623059274
 31
0.0
  0
LINE
  5
649
102
{ACAD_REACTORS
330
566
102
}
330
558
100
AcDbEntity
  8
0
100
AcDbLine
 10
2463.327729447962
 20
4122.861623059274
 30
0.0
 11
2420.49643630434
 21
4123.397014223563
 31
0.0
  0
LINE
  5
64A
102
{ACAD_REACTORS
330
566
102
}
330
558
100
AcDbEntity
  8
0
100
AcDbLine
 10
2420.49643630434
 20
4123.397014223563
 30
0.0
 11
2404.434701375503
 21
4145.348051959663
 31
0.0
  0
LINE
  5
64B
102
{ACAD_REACTORS
330
566
102
}
330
558
100
AcDbEntity
  8
0
100
AcDbLine
 10
2404.434701375503
 20
4145.348051959663
 30
0.0
 11
2404.434701375503
 21
4244.930808518555
 31
0.0
  0
LINE
  5
64C
102
{ACAD_REACTORS
330
566
102
}
330
558
100
AcDbEntity
  8
0
100
AcDbLine
 10
2404.434701375503
 20
4244.930808518555
 30
0.0
 11
2420.49643630434
 21
4266.881846254655
 31
0.0
  0
LINE
  5
64D
102
{ACAD_REACTORS
330
566
102
}
330
558
100
AcDbEntity
  8
0
100
AcDbLine
 10
2193.490582643222
 20
4639.514096604056
 30
0.0
 11
2236.32187578683
 21
4640.049487768352
 31
0.0
  0
LINE
  5
64E
102
{ACAD_REACTORS
330
566
102
}
330
558
100
AcDbEntity
  8
0
100
AcDbLine
 10
2236.32187578683
 20
4640.049487768352
 30
0.0
 11
2252.919001879971
 21
4619.169232360844
 31
0.0
  0
LINE
  5
64F
102
{ACAD_REACTORS
330
566
102
}
330
558
100
AcDbEntity
  8
0
100
AcDbLine
 10
2252.919001879971
 20
4619.169232360844
 30
0.0
 11
2252.919001879971
 21
4516.374128816184
 31
0.0
  0
LINE
  5
650
102
{ACAD_REACTORS
330
566
102
}
330
558
100
AcDbEntity
  8
0
100
AcDbLine
 10
2252.919001879971
 20
4516.374128816184
 30
0.0
 11
2236.32187578683
 21
4495.493873408675
 31
0.0
  0
LINE
  5
651
102
{ACAD_REACTORS
330
566
102
}
330
558
100
AcDbEntity
  8
0
100
AcDbLine
 10
2236.32187578683
 20
4495.493873408675
 30
0.0
 11
2193.490582643222
 21
4496.029264572964
 31
0.0
  0
LINE
  5
652
102
{ACAD_REACTORS
330
566
102
}
330
558
100
AcDbEntity
  8
0
100
AcDbLine
 10
2193.490582643222
 20
4496.029264572964
 30
0.0
 11
2177.428847714371
 21
4517.980302309064
 31
0.0
  0
LINE
  5
653
102
{ACAD_REACTORS
330
566
102
}
330
558
100
AcDbEntity
  8
0
100
AcDbLine
 10
2177.428847714371
 20
4517.980302309064
 30
0.0
 11
2177.428847714371
 21
4617.563058867956
 31
0.0
  0
LINE
  5
654
102
{ACAD_REACTORS
330
566
102
}
330
558
100
AcDbEntity
  8
0
100
AcDbLine
 10
2177.428847714371
 20
4617.563058867956
 30
0.0
 11
2193.490582643222
 21
4639.514096604056
 31
0.0
  0
LINE
  5
655
102
{ACAD_REACTORS
330
566
102
}
330
558
100
AcDbEntity
  8
0
100
AcDbLine
 10
2305.387335980908
 20
4883.117076358336
 30
0.0
 11
2348.218629124501
 21
4883.652467522625
 31
0.0
  0
LINE
  5
656
102
{ACAD_REACTORS
330
566
102
}
330
558
100
AcDbEntity
  8
0
100
AcDbLine
 10
2348.218629124501
 20
4883.652467522625
 30
0.0
 11
2364.815755217656
 21
4862.772212115117
 31
0.0
  0
LINE
  5
657
102
{ACAD_REACTORS
330
566
102
}
330
558
100
AcDbEntity
  8
0
100
AcDbLine
 10
2364.815755217656
 20
4862.772212115117
 30
0.0
 11
2364.815755217656
 21
4759.977108570455
 31
0.0
  0
LINE
  5
658
102
{ACAD_REACTORS
330
566
102
}
330
558
100
AcDbEntity
  8
0
100
AcDbLine
 10
2364.815755217656
 20
4759.977108570455
 30
0.0
 11
2348.218629124501
 21
4739.096853162947
 31
0.0
  0
LINE
  5
659
102
{ACAD_REACTORS
330
566
102
}
330
558
100
AcDbEntity
  8
0
100
AcDbLine
 10
2348.218629124501
 20
4739.096853162947
 30
0.0
 11
2305.387335980908
 21
4739.632244327244
 31
0.0
  0
LINE
  5
65A
102
{ACAD_REACTORS
330
566
102
}
330
558
100
AcDbEntity
  8
0
100
AcDbLine
 10
2305.387335980908
 20
4739.632244327244
 30
0.0
 11
2289.325601052041
 21
4761.583282063337
 31
0.0
  0
LINE
  5
65B
102
{ACAD_REACTORS
330
566
102
}
330
558
100
AcDbEntity
  8
0
100
AcDbLine
 10
2289.325601052041
 20
4761.583282063337
 30
0.0
 11
2289.325601052041
 21
4861.166038622235
 31
0.0
  0
LINE
  5
65C
102
{ACAD_REACTORS
330
566
102
}
330
558
100
AcDbEntity
  8
0
100
AcDbLine
 10
2289.325601052041
 20
4861.166038622235
 30
0.0
 11
2305.387335980908
 21
4883.117076358336
 31
0.0
  0
LINE
  5
65D
102
{ACAD_REACTORS
330
566
102
}
330
558
100
AcDbEntity
  8
0
100
AcDbLine
 10
2586.467697235828
 20
4506.201696694573
 30
0.0
 11
2629.298990379451
 21
4506.737087858869
 31
0.0
  0
LINE
  5
65E
102
{ACAD_REACTORS
330
566
102
}
330
558
100
AcDbEntity
  8
0
100
AcDbLine
 10
2629.298990379451
 20
4506.737087858869
 30
0.0
 11
2645.896116472592
 21
4485.856832451362
 31
0.0
  0
LINE
  5
65F
102
{ACAD_REACTORS
330
566
102
}
330
558
100
AcDbEntity
  8
0
100
AcDbLine
 10
2645.896116472592
 20
4485.856832451362
 30
0.0
 11
2645.896116472592
 21
4383.061728906701
 31
0.0
  0
LINE
  5
660
102
{ACAD_REACTORS
330
566
102
}
330
558
100
AcDbEntity
  8
0
100
AcDbLine
 10
2645.896116472592
 20
4383.061728906701
 30
0.0
 11
2629.298990379451
 21
4362.181473499193
 31
0.0
  0
LINE
  5
661
102
{ACAD_REACTORS
330
566
102
}
330
558
100
AcDbEntity
  8
0
100
AcDbLine
 10
2629.298990379451
 20
4362.181473499193
 30
0.0
 11
2586.467697235828
 21
4362.716864663481
 31
0.0
  0
LINE
  5
662
102
{ACAD_REACTORS
330
566
102
}
330
558
100
AcDbEntity
  8
0
100
AcDbLine
 10
2586.467697235828
 20
4362.716864663481
 30
0.0
 11
2570.405962306977
 21
4384.667902399582
 31
0.0
  0
LINE
  5
663
102
{ACAD_REACTORS
330
566
102
}
330
558
100
AcDbEntity
  8
0
100
AcDbLine
 10
2570.405962306977
 20
4384.667902399582
 30
0.0
 11
2570.405962306977
 21
4484.250658958473
 31
0.0
  0
LINE
  5
664
102
{ACAD_REACTORS
330
566
102
}
330
558
100
AcDbEntity
  8
0
100
AcDbLine
 10
2570.405962306977
 20
4484.250658958473
 30
0.0
 11
2586.467697235828
 21
4506.201696694573
 31
0.0
  0
LINE
  5
665
102
{ACAD_REACTORS
330
566
102
}
330
558
100
AcDbEntity
  8
0
100
AcDbLine
 10
1982.546463910941
 20
4795.312925413934
 30
0.0
 11
2025.377757054549
 21
4795.848316578231
 31
0.0
  0
LINE
  5
666
102
{ACAD_REACTORS
330
566
102
}
330
558
100
AcDbEntity
  8
0
100
AcDbLine
 10
2025.377757054549
 20
4795.848316578231
 30
0.0
 11
2041.974883147704
 21
4774.968061170723
 31
0.0
  0
LINE
  5
667
102
{ACAD_REACTORS
330
566
102
}
330
558
100
AcDbEntity
  8
0
100
AcDbLine
 10
2041.974883147704
 20
4774.968061170723
 30
0.0
 11
2041.974883147704
 21
4672.172957626062
 31
0.0
  0
LINE
  5
668
102
{ACAD_REACTORS
330
566
102
}
330
558
100
AcDbEntity
  8
0
100
AcDbLine
 10
2041.974883147704
 20
4672.172957626062
 30
0.0
 11
2025.377757054549
 21
4651.292702218547
 31
0.0
  0
LINE
  5
669
102
{ACAD_REACTORS
330
566
102
}
330
558
100
AcDbEntity
  8
0
100
AcDbLine
 10
2025.377757054549
 20
4651.292702218547
 30
0.0
 11
1982.546463910941
 21
4651.828093382849
 31
0.0
  0
LINE
  5
66A
102
{ACAD_REACTORS
330
566
102
}
330
558
100
AcDbEntity
  8
0
100
AcDbLine
 10
1982.546463910941
 20
4651.828093382849
 30
0.0
 11
1966.48472898209
 21
4673.779131118943
 31
0.0
  0
LINE
  5
66B
102
{ACAD_REACTORS
330
566
102
}
330
558
100
AcDbEntity
  8
0
100
AcDbLine
 10
1966.48472898209
 20
4673.779131118943
 30
0.0
 11
1966.48472898209
 21
4773.361887677834
 31
0.0
  0
LINE
  5
66C
102
{ACAD_REACTORS
330
566
102
}
330
558
100
AcDbEntity
  8
0
100
AcDbLine
 10
1966.48472898209
 20
4773.361887677834
 30
0.0
 11
1982.546463910941
 21
4795.312925413934
 31
0.0
  0
HATCH
  5
66D
330
558
100
AcDbEntity
  8
0
 62
    30
100
AcDbHatch
 10
0.0
 20
0.0
 30
0.0
210
0.0
220
0.0
230
1.0
  2
SOLID
 70
     1
 71
     0
 91
       12
 92
        7
 72
     0
 73
     1
 93
        8
 10
1873.138665271559
 20
4241.718461532786
 10
1857.076930342707
 20
4263.669499268886
 10
1857.076930342707
 20
4363.25225582777
 10
1873.138665271559
 20
4385.203293563885
 10
1915.969958415167
 20
4385.738684728174
 10
1932.567084508322
 20
4364.858429320666
 10
1932.567084508322
 20
4262.063325776005
 10
1915.969958415167
 20
4241.183070368498
 97
        0
 92
        7
 72
     0
 73
     1
 93
        8
 10
2054.288879926491
 20
4044.694513072187
 10
2038.227144997639
 20
4066.645550808288
 10
2038.227144997639
 20
4166.228307367171
 10
2054.288879926491
 20
4188.179345103279
 10
2097.120173070099
 20
4188.714736267575
 10
2113.717299163239
 20
4167.834480860067
 10
2113.717299163239
 20
4065.039377315406
 10
2097.120173070099
 20
4044.159121907884
 97
        0
 92
        7
 72
     0
 73
     1
 93
       10
 10
2231.235659726036
 20
4128.215534702227
 10
2198.309103121879
 20
4130.357099359404
 10
2191.884409150327
 20
4144.812660795374
 10
2212.229273393546
 20
4214.41351215374
 10
2190.278235657446
 20
4281.872798854922
 10
2194.02597380751
 20
4292.045230976532
 10
2198.309103121879
 20
4298.469924948069
 10
2230.432572979581
 20
4301.146880769542
 10
2274.870039616085
 20
4252.426284818692
 10
2274.870039616085
 20
4176.400739488788
 97
        0
 92
        7
 72
     0
 73
     1
 93
        8
 10
2420.496436304354
 20
4123.397014223563
 10
2404.434701375503
 20
4145.348051959656
 10
2404.434701375503
 20
4244.930808518555
 10
2420.496436304354
 20
4266.881846254655
 10
2463.327729447962
 20
4267.417237418951
 10
2479.924855541103
 20
4246.536982011443
 10
2479.924855541103
 20
4143.741878466783
 10
2463.327729447962
 20
4122.861623059274
 97
        0
 92
        7
 72
     0
 73
     1
 93
       10
 10
2640.274509247494
 20
4009.894087393012
 10
2607.347952643336
 20
4012.03565205018
 10
2600.923258671813
 20
4026.491213486152
 10
2621.268122915018
 20
4096.092064844517
 10
2599.317085178918
 20
4163.551351545698
 10
2603.064823328983
 20
4173.723783667315
 10
2607.347952643336
 20
4180.148477638853
 10
2639.471422501039
 20
4182.825433460326
 10
2683.908889137543
 20
4134.104837509468
 10
2683.908889137543
 20
4058.079292179566
 97
        0
 92
        7
 72
     0
 73
     1
 93
        8
 10
2586.467697235828
 20
4362.716864663481
 10
2570.405962306977
 20
4384.667902399582
 10
2570.405962306977
 20
4484.250658958466
 10
2586.467697235828
 20
4506.201696694573
 10
2629.298990379451
 20
4506.737087858869
 10
2645.896116472592
 20
4485.856832451369
 10
2645.896116472592
 20
4383.061728906701
 10
2629.298990379451
 20
4362.181473499193
 97
        0
 92
        7
 72
     0
 73
     1
 93
       10
 10
2403.631614629048
 20
4425.893022050309
 10
2370.705058024905
 20
4428.034586707486
 10
2364.280364053367
 20
4442.490148143464
 10
2384.625228296572
 20
4512.090999501816
 10
2362.674190560472
 20
4579.550286202997
 10
2366.421928710551
 20
4589.722718324614
 10
2370.705058024905
 20
4596.147412296152
 10
2402.828527882622
 20
4598.824368117624
 10
2447.265994519097
 20
4550.103772166782
 10
2447.265994519097
 20
4474.078226836864
 97
        0
 92
        7
 72
     0
 73
     1
 93
       10
 10
2524.897713341895
 20
4671.10217529747
 10
2518.473019370358
 20
4685.557736733441
 10
2538.817883613563
 20
4755.158588091799
 10
2516.866845877477
 20
4822.617874792988
 10
2520.614584027542
 20
4832.790306914597
 10
2524.897713341895
 20
4839.215000886135
 10
2557.021183199613
 20
4841.891956707608
 10
2601.458649836088
 20
4793.17136075675
 10
2601.458649836088
 20
4717.145815426848
 10
2557.824269946038
 20
4668.960610640293
 97
        0
 92
        7
 72
     0
 73
     1
 93
        8
 10
2305.387335980908
 20
4739.632244327236
 10
2289.325601052041
 20
4761.583282063337
 10
2289.325601052041
 20
4861.166038622235
 10
2305.387335980908
 20
4883.117076358336
 10
2348.218629124516
 20
4883.652467522625
 10
2364.815755217656
 20
4862.772212115117
 10
2364.815755217656
 20
4759.977108570455
 10
2348.218629124501
 20
4739.096853162947
 97
        0
 92
        7
 72
     0
 73
     1
 93
        8
 10
2193.490582643222
 20
4496.029264572964
 10
2177.428847714371
 20
4517.980302309072
 10
2177.428847714371
 20
4617.563058867949
 10
2193.490582643222
 20
4639.514096604056
 10
2236.32187578683
 20
4640.049487768352
 10
2252.919001879971
 20
4619.169232360844
 10
2252.919001879971
 20
4516.374128816184
 10
2236.32187578683
 20
4495.493873408675
 97
        0
 92
        7
 72
     0
 73
     1
 93
        8
 10
1982.546463910941
 20
4651.828093382849
 10
1966.48472898209
 20
4673.77913111895
 10
1966.48472898209
 20
4773.361887677834
 10
1982.546463910941
 20
4795.312925413927
 10
2025.377757054564
 20
4795.848316578238
 10
2041.974883147704
 20
4774.96806117073
 10
2041.974883147704
 20
4672.172957626055
 10
2025.377757054564
 20
4651.292702218547
 97
        0
 92
        7
 72
     0
 73
     1
 93
       10
 10
2014.402238186506
 20
4417.862154585884
 10
1981.475681582349
 20
4420.003719243061
 10
1975.050987610812
 20
4434.459280679031
 10
1995.395851854031
 20
4504.060132037397
 10
1973.444814117931
 20
4571.519418738579
 10
1977.192552267995
 20
4581.69185086018
 10
1981.475681582363
 20
4588.116544831719
 10
2013.599151440066
 20
4590.793500653206
 10
2058.036618076556
 20
4542.072904702348
 10
2058.036618076556
 20
4466.047359372445
 97
        0
 75
     0
 76
     1
 47
2.204275466911288
 98
       27
 10
1896.705411254268
 20
4305.785807526336
 10
2077.456029112698
 20
4144.705845370801
 10
2196.486911150147
 20
4221.935945033736
 10
2196.486911150147
 20
4221.935945033736
 10
2196.486911150147
 20
4221.935945033736
 10
2196.486911150147
 20
4221.935945033736
 10
2196.486911150147
 20
4221.935945033736
 10
2196.486911150147
 20
4221.935945033736
 10
2196.486911150147
 20
4221.935945033736
 10
2196.486911150147
 20
4221.935945033736
 10
2196.486911150147
 20
4221.935945033736
 10
2196.486911150147
 20
4221.935945033736
 10
2196.486911150147
 20
4221.935945033736
 10
2196.486911150147
 20
4221.935945033736
 10
2196.486911150147
 20
4221.935945033736
 10
1887.888318485595
 20
4310.199010198062
 10
2086.273121881356
 20
4153.532168358404
 10
2244.980964597954
 20
4224.142587547524
 10
2454.387133954529
 20
4208.696501730257
 10
2648.363390965954
 20
4122.64007907972
 10
2602.073610710315
 20
4405.081673480352
 10
2427.93581242836
 20
4506.584181948158
 10
2535.945328504996
 20
4731.654800463148
 10
2328.743432340576
 20
4786.819216190838
 10
2218.529643071786
 20
4588.227401926967
 10
1991.489288177908
 20
4698.556151026525
 10
2042.187614817885
 20
4508.790742106095
  0
LINE
  5
66E
102
{ACAD_REACTORS
330
55B
102
}
330
558
100
AcDbEntity
  8
0
100
AcDbLine
 10
-1157.673837345544
 20
4175.782965301012
 30
0.0
 11
-1157.673837345544
 21
4702.185195537452
 31
0.0
  0
LINE
  5
66F
330
558
100
AcDbEntity
  8
0
100
AcDbLine
 10
-1137.673837345544
 20
4175.782965301012
 30
0.0
 11
-1137.673837345544
 21
4702.185195537452
 31
0.0
  0
HATCH
  5
670
330
558
100
AcDbEntity
  8
0
 62
   150
100
AcDbHatch
 10
0.0
 20
0.0
 30
0.0
210
0.0
220
0.0
230
1.0
  2
SOLID
 70
     1
 71
     0
 91
        1
 92
        7
 72
     0
 73
     1
 93
        4
 10
-1137.673837345559
 20
4702.185195537452
 10
-1157.673837345559
 20
4702.185195537444
 10
-1157.673837345544
 20
4175.782965301012
 10
-1137.673837345544
 20
4175.782965301005
 97
        0
 75
     0
 76
     1
 47
4.694293360222218
 98
        1
 10
-1146.989072617114
 20
4411.767829084449
  0
LINE
  5
671
330
558
100
AcDbEntity
  8
0
100
AcDbLine
 10
-1099.461491584384
 20
4825.320208314624
 30
0.0
 11
-1829.560858652796
 21
4825.320208314624
 31
0.0
  0
LWPOLYLINE
  5
672
102
{ACAD_REACTORS
330
55B
102
}
330
558
100
AcDbEntity
  8
0
100
AcDbPolyline
 90
        8
 70
     1
 43
0.0
 10
-1201.729270027936
 20
4807.185195537451
 10
-1201.729270027936
 20
4707.185195537451
 42
0.4142135623730951
 10
-1196.729270027935
 20
4702.185195537452
 10
-1096.729270027935
 20
4702.185195537452
 42
0.4142135623730951
 10
-1091.729270027935
 20
4707.185195537451
 10
-1091.729270027935
 20
4807.185195537451
 42
0.4142135623730951
 10
-1096.729270027935
 20
4812.185195537452
 10
-1196.729270027935
 20
4812.185195537452
 42
0.4142135623730951
  0
ARC
  5
673
330
558
100
AcDbEntity
  8
0
100
AcDbCircle
 10
-1249.476087961054
 20
4825.320208314632
 30
0.0
 40
38.67231804610492
100
AcDbArc
 50
0.0
 51
104.315003268565
  0
ARC
  5
674
330
558
100
AcDbEntity
  8
0
100
AcDbCircle
 10
-1268.599761720135
 20
4825.320208314632
 30
0.0
 40
38.67231804611583
100
AcDbArc
 50
0.0
 51
110.2522467423302
  0
ARC
  5
675
330
558
100
AcDbEntity
  8
0
100
AcDbCircle
 10
-1659.997617989051
 20
4825.320208314632
 30
0.0
 40
38.67231804611583
100
AcDbArc
 50
50.40456204676423
 51
180.0
  0
HATCH
  5
676
330
558
100
AcDbEntity
  8
0
 62
    10
100
AcDbHatch
 10
0.0
 20
0.0
 30
0.0
210
0.0
220
0.0
230
1.0
  2
SOLID
 70
     1
 71
     0
 91
        2
 92
        7
 72
     1
 73
     1
 93
        2
 10
-1256.700586936713
 20
4825.320208314624
 42
1.0
 10
-1334.045223028937
 20
4825.320208314624
 42
0.0
 97
        0
 92
        7
 72
     1
 73
     1
 93
        2
 10
-1572.028718697343
 20
4825.320208314632
 42
1.0
 10
-1649.373354789568
 20
4825.320208314624
 42
0.0
 97
        0
 75
     0
 76
     1
 47
2.054966041547646
 98
        2
 10
-1296.38820390572
 20
4835.095121315615
 10
-1614.907949957312
 20
4839.209343637565
  0
HATCH
  5
677
330
558
100
AcDbEntity
  8
0
 62
     4
100
AcDbHatch
 10
0.0
 20
0.0
 30
0.0
210
0.0
220
0.0
230
1.0
  2
SOLID
 70
     1
 71
     0
 91
        3
 92
        7
 72
     1
 73
     1
 93
        3
 10
-1229.927443674037
 20
4825.320208314624
 42
0.0
 10
-1210.803769914942
 20
4825.320208314624
 42
0.4894351530564882
 10
-1259.037924840595
 20
4862.791790327523
 42
-0.3427909203673021
 97
        0
 92
        7
 72
     1
 73
     1
 93
        2
 10
-1387.591509554331
 20
4825.320208314632
 42
1.0
 10
-1464.936145646555
 20
4825.320208314624
 42
0.0
 97
        0
 92
        7
 72
     1
 73
     1
 93
        3
 10
-1698.669936035163
 20
4825.320208314624
 42
0.0
 10
-1649.373354789568
 20
4825.320208314624
 42
-0.2235473832412309
 10
-1635.349327366246
 20
4855.119704156575
 42
0.6345913753681723
 97
        0
 75
     0
 76
     1
 47
2.054966041547646
 98
        3
 10
-1226.519366149892
 20
4841.266454798541
 10
-1421.741137001619
 20
4841.266454798541
 10
-1672.44699390752
 20
4843.323565959515
  0
HATCH
  5
678
330
558
100
AcDbEntity
  8
0
 62
     6
100
AcDbHatch
 10
0.0
 20
0.0
 30
0.0
210
0.0
220
0.0
230
1.0
  2
SOLID
 70
     1
 71
     0
 91
        2
 92
        7
 72
     1
 73
     1
 93
        3
 10
-1229.927443674023
 20
4825.320208314624
 42
0.5219667480029689
 10
-1281.98633335148
 20
4861.601717145146
 42
-0.3140891564316131
 10
-1256.700586936713
 20
4825.320208314624
 42
0.0
 97
        0
 92
        7
 72
     1
 73
     1
 93
        2
 10
-1782.814100575065
 20
4825.320208314624
 42
0.0
 10
-1705.469464482841
 20
4825.320208314624
 42
1.0
 97
        0
 75
     0
 76
     1
 47
2.054966041547646
 98
        2
 10
-1245.014052215396
 20
4835.095121315615
 10
-1727.931079961694
 20
4847.437788281481
  0
ARC
  5
679
330
558
100
AcDbEntity
  8
0
100
AcDbCircle
 10
-1744.141782528953
 20
4825.320208314632
 30
0.0
 40
38.67231804611583
100
AcDbArc
 50
0.0
 51
180.0
  0
LINE
  5
67A
330
558
100
AcDbEntity
  8
0
100
AcDbLine
 10
-1829.560858652796
 20
4825.320208314624
 30
0.0
 11
-1829.560858652796
 21
4810.49811272318
 31
0.0
  0
ARC
  5
67B
330
558
100
AcDbEntity
  8
0
100
AcDbCircle
 10
-1610.701036743455
 20
4825.320208314632
 30
0.0
 40
38.67231804611583
100
AcDbArc
 50
0.0
 51
180.0
  0
ARC
  5
67C
330
558
100
AcDbEntity
  8
0
100
AcDbCircle
 10
-1426.263827600443
 20
4825.320208314632
 30
0.0
 40
38.67231804611583
100
AcDbArc
 50
0.0
 51
180.0
  0
ARC
  5
67D
330
558
100
AcDbEntity
  8
0
100
AcDbCircle
 10
-1295.372904982825
 20
4825.320208314632
 30
0.0
 40
38.67231804611583
100
AcDbArc
 50
0.0
 51
180.0
  0
LINE
  5
67E
330
558
100
AcDbEntity
  8
0
100
AcDbLine
 10
-1099.461491584384
 20
4812.185195537452
 30
0.0
 11
-1099.461491584384
 21
4825.320208314624
 31
0.0
  0
LWPOLYLINE
  5
67F
102
{ACAD_REACTORS
330
55B
102
}
330
558
100
AcDbEntity
  8
0
100
AcDbPolyline
 90
        8
 70
     1
 43
0.0
 10
-1201.729270027936
 20
4170.782965301012
 10
-1201.729270027936
 20
4070.782965301012
 42
0.4142135623730951
 10
-1196.729270027935
 20
4065.782965301012
 10
-1096.729270027935
 20
4065.782965301012
 42
0.4142135623730951
 10
-1091.729270027935
 20
4070.782965301012
 10
-1091.729270027935
 20
4170.782965301012
 42
0.4142135623730951
 10
-1096.729270027935
 20
4175.782965301012
 10
-1196.729270027935
 20
4175.782965301012
 42
0.4142135623730951
  0
LINE
  5
680
330
558
100
AcDbEntity
  8
0
100
AcDbLine
 10
-1091.729270027935
 20
4803.297096772869
 30
0.0
 11
688.4271255704079
 21
4803.297096772862
 31
0.0
  0
LINE
  5
681
330
558
100
AcDbEntity
  8
0
100
AcDbLine
 10
-1093.525993964416
 20
4703.34605208339
 30
0.0
 11
688.4271255704079
 21
4703.34605208339
 31
0.0
  0
LINE
  5
682
330
558
100
AcDbEntity
  8
0
100
AcDbLine
 10
-1091.729270027935
 20
4073.14624488863
 30
0.0
 11
688.4271255704079
 21
4073.14624488863
 31
0.0
  0
LINE
  5
683
330
558
100
AcDbEntity
  8
0
100
AcDbLine
 10
-1091.729270027935
 20
4168.015033068484
 30
0.0
 11
688.4271255704224
 21
4168.015033068477
 31
0.0
  0
CIRCLE
  5
684
330
558
100
AcDbEntity
  8
0
100
AcDbCircle
 10
-967.3228223338664
 20
4625.982814103379
 30
0.0
 40
19.76433087080659
  0
CIRCLE
  5
685
330
558
100
AcDbEntity
  8
0
100
AcDbCircle
 10
-844.2192757671582
 20
4625.982814103379
 30
0.0
 40
19.76433087080659
  0
CIRCLE
  5
686
330
558
100
AcDbEntity
  8
0
100
AcDbCircle
 10
-720.5510340327018
 20
4625.982814103379
 30
0.0
 40
19.76433087080659
  0
CIRCLE
  5
687
330
558
100
AcDbEntity
  8
0
100
AcDbCircle
 10
-596.3180971305119
 20
4625.982814103379
 30
0.0
 40
19.76433087080659
  0
CIRCLE
  5
688
330
558
100
AcDbEntity
  8
0
100
AcDbCircle
 10
-472.0851602283219
 20
4625.982814103379
 30
0.0
 40
19.76433087080659
  0
CIRCLE
  5
689
330
558
100
AcDbEntity
  8
0
100
AcDbCircle
 10
-347.2875281583838
 20
4625.982814103379
 30
0.0
 40
19.76433087080659
  0
CIRCLE
  5
68A
330
558
100
AcDbEntity
  8
0
100
AcDbCircle
 10
-222.4898960884602
 20
4625.982814103379
 30
0.0
 40
19.76433087080659
  0
CIRCLE
  5
68B
330
558
100
AcDbEntity
  8
0
100
AcDbCircle
 10
-97.69226401853666
 20
4625.982814103379
 30
0.0
 40
19.76433087080659
  0
CIRCLE
  5
68C
330
558
100
AcDbEntity
  8
0
100
AcDbCircle
 10
27.1053680513869
 20
4625.982814103379
 30
0.0
 40
19.76433087080659
  0
CIRCLE
  5
68D
330
558
100
AcDbEntity
  8
0
100
AcDbCircle
 10
151.903000121325
 20
4625.982814103379
 30
0.0
 40
19.76433087080659
  0
CIRCLE
  5
68E
330
558
100
AcDbEntity
  8
0
100
AcDbCircle
 10
276.7006321912485
 20
4625.982814103379
 30
0.0
 40
19.76433087080659
  0
CIRCLE
  5
68F
330
558
100
AcDbEntity
  8
0
100
AcDbCircle
 10
401.4982642611721
 20
4625.982814103379
 30
0.0
 40
19.76433087080659
  0
CIRCLE
  5
690
330
558
100
AcDbEntity
  8
0
100
AcDbCircle
 10
525.1665059956285
 20
4625.982814103379
 30
0.0
 40
19.76433087080659
  0
CIRCLE
  5
691
330
558
100
AcDbEntity
  8
0
100
AcDbCircle
 10
649.3994428978185
 20
4625.982814103379
 30
0.0
 40
19.76433087080659
  0
CIRCLE
  5
692
330
558
100
AcDbEntity
  8
0
100
AcDbCircle
 10
649.3994428978185
 20
4500.620486865715
 30
0.0
 40
19.76433087080659
  0
CIRCLE
  5
693
330
558
100
AcDbEntity
  8
0
100
AcDbCircle
 10
525.1665059956285
 20
4500.620486865715
 30
0.0
 40
19.76433087080659
  0
CIRCLE
  5
694
330
558
100
AcDbEntity
  8
0
100
AcDbCircle
 10
401.4982642611721
 20
4500.620486865715
 30
0.0
 40
19.76433087080659
  0
CIRCLE
  5
695
330
558
100
AcDbEntity
  8
0
100
AcDbCircle
 10
276.7006321912485
 20
4500.620486865715
 30
0.0
 40
19.76433087080659
  0
CIRCLE
  5
696
330
558
100
AcDbEntity
  8
0
100
AcDbCircle
 10
151.903000121325
 20
4500.620486865715
 30
0.0
 40
19.76433087080659
  0
CIRCLE
  5
697
330
558
100
AcDbEntity
  8
0
100
AcDbCircle
 10
27.1053680513869
 20
4500.620486865715
 30
0.0
 40
19.76433087080659
  0
CIRCLE
  5
698
330
558
100
AcDbEntity
  8
0
100
AcDbCircle
 10
-97.69226401853666
 20
4500.620486865715
 30
0.0
 40
19.76433087080659
  0
CIRCLE
  5
699
330
558
100
AcDbEntity
  8
0
100
AcDbCircle
 10
-222.4898960884602
 20
4500.620486865715
 30
0.0
 40
19.76433087080659
  0
CIRCLE
  5
69A
330
558
100
AcDbEntity
  8
0
100
AcDbCircle
 10
-347.2875281583838
 20
4500.620486865715
 30
0.0
 40
19.76433087080659
  0
CIRCLE
  5
69B
330
558
100
AcDbEntity
  8
0
100
AcDbCircle
 10
-472.0851602283219
 20
4500.620486865715
 30
0.0
 40
19.76433087080659
  0
CIRCLE
  5
69C
330
558
100
AcDbEntity
  8
0
100
AcDbCircle
 10
-596.3180971305119
 20
4500.620486865715
 30
0.0
 40
19.76433087080659
  0
CIRCLE
  5
69D
330
558
100
AcDbEntity
  8
0
100
AcDbCircle
 10
-720.5510340327018
 20
4500.620486865715
 30
0.0
 40
19.76433087080659
  0
CIRCLE
  5
69E
330
558
100
AcDbEntity
  8
0
100
AcDbCircle
 10
-844.2192757671582
 20
4500.620486865715
 30
0.0
 40
19.76433087080659
  0
CIRCLE
  5
69F
330
558
100
AcDbEntity
  8
0
100
AcDbCircle
 10
-967.3228223338664
 20
4500.620486865715
 30
0.0
 40
19.76433087080659
  0
CIRCLE
  5
6A0
330
558
100
AcDbEntity
  8
0
100
AcDbCircle
 10
-967.3228223338664
 20
4375.822854795791
 30
0.0
 40
19.76433087080659
  0
CIRCLE
  5
6A1
330
558
100
AcDbEntity
  8
0
100
AcDbCircle
 10
-844.2192757671582
 20
4375.822854795791
 30
0.0
 40
19.76433087080659
  0
CIRCLE
  5
6A2
330
558
100
AcDbEntity
  8
0
100
AcDbCircle
 10
-720.5510340327018
 20
4375.822854795791
 30
0.0
 40
19.76433087080659
  0
CIRCLE
  5
6A3
330
558
100
AcDbEntity
  8
0
100
AcDbCircle
 10
-596.3180971305119
 20
4375.822854795791
 30
0.0
 40
19.76433087080659
  0
CIRCLE
  5
6A4
330
558
100
AcDbEntity
  8
0
100
AcDbCircle
 10
-472.0851602283219
 20
4375.822854795791
 30
0.0
 40
19.76433087080659
  0
CIRCLE
  5
6A5
330
558
100
AcDbEntity
  8
0
100
AcDbCircle
 10
-347.2875281583838
 20
4375.822854795791
 30
0.0
 40
19.76433087080659
  0
CIRCLE
  5
6A6
330
558
100
AcDbEntity
  8
0
100
AcDbCircle
 10
-222.4898960884602
 20
4375.822854795791
 30
0.0
 40
19.76433087080659
  0
CIRCLE
  5
6A7
330
558
100
AcDbEntity
  8
0
100
AcDbCircle
 10
-97.69226401853666
 20
4375.822854795791
 30
0.0
 40
19.76433087080659
  0
CIRCLE
  5
6A8
330
558
100
AcDbEntity
  8
0
100
AcDbCircle
 10
27.1053680513869
 20
4375.822854795791
 30
0.0
 40
19.76433087080659
  0
CIRCLE
  5
6A9
330
558
100
AcDbEntity
  8
0
100
AcDbCircle
 10
151.903000121325
 20
4375.822854795791
 30
0.0
 40
19.76433087080659
  0
CIRCLE
  5
6AA
330
558
100
AcDbEntity
  8
0
100
AcDbCircle
 10
276.7006321912485
 20
4375.822854795791
 30
0.0
 40
19.76433087080659
  0
CIRCLE
  5
6AB
330
558
100
AcDbEntity
  8
0
100
AcDbCircle
 10
401.4982642611721
 20
4375.822854795791
 30
0.0
 40
19.76433087080659
  0
CIRCLE
  5
6AC
330
558
100
AcDbEntity
  8
0
100
AcDbCircle
 10
525.1665059956285
 20
4375.822854795791
 30
0.0
 40
19.76433087080659
  0
CIRCLE
  5
6AD
330
558
100
AcDbEntity
  8
0
100
AcDbCircle
 10
649.3994428978185
 20
4375.822854795791
 30
0.0
 40
19.76433087080659
  0
CIRCLE
  5
6AE
330
558
100
AcDbEntity
  8
0
100
AcDbCircle
 10
649.3994428978185
 20
4250.460527558127
 30
0.0
 40
19.76433087080659
  0
CIRCLE
  5
6AF
330
558
100
AcDbEntity
  8
0
100
AcDbCircle
 10
525.1665059956285
 20
4250.460527558127
 30
0.0
 40
19.76433087080659
  0
CIRCLE
  5
6B0
330
558
100
AcDbEntity
  8
0
100
AcDbCircle
 10
401.4982642611721
 20
4250.460527558127
 30
0.0
 40
19.76433087080659
  0
CIRCLE
  5
6B1
330
558
100
AcDbEntity
  8
0
100
AcDbCircle
 10
276.7006321912485
 20
4250.460527558127
 30
0.0
 40
19.76433087080659
  0
CIRCLE
  5
6B2
330
558
100
AcDbEntity
  8
0
100
AcDbCircle
 10
151.903000121325
 20
4250.460527558127
 30
0.0
 40
19.76433087080659
  0
CIRCLE
  5
6B3
330
558
100
AcDbEntity
  8
0
100
AcDbCircle
 10
27.1053680513869
 20
4250.460527558127
 30
0.0
 40
19.76433087080659
  0
CIRCLE
  5
6B4
330
558
100
AcDbEntity
  8
0
100
AcDbCircle
 10
-97.69226401853666
 20
4250.460527558127
 30
0.0
 40
19.76433087080659
  0
CIRCLE
  5
6B5
330
558
100
AcDbEntity
  8
0
100
AcDbCircle
 10
-222.4898960884602
 20
4250.460527558127
 30
0.0
 40
19.76433087080659
  0
CIRCLE
  5
6B6
330
558
100
AcDbEntity
  8
0
100
AcDbCircle
 10
-347.2875281583838
 20
4250.460527558127
 30
0.0
 40
19.76433087080659
  0
CIRCLE
  5
6B7
330
558
100
AcDbEntity
  8
0
100
AcDbCircle
 10
-472.0851602283219
 20
4250.460527558127
 30
0.0
 40
19.76433087080659
  0
CIRCLE
  5
6B8
330
558
100
AcDbEntity
  8
0
100
AcDbCircle
 10
-596.3180971305119
 20
4250.460527558127
 30
0.0
 40
19.76433087080659
  0
CIRCLE
  5
6B9
330
558
100
AcDbEntity
  8
0
100
AcDbCircle
 10
-720.5510340327018
 20
4250.460527558127
 30
0.0
 40
19.76433087080659
  0
CIRCLE
  5
6BA
330
558
100
AcDbEntity
  8
0
100
AcDbCircle
 10
-844.2192757671582
 20
4250.460527558127
 30
0.0
 40
19.76433087080659
  0
CIRCLE
  5
6BB
330
558
100
AcDbEntity
  8
0
100
AcDbCircle
 10
-967.3228223338664
 20
4250.460527558127
 30
0.0
 40
19.76433087080659
  0
LINE
  5
6BC
330
558
100
AcDbEntity
  8
0
100
AcDbLine
 10
-959.3228223338664
 20
4607.909940099205
 30
0.0
 11
-959.3228223338664
 21
4518.693360869889
 31
0.0
  0
LINE
  5
6BD
330
558
100
AcDbEntity
  8
0
100
AcDbLine
 10
-836.2192757671582
 20
4703.346052083383
 30
0.0
 11
-836.2192757671582
 21
4644.055688107553
 31
0.0
  0
LINE
  5
6BE
330
558
100
AcDbEntity
  8
0
100
AcDbLine
 10
-712.5510340327018
 20
4607.909940099205
 30
0.0
 11
-712.5510340326873
 21
4518.693360869882
 31
0.0
  0
LINE
  5
6BF
330
558
100
AcDbEntity
  8
0
100
AcDbLine
 10
-588.3180971305119
 20
4168.015033068484
 30
0.0
 11
-588.3180971305119
 21
4232.387653553953
 31
0.0
  0
LINE
  5
6C0
330
558
100
AcDbEntity
  8
0
100
AcDbLine
 10
-339.2875281583838
 20
4703.346052083383
 30
0.0
 11
-339.2875281583838
 21
4644.055688107553
 31
0.0
  0
LINE
  5
6C1
330
558
100
AcDbEntity
  8
0
100
AcDbLine
 10
-89.69226401853665
 20
4168.015033068484
 30
0.0
 11
-89.69226401853665
 21
4232.387653553953
 31
0.0
  0
LINE
  5
6C2
330
558
100
AcDbEntity
  8
0
100
AcDbLine
 10
159.3551848797651
 20
4703.34605208339
 30
0.0
 11
159.3551848797651
 21
4644.288379298057
 31
0.0
  0
LINE
  5
6C3
330
558
100
AcDbEntity
  8
0
100
AcDbLine
 10
409.4982642611721
 20
4168.015033068477
 30
0.0
 11
409.4982642611721
 21
4232.387653553953
 31
0.0
  0
LINE
  5
6C4
330
558
100
AcDbEntity
  8
0
100
AcDbLine
 10
657.399442897833
 20
4703.34605208339
 30
0.0
 11
657.399442897833
 21
4644.055688107546
 31
0.0
  0
LINE
  5
6C5
330
558
100
AcDbEntity
  8
0
100
AcDbLine
 10
-1137.673837345529
 20
4242.46052755812
 30
0.0
 11
-1109.063938072489
 21
4242.460527558113
 31
0.0
  0
LINE
  5
6C6
330
558
100
AcDbEntity
  8
0
100
AcDbLine
 10
688.4271255704079
 20
4367.822854795784
 30
0.0
 11
667.4723169019853
 21
4367.822854795784
 31
0.0
  0
LINE
  5
6C7
330
558
100
AcDbEntity
  8
0
100
AcDbLine
 10
-1137.673837345544
 20
4492.620486865722
 30
0.0
 11
-1109.063938072504
 21
4492.620486865729
 31
0.0
  0
LINE
  5
6C8
330
558
100
AcDbEntity
  8
0
100
AcDbLine
 10
688.4271255704079
 20
4617.982814103379
 30
0.0
 11
667.4723169019999
 21
4617.982814103379
 31
0.0
  0
LINE
  5
6C9
330
558
100
AcDbEntity
  8
0
 62
     3
100
AcDbLine
 10
-1137.673837345544
 20
4702.185195537452
 30
0.0
 11
-1137.673837345544
 21
4175.782965301012
 31
0.0
  0
LINE
  5
6CA
330
558
100
AcDbEntity
  8
0
100
AcDbLine
 10
-464.0851602283219
 20
4607.909940099205
 30
0.0
 11
-464.0851602283073
 21
4518.693360869882
 31
0.0
  0
LINE
  5
6CB
330
558
100
AcDbEntity
  8
0
100
AcDbLine
 10
-214.4898960884602
 20
4607.909940099205
 30
0.0
 11
-214.4898960884456
 21
4518.693360869882
 31
0.0
  0
LINE
  5
6CC
330
558
100
AcDbEntity
  8
0
100
AcDbLine
 10
35.1053680513869
 20
4607.909940099205
 30
0.0
 11
35.1053680513869
 21
4518.693360869889
 31
0.0
  0
LINE
  5
6CD
330
558
100
AcDbEntity
  8
0
100
AcDbLine
 10
284.7006321912486
 20
4268.533401562301
 30
0.0
 11
284.7006321912486
 21
4357.749980791617
 31
0.0
  0
LINE
  5
6CE
330
558
100
AcDbEntity
  8
0
100
AcDbLine
 10
533.1665059956285
 20
4607.909940099205
 30
0.0
 11
533.1665059956285
 21
4518.693360869889
 31
0.0
  0
LINE
  5
6CF
330
558
100
AcDbEntity
  8
0
100
AcDbLine
 10
-975.3228223338664
 20
4607.909940099205
 30
0.0
 11
-975.3228223338664
 21
4518.693360869889
 31
0.0
  0
LINE
  5
6D0
330
558
100
AcDbEntity
  8
0
100
AcDbLine
 10
-852.2192757671582
 20
4703.346052083383
 30
0.0
 11
-852.2192757671582
 21
4644.055688107553
 31
0.0
  0
LINE
  5
6D1
330
558
100
AcDbEntity
  8
0
100
AcDbLine
 10
-728.5510340327018
 20
4607.909940099205
 30
0.0
 11
-728.5510340327018
 21
4518.693360869889
 31
0.0
  0
LINE
  5
6D2
330
558
100
AcDbEntity
  8
0
100
AcDbLine
 10
-604.3180971305119
 20
4168.015033068484
 30
0.0
 11
-604.3180971305119
 21
4232.387653553953
 31
0.0
  0
LINE
  5
6D3
330
558
100
AcDbEntity
  8
0
100
AcDbLine
 10
-355.2875281583837
 20
4703.346052083383
 30
0.0
 11
-355.2875281583692
 21
4644.05568810756
 31
0.0
  0
LINE
  5
6D4
330
558
100
AcDbEntity
  8
0
100
AcDbLine
 10
-105.6922640185366
 20
4168.015033068484
 30
0.0
 11
-105.6922640185366
 21
4232.387653553953
 31
0.0
  0
LINE
  5
6D5
330
558
100
AcDbEntity
  8
0
100
AcDbLine
 10
143.3551848797651
 20
4703.34605208339
 30
0.0
 11
143.3551848797651
 21
4643.803129178231
 31
0.0
  0
LINE
  5
6D6
330
558
100
AcDbEntity
  8
0
100
AcDbLine
 10
393.4982642611721
 20
4168.015033068477
 30
0.0
 11
393.4982642611721
 21
4232.387653553953
 31
0.0
  0
LINE
  5
6D7
330
558
100
AcDbEntity
  8
0
100
AcDbLine
 10
641.399442897833
 20
4703.34605208339
 30
0.0
 11
641.3994428978476
 21
4644.05568810756
 31
0.0
  0
LINE
  5
6D8
330
558
100
AcDbEntity
  8
0
100
AcDbLine
 10
-480.0851602283219
 20
4607.909940099205
 30
0.0
 11
-480.0851602283219
 21
4518.693360869889
 31
0.0
  0
LINE
  5
6D9
330
558
100
AcDbEntity
  8
0
100
AcDbLine
 10
-230.4898960884602
 20
4607.909940099205
 30
0.0
 11
-230.4898960884602
 21
4518.693360869889
 31
0.0
  0
LINE
  5
6DA
330
558
100
AcDbEntity
  8
0
100
AcDbLine
 10
19.1053680513869
 20
4607.909940099205
 30
0.0
 11
19.10536805137235
 21
4518.693360869882
 31
0.0
  0
LINE
  5
6DB
330
558
100
AcDbEntity
  8
0
100
AcDbLine
 10
268.700632191234
 20
4268.533401562294
 30
0.0
 11
268.7006321912485
 21
4357.749980791617
 31
0.0
  0
LINE
  5
6DC
330
558
100
AcDbEntity
  8
0
100
AcDbLine
 10
517.1665059956285
 20
4607.909940099205
 30
0.0
 11
517.1665059956285
 21
4518.693360869889
 31
0.0
  0
LINE
  5
6DD
330
558
100
AcDbEntity
  8
0
100
AcDbLine
 10
-1137.673837345529
 20
4258.46052755812
 30
0.0
 11
-1109.063938072504
 21
4258.46052755812
 31
0.0
  0
LINE
  5
6DE
330
558
100
AcDbEntity
  8
0
100
AcDbLine
 10
688.4271255704079
 20
4383.822854795783
 30
0.0
 11
667.4723169019999
 21
4383.822854795783
 31
0.0
  0
LINE
  5
6DF
330
558
100
AcDbEntity
  8
0
100
AcDbLine
 10
-1137.673837345544
 20
4508.620486865715
 30
0.0
 11
-1109.063938072489
 21
4508.620486865715
 31
0.0
  0
LINE
  5
6E0
330
558
100
AcDbEntity
  8
0
100
AcDbLine
 10
688.4271255704079
 20
4633.982814103379
 30
0.0
 11
667.4723169019853
 21
4633.982814103379
 31
0.0
  0
LINE
  5
6E1
330
558
100
AcDbEntity
  8
0
100
AcDbLine
 10
-985.3956963380333
 20
4633.982814103379
 30
0.0
 11
-1072.918190064156
 21
4633.982814103379
 31
0.0
  0
LINE
  5
6E2
330
558
100
AcDbEntity
  8
0
100
AcDbLine
 10
-985.3956963380333
 20
4617.982814103379
 30
0.0
 11
-1072.918190064156
 21
4617.982814103379
 31
0.0
  0
LINE
  5
6E3
330
558
100
AcDbEntity
  8
0
100
AcDbLine
 10
-852.2192757671582
 20
4607.909940099205
 30
0.0
 11
-852.2192757671728
 21
4518.693360869882
 31
0.0
  0
LINE
  5
6E4
330
558
100
AcDbEntity
  8
0
100
AcDbLine
 10
-862.2921497713395
 20
4633.982814103379
 30
0.0
 11
-949.2499483296997
 21
4633.982814103379
 31
0.0
  0
LINE
  5
6E5
330
558
100
AcDbEntity
  8
0
100
AcDbLine
 10
-836.2192757671582
 20
4607.909940099205
 30
0.0
 11
-836.2192757671728
 21
4518.693360869889
 31
0.0
  0
LINE
  5
6E6
330
558
100
AcDbEntity
  8
0
100
AcDbLine
 10
-862.2921497713395
 20
4617.982814103379
 30
0.0
 11
-949.2499483296997
 21
4617.982814103379
 31
0.0
  0
LINE
  5
6E7
330
558
100
AcDbEntity
  8
0
100
AcDbLine
 10
-738.6239080368832
 20
4633.982814103371
 30
0.0
 11
-826.1464017629769
 21
4633.982814103379
 31
0.0
  0
LINE
  5
6E8
330
558
100
AcDbEntity
  8
0
100
AcDbLine
 10
-738.6239080368686
 20
4617.982814103372
 30
0.0
 11
-826.1464017629769
 21
4617.982814103379
 31
0.0
  0
LINE
  5
6E9
330
558
100
AcDbEntity
  8
0
100
AcDbLine
 10
-614.3909711346786
 20
4617.982814103372
 30
0.0
 11
-702.4781600285351
 21
4617.982814103372
 31
0.0
  0
LINE
  5
6EA
330
558
100
AcDbEntity
  8
0
100
AcDbLine
 10
-588.3180971305264
 20
4644.05568810756
 30
0.0
 11
-588.3180971305264
 21
4703.34605208339
 31
0.0
  0
LINE
  5
6EB
330
558
100
AcDbEntity
  8
0
100
AcDbLine
 10
-614.3909711346932
 20
4633.982814103364
 30
0.0
 11
-702.4781600285205
 21
4633.982814103371
 31
0.0
  0
LINE
  5
6EC
330
558
100
AcDbEntity
  8
0
100
AcDbLine
 10
-604.3180971305264
 20
4644.055688107546
 30
0.0
 11
-604.3180971305264
 21
4703.34605208339
 31
0.0
  0
LINE
  5
6ED
330
558
100
AcDbEntity
  8
0
100
AcDbLine
 10
-490.1580342324887
 20
4617.982814103365
 30
0.0
 11
-578.2452231263451
 21
4617.982814103372
 31
0.0
  0
LINE
  5
6EE
330
558
100
AcDbEntity
  8
0
100
AcDbLine
 10
-490.1580342325032
 20
4633.982814103364
 30
0.0
 11
-578.2452231263305
 21
4633.982814103364
 31
0.0
  0
LINE
  5
6EF
330
558
100
AcDbEntity
  8
0
100
AcDbLine
 10
-365.3604021625651
 20
4633.982814103357
 30
0.0
 11
-454.0122862241405
 21
4633.982814103364
 31
0.0
  0
LINE
  5
6F0
330
558
100
AcDbEntity
  8
0
100
AcDbLine
 10
-339.2875281583838
 20
4607.909940099205
 30
0.0
 11
-339.2875281583692
 21
4518.693360869882
 31
0.0
  0
LINE
  5
6F1
330
558
100
AcDbEntity
  8
0
100
AcDbLine
 10
-355.2875281583692
 20
4607.909940099198
 30
0.0
 11
-355.2875281583692
 21
4518.693360869889
 31
0.0
  0
LINE
  5
6F2
330
558
100
AcDbEntity
  8
0
100
AcDbLine
 10
-365.3604021625505
 20
4617.982814103365
 30
0.0
 11
-454.0122862241551
 21
4617.982814103365
 31
0.0
  0
LINE
  5
6F3
330
558
100
AcDbEntity
  8
0
100
AcDbLine
 10
-240.5627700926415
 20
4633.982814103364
 30
0.0
 11
-329.2146541542024
 21
4633.982814103364
 31
0.0
  0
LINE
  5
6F4
330
558
100
AcDbEntity
  8
0
100
AcDbLine
 10
-240.562770092627
 20
4617.982814103357
 30
0.0
 11
-329.214654154217
 21
4617.982814103365
 31
0.0
  0
LINE
  5
6F5
330
558
100
AcDbEntity
  8
0
100
AcDbLine
 10
-115.765138022718
 20
4633.982814103357
 30
0.0
 11
-204.4170220842788
 21
4633.982814103364
 31
0.0
  0
LINE
  5
6F6
330
558
100
AcDbEntity
  8
0
100
AcDbLine
 10
-89.69226401855122
 20
4644.05568810756
 30
0.0
 11
-89.69226401855122
 21
4703.34605208339
 31
0.0
  0
LINE
  5
6F7
330
558
100
AcDbEntity
  8
0
100
AcDbLine
 10
-105.6922640185512
 20
4644.055688107546
 30
0.0
 11
-105.6922640185512
 21
4703.34605208339
 31
0.0
  0
LINE
  5
6F8
330
558
100
AcDbEntity
  8
0
100
AcDbLine
 10
-115.7651380227034
 20
4617.982814103365
 30
0.0
 11
-204.4170220842934
 21
4617.982814103357
 31
0.0
  0
LINE
  5
6F9
330
558
100
AcDbEntity
  8
0
100
AcDbLine
 10
9.032494047205545
 20
4633.982814103357
 30
0.0
 11
-79.6193900143553
 21
4633.982814103357
 31
0.0
  0
LINE
  5
6FA
330
558
100
AcDbEntity
  8
0
100
AcDbLine
 10
9.032494047220097
 20
4617.982814103357
 30
0.0
 11
-79.61939001436985
 21
4617.982814103365
 31
0.0
  0
LINE
  5
6FB
330
558
100
AcDbEntity
  8
0
100
AcDbLine
 10
133.8301261171436
 20
4633.98281410335
 30
0.0
 11
45.17824205556826
 21
4633.982814103364
 31
0.0
  0
LINE
  5
6FC
330
558
100
AcDbEntity
  8
0
100
AcDbLine
 10
159.3551848797651
 20
4607.677248908702
 30
0.0
 11
159.3551848797505
 21
4518.926052060407
 31
0.0
  0
LINE
  5
6FD
330
558
100
AcDbEntity
  8
0
100
AcDbLine
 10
133.8301261171582
 20
4617.982814103372
 30
0.0
 11
45.17824205555371
 21
4617.982814103357
 31
0.0
  0
LINE
  5
6FE
330
558
100
AcDbEntity
  8
0
100
AcDbLine
 10
143.3551848797651
 20
4608.162499028527
 30
0.0
 11
143.355184879736
 21
4518.440801940545
 31
0.0
  0
LINE
  5
6FF
330
558
100
AcDbEntity
  8
0
100
AcDbLine
 10
258.6277581870672
 20
4633.982814103357
 30
0.0
 11
169.9758741255063
 21
4633.982814103357
 31
0.0
  0
LINE
  5
700
330
558
100
AcDbEntity
  8
0
100
AcDbLine
 10
258.6277581870817
 20
4617.982814103372
 30
0.0
 11
169.9758741254918
 21
4617.982814103372
 31
0.0
  0
LINE
  5
701
330
558
100
AcDbEntity
  8
0
100
AcDbLine
 10
383.4253902570053
 20
4617.982814103379
 30
0.0
 11
294.7735061954153
 21
4617.982814103372
 31
0.0
  0
LINE
  5
702
330
558
100
AcDbEntity
  8
0
100
AcDbLine
 10
409.4982642611721
 20
4644.055688107553
 30
0.0
 11
409.4982642611721
 21
4703.34605208339
 31
0.0
  0
LINE
  5
703
330
558
100
AcDbEntity
  8
0
100
AcDbLine
 10
393.4982642611721
 20
4644.055688107553
 30
0.0
 11
393.4982642611721
 21
4703.34605208339
 31
0.0
  0
LINE
  5
704
330
558
100
AcDbEntity
  8
0
100
AcDbLine
 10
383.4253902569908
 20
4633.982814103364
 30
0.0
 11
294.7735061954299
 21
4633.982814103357
 31
0.0
  0
LINE
  5
705
330
558
100
AcDbEntity
  8
0
100
AcDbLine
 10
507.0936319914472
 20
4633.982814103371
 30
0.0
 11
419.5711382653534
 21
4633.982814103364
 31
0.0
  0
LINE
  5
706
330
558
100
AcDbEntity
  8
0
100
AcDbLine
 10
507.0936319914617
 20
4617.982814103379
 30
0.0
 11
419.571138265339
 21
4617.982814103379
 31
0.0
  0
LINE
  5
707
330
558
100
AcDbEntity
  8
0
100
AcDbLine
 10
631.3265688936371
 20
4633.982814103379
 30
0.0
 11
543.2393799998099
 21
4633.982814103371
 31
0.0
  0
LINE
  5
708
330
558
100
AcDbEntity
  8
0
100
AcDbLine
 10
657.399442897833
 20
4607.909940099212
 30
0.0
 11
657.399442897833
 21
4518.693360869882
 31
0.0
  0
LINE
  5
709
330
558
100
AcDbEntity
  8
0
100
AcDbLine
 10
641.3994428978476
 20
4607.909940099198
 30
0.0
 11
641.3994428978476
 21
4518.693360869903
 31
0.0
  0
LINE
  5
70A
330
558
100
AcDbEntity
  8
0
100
AcDbLine
 10
631.3265688936371
 20
4617.982814103379
 30
0.0
 11
543.2393799997953
 21
4617.982814103379
 31
0.0
  0
LINE
  5
70B
330
558
100
AcDbEntity
  8
0
100
AcDbLine
 10
667.4723169019999
 20
4508.620486865701
 30
0.0
 11
688.4271255704079
 21
4508.620486865708
 31
0.0
  0
LINE
  5
70C
330
558
100
AcDbEntity
  8
0
100
AcDbLine
 10
657.399442897833
 20
4482.547612861548
 30
0.0
 11
657.399442897833
 21
4393.895728799958
 31
0.0
  0
LINE
  5
70D
330
558
100
AcDbEntity
  8
0
100
AcDbLine
 10
641.3994428978476
 20
4482.547612861526
 30
0.0
 11
641.3994428978476
 21
4393.895728799972
 31
0.0
  0
LINE
  5
70E
330
558
100
AcDbEntity
  8
0
100
AcDbLine
 10
667.4723169019853
 20
4492.6204868657
 30
0.0
 11
688.4271255704079
 21
4492.620486865708
 31
0.0
  0
LINE
  5
70F
330
558
100
AcDbEntity
  8
0
100
AcDbLine
 10
543.2393799998099
 20
4508.620486865701
 30
0.0
 11
631.3265688936371
 21
4508.620486865701
 31
0.0
  0
LINE
  5
710
330
558
100
AcDbEntity
  8
0
100
AcDbLine
 10
533.1665059956285
 20
4482.547612861541
 30
0.0
 11
533.1665059956431
 21
4393.895728799958
 31
0.0
  0
LINE
  5
711
330
558
100
AcDbEntity
  8
0
100
AcDbLine
 10
517.1665059956285
 20
4482.547612861541
 30
0.0
 11
517.1665059956285
 21
4393.895728799965
 31
0.0
  0
LINE
  5
712
330
558
100
AcDbEntity
  8
0
100
AcDbLine
 10
543.2393799997953
 20
4492.620486865693
 30
0.0
 11
631.3265688936517
 21
4492.6204868657
 31
0.0
  0
LINE
  5
713
330
558
100
AcDbEntity
  8
0
100
AcDbLine
 10
409.4982642611866
 20
4518.693360869882
 30
0.0
 11
409.4982642611721
 21
4607.909940099205
 31
0.0
  0
LINE
  5
714
330
558
100
AcDbEntity
  8
0
100
AcDbLine
 10
419.5711382653534
 20
4508.620486865708
 30
0.0
 11
507.0936319914472
 21
4508.620486865701
 31
0.0
  0
LINE
  5
715
330
558
100
AcDbEntity
  8
0
100
AcDbLine
 10
393.4982642611867
 20
4518.693360869889
 30
0.0
 11
393.4982642611721
 21
4607.909940099205
 31
0.0
  0
LINE
  5
716
330
558
100
AcDbEntity
  8
0
100
AcDbLine
 10
419.571138265339
 20
4492.620486865693
 30
0.0
 11
507.0936319914617
 21
4492.620486865693
 31
0.0
  0
LINE
  5
717
330
558
100
AcDbEntity
  8
0
100
AcDbLine
 10
294.7735061954299
 20
4508.620486865701
 30
0.0
 11
383.4253902569908
 21
4508.620486865708
 31
0.0
  0
LINE
  5
718
330
558
100
AcDbEntity
  8
0
100
AcDbLine
 10
268.700632191234
 20
4518.693360869882
 30
0.0
 11
268.7006321912485
 21
4607.909940099205
 31
0.0
  0
LINE
  5
719
330
558
100
AcDbEntity
  8
0
100
AcDbLine
 10
284.7006321912486
 20
4518.693360869889
 30
0.0
 11
284.7006321912486
 21
4607.909940099205
 31
0.0
  0
LINE
  5
71A
330
558
100
AcDbEntity
  8
0
100
AcDbLine
 10
294.7735061954153
 20
4492.6204868657
 30
0.0
 11
383.4253902570053
 21
4492.620486865693
 31
0.0
  0
LINE
  5
71B
330
558
100
AcDbEntity
  8
0
100
AcDbLine
 10
169.9758741254918
 20
4492.620486865708
 30
0.0
 11
258.6277581870817
 21
4492.6204868657
 31
0.0
  0
LINE
  5
71C
330
558
100
AcDbEntity
  8
0
100
AcDbLine
 10
143.355184879736
 20
4482.800171790884
 30
0.0
 11
143.355184879736
 21
4393.643169870629
 31
0.0
  0
LINE
  5
71D
330
558
100
AcDbEntity
  8
0
100
AcDbLine
 10
169.9758741255063
 20
4508.620486865708
 30
0.0
 11
258.6277581870672
 21
4508.620486865701
 31
0.0
  0
LINE
  5
71E
330
558
100
AcDbEntity
  8
0
100
AcDbLine
 10
159.3551848797505
 20
4482.314921671022
 30
0.0
 11
159.3551848797505
 21
4394.128419990484
 31
0.0
  0
LINE
  5
71F
330
558
100
AcDbEntity
  8
0
100
AcDbLine
 10
35.1053680513869
 20
4482.547612861541
 30
0.0
 11
35.1053680513869
 21
4393.895728799965
 31
0.0
  0
LINE
  5
720
330
558
100
AcDbEntity
  8
0
100
AcDbLine
 10
45.17824205556826
 20
4508.620486865708
 30
0.0
 11
133.8301261171436
 21
4508.620486865708
 31
0.0
  0
LINE
  5
721
330
558
100
AcDbEntity
  8
0
100
AcDbLine
 10
19.10536805137235
 20
4482.547612861548
 30
0.0
 11
19.1053680513869
 21
4393.895728799965
 31
0.0
  0
LINE
  5
722
330
558
100
AcDbEntity
  8
0
100
AcDbLine
 10
45.17824205555371
 20
4492.6204868657
 30
0.0
 11
133.8301261171582
 21
4492.620486865708
 31
0.0
  0
LINE
  5
723
330
558
100
AcDbEntity
  8
0
100
AcDbLine
 10
-79.61939001436985
 20
4492.6204868657
 30
0.0
 11
9.032494047220097
 21
4492.6204868657
 31
0.0
  0
LINE
  5
724
330
558
100
AcDbEntity
  8
0
100
AcDbLine
 10
-89.6922640185221
 20
4518.693360869882
 30
0.0
 11
-89.69226401855122
 21
4607.909940099198
 31
0.0
  0
LINE
  5
725
330
558
100
AcDbEntity
  8
0
100
AcDbLine
 10
-79.6193900143553
 20
4508.620486865715
 30
0.0
 11
9.032494047205545
 21
4508.620486865708
 31
0.0
  0
LINE
  5
726
330
558
100
AcDbEntity
  8
0
100
AcDbLine
 10
-105.6922640185221
 20
4518.693360869889
 30
0.0
 11
-105.6922640185512
 21
4607.909940099212
 31
0.0
  0
LINE
  5
727
330
558
100
AcDbEntity
  8
0
100
AcDbLine
 10
-204.4170220842934
 20
4492.6204868657
 30
0.0
 11
-115.7651380227034
 21
4492.6204868657
 31
0.0
  0
LINE
  5
728
330
558
100
AcDbEntity
  8
0
100
AcDbLine
 10
-214.4898960884456
 20
4482.547612861548
 30
0.0
 11
-214.4898960884602
 21
4393.895728799965
 31
0.0
  0
LINE
  5
729
330
558
100
AcDbEntity
  8
0
100
AcDbLine
 10
-204.4170220842934
 20
4508.620486865715
 30
0.0
 11
-115.765138022718
 21
4508.620486865715
 31
0.0
  0
LINE
  5
72A
330
558
100
AcDbEntity
  8
0
100
AcDbLine
 10
-230.4898960884602
 20
4482.547612861541
 30
0.0
 11
-230.4898960884602
 21
4393.895728799965
 31
0.0
  0
LINE
  5
72B
330
558
100
AcDbEntity
  8
0
100
AcDbLine
 10
-339.2875281583692
 20
4482.547612861548
 30
0.0
 11
-339.2875281583838
 21
4393.895728799965
 31
0.0
  0
LINE
  5
72C
330
558
100
AcDbEntity
  8
0
100
AcDbLine
 10
-329.214654154217
 20
4492.6204868657
 30
0.0
 11
-240.562770092627
 21
4492.6204868657
 31
0.0
  0
LINE
  5
72D
330
558
100
AcDbEntity
  8
0
100
AcDbLine
 10
-329.214654154217
 20
4508.620486865715
 30
0.0
 11
-240.562770092627
 21
4508.620486865715
 31
0.0
  0
LINE
  5
72E
330
558
100
AcDbEntity
  8
0
100
AcDbLine
 10
-355.2875281583692
 20
4482.547612861541
 30
0.0
 11
-355.2875281583837
 21
4393.895728799965
 31
0.0
  0
LINE
  5
72F
330
558
100
AcDbEntity
  8
0
100
AcDbLine
 10
-464.0851602283073
 20
4482.547612861548
 30
0.0
 11
-464.0851602283219
 21
4393.895728799965
 31
0.0
  0
LINE
  5
730
330
558
100
AcDbEntity
  8
0
100
AcDbLine
 10
-454.0122862241551
 20
4492.620486865708
 30
0.0
 11
-365.3604021625505
 21
4492.6204868657
 31
0.0
  0
LINE
  5
731
330
558
100
AcDbEntity
  8
0
100
AcDbLine
 10
-480.0851602283219
 20
4482.547612861541
 30
0.0
 11
-480.0851602283219
 21
4393.895728799965
 31
0.0
  0
LINE
  5
732
330
558
100
AcDbEntity
  8
0
100
AcDbLine
 10
-454.0122862241551
 20
4508.620486865722
 30
0.0
 11
-365.3604021625505
 21
4508.620486865715
 31
0.0
  0
LINE
  5
733
330
558
100
AcDbEntity
  8
0
100
AcDbLine
 10
-588.3180971304973
 20
4518.693360869882
 30
0.0
 11
-588.3180971305264
 21
4607.909940099198
 31
0.0
  0
LINE
  5
734
330
558
100
AcDbEntity
  8
0
100
AcDbLine
 10
-578.2452231263451
 20
4492.6204868657
 30
0.0
 11
-490.1580342324887
 21
4492.620486865708
 31
0.0
  0
LINE
  5
735
330
558
100
AcDbEntity
  8
0
100
AcDbLine
 10
-578.2452231263451
 20
4508.620486865729
 30
0.0
 11
-490.1580342324887
 21
4508.620486865722
 31
0.0
  0
LINE
  5
736
330
558
100
AcDbEntity
  8
0
100
AcDbLine
 10
-604.3180971304973
 20
4518.693360869889
 30
0.0
 11
-604.3180971305264
 21
4607.909940099212
 31
0.0
  0
LINE
  5
737
330
558
100
AcDbEntity
  8
0
100
AcDbLine
 10
-702.4781600285351
 20
4508.620486865729
 30
0.0
 11
-614.3909711346786
 21
4508.620486865729
 31
0.0
  0
LINE
  5
738
330
558
100
AcDbEntity
  8
0
100
AcDbLine
 10
-728.5510340327018
 20
4482.547612861541
 30
0.0
 11
-728.5510340327018
 21
4393.895728799965
 31
0.0
  0
LINE
  5
739
330
558
100
AcDbEntity
  8
0
100
AcDbLine
 10
-712.5510340326873
 20
4482.547612861548
 30
0.0
 11
-712.5510340327018
 21
4393.895728799965
 31
0.0
  0
LINE
  5
73A
330
558
100
AcDbEntity
  8
0
100
AcDbLine
 10
-702.4781600285351
 20
4492.620486865693
 30
0.0
 11
-614.3909711346786
 21
4492.6204868657
 31
0.0
  0
LINE
  5
73B
330
558
100
AcDbEntity
  8
0
100
AcDbLine
 10
-826.1464017629915
 20
4508.620486865729
 30
0.0
 11
-738.6239080368686
 21
4508.620486865729
 31
0.0
  0
LINE
  5
73C
330
558
100
AcDbEntity
  8
0
100
AcDbLine
 10
-852.2192757671728
 20
4482.547612861548
 30
0.0
 11
-852.2192757671582
 21
4393.895728799965
 31
0.0
  0
LINE
  5
73D
330
558
100
AcDbEntity
  8
0
100
AcDbLine
 10
-836.2192757671728
 20
4482.547612861541
 30
0.0
 11
-836.2192757671728
 21
4393.895728799972
 31
0.0
  0
LINE
  5
73E
330
558
100
AcDbEntity
  8
0
100
AcDbLine
 10
-826.1464017629915
 20
4492.620486865693
 30
0.0
 11
-738.6239080368686
 21
4492.620486865693
 31
0.0
  0
LINE
  5
73F
330
558
100
AcDbEntity
  8
0
100
AcDbLine
 10
-949.2499483296997
 20
4508.620486865722
 30
0.0
 11
-862.292149771325
 21
4508.620486865722
 31
0.0
  0
LINE
  5
740
330
558
100
AcDbEntity
  8
0
100
AcDbLine
 10
-949.2499483296997
 20
4492.620486865693
 30
0.0
 11
-862.292149771325
 21
4492.620486865693
 31
0.0
  0
LINE
  5
741
330
558
100
AcDbEntity
  8
0
100
AcDbLine
 10
-975.3228223338664
 20
4482.547612861541
 30
0.0
 11
-975.3228223338664
 21
4393.895728799965
 31
0.0
  0
LINE
  5
742
330
558
100
AcDbEntity
  8
0
100
AcDbLine
 10
-959.3228223338664
 20
4482.547612861541
 30
0.0
 11
-959.3228223338664
 21
4393.895728799965
 31
0.0
  0
LINE
  5
743
330
558
100
AcDbEntity
  8
0
100
AcDbLine
 10
-985.3956963380333
 20
4383.822854795798
 30
0.0
 11
-1072.918190064156
 21
4383.822854795806
 31
0.0
  0
LINE
  5
744
330
558
100
AcDbEntity
  8
0
100
AcDbLine
 10
-975.3228223338664
 20
4357.749980791617
 30
0.0
 11
-975.3228223338664
 21
4268.533401562301
 31
0.0
  0
LINE
  5
745
330
558
100
AcDbEntity
  8
0
100
AcDbLine
 10
-959.3228223338664
 20
4357.749980791617
 30
0.0
 11
-959.3228223338664
 21
4268.533401562301
 31
0.0
  0
LINE
  5
746
330
558
100
AcDbEntity
  8
0
100
AcDbLine
 10
-985.3956963380479
 20
4367.822854795798
 30
0.0
 11
-1072.918190064156
 21
4367.822854795791
 31
0.0
  0
LINE
  5
747
330
558
100
AcDbEntity
  8
0
100
AcDbLine
 10
-862.292149771325
 20
4383.822854795806
 30
0.0
 11
-949.2499483296997
 21
4383.822854795798
 31
0.0
  0
LINE
  5
748
330
558
100
AcDbEntity
  8
0
100
AcDbLine
 10
-852.2192757671582
 20
4357.749980791617
 30
0.0
 11
-852.2192757671582
 21
4268.533401562301
 31
0.0
  0
LINE
  5
749
330
558
100
AcDbEntity
  8
0
100
AcDbLine
 10
-836.2192757671728
 20
4357.749980791617
 30
0.0
 11
-836.2192757671582
 21
4268.533401562301
 31
0.0
  0
LINE
  5
74A
330
558
100
AcDbEntity
  8
0
100
AcDbLine
 10
-862.2921497713395
 20
4367.822854795806
 30
0.0
 11
-949.2499483296851
 21
4367.822854795798
 31
0.0
  0
LINE
  5
74B
330
558
100
AcDbEntity
  8
0
100
AcDbLine
 10
-738.6239080368686
 20
4383.822854795806
 30
0.0
 11
-826.1464017629915
 21
4383.822854795806
 31
0.0
  0
LINE
  5
74C
330
558
100
AcDbEntity
  8
0
100
AcDbLine
 10
-728.5510340327018
 20
4357.749980791617
 30
0.0
 11
-728.5510340327018
 21
4268.533401562301
 31
0.0
  0
LINE
  5
74D
330
558
100
AcDbEntity
  8
0
100
AcDbLine
 10
-712.5510340327018
 20
4357.749980791617
 30
0.0
 11
-712.5510340327018
 21
4268.533401562301
 31
0.0
  0
LINE
  5
74E
330
558
100
AcDbEntity
  8
0
100
AcDbLine
 10
-738.6239080368832
 20
4367.822854795798
 30
0.0
 11
-826.1464017629769
 21
4367.822854795806
 31
0.0
  0
LINE
  5
74F
330
558
100
AcDbEntity
  8
0
100
AcDbLine
 10
-614.3909711346786
 20
4383.822854795813
 30
0.0
 11
-702.4781600285351
 21
4383.822854795806
 31
0.0
  0
LINE
  5
750
330
558
100
AcDbEntity
  8
0
100
AcDbLine
 10
-604.3180971304973
 20
4393.895728799972
 30
0.0
 11
-604.3180971304973
 21
4482.547612861541
 31
0.0
  0
LINE
  5
751
330
558
100
AcDbEntity
  8
0
100
AcDbLine
 10
-588.3180971304973
 20
4393.895728799958
 30
0.0
 11
-588.3180971304973
 21
4482.547612861548
 31
0.0
  0
LINE
  5
752
330
558
100
AcDbEntity
  8
0
100
AcDbLine
 10
-614.3909711346786
 20
4367.822854795791
 30
0.0
 11
-702.4781600285205
 21
4367.822854795798
 31
0.0
  0
LINE
  5
753
330
558
100
AcDbEntity
  8
0
100
AcDbLine
 10
-490.1580342324741
 20
4383.822854795828
 30
0.0
 11
-578.2452231263451
 21
4383.822854795813
 31
0.0
  0
LINE
  5
754
330
558
100
AcDbEntity
  8
0
100
AcDbLine
 10
-480.0851602283219
 20
4357.749980791617
 30
0.0
 11
-480.0851602283219
 21
4268.533401562294
 31
0.0
  0
LINE
  5
755
330
558
100
AcDbEntity
  8
0
100
AcDbLine
 10
-464.0851602283219
 20
4357.749980791617
 30
0.0
 11
-464.0851602283219
 21
4268.533401562301
 31
0.0
  0
LINE
  5
756
330
558
100
AcDbEntity
  8
0
100
AcDbLine
 10
-490.1580342325032
 20
4367.822854795806
 30
0.0
 11
-578.2452231263451
 21
4367.822854795791
 31
0.0
  0
LINE
  5
757
330
558
100
AcDbEntity
  8
0
100
AcDbLine
 10
-365.360402162536
 20
4383.822854795828
 30
0.0
 11
-454.0122862241696
 21
4383.822854795828
 31
0.0
  0
LINE
  5
758
330
558
100
AcDbEntity
  8
0
100
AcDbLine
 10
-355.2875281583837
 20
4357.749980791617
 30
0.0
 11
-355.2875281583837
 21
4268.533401562301
 31
0.0
  0
LINE
  5
759
330
558
100
AcDbEntity
  8
0
100
AcDbLine
 10
-339.2875281583838
 20
4357.749980791617
 30
0.0
 11
-339.2875281583838
 21
4268.533401562301
 31
0.0
  0
LINE
  5
75A
330
558
100
AcDbEntity
  8
0
100
AcDbLine
 10
-365.3604021625651
 20
4367.822854795806
 30
0.0
 11
-454.0122862241405
 21
4367.822854795806
 31
0.0
  0
LINE
  5
75B
330
558
100
AcDbEntity
  8
0
100
AcDbLine
 10
-214.4898960884602
 20
4357.749980791617
 30
0.0
 11
-214.4898960884602
 21
4268.533401562301
 31
0.0
  0
LINE
  5
75C
330
558
100
AcDbEntity
  8
0
100
AcDbLine
 10
-240.5627700926124
 20
4383.822854795828
 30
0.0
 11
-329.2146541542315
 21
4383.822854795828
 31
0.0
  0
LINE
  5
75D
330
558
100
AcDbEntity
  8
0
100
AcDbLine
 10
-230.4898960884602
 20
4357.749980791617
 30
0.0
 11
-230.4898960884602
 21
4268.533401562301
 31
0.0
  0
LINE
  5
75E
330
558
100
AcDbEntity
  8
0
100
AcDbLine
 10
-240.5627700926415
 20
4367.822854795798
 30
0.0
 11
-329.2146541542024
 21
4367.822854795806
 31
0.0
  0
LINE
  5
75F
330
558
100
AcDbEntity
  8
0
100
AcDbLine
 10
-115.7651380227034
 20
4383.822854795821
 30
0.0
 11
-204.4170220843079
 21
4383.822854795828
 31
0.0
  0
LINE
  5
760
330
558
100
AcDbEntity
  8
0
100
AcDbLine
 10
-105.6922640185075
 20
4393.895728799972
 30
0.0
 11
-105.6922640185221
 21
4482.547612861541
 31
0.0
  0
LINE
  5
761
330
558
100
AcDbEntity
  8
0
100
AcDbLine
 10
-115.765138022718
 20
4367.822854795798
 30
0.0
 11
-204.4170220842788
 21
4367.822854795798
 31
0.0
  0
LINE
  5
762
330
558
100
AcDbEntity
  8
0
100
AcDbLine
 10
-89.6922640185221
 20
4393.895728799958
 30
0.0
 11
-89.6922640185221
 21
4482.547612861548
 31
0.0
  0
LINE
  5
763
330
558
100
AcDbEntity
  8
0
100
AcDbLine
 10
35.1053680513869
 20
4357.749980791617
 30
0.0
 11
35.1053680513869
 21
4268.533401562301
 31
0.0
  0
LINE
  5
764
330
558
100
AcDbEntity
  8
0
100
AcDbLine
 10
19.1053680513869
 20
4357.749980791617
 30
0.0
 11
19.1053680513869
 21
4268.533401562301
 31
0.0
  0
LINE
  5
765
330
558
100
AcDbEntity
  8
0
100
AcDbLine
 10
9.032494047205545
 20
4367.822854795798
 30
0.0
 11
-79.6193900143553
 21
4367.822854795791
 31
0.0
  0
LINE
  5
766
330
558
100
AcDbEntity
  8
0
100
AcDbLine
 10
9.032494047234649
 20
4383.822854795821
 30
0.0
 11
-79.61939001436985
 21
4383.822854795821
 31
0.0
  0
LINE
  5
767
330
558
100
AcDbEntity
  8
0
100
AcDbLine
 10
159.3551848797505
 20
4357.517289601099
 30
0.0
 11
159.3551848797651
 21
4268.766092752811
 31
0.0
  0
LINE
  5
768
330
558
100
AcDbEntity
  8
0
100
AcDbLine
 10
133.8301261171727
 20
4383.822854795828
 30
0.0
 11
45.17824205555371
 21
4383.822854795821
 31
0.0
  0
LINE
  5
769
330
558
100
AcDbEntity
  8
0
100
AcDbLine
 10
133.8301261171436
 20
4367.822854795806
 30
0.0
 11
45.17824205556826
 21
4367.822854795798
 31
0.0
  0
LINE
  5
76A
330
558
100
AcDbEntity
  8
0
100
AcDbLine
 10
143.3551848797506
 20
4358.002539720954
 30
0.0
 11
143.3551848797506
 21
4268.280842632972
 31
0.0
  0
LINE
  5
76B
330
558
100
AcDbEntity
  8
0
100
AcDbLine
 10
258.6277581870817
 20
4383.822854795813
 30
0.0
 11
169.9758741254772
 21
4383.822854795821
 31
0.0
  0
LINE
  5
76C
330
558
100
AcDbEntity
  8
0
100
AcDbLine
 10
284.7006321912486
 20
4393.895728799965
 30
0.0
 11
284.7006321912486
 21
4482.547612861541
 31
0.0
  0
LINE
  5
76D
330
558
100
AcDbEntity
  8
0
100
AcDbLine
 10
268.7006321912485
 20
4393.895728799965
 30
0.0
 11
268.700632191234
 21
4482.547612861548
 31
0.0
  0
LINE
  5
76E
330
558
100
AcDbEntity
  8
0
100
AcDbLine
 10
258.6277581870672
 20
4367.822854795806
 30
0.0
 11
169.9758741255063
 21
4367.822854795806
 31
0.0
  0
LINE
  5
76F
330
558
100
AcDbEntity
  8
0
100
AcDbLine
 10
383.4253902570053
 20
4383.822854795806
 30
0.0
 11
294.7735061954153
 21
4383.822854795813
 31
0.0
  0
LINE
  5
770
330
558
100
AcDbEntity
  8
0
100
AcDbLine
 10
393.4982642612012
 20
4393.895728799972
 30
0.0
 11
393.4982642611867
 21
4482.547612861541
 31
0.0
  0
LINE
  5
771
330
558
100
AcDbEntity
  8
0
100
AcDbLine
 10
409.4982642611866
 20
4393.895728799958
 30
0.0
 11
409.4982642611866
 21
4482.547612861548
 31
0.0
  0
LINE
  5
772
330
558
100
AcDbEntity
  8
0
100
AcDbLine
 10
383.4253902569908
 20
4367.822854795798
 30
0.0
 11
294.7735061954299
 21
4367.822854795806
 31
0.0
  0
LINE
  5
773
330
558
100
AcDbEntity
  8
0
100
AcDbLine
 10
507.0936319914617
 20
4383.822854795791
 30
0.0
 11
419.571138265339
 21
4383.822854795798
 31
0.0
  0
LINE
  5
774
330
558
100
AcDbEntity
  8
0
100
AcDbLine
 10
507.0936319914617
 20
4367.822854795791
 30
0.0
 11
419.5711382653534
 21
4367.822854795798
 31
0.0
  0
LINE
  5
775
330
558
100
AcDbEntity
  8
0
100
AcDbLine
 10
533.1665059956431
 20
4357.749980791624
 30
0.0
 11
533.1665059956431
 21
4268.533401562294
 31
0.0
  0
LINE
  5
776
330
558
100
AcDbEntity
  8
0
100
AcDbLine
 10
517.1665059956285
 20
4357.749980791617
 30
0.0
 11
517.1665059956285
 21
4268.533401562301
 31
0.0
  0
LINE
  5
777
330
558
100
AcDbEntity
  8
0
100
AcDbLine
 10
631.3265688936371
 20
4383.822854795783
 30
0.0
 11
543.2393799997953
 21
4383.822854795791
 31
0.0
  0
LINE
  5
778
330
558
100
AcDbEntity
  8
0
100
AcDbLine
 10
641.399442897833
 20
4357.74998079161
 30
0.0
 11
641.399442897833
 21
4268.533401562308
 31
0.0
  0
LINE
  5
779
330
558
100
AcDbEntity
  8
0
100
AcDbLine
 10
657.399442897833
 20
4357.749980791624
 30
0.0
 11
657.399442897833
 21
4268.533401562294
 31
0.0
  0
LINE
  5
77A
330
558
100
AcDbEntity
  8
0
100
AcDbLine
 10
631.3265688936517
 20
4367.822854795784
 30
0.0
 11
543.2393799997953
 21
4367.822854795791
 31
0.0
  0
LINE
  5
77B
330
558
100
AcDbEntity
  8
0
100
AcDbLine
 10
657.399442897833
 20
4232.38765355396
 30
0.0
 11
657.399442897833
 21
4168.015033068477
 31
0.0
  0
LINE
  5
77C
330
558
100
AcDbEntity
  8
0
100
AcDbLine
 10
667.4723169019999
 20
4258.46052755812
 30
0.0
 11
688.4271255704079
 21
4258.46052755812
 31
0.0
  0
LINE
  5
77D
330
558
100
AcDbEntity
  8
0
100
AcDbLine
 10
641.399442897833
 20
4232.387653553945
 30
0.0
 11
641.399442897833
 21
4168.015033068477
 31
0.0
  0
LINE
  5
77E
330
558
100
AcDbEntity
  8
0
100
AcDbLine
 10
667.4723169019853
 20
4242.460527558127
 30
0.0
 11
688.4271255704079
 21
4242.46052755812
 31
0.0
  0
LINE
  5
77F
330
558
100
AcDbEntity
  8
0
100
AcDbLine
 10
543.2393799997953
 20
4258.460527558127
 30
0.0
 11
631.3265688936371
 21
4258.46052755812
 31
0.0
  0
LINE
  5
780
330
558
100
AcDbEntity
  8
0
100
AcDbLine
 10
419.571138265339
 20
4258.460527558127
 30
0.0
 11
507.0936319914617
 21
4258.460527558127
 31
0.0
  0
LINE
  5
781
330
558
100
AcDbEntity
  8
0
100
AcDbLine
 10
393.4982642611721
 20
4268.533401562301
 30
0.0
 11
393.4982642611867
 21
4357.74998079161
 31
0.0
  0
LINE
  5
782
330
558
100
AcDbEntity
  8
0
100
AcDbLine
 10
419.571138265339
 20
4242.460527558127
 30
0.0
 11
507.0936319914617
 21
4242.460527558127
 31
0.0
  0
LINE
  5
783
330
558
100
AcDbEntity
  8
0
100
AcDbLine
 10
409.4982642611721
 20
4268.533401562301
 30
0.0
 11
409.4982642611866
 21
4357.749980791624
 31
0.0
  0
LINE
  5
784
330
558
100
AcDbEntity
  8
0
100
AcDbLine
 10
294.7735061954153
 20
4258.460527558134
 30
0.0
 11
383.4253902570053
 21
4258.460527558127
 31
0.0
  0
LINE
  5
785
330
558
100
AcDbEntity
  8
0
100
AcDbLine
 10
294.7735061954299
 20
4242.460527558134
 30
0.0
 11
383.4253902570053
 21
4242.460527558127
 31
0.0
  0
LINE
  5
786
330
558
100
AcDbEntity
  8
0
100
AcDbLine
 10
169.9758741254918
 20
4258.460527558134
 30
0.0
 11
258.6277581870817
 21
4258.460527558134
 31
0.0
  0
LINE
  5
787
330
558
100
AcDbEntity
  8
0
100
AcDbLine
 10
143.3551848797506
 20
4232.640212483282
 30
0.0
 11
143.3551848797506
 21
4168.015033068477
 31
0.0
  0
LINE
  5
788
330
558
100
AcDbEntity
  8
0
100
AcDbLine
 10
169.9758741255063
 20
4242.460527558134
 30
0.0
 11
258.6277581870672
 21
4242.460527558134
 31
0.0
  0
LINE
  5
789
330
558
100
AcDbEntity
  8
0
100
AcDbLine
 10
159.3551848797651
 20
4232.154962363441
 30
0.0
 11
159.3551848797505
 21
4168.015033068477
 31
0.0
  0
LINE
  5
78A
330
558
100
AcDbEntity
  8
0
100
AcDbLine
 10
45.17824205555371
 20
4258.460527558127
 30
0.0
 11
133.8301261171582
 21
4258.460527558127
 31
0.0
  0
LINE
  5
78B
330
558
100
AcDbEntity
  8
0
100
AcDbLine
 10
45.17824205556826
 20
4242.460527558134
 30
0.0
 11
133.8301261171436
 21
4242.460527558134
 31
0.0
  0
LINE
  5
78C
330
558
100
AcDbEntity
  8
0
100
AcDbLine
 10
-79.6193900143553
 20
4242.460527558134
 30
0.0
 11
9.032494047205545
 21
4242.460527558134
 31
0.0
  0
LINE
  5
78D
330
558
100
AcDbEntity
  8
0
100
AcDbLine
 10
-89.69226401853665
 20
4268.533401562301
 30
0.0
 11
-89.6922640185221
 21
4357.749980791624
 31
0.0
  0
LINE
  5
78E
330
558
100
AcDbEntity
  8
0
100
AcDbLine
 10
-79.61939001436985
 20
4258.460527558127
 30
0.0
 11
9.032494047220097
 21
4258.460527558127
 31
0.0
  0
LINE
  5
78F
330
558
100
AcDbEntity
  8
0
100
AcDbLine
 10
-105.6922640185366
 20
4268.533401562301
 30
0.0
 11
-105.6922640185221
 21
4357.74998079161
 31
0.0
  0
LINE
  5
790
330
558
100
AcDbEntity
  8
0
100
AcDbLine
 10
-204.4170220842934
 20
4258.460527558134
 30
0.0
 11
-115.7651380227034
 21
4258.460527558127
 31
0.0
  0
LINE
  5
791
330
558
100
AcDbEntity
  8
0
100
AcDbLine
 10
-204.4170220842788
 20
4242.460527558134
 30
0.0
 11
-115.765138022718
 21
4242.460527558134
 31
0.0
  0
LINE
  5
792
330
558
100
AcDbEntity
  8
0
100
AcDbLine
 10
-329.2146541542024
 20
4258.46052755812
 30
0.0
 11
-240.562770092627
 21
4258.460527558134
 31
0.0
  0
LINE
  5
793
330
558
100
AcDbEntity
  8
0
100
AcDbLine
 10
-339.2875281583838
 20
4232.387653553953
 30
0.0
 11
-339.2875281583838
 21
4168.015033068484
 31
0.0
  0
LINE
  5
794
330
558
100
AcDbEntity
  8
0
100
AcDbLine
 10
-355.2875281583837
 20
4232.387653553953
 30
0.0
 11
-355.2875281583837
 21
4168.015033068484
 31
0.0
  0
LINE
  5
795
330
558
100
AcDbEntity
  8
0
100
AcDbLine
 10
-329.214654154217
 20
4242.460527558127
 30
0.0
 11
-240.5627700926415
 21
4242.460527558134
 31
0.0
  0
LINE
  5
796
330
558
100
AcDbEntity
  8
0
100
AcDbLine
 10
-454.0122862241405
 20
4258.46052755812
 30
0.0
 11
-365.3604021625651
 21
4258.46052755812
 31
0.0
  0
LINE
  5
797
330
558
100
AcDbEntity
  8
0
100
AcDbLine
 10
-454.0122862241551
 20
4242.460527558127
 30
0.0
 11
-365.3604021625505
 21
4242.460527558127
 31
0.0
  0
LINE
  5
798
330
558
100
AcDbEntity
  8
0
100
AcDbLine
 10
-588.3180971305119
 20
4268.533401562301
 30
0.0
 11
-588.3180971304973
 21
4357.749980791624
 31
0.0
  0
LINE
  5
799
330
558
100
AcDbEntity
  8
0
100
AcDbLine
 10
-578.2452231263305
 20
4258.460527558113
 30
0.0
 11
-490.1580342325032
 21
4258.46052755812
 31
0.0
  0
LINE
  5
79A
330
558
100
AcDbEntity
  8
0
100
AcDbLine
 10
-604.3180971305119
 20
4268.533401562301
 30
0.0
 11
-604.3180971304973
 21
4357.749980791617
 31
0.0
  0
LINE
  5
79B
330
558
100
AcDbEntity
  8
0
100
AcDbLine
 10
-578.2452231263305
 20
4242.460527558134
 30
0.0
 11
-490.1580342324887
 21
4242.460527558127
 31
0.0
  0
LINE
  5
79C
330
558
100
AcDbEntity
  8
0
100
AcDbLine
 10
-702.4781600285205
 20
4258.460527558113
 30
0.0
 11
-614.3909711346932
 21
4258.460527558113
 31
0.0
  0
LINE
  5
79D
330
558
100
AcDbEntity
  8
0
100
AcDbLine
 10
-702.4781600285205
 20
4242.460527558134
 30
0.0
 11
-614.3909711346932
 21
4242.460527558134
 31
0.0
  0
LINE
  5
79E
330
558
100
AcDbEntity
  8
0
100
AcDbLine
 10
-836.2192757671582
 20
4232.387653553953
 30
0.0
 11
-836.2192757671582
 21
4168.015033068484
 31
0.0
  0
LINE
  5
79F
330
558
100
AcDbEntity
  8
0
100
AcDbLine
 10
-826.1464017629769
 20
4258.460527558113
 30
0.0
 11
-738.6239080368832
 21
4258.460527558113
 31
0.0
  0
LINE
  5
7A0
330
558
100
AcDbEntity
  8
0
100
AcDbLine
 10
-852.2192757671582
 20
4232.387653553953
 30
0.0
 11
-852.2192757671582
 21
4168.015033068484
 31
0.0
  0
LINE
  5
7A1
330
558
100
AcDbEntity
  8
0
100
AcDbLine
 10
-826.1464017629915
 20
4242.460527558127
 30
0.0
 11
-738.6239080368832
 21
4242.460527558134
 31
0.0
  0
LINE
  5
7A2
330
558
100
AcDbEntity
  8
0
100
AcDbLine
 10
-949.2499483296851
 20
4258.460527558113
 30
0.0
 11
-862.2921497713395
 21
4258.460527558113
 31
0.0
  0
LINE
  5
7A3
330
558
100
AcDbEntity
  8
0
100
AcDbLine
 10
-949.2499483296851
 20
4242.460527558134
 30
0.0
 11
-862.292149771325
 21
4242.460527558127
 31
0.0
  0
LINE
  5
7A4
330
558
100
AcDbEntity
  8
0
100
AcDbLine
 10
543.2393799997953
 20
4242.460527558127
 30
0.0
 11
631.3265688936517
 21
4242.460527558127
 31
0.0
  0
HATCH
  5
7A5
330
558
100
AcDbEntity
  8
0
 62
   250
100
AcDbHatch
 10
0.0
 20
0.0
 30
0.0
210
0.0
220
0.0
230
1.0
  2
SOLID
 70
     1
 71
     0
 91
       56
 92
        7
 72
     1
 73
     1
 93
        4
 10
-959.3228223338664
 20
4607.909940099205
 42
-0.2114321083291774
 10
-975.3228223338664
 20
4607.909940099205
 42
0.0
 10
-975.3228223338664
 20
4518.693360869889
 42
-0.2114321083291774
 10
-959.3228223338664
 20
4518.693360869889
 42
0.0
 97
        0
 92
        7
 72
     1
 73
     1
 93
        4
 10
-959.3228223338664
 20
4482.547612861541
 42
-0.2114321083291774
 10
-975.3228223338664
 20
4482.547612861541
 42
0.0
 10
-975.3228223338664
 20
4393.895728799965
 42
-0.2114321083291774
 10
-959.3228223338664
 20
4393.895728799965
 42
0.0
 97
        0
 92
        7
 72
     1
 73
     1
 93
        4
 10
-959.3228223338664
 20
4357.749980791617
 42
-0.2114321083291774
 10
-975.3228223338664
 20
4357.749980791617
 42
0.0
 10
-975.3228223338664
 20
4268.533401562301
 42
-0.2114321083291774
 10
-959.3228223338664
 20
4268.533401562301
 42
0.0
 97
        0
 92
        7
 72
     1
 73
     1
 93
        4
 10
-836.2192757671728
 20
4703.34605208339
 42
0.0
 10
-852.2192757671437
 20
4703.346052083383
 42
0.0
 10
-852.2192757671582
 20
4644.055688107553
 42
-0.2114321083291774
 10
-836.2192757671582
 20
4644.055688107553
 42
0.0
 97
        0
 92
        7
 72
     1
 73
     1
 93
        4
 10
-836.2192757671582
 20
4607.909940099205
 42
-0.2114321083291774
 10
-852.2192757671582
 20
4607.909940099205
 42
0.0
 10
-852.2192757671728
 20
4518.693360869882
 42
-0.2114321083291774
 10
-836.2192757671728
 20
4518.693360869896
 42
0.0
 97
        0
 92
        7
 72
     1
 73
     1
 93
        4
 10
-836.2192757671728
 20
4482.547612861533
 42
-0.2114321083291774
 10
-852.2192757671728
 20
4482.547612861548
 42
0.0
 10
-852.2192757671582
 20
4393.895728799965
 42
-0.2114321083289671
 10
-836.2192757671728
 20
4393.895728799972
 42
0.0
 97
        0
 92
        7
 72
     1
 73
     1
 93
        4
 10
-836.2192757671728
 20
4357.74998079161
 42
-0.2114321083289671
 10
-852.2192757671582
 20
4357.749980791617
 42
0.0
 10
-852.2192757671582
 20
4268.533401562301
 42
-0.2114321083291774
 10
-836.2192757671582
 20
4268.533401562301
 42
0.0
 97
        0
 92
        7
 72
     1
 73
     1
 93
        4
 10
-836.2192757671582
 20
4232.387653553953
 42
-0.2114321083291774
 10
-852.2192757671582
 20
4232.387653553953
 42
0.0
 10
-852.2192757671582
 20
4168.015033068491
 42
0.0
 10
-836.2192757671582
 20
4168.015033068484
 42
0.0
 97
        0
 92
        7
 72
     1
 73
     1
 93
        4
 10
-712.5510340327018
 20
4607.909940099205
 42
-0.2114321083291774
 10
-728.5510340327018
 20
4607.909940099205
 42
0.0
 10
-728.5510340327018
 20
4518.693360869889
 42
-0.2114321083293877
 10
-712.5510340326873
 20
4518.693360869882
 42
0.0
 97
        0
 92
        7
 72
     1
 73
     1
 93
        4
 10
-712.5510340326873
 20
4482.547612861548
 42
-0.2114321083293877
 10
-728.5510340327018
 20
4482.547612861541
 42
0.0
 10
-728.5510340327018
 20
4393.895728799965
 42
-0.2114321083291774
 10
-712.5510340327018
 20
4393.895728799965
 42
0.0
 97
        0
 92
        7
 72
     1
 73
     1
 93
        4
 10
-712.5510340327018
 20
4357.749980791617
 42
-0.2114321083291774
 10
-728.5510340327018
 20
4357.749980791617
 42
0.0
 10
-728.5510340327018
 20
4268.533401562301
 42
-0.2114321083291774
 10
-712.5510340327018
 20
4268.533401562301
 42
0.0
 97
        0
 92
        7
 72
     1
 73
     1
 93
        4
 10
-588.3180971305264
 20
4703.346052083383
 42
0.0
 10
-604.3180971305264
 20
4703.34605208339
 42
0.0
 10
-604.3180971305264
 20
4644.055688107546
 42
-0.2114321083291774
 10
-588.3180971305264
 20
4644.05568810756
 42
0.0
 97
        0
 92
        7
 72
     1
 73
     1
 93
        4
 10
-588.3180971305264
 20
4607.909940099198
 42
-0.2114321083291774
 10
-604.3180971305264
 20
4607.909940099212
 42
0.0
 10
-604.3180971304973
 20
4518.693360869896
 42
-0.2114321083291774
 10
-588.3180971304973
 20
4518.693360869882
 42
0.0
 97
        0
 92
        7
 72
     1
 73
     1
 93
        4
 10
-588.3180971304973
 20
4482.547612861548
 42
-0.2114321083291774
 10
-604.3180971304973
 20
4482.547612861533
 42
0.0
 10
-604.3180971304973
 20
4393.895728799972
 42
-0.2114321083291774
 10
-588.3180971304973
 20
4393.895728799958
 42
0.0
 97
        0
 92
        7
 72
     1
 73
     1
 93
        4
 10
-588.3180971304973
 20
4357.749980791624
 42
-0.2114321083291774
 10
-604.3180971304973
 20
4357.74998079161
 42
0.0
 10
-604.3180971305119
 20
4268.533401562301
 42
-0.2114321083291774
 10
-588.3180971305119
 20
4268.533401562301
 42
0.0
 97
        0
 92
        7
 72
     1
 73
     1
 93
        4
 10
-588.3180971305119
 20
4232.387653553953
 42
-0.2114321083291774
 10
-604.3180971305119
 20
4232.387653553953
 42
0.0
 10
-604.3180971305264
 20
4168.015033068491
 42
0.0
 10
-588.3180971304973
 20
4168.015033068491
 42
0.0
 97
        0
 92
        7
 72
     1
 73
     1
 93
        4
 10
-464.0851602283219
 20
4607.909940099205
 42
-0.2114321083291774
 10
-480.0851602283219
 20
4607.909940099205
 42
0.0
 10
-480.0851602283219
 20
4518.693360869889
 42
-0.2114321083293877
 10
-464.0851602283073
 20
4518.693360869882
 42
0.0
 97
        0
 92
        7
 72
     1
 73
     1
 93
        4
 10
-464.0851602283073
 20
4482.547612861548
 42
-0.2114321083293877
 10
-480.0851602283219
 20
4482.547612861541
 42
0.0
 10
-480.0851602283219
 20
4393.895728799965
 42
-0.2114321083291774
 10
-464.0851602283219
 20
4393.895728799965
 42
0.0
 97
        0
 92
        7
 72
     1
 73
     1
 93
        4
 10
-464.0851602283219
 20
4357.749980791617
 42
-0.2114321083291774
 10
-480.0851602283219
 20
4357.749980791617
 42
0.0
 10
-480.0851602283219
 20
4268.533401562301
 42
-0.2114321083291774
 10
-464.0851602283219
 20
4268.533401562301
 42
0.0
 97
        0
 92
        7
 72
     1
 73
     1
 93
        4
 10
-339.2875281583983
 20
4703.34605208339
 42
0.0
 10
-355.2875281583837
 20
4703.346052083397
 42
0.0
 10
-355.2875281583692
 20
4644.05568810756
 42
-0.2114321083289671
 10
-339.2875281583838
 20
4644.055688107553
 42
0.0
 97
        0
 92
        7
 72
     1
 73
     1
 93
        4
 10
-339.2875281583838
 20
4607.909940099205
 42
-0.2114321083289671
 10
-355.2875281583692
 20
4607.909940099198
 42
0.0
 10
-355.2875281583692
 20
4518.693360869896
 42
-0.2114321083291774
 10
-339.2875281583692
 20
4518.693360869882
 42
0.0
 97
        0
 92
        7
 72
     1
 73
     1
 93
        4
 10
-339.2875281583692
 20
4482.547612861548
 42
-0.2114321083291774
 10
-355.2875281583692
 20
4482.547612861533
 42
0.0
 10
-355.2875281583837
 20
4393.895728799965
 42
-0.2114321083291774
 10
-339.2875281583838
 20
4393.895728799965
 42
0.0
 97
        0
 92
        7
 72
     1
 73
     1
 93
        4
 10
-339.2875281583838
 20
4357.749980791617
 42
-0.2114321083291774
 10
-355.2875281583837
 20
4357.749980791617
 42
0.0
 10
-355.2875281583837
 20
4268.533401562301
 42
-0.2114321083291774
 10
-339.2875281583838
 20
4268.533401562301
 42
0.0
 97
        0
 92
        7
 72
     1
 73
     1
 93
        4
 10
-339.2875281583838
 20
4232.387653553953
 42
-0.2114321083291774
 10
-355.2875281583837
 20
4232.387653553953
 42
0.0
 10
-355.2875281583983
 20
4168.015033068491
 42
0.0
 10
-339.2875281583692
 20
4168.015033068484
 42
0.0
 97
        0
 92
        7
 72
     1
 73
     1
 93
        4
 10
-214.4898960884602
 20
4357.749980791617
 42
-0.2114321083291774
 10
-230.4898960884602
 20
4357.749980791617
 42
0.0
 10
-230.4898960884602
 20
4268.533401562301
 42
-0.2114321083291774
 10
-214.4898960884602
 20
4268.533401562301
 42
0.0
 97
        0
 92
        7
 72
     1
 73
     1
 93
        4
 10
-214.4898960884456
 20
4482.547612861548
 42
-0.2114321083293877
 10
-230.4898960884602
 20
4482.547612861541
 42
0.0
 10
-230.4898960884602
 20
4393.895728799965
 42
-0.2114321083291774
 10
-214.4898960884602
 20
4393.895728799965
 42
0.0
 97
        0
 92
        7
 72
     1
 73
     1
 93
        4
 10
-214.4898960884602
 20
4607.909940099205
 42
-0.2114321083291774
 10
-230.4898960884602
 20
4607.909940099205
 42
0.0
 10
-230.4898960884602
 20
4518.693360869889
 42
-0.2114321083293877
 10
-214.4898960884456
 20
4518.693360869882
 42
0.0
 97
        0
 92
        7
 72
     1
 73
     1
 93
        4
 10
-89.69226401856577
 20
4703.34605208339
 42
0.0
 10
-105.6922640185512
 20
4703.34605208339
 42
0.0
 10
-105.6922640185512
 20
4644.055688107546
 42
-0.2114321083291774
 10
-89.69226401855122
 20
4644.05568810756
 42
0.0
 97
        0
 92
        7
 72
     1
 73
     1
 93
        4
 10
-89.69226401855122
 20
4607.909940099198
 42
-0.2114321083291774
 10
-105.6922640185512
 20
4607.909940099212
 42
0.0
 10
-105.6922640185221
 20
4518.693360869896
 42
-0.2114321083291774
 10
-89.6922640185221
 20
4518.693360869882
 42
0.0
 97
        0
 92
        7
 72
     1
 73
     1
 93
        4
 10
-89.6922640185221
 20
4482.547612861548
 42
-0.2114321083291774
 10
-105.6922640185221
 20
4482.547612861533
 42
0.0
 10
-105.6922640185075
 20
4393.89572879998
 42
-0.2114321083289671
 10
-89.6922640185221
 20
4393.895728799958
 42
0.0
 97
        0
 92
        7
 72
     1
 73
     1
 93
        4
 10
-89.6922640185221
 20
4357.749980791624
 42
-0.2114321083291774
 10
-105.6922640185221
 20
4357.74998079161
 42
0.0
 10
-105.6922640185366
 20
4268.533401562301
 42
-0.2114321083291774
 10
-89.69226401853665
 20
4268.533401562301
 42
0.0
 97
        0
 92
        7
 72
     1
 73
     1
 93
        4
 10
-89.69226401853665
 20
4232.387653553953
 42
-0.2114321083291774
 10
-105.6922640185366
 20
4232.387653553953
 42
0.0
 10
-105.6922640185512
 20
4168.015033068491
 42
0.0
 10
-89.69226401853665
 20
4168.015033068491
 42
0.0
 97
        0
 92
        7
 72
     1
 73
     1
 93
        4
 10
35.1053680513869
 20
4607.909940099205
 42
-0.2114321083291774
 10
19.1053680513869
 20
4607.909940099205
 42
0.0
 10
19.10536805137235
 20
4518.693360869882
 42
-0.2114321083293877
 10
35.1053680513869
 20
4518.693360869889
 42
0.0
 97
        0
 92
        7
 72
     1
 73
     1
 93
        4
 10
35.1053680513869
 20
4482.547612861541
 42
-0.2114321083293877
 10
19.10536805137235
 20
4482.547612861548
 42
0.0
 10
19.1053680513869
 20
4393.895728799965
 42
-0.2114321083291774
 10
35.1053680513869
 20
4393.895728799965
 42
0.0
 97
        0
 92
        7
 72
     1
 73
     1
 93
        4
 10
35.1053680513869
 20
4357.749980791617
 42
-0.2114321083291774
 10
19.1053680513869
 20
4357.749980791617
 42
0.0
 10
19.1053680513869
 20
4268.533401562301
 42
-0.2114321083291774
 10
35.1053680513869
 20
4268.533401562301
 42
0.0
 97
        0
 92
        7
 72
     1
 73
     1
 93
        4
 10
159.3551848797505
 20
4703.34605208339
 42
0.0
 10
143.3551848797651
 20
4703.346052083397
 42
0.0
 10
143.3551848797651
 20
4643.803129178224
 42
-0.2115384286454355
 10
159.3551848797651
 20
4644.288379298064
 42
0.0
 97
        0
 92
        7
 72
     1
 73
     1
 93
        4
 10
159.3551848797651
 20
4607.677248908694
 42
-0.2115384286454355
 10
143.3551848797651
 20
4608.162499028535
 42
0.0
 10
143.355184879736
 20
4518.440801940553
 42
-0.2115384286456521
 10
159.3551848797505
 20
4518.926052060407
 42
0.0
 97
        0
 92
        7
 72
     1
 73
     1
 93
        4
 10
159.3551848797505
 20
4482.314921671022
 42
-0.2115384286456521
 10
143.355184879736
 20
4482.800171790877
 42
0.0
 10
143.355184879736
 20
4393.643169870629
 42
-0.2115384286456521
 10
159.3551848797505
 20
4394.128419990484
 42
0.0
 97
        0
 92
        7
 72
     1
 73
     1
 93
        4
 10
159.3551848797505
 20
4357.517289601099
 42
-0.2115384286454387
 10
143.3551848797506
 20
4358.002539720946
 42
0.0
 10
143.3551848797506
 20
4268.280842632972
 42
-0.2115384286456458
 10
159.3551848797651
 20
4268.766092752811
 42
0.0
 97
        0
 92
        7
 72
     1
 73
     1
 93
        4
 10
159.3551848797651
 20
4232.154962363441
 42
-0.2115384286456458
 10
143.3551848797506
 20
4232.640212483282
 42
0.0
 10
143.355184879736
 20
4168.015033068484
 42
0.0
 10
159.3551848797797
 20
4168.015033068484
 42
0.0
 97
        0
 92
        7
 72
     1
 73
     1
 93
        4
 10
284.7006321912486
 20
4607.909940099205
 42
-0.2114321083291774
 10
268.7006321912485
 20
4607.909940099205
 42
0.0
 10
268.700632191234
 20
4518.693360869882
 42
-0.2114321083293877
 10
284.7006321912486
 20
4518.693360869889
 42
0.0
 97
        0
 92
        7
 72
     1
 73
     1
 93
        4
 10
284.7006321912486
 20
4482.547612861541
 42
-0.2114321083293877
 10
268.700632191234
 20
4482.547612861548
 42
0.0
 10
268.7006321912485
 20
4393.895728799965
 42
-0.2114321083291774
 10
284.7006321912486
 20
4393.895728799965
 42
0.0
 97
        0
 92
        7
 72
     1
 73
     1
 93
        4
 10
284.7006321912486
 20
4357.749980791617
 42
-0.2114321083291774
 10
268.7006321912485
 20
4357.749980791617
 42
0.0
 10
268.700632191234
 20
4268.533401562294
 42
-0.2114321083293877
 10
284.7006321912486
 20
4268.533401562301
 42
0.0
 97
        0
 92
        7
 72
     1
 73
     1
 93
        4
 10
409.4982642611721
 20
4703.34605208339
 42
0.0
 10
393.4982642611721
 20
4703.34605208339
 42
0.0
 10
393.4982642611721
 20
4644.055688107553
 42
-0.2114321083291774
 10
409.4982642611721
 20
4644.055688107553
 42
0.0
 97
        0
 92
        7
 72
     1
 73
     1
 93
        4
 10
409.4982642611721
 20
4607.909940099205
 42
-0.2114321083291774
 10
393.4982642611721
 20
4607.909940099205
 42
0.0
 10
393.4982642611867
 20
4518.693360869896
 42
-0.2114321083291774
 10
409.4982642611866
 20
4518.693360869882
 42
0.0
 97
        0
 92
        7
 72
     1
 73
     1
 93
        4
 10
409.4982642611866
 20
4482.547612861548
 42
-0.2114321083291774
 10
393.4982642611867
 20
4482.547612861533
 42
0.0
 10
393.4982642612012
 20
4393.89572879998
 42
-0.2114321083289671
 10
409.4982642611866
 20
4393.895728799958
 42
0.0
 97
        0
 92
        7
 72
     1
 73
     1
 93
        4
 10
409.4982642611866
 20
4357.749980791624
 42
-0.2114321083291774
 10
393.4982642611867
 20
4357.74998079161
 42
0.0
 10
393.4982642611721
 20
4268.533401562301
 42
-0.2114321083291774
 10
409.4982642611721
 20
4268.533401562301
 42
0.0
 97
        0
 92
        7
 72
     1
 73
     1
 93
        4
 10
409.4982642611721
 20
4232.387653553953
 42
-0.2114321083291774
 10
393.4982642611721
 20
4232.387653553953
 42
0.0
 10
393.4982642611576
 20
4168.015033068477
 42
0.0
 10
409.4982642611721
 20
4168.015033068477
 42
0.0
 97
        0
 92
        7
 72
     1
 73
     1
 93
        4
 10
533.1665059956285
 20
4607.909940099205
 42
-0.2114321083291774
 10
517.1665059956285
 20
4607.909940099205
 42
0.0
 10
517.1665059956285
 20
4518.693360869889
 42
-0.2114321083291774
 10
533.1665059956285
 20
4518.693360869889
 42
0.0
 97
        0
 92
        7
 72
     1
 73
     1
 93
        4
 10
533.1665059956285
 20
4482.547612861541
 42
-0.2114321083291774
 10
517.1665059956285
 20
4482.547612861541
 42
0.0
 10
517.1665059956285
 20
4393.895728799965
 42
-0.2114321083293877
 10
533.1665059956431
 20
4393.895728799958
 42
0.0
 97
        0
 92
        7
 72
     1
 73
     1
 93
        4
 10
533.1665059956431
 20
4357.749980791624
 42
-0.2114321083293877
 10
517.1665059956285
 20
4357.749980791617
 42
0.0
 10
517.1665059956285
 20
4268.533401562301
 42
-0.2114321083293877
 10
533.1665059956431
 20
4268.533401562294
 42
0.0
 97
        0
 92
        7
 72
     1
 73
     1
 93
        4
 10
657.3994428978185
 20
4703.34605208339
 42
0.0
 10
641.3994428978476
 20
4703.346052083383
 42
0.0
 10
641.3994428978476
 20
4644.055688107568
 42
-0.2114321083289671
 10
657.399442897833
 20
4644.055688107546
 42
0.0
 97
        0
 92
        7
 72
     1
 73
     1
 93
        4
 10
657.399442897833
 20
4607.909940099212
 42
-0.2114321083289671
 10
641.3994428978476
 20
4607.90994009919
 42
0.0
 10
641.3994428978476
 20
4518.693360869903
 42
-0.2114321083289671
 10
657.399442897833
 20
4518.693360869882
 42
0.0
 97
        0
 92
        7
 72
     1
 73
     1
 93
        4
 10
657.399442897833
 20
4482.547612861548
 42
-0.2114321083289671
 10
641.3994428978476
 20
4482.547612861526
 42
0.0
 10
641.3994428978476
 20
4393.89572879998
 42
-0.2114321083289671
 10
657.399442897833
 20
4393.895728799958
 42
0.0
 97
        0
 92
        7
 72
     1
 73
     1
 93
        4
 10
657.399442897833
 20
4357.749980791624
 42
-0.2114321083291774
 10
641.399442897833
 20
4357.74998079161
 42
0.0
 10
641.399442897833
 20
4268.533401562308
 42
-0.2114321083291774
 10
657.399442897833
 20
4268.533401562294
 42
0.0
 97
        0
 92
        7
 72
     1
 73
     1
 93
        4
 10
657.399442897833
 20
4232.38765355396
 42
-0.2114321083291774
 10
641.399442897833
 20
4232.387653553945
 42
0.0
 10
641.3994428978185
 20
4168.015033068484
 42
0.0
 10
657.3994428978476
 20
4168.015033068477
 42
0.0
 97
        0
 75
     0
 76
     1
 47
4.030627475025858
 98
       56
 10
-970.1775486167317
 20
4559.325106609452
 10
-967.3955434326925
 20
4425.916300845434
 10
-972.9598602902989
 20
4298.066141706557
 10
-845.8485508268495
 20
4666.232265590006
 10
-838.9353736833582
 20
4561.492655494556
 10
-840.0874677107932
 20
4456.753045399077
 10
-842.9960530579702
 20
4306.490244207918
 10
-847.0760412710514
 20
4206.683914897163
 10
-718.3541294894675
 20
4560.864876977299
 10
-720.6123441194213
 20
4430.020907553568
 10
-718.3541294894675
 20
4326.248298340957
 10
-594.1483404782629
 20
4666.893499892976
 10
-596.4068615976866
 20
4563.120729835223
 10
-596.4068615976866
 20
4452.580240358555
 10
-596.4068615976866
 20
4317.224565218974
 10
-591.8901258483092
 20
4206.683914897163
 10
-469.9428579565283
 20
4554.09699671324
 10
-469.9428579565283
 20
4430.020907553568
 10
-472.201072586482
 20
4310.456684954916
 10
-347.9955900648056
 20
4669.149513596043
 10
-347.9955900648056
 20
4545.073424436369
 10
-350.2541111842292
 20
4443.556507236571
 10
-345.7373754348518
 20
4308.200832096991
 10
-347.9955900648056
 20
4190.892462356263
 10
-219.2736782831634
 20
4314.968551515907
 10
-221.5318929131171
 20
4443.556507236571
 10
-228.3068432925065
 20
4558.608863274232
 10
-97.32641039144073
 20
4682.684952433876
 10
-97.32641039144073
 20
4560.864876977299
 10
-95.068195761487
 20
4441.300654378617
 10
-99.58462502139447
 20
4319.480418076898
 10
-99.58462502139447
 20
4195.404328917255
 10
22.36264287038648
 20
4563.120729835223
 10
29.13759324971761
 20
4450.324387500601
 10
29.13759324971761
 20
4321.736431779966
 10
151.0848611414985
 20
4664.637647035022
 10
148.8263400220166
 20
4560.864876977299
 10
148.8263400220166
 20
4443.556507236571
 10
151.0848611414985
 20
4319.480418076898
 10
148.8263400220166
 20
4181.868729234251
 10
277.5485582931287
 20
4576.656329518199
 10
275.290343663175
 20
4436.788787817626
 10
275.290343663175
 20
4321.736431779966
 10
401.7540408148634
 20
4666.893499892976
 10
401.7540408148634
 20
4538.305544172311
 10
404.0122554448171
 20
4432.276921256635
 10
397.2376115549559
 20
4312.712698657982
 10
397.2376115549559
 20
4195.404328917255
 10
528.2180444560217
 20
4560.864876977299
 10
523.7013087065861
 20
4450.324387500601
 10
528.2180444560217
 20
4323.99228463789
 10
648.6861940247327
 20
4659.748116123912
 10
648.6861940247327
 20
4558.982345651151
 10
644.5691205822368
 20
4445.877984904902
 10
650.2872951684257
 20
4307.459336077372
 10
646.2523609117343
 20
4194.601711750685
  0
CIRCLE
  5
7A6
330
558
100
AcDbEntity
  8
0
100
AcDbCircle
 10
-1090.991064068322
 20
4625.982814103379
 30
0.0
 40
19.76433087080659
  0
CIRCLE
  5
7A7
330
558
100
AcDbEntity
  8
0
100
AcDbCircle
 10
-1090.991064068322
 20
4500.620486865715
 30
0.0
 40
19.76433087080659
  0
CIRCLE
  5
7A8
330
558
100
AcDbEntity
  8
0
100
AcDbCircle
 10
-1090.991064068322
 20
4375.822854795791
 30
0.0
 40
19.76433087080659
  0
CIRCLE
  5
7A9
330
558
100
AcDbEntity
  8
0
100
AcDbCircle
 10
-1090.991064068322
 20
4250.460527558127
 30
0.0
 40
19.76433087080659
  0
LINE
  5
7AA
330
558
100
AcDbEntity
  8
0
100
AcDbLine
 10
-1082.991064068322
 20
4703.346052083383
 30
0.0
 11
-1082.991064068322
 21
4644.055688107553
 31
0.0
  0
LINE
  5
7AB
330
558
100
AcDbEntity
  8
0
100
AcDbLine
 10
-1098.991064068322
 20
4702.185195537452
 30
0.0
 11
-1098.991064068322
 21
4644.055688107553
 31
0.0
  0
LINE
  5
7AC
330
558
100
AcDbEntity
  8
0
100
AcDbLine
 10
-1098.991064068322
 20
4607.909940099205
 30
0.0
 11
-1098.991064068337
 21
4518.693360869882
 31
0.0
  0
LINE
  5
7AD
330
558
100
AcDbEntity
  8
0
100
AcDbLine
 10
-1082.991064068322
 20
4607.909940099205
 30
0.0
 11
-1082.991064068337
 21
4518.693360869889
 31
0.0
  0
LINE
  5
7AE
330
558
100
AcDbEntity
  8
0
100
AcDbLine
 10
-1098.991064068337
 20
4482.547612861548
 30
0.0
 11
-1098.991064068322
 21
4393.895728799965
 31
0.0
  0
LINE
  5
7AF
330
558
100
AcDbEntity
  8
0
100
AcDbLine
 10
-1082.991064068337
 20
4482.547612861541
 30
0.0
 11
-1082.991064068337
 21
4393.895728799972
 31
0.0
  0
LINE
  5
7B0
330
558
100
AcDbEntity
  8
0
100
AcDbLine
 10
-1098.991064068322
 20
4357.749980791617
 30
0.0
 11
-1098.991064068322
 21
4268.533401562301
 31
0.0
  0
LINE
  5
7B1
330
558
100
AcDbEntity
  8
0
100
AcDbLine
 10
-1082.991064068337
 20
4357.749980791617
 30
0.0
 11
-1082.991064068322
 21
4268.533401562301
 31
0.0
  0
LINE
  5
7B2
330
558
100
AcDbEntity
  8
0
100
AcDbLine
 10
-1082.991064068322
 20
4232.387653553953
 30
0.0
 11
-1082.991064068322
 21
4168.015033068484
 31
0.0
  0
LINE
  5
7B3
330
558
100
AcDbEntity
  8
0
100
AcDbLine
 10
-1098.991064068322
 20
4232.387653553953
 30
0.0
 11
-1098.991064068322
 21
4175.782965301012
 31
0.0
  0
LINE
  5
7B4
330
558
100
AcDbEntity
  8
0
100
AcDbLine
 10
-1072.918190064156
 20
4242.460527558113
 30
0.0
 11
-985.3956963380479
 21
4242.460527558127
 31
0.0
  0
LINE
  5
7B5
330
558
100
AcDbEntity
  8
0
100
AcDbLine
 10
-1072.918190064141
 20
4258.46052755812
 30
0.0
 11
-985.3956963380479
 21
4258.460527558113
 31
0.0
  0
LINE
  5
7B6
330
558
100
AcDbEntity
  8
0
100
AcDbLine
 10
-1109.063938072489
 20
4367.822854795791
 30
0.0
 11
-1137.673837345544
 21
4367.822854795798
 31
0.0
  0
LINE
  5
7B7
330
558
100
AcDbEntity
  8
0
100
AcDbLine
 10
-1109.063938072489
 20
4383.822854795806
 30
0.0
 11
-1137.673837345544
 21
4383.822854795798
 31
0.0
  0
LINE
  5
7B8
330
558
100
AcDbEntity
  8
0
100
AcDbLine
 10
-1072.918190064141
 20
4492.620486865722
 30
0.0
 11
-985.3956963380333
 21
4492.6204868657
 31
0.0
  0
LINE
  5
7B9
330
558
100
AcDbEntity
  8
0
100
AcDbLine
 10
-1072.918190064156
 20
4508.620486865715
 30
0.0
 11
-985.3956963380333
 21
4508.620486865715
 31
0.0
  0
LINE
  5
7BA
330
558
100
AcDbEntity
  8
0
100
AcDbLine
 10
-1109.063938072489
 20
4617.982814103379
 30
0.0
 11
-1137.673837345544
 21
4617.982814103379
 31
0.0
  0
LINE
  5
7BB
330
558
100
AcDbEntity
  8
0
100
AcDbLine
 10
-1109.063938072489
 20
4633.982814103379
 30
0.0
 11
-1137.673837345544
 21
4633.982814103379
 31
0.0
  0
HATCH
  5
7BC
330
558
100
AcDbEntity
  8
0
 62
   250
100
AcDbHatch
 10
0.0
 20
0.0
 30
0.0
210
0.0
220
0.0
230
1.0
  2
SOLID
 70
     1
 71
     0
 91
        4
 92
        7
 72
     1
 73
     1
 93
        2
 10
-1110.755394939129
 20
4625.982814103379
 42
1.0
 10
-1071.226733197516
 20
4625.982814103379
 42
1.0
 97
        0
 92
        7
 72
     1
 73
     1
 93
        2
 10
-1071.226733197516
 20
4500.620486865715
 42
1.0
 10
-1110.755394939129
 20
4500.620486865715
 42
1.0
 97
        0
 92
        7
 72
     1
 73
     1
 93
        2
 10
-1110.755394939129
 20
4375.822854795791
 42
1.0
 10
-1071.226733197516
 20
4375.822854795791
 42
1.0
 97
        0
 92
        7
 72
     1
 73
     1
 93
        2
 10
-1071.226733197516
 20
4250.460527558127
 42
1.0
 10
-1110.755394939129
 20
4250.460527558127
 42
1.0
 97
        0
 75
     0
 76
     1
 47
1.68293310972902
 98
        4
 10
-1090.067046010997
 20
4632.432914705525
 10
-1098.490603406462
 20
4497.798308254846
 10
-1090.067046010997
 20
4381.675849610139
 10
-1091.751818787961
 20
4248.724165687294
  0
HATCH
  5
7BD
330
558
100
AcDbEntity
  8
0
 62
   250
100
AcDbHatch
 10
0.0
 20
0.0
 30
0.0
210
0.0
220
0.0
230
1.0
  2
SOLID
 70
     1
 71
     0
 91
        5
 92
        7
 72
     1
 73
     1
 93
        6
 10
-1082.991064068322
 20
4703.346052083383
 42
0.0
 10
-1093.525993964416
 20
4703.34605208339
 42
-0.1756103551900483
 10
-1096.729270027935
 20
4702.185195537452
 42
0.0
 10
-1098.991064068322
 20
4702.185195537459
 42
0.0
 10
-1098.991064068322
 20
4644.055688107553
 42
-0.2114321083291774
 10
-1082.991064068322
 20
4644.055688107553
 42
0.0
 97
        0
 92
        7
 72
     1
 73
     1
 93
        4
 10
-1082.991064068322
 20
4607.909940099205
 42
-0.2114321083291774
 10
-1098.991064068322
 20
4607.909940099205
 42
0.0
 10
-1098.991064068337
 20
4518.693360869882
 42
-0.2114321083291774
 10
-1082.991064068337
 20
4518.693360869896
 42
0.0
 97
        0
 92
        7
 72
     1
 73
     1
 93
        4
 10
-1082.991064068337
 20
4482.547612861533
 42
-0.2114321083291774
 10
-1098.991064068337
 20
4482.547612861548
 42
0.0
 10
-1098.991064068322
 20
4393.895728799965
 42
-0.2114321083289671
 10
-1082.991064068337
 20
4393.895728799972
 42
0.0
 97
        0
 92
        7
 72
     1
 73
     1
 93
        4
 10
-1082.991064068337
 20
4357.74998079161
 42
-0.2114321083289671
 10
-1098.991064068322
 20
4357.749980791617
 42
0.0
 10
-1098.991064068322
 20
4268.533401562301
 42
-0.2114321083291774
 10
-1082.991064068322
 20
4268.533401562301
 42
0.0
 97
        0
 92
        7
 72
     1
 73
     1
 93
        7
 10
-1082.991064068322
 20
4232.387653553953
 42
-0.2114321083291774
 10
-1098.991064068322
 20
4232.387653553953
 42
0.0
 10
-1098.991064068322
 20
4175.782965301012
 42
0.0
 10
-1096.729270027935
 20
4175.782965301012
 42
-0.4142135623730951
 10
-1091.729270027935
 20
4170.782965301012
 42
0.0
 10
-1091.729270027935
 20
4168.015033068491
 42
0.0
 10
-1082.991064068322
 20
4168.015033068491
 42
0.0
 97
        0
 75
     0
 76
     1
 47
1.68293310972902
 98
        5
 10
-1091.751818787961
 20
4661.042919368585
 10
-1091.751818787961
 20
4565.115691902741
 10
-1095.121057852477
 20
4415.334621856644
 10
-1095.121057852477
 20
4314.358626807356
 10
-1090.067046010997
 20
4183.089704567202
  0
LINE
  5
7BE
330
558
100
AcDbEntity
  8
0
100
AcDbLine
 10
688.4271255704079
 20
4633.982814103379
 30
0.0
 11
688.4271255704079
 21
4617.982814103379
 31
0.0
  0
LINE
  5
7BF
330
558
100
AcDbEntity
  8
0
100
AcDbLine
 10
688.4271255704079
 20
4492.620486865708
 30
0.0
 11
688.4271255704079
 21
4508.620486865708
 31
0.0
  0
LINE
  5
7C0
330
558
100
AcDbEntity
  8
0
100
AcDbLine
 10
688.4271255704079
 20
4383.822854795783
 30
0.0
 11
688.4271255704079
 21
4367.822854795784
 31
0.0
  0
LINE
  5
7C1
330
558
100
AcDbEntity
  8
0
100
AcDbLine
 10
688.4271255704079
 20
4242.46052755812
 30
0.0
 11
688.4271255704079
 21
4258.46052755812
 31
0.0
  0
LINE
  5
7C2
102
{ACAD_REACTORS
330
55B
102
}
330
558
100
AcDbEntity
  8
0
100
AcDbLine
 10
-1201.729270027936
 20
4090.782965301012
 30
0.0
 11
-1694.182531993152
 21
4090.782965301012
 31
0.0
  0
LINE
  5
7C3
330
558
100
AcDbEntity
  8
0
100
AcDbLine
 10
-1829.560858652796
 20
4825.320208314624
 30
0.0
 11
-1829.560858652796
 21
4803.649001030273
 31
0.0
  0
LINE
  5
7C4
102
{ACAD_REACTORS
330
55B
102
}
330
558
100
AcDbEntity
  8
0
100
AcDbLine
 10
-1694.182531993152
 20
4803.649001030273
 30
0.0
 11
-1201.729270027936
 21
4803.649001030273
 31
0.0
  0
HATCH
  5
7C5
330
558
100
AcDbEntity
  8
0
 62
    70
100
AcDbHatch
 10
0.0
 20
0.0
 30
0.0
210
0.0
220
0.0
230
1.0
  2
SOLID
 70
     1
 71
     0
 91
        1
 92
        7
 72
     1
 73
     1
 93
       12
 10
-1201.729270027936
 20
4803.649001030273
 42
0.0
 10
-1201.729270027936
 20
4807.185195537451
 42
-0.4142135623730951
 10
-1196.729270027935
 20
4812.185195537452
 42
0.0
 10
-1099.461491584384
 20
4812.185195537453
 42
0.0
 10
-1099.461491584384
 20
4825.320208314622
 42
0.0
 10
-1829.560858652796
 20
4825.320208314622
 42
0.0
 10
-1829.560858652795
 20
4803.649001030273
 42
0.0
 10
-1732.798916274405
 20
4803.649001030271
 42
0.0
 10
-1732.798916274405
 20
4808.797852267773
 42
0.0
 10
-1713.306836589574
 20
4808.797852267773
 42
0.0
 10
-1694.182531993153
 20
4808.797852267772
 42
0.0
 10
-1694.182531993152
 20
4803.649001030273
 42
0.0
 97
        0
 75
     0
 76
     1
 47
3.042209499609478
 98
        1
 10
-1494.82841873962
 20
4810.615885112682
  0
HATCH
  5
7C6
330
558
100
AcDbEntity
  8
0
 62
    30
100
AcDbHatch
 10
0.0
 20
0.0
 30
0.0
210
0.0
220
0.0
230
1.0
  2
SOLID
 70
     1
 71
     0
 91
        6
 92
        7
 72
     0
 73
     1
 93
        4
 10
-1713.306836589574
 20
4808.797852267781
 10
-1732.79891627439
 20
4808.797852267773
 10
-1732.798916274405
 20
4698.465325749864
 10
-1713.306836589574
 20
4698.465325749872
 97
        0
 92
        7
 72
     0
 73
     1
 93
        4
 10
-1694.182531993152
 20
4808.797852267781
 10
-1713.306836589574
 20
4808.797852267773
 10
-1713.306836589574
 20
4698.465325749872
 10
-1694.182531993152
 20
4698.465325749872
 97
        0
 92
        7
 72
     0
 73
     1
 93
        4
 10
-1713.306836589588
 20
4178.063575673753
 10
-1732.798916274405
 20
4178.06357567376
 10
-1732.79891627439
 20
4067.73104915586
 10
-1713.306836589574
 20
4067.73104915586
 97
        0
 92
        7
 72
     0
 73
     1
 93
        4
 10
-1694.182531993137
 20
4178.06357567376
 10
-1713.306836589574
 20
4178.063575673768
 10
-1713.306836589588
 20
4067.73104915586
 10
-1694.182531993166
 20
4067.73104915586
 97
        0
 92
        7
 72
     1
 73
     1
 93
        8
 10
-1091.729270027935
 20
4807.185195537451
 42
0.4142135623730951
 10
-1096.729270027935
 20
4812.185195537452
 42
0.0
 10
-1196.729270027935
 20
4812.185195537452
 42
0.4142135623730951
 10
-1201.729270027936
 20
4807.185195537451
 42
0.0
 10
-1201.729270027936
 20
4707.185195537451
 42
0.4142135623730951
 10
-1196.729270027935
 20
4702.185195537452
 42
0.0
 10
-1096.729270027935
 20
4702.185195537452
 42
0.4142135623730951
 10
-1091.729270027935
 20
4707.185195537451
 42
0.0
 97
        0
 92
        7
 72
     1
 73
     1
 93
        8
 10
-1091.729270027935
 20
4170.782965301012
 42
0.4142135623730951
 10
-1096.729270027935
 20
4175.782965301012
 42
0.0
 10
-1196.729270027935
 20
4175.782965301012
 42
0.4142135623730951
 10
-1201.729270027936
 20
4170.782965301012
 42
0.0
 10
-1201.729270027936
 20
4070.782965301012
 42
0.4142135623730951
 10
-1196.729270027935
 20
4065.782965301012
 42
0.0
 10
-1096.729270027935
 20
4065.782965301012
 42
0.4142135623730951
 10
-1091.729270027935
 20
4070.782965301012
 42
0.0
 97
        0
 75
     0
 76
     1
 47
2.839104083486171
 98
        6
 10
-1723.934836187647
 20
4727.331566894092
 10
-1704.040296306382
 20
4715.975257790225
 10
-1721.092759061735
 20
4133.958786637944
 10
-1709.724450558205
 20
4122.602316688964
 10
-1110.048628910051
 20
4758.561738619945
 10
-1155.521556434876
 20
4133.958786637944
  0
HATCH
  5
7C7
330
558
100
AcDbEntity
  8
0
 62
    30
100
AcDbHatch
 10
0.0
 20
0.0
 30
0.0
210
0.0
220
0.0
230
1.0
  2
SOLID
 70
     1
 71
     1
 91
        2
 92
        7
 72
     1
 73
     1
 93
        8
 10
-649.5696145978754
 20
1787.88266850892
 42
0.4142135623731461
 10
-642.7403989257186
 20
1786.049143678652
 42
0.0
 10
-556.1129939015037
 20
1836.006052097526
 42
0.414213562373094
 10
-554.2794690712351
 20
1842.835267769686
 42
0.0
 10
-604.2363774900999
 20
1929.462672793884
 42
0.4142135623730906
 10
-611.0655931622564
 20
1931.296197624151
 42
0.0
 10
-697.6929981864639
 20
1881.339289205281
 42
0.4142135623730557
 10
-699.52652301673
 20
1874.510073533132
 42
0.0
 97
        1
330
576
 92
        7
 72
     1
 73
     1
 93
        8
 10
-2956.674868483486
 20
1931.265838172721
 42
0.4142135623730527
 10
-2963.512431032895
 20
1929.463689903885
 42
0.0
 10
-3013.866573838648
 20
1843.066581721387
 42
0.4142135623730927
 10
-3012.064425569812
 20
1836.22901917198
 42
0.0
 10
-2925.667317387312
 20
1785.874876366221
 42
0.4142135623731389
 10
-2918.829754837904
 20
1787.677024635058
 42
0.0
 10
-2868.475612032153
 20
1874.074132817565
 42
0.414213562373097
 10
-2870.277760300989
 20
1880.911695366973
 42
0.0
 97
        1
330
577
 75
     0
 76
     1
 47
3.623270268543325
 98
        2
 10
-644.532762227478
 20
1819.588703454923
 10
-2933.201721271922
 20
1873.937788170631
  0
HATCH
  5
7C8
330
558
100
AcDbEntity
  8
0
 62
    30
100
AcDbHatch
 10
0.0
 20
0.0
 30
0.0
210
0.0
220
0.0
230
1.0
  2
SOLID
 70
     1
 71
     0
 91
        1
 92
        7
 72
     0
 73
     1
 93
        4
 10
-1728.872034881904
 20
2475.777027979573
 10
-1838.872034881889
 20
2475.77702797958
 10
-1838.872034881889
 20
2450.777027979573
 10
-1728.87203488189
 20
2450.777027979566
 97
        0
 75
     0
 76
     1
 47
1.246836124787238
 98
        1
 10
-1805.612142292622
 20
2465.991477568445
  0
LINE
  5
7C9
330
558
100
AcDbEntity
  8
0
100
AcDbLine
 10
1289.874007287013
 20
5018.382239582031
 30
0.0
 11
1289.874007287013
 21
6133.259386178673
 31
0.0
  0
LINE
  5
7CA
330
558
100
AcDbEntity
  8
0
100
AcDbLine
 10
1247.866076524092
 20
6133.259386178673
 30
0.0
 11
1247.866076524092
 21
5018.382239582031
 31
0.0
  0
ARC
  5
7CB
330
558
100
AcDbEntity
  8
0
100
AcDbCircle
 10
1268.870041905553
 20
6133.259386178673
 30
0.0
 40
21.00396538145651
100
AcDbArc
 50
0.0
 51
180.0
  0
LWPOLYLINE
  5
7CC
330
558
100
AcDbEntity
  8
0
100
AcDbPolyline
 90
       20
 70
     1
 43
0.0
 10
2770.453248942474
 20
1150.959243616758
 10
3975.120833553141
 20
2905.489498236915
 42
0.1515645073582528
 10
4238.540955825782
 20
3754.530254620142
 10
4238.540955825782
 20
5127.018701449793
 42
0.2440120699678583
 10
3602.086105218419
 20
6353.513615813674
 10
2133.761972212043
 20
7387.324818733701
 42
0.536937283901379
 10
-195.8162009763327
 20
6478.236856310577
 10
-1099.22294763154
 20
6478.236856310577
 42
0.0136626691954197
 10
-1189.346082298463
 20
6475.773751374785
 10
-4268.276372735417
 20
6307.350907536537
 42
0.3982968267313468
 10
-5686.346250310933
 20
4809.590093841805
 10
-5686.346250310933
 20
4078.897192449075
 42
0.1125578102799343
 10
-5538.0953761571
 20
3428.686226089601
 10
-4449.481453782049
 20
1165.523969393856
 42
0.2882181647904869
 10
-2917.499111156328
 20
202.4297312679264
 10
-650.8333571032999
 20
202.4297312680282
 42
0.0985350439754279
 10
0.0
 20
331.9470216269328
 10
0.0
 20
0.0
 10
2540.0
 20
0.0
 10
2540.0
 20
887.4761994231375
 42
0.0585408918971267
  0
ENDBLK
  5
55A
330
558
100
AcDbEntity
  8
0
 62
    84
100
AcDbBlockEnd
  0
ENDSEC
  0
SECTION
  2
ENTITIES
  0
INSERT
  5
7CD
330
1F
100
AcDbEntity
  8
0
 62
    84
100
AcDbBlockReference
  2
ADKV
 10
5686.346321638804
 20
10044.2395224411
 30
0.0
  0
MTEXT
  5
7CE
330
1F
100
AcDbEntity
  8
0
100
AcDbMText
 10
3241.270610755484
 20
16008.41321413521
 30
0.0
 40
250.0
 41
120628.24
 71
     1
 72
     5
  1
{\Fisocp.shx;Hoogte:315cm\PVrije valhoogte:250cm}
1001
ACAD
1000
MTEXTBEGIN
1070
    73
1070
     1
1070
    44
1040
1.0
1070
    74
1070
     0
1000
MTEXTEND
  0
ENDSEC
  0
SECTION
  2
OBJECTS
  0
DICTIONARY
  5
C
330
0
100
AcDbDictionary
  3
ACAD_GROUP
350
D
  3
ACAD_LAYOUT
350
1A
  3
ACAD_MLINESTYLE
350
17
  3
ACAD_PLOTSETTINGS
350
19
  3
ACAD_PLOTSTYLENAME
350
E
  3
ACDBHEADERROUNDTRIPXREC
350
7D1
  3
ACDBVARIABLEDICTIONARY
350
547
  0
DICTIONARY
  5
5D
330
2
100
AcDbDictionary
280
     1
  3
ACAD_LAYERSTATES
360
5E
  0
DICTIONARY
  5
54B
330
1F
100
AcDbDictionary
280
     1
  3
ACAD_LAYOUTSELFREF
360
7F2
  3
ACAD_SORTENTS
360
54C
  0
DICTIONARY
  5
7F3
330
50
100
AcDbDictionary
280
     1
  3
ACAD_LAYOUTSELFREF
360
7F4
  0
DICTIONARY
  5
D
102
{ACAD_REACTORS
330
C
102
}
330
C
100
AcDbDictionary
  0
DICTIONARY
  5
1A
102
{ACAD_REACTORS
330
C
102
}
330
C
100
AcDbDictionary
  0
DICTIONARY
  5
17
102
{ACAD_REACTORS
330
C
102
}
330
C
100
AcDbDictionary
  3
STANDARD
350
18
  0
DICTIONARY
  5
19
102
{ACAD_REACTORS
330
C
102
}
330
C
100
AcDbDictionary
  0
ACDBDICTIONARYWDFLT
  5
E
102
{ACAD_REACTORS
330
C
102
}
330
C
100
AcDbDictionary
281
     1
  3
Normal
350
F
100
AcDbDictionaryWithDefault
340
F
  0
DICTIONARY
  5
7D1
102
{ACAD_REACTORS
330
C
102
}
330
C
100
AcDbDictionary
  3
CEPSNTYPE
350
7DB
  3
DIMSTYLEDATA
350
7DF
  3
FINGERPRINTGUID
350
7DC
  3
HYPERLINKBASE
350
7D4
  3
INSUNITS
350
7DA
  3
LAYOUTDICT
350
7D6
  3
LWETCUNION
350
7D9
  3
PLOTSETDICT
350
7D7
  3
PLOTSTYLNAMDICT
350
7D8
  3
PSVPSCALE
350
7DE
  3
PUCSBASE
350
7E2
  3
PUCSORGBACK
350
7E8
  3
PUCSORGBOTTOM
350
7E4
  3
PUCSORGFRONT
350
7E7
  3
PUCSORGLEFT
350
7E5
  3
PUCSORGRIGHT
350
7E6
  3
PUCSORGTOP
350
7E3
  3
PUCSORTHOREF
350
7E0
  3
PUCSORTHOVIEW
350
7E1
  3
STYLESHEET
350
7D5
  3
TSTACKALIGN
350
7D2
  3
TSTACKSIZE
350
7D3
  3
UCSBASE
350
7EB
  3
UCSORGBACK
350
7F1
  3
UCSORGBOTTOM
350
7ED
  3
UCSORGFRONT
350
7F0
  3
UCSORGLEFT
350
7EE
  3
UCSORGRIGHT
350
7EF
  3
UCSORGTOP
350
7EC
  3
UCSORTHOREF
350
7E9
  3
UCSORTHOVIEW
350
7EA
  3
VERSIONGUID
350
7DD
  0
DICTIONARY
  5
547
102
{ACAD_REACTORS
330
C
102
}
330
C
100
AcDbDictionary
  3
SORTENTS
350
548
  0
DICTIONARY
  5
5E
102
{ACAD_REACTORS
330
5D
102
}
330
5D
100
AcDbDictionary
  0
XRECORD
  5
7F2
102
{ACAD_REACTORS
330
54B
102
}
330
54B
100
AcDbXrecord
340
1F
  0
SORTENTSTABLE
  5
54C
102
{ACAD_REACTORS
330
54B
102
}
330
54B
100
AcDbSortentsTable
330
1F
331
323
  5
32A
331
41E
  5
425
331
352
  5
359
331
307
  5
30E
331
44D
  5
454
331
344
  5
34B
331
43F
  5
446
331
373
  5
37A
331
46E
  5
475
331
365
  5
36C
331
38C
  5
393
331
487
  5
48E
331
386
  5
38D
331
3AD
  5
3B4
331
4A8
  5
4AF
331
39F
  5
3A6
331
3CE
  5
3D5
331
4C9
  5
4D0
331
3C0
  5
3C7
331
4F0
  5
4F7
331
3EF
  5
3F6
331
4EA
  5
4F1
331
3E1
  5
3E8
331
511
  5
518
331
408
  5
40F
331
503
  5
50A
331
532
  5
539
331
429
  5
430
331
524
  5
52B
331
2E3
  5
2EC
331
320
  5
327
331
41B
  5
422
331
2D5
  5
2DF
331
304
  5
30B
331
545
  5
2DA
331
44A
  5
451
331
341
  5
348
331
2F6
  5
2FE
331
43C
  5
443
331
370
  5
377
331
46B
  5
472
331
362
  5
369
331
45D
  5
464
331
389
  5
390
331
484
  5
48B
331
383
  5
38A
331
3AA
  5
3B1
331
4A5
  5
4AC
331
39C
  5
3A3
331
497
  5
49E
331
3CB
  5
3D2
331
4C6
  5
4CD
331
3BD
  5
3C4
331
3EC
  5
3F3
331
4E7
  5
4EE
331
3DE
  5
3E5
331
405
  5
40C
331
500
  5
507
331
3FF
  5
406
331
426
  5
42D
331
521
  5
528
331
2E0
  5
2E9
331
31D
  5
324
331
418
  5
41F
331
542
  5
544
331
301
  5
308
331
447
  5
44E
331
33E
  5
345
331
2F3
  5
2FB
331
439
  5
440
331
468
  5
46F
331
35F
  5
366
331
45A
  5
461
331
481
  5
488
331
380
  5
387
331
4A2
  5
4A9
331
399
  5
3A0
331
494
  5
49B
331
3C8
  5
3CF
331
4C3
  5
4CA
331
3BA
  5
3C1
331
4B5
  5
4BC
331
3E9
  5
3F0
331
4E4
  5
4EB
331
3DB
  5
3E2
331
4D6
  5
4DD
331
402
  5
409
331
4FD
  5
504
331
3FC
  5
403
331
423
  5
42A
331
51E
  5
525
331
2DD
  5
2E6
331
31A
  5
321
331
415
  5
41C
331
53F
  5
541
331
2FE
  5
305
331
444
  5
44B
331
33B
  5
342
331
2F0
  5
2F8
331
436
  5
43D
331
32D
  5
334
331
465
  5
46C
331
35C
  5
363
331
457
  5
45E
331
47E
  5
485
331
37D
  5
384
331
36F
  5
376
331
49F
  5
4A6
331
396
  5
39D
331
491
  5
498
331
4C0
  5
4C7
331
3B7
  5
3BE
331
4B2
  5
4B9
331
4E1
  5
4E8
331
3D8
  5
3DF
331
4D3
  5
4DA
331
4FA
  5
501
331
3F9
  5
400
331
420
  5
427
331
51B
  5
522
331
2DA
  5
2E3
331
317
  5
31E
331
412
  5
419
331
50D
  5
514
331
441
  5
448
331
53C
  5
540
331
2FB
  5
2DB
331
338
  5
33F
331
2ED
  5
2F5
331
52E
  5
535
331
433
  5
43A
331
32A
  5
331
331
462
  5
469
331
359
  5
360
331
30E
  5
315
331
454
  5
45B
331
34B
  5
353
331
47B
  5
482
331
37A
  5
381
331
475
  5
47C
331
36C
  5
373
331
49C
  5
4A3
331
393
  5
39A
331
48E
  5
495
331
4BD
  5
4C4
331
3B4
  5
3BB
331
4AF
  5
4B6
331
3A6
  5
3AD
331
4DE
  5
4E5
331
3D5
  5
3DC
331
4D0
  5
4D7
331
3C7
  5
3CE
331
4F7
  5
4FE
331
3F6
  5
3FD
331
518
  5
51F
331
314
  5
31B
331
40F
  5
416
331
50A
  5
511
331
2F8
  5
300
331
539
  5
53E
331
335
  5
33C
331
2EA
  5
2F2
331
52B
  5
532
331
430
  5
437
331
327
  5
32E
331
356
  5
35D
331
30B
  5
312
331
451
  5
458
331
348
  5
350
331
478
  5
47F
331
377
  5
37E
331
472
  5
479
331
369
  5
370
331
499
  5
4A0
331
390
  5
397
331
48B
  5
492
331
4BA
  5
4C1
331
3B1
  5
3B8
331
4AC
  5
4B3
331
3A3
  5
3AA
331
4DB
  5
4E2
331
3D2
  5
3D9
331
4CD
  5
4D4
331
3C4
  5
3CB
331
4F4
  5
4FB
331
3F3
  5
3FA
331
4EE
  5
4F5
331
3E5
  5
3EC
331
515
  5
51C
331
311
  5
318
331
40C
  5
413
331
507
  5
50E
331
536
  5
2DC
331
332
  5
339
331
2E7
  5
2EF
331
528
  5
52F
331
42D
  5
434
331
324
  5
32B
331
41F
  5
426
331
353
  5
35A
331
308
  5
30F
331
44E
  5
455
331
345
  5
34C
331
374
  5
37B
331
46F
  5
476
331
366
  5
36D
331
38D
  5
394
331
488
  5
48F
331
387
  5
38E
331
3AE
  5
3B5
331
4A9
  5
4B0
331
3A0
  5
3A7
331
4D8
  5
4DF
331
3CF
  5
3D6
331
4CA
  5
4D1
331
3C1
  5
3C8
331
4F1
  5
4F8
331
3F0
  5
3F7
331
4EB
  5
4F2
331
3E2
  5
3E9
331
512
  5
519
331
409
  5
410
331
504
  5
50B
331
533
  5
53A
331
42A
  5
431
331
525
  5
52C
331
2E4
  5
2ED
331
321
  5
328
331
41C
  5
423
331
2D6
  5
2E0
331
350
  5
357
331
546
  5
54A
331
305
  5
30C
331
44B
  5
452
331
342
  5
349
331
2F7
  5
2FF
331
43D
  5
444
331
371
  5
378
331
46C
  5
473
331
363
  5
36A
331
45E
  5
465
331
38A
  5
391
331
485
  5
48C
331
384
  5
38B
331
3AB
  5
3B2
331
4A6
  5
4AD
331
39D
  5
3A4
331
3CC
  5
3D3
331
4C7
  5
4CE
331
3BE
  5
3C5
331
3ED
  5
3F4
331
4E8
  5
4EF
331
3DF
  5
3E6
331
406
  5
40D
331
501
  5
508
331
530
  5
537
331
427
  5
42E
331
522
  5
529
331
2E1
  5
2EA
331
31E
  5
325
331
419
  5
420
331
543
  5
545
331
302
  5
309
331
448
  5
44F
331
33F
  5
346
331
2F4
  5
2FC
331
43A
  5
441
331
469
  5
470
331
360
  5
367
331
45B
  5
462
331
482
  5
489
331
381
  5
388
331
3A8
  5
3AF
331
4A3
  5
4AA
331
39A
  5
3A1
331
495
  5
49C
331
3C9
  5
3D0
331
4C4
  5
4CB
331
3BB
  5
3C2
331
4B6
  5
4BD
331
3EA
  5
3F1
331
4E5
  5
4EC
331
3DC
  5
3E3
331
4D7
  5
4DE
331
403
  5
40A
331
4FE
  5
505
331
3FD
  5
404
331
424
  5
42B
331
51F
  5
526
331
2DE
  5
2E7
331
31B
  5
322
331
416
  5
41D
331
540
  5
542
331
2FF
  5
306
331
445
  5
44C
331
33C
  5
343
331
2F1
  5
2F9
331
437
  5
43E
331
32E
  5
335
331
466
  5
46D
331
35D
  5
364
331
458
  5
45F
331
34F
  5
356
331
47F
  5
486
331
37E
  5
385
331
4A0
  5
4A7
331
397
  5
39E
331
492
  5
499
331
4C1
  5
4C8
331
3B8
  5
3BF
331
4B3
  5
4BA
331
4E2
  5
4E9
331
3D9
  5
3E0
331
4D4
  5
4DB
331
400
  5
407
331
4FB
  5
502
331
3FA
  5
401
331
421
  5
428
331
51C
  5
523
331
2DB
  5
2E4
331
318
  5
31F
331
413
  5
41A
331
50E
  5
515
331
2FC
  5
303
331
53D
  5
2D6
331
442
  5
449
331
339
  5
340
331
2EE
  5
2F6
331
52F
  5
536
331
434
  5
43B
331
32B
  5
332
331
463
  5
46A
331
35A
  5
361
331
30F
  5
316
331
455
  5
45C
331
34C
  5
354
331
47C
  5
483
331
37B
  5
382
331
476
  5
47D
331
36D
  5
374
331
49D
  5
4A4
331
394
  5
39B
331
48F
  5
496
331
4BE
  5
4C5
331
3B5
  5
3BC
331
4B0
  5
4B7
331
3A7
  5
3AE
331
4DF
  5
4E6
331
3D6
  5
3DD
331
4D1
  5
4D8
331
4F8
  5
4FF
331
3F7
  5
3FE
331
519
  5
520
331
2D8
  5
2E1
331
315
  5
31C
331
410
  5
417
331
50B
  5
512
331
2F9
  5
301
331
53A
  5
53F
331
336
  5
33D
331
2EB
  5
2F3
331
52C
  5
533
331
431
  5
438
331
328
  5
32F
331
460
  5
467
331
357
  5
35E
331
30C
  5
313
331
452
  5
459
331
349
  5
351
331
479
  5
480
331
378
  5
37F
331
473
  5
47A
331
36A
  5
371
331
49A
  5
4A1
331
391
  5
398
331
48C
  5
493
331
4BB
  5
4C2
331
3B2
  5
3B9
331
4AD
  5
4B4
331
3A4
  5
3AB
331
4DC
  5
4E3
331
3D3
  5
3DA
331
4CE
  5
4D5
331
3C5
  5
3CC
331
4F5
  5
4FC
331
3F4
  5
3FB
331
4EF
  5
4F6
331
3E6
  5
3ED
331
516
  5
51D
331
312
  5
319
331
40D
  5
414
331
508
  5
50F
331
537
  5
2DD
331
333
  5
33A
331
2E8
  5
2F0
331
529
  5
530
331
42E
  5
435
331
325
  5
32C
331
354
  5
35B
331
309
  5
310
331
54A
  5
2DE
331
44F
  5
456
331
346
  5
34D
331
375
  5
37C
331
470
  5
477
331
367
  5
36E
331
38E
  5
395
331
489
  5
490
331
4B8
  5
4BF
331
3AF
  5
3B6
331
4AA
  5
4B1
331
3A1
  5
3A8
331
4D9
  5
4E0
331
3D0
  5
3D7
331
4CB
  5
4D2
331
3C2
  5
3C9
331
4F2
  5
4F9
331
3F1
  5
3F8
331
4EC
  5
4F3
331
3E3
  5
3EA
331
513
  5
51A
331
40A
  5
411
331
505
  5
50C
331
534
  5
53B
331
330
  5
337
331
42B
  5
432
331
526
  5
52D
331
2E5
  5
2D7
331
322
  5
329
331
41D
  5
424
331
2D7
  5
2D8
331
351
  5
358
331
306
  5
30D
331
44C
  5
453
331
343
  5
34A
331
43E
  5
445
331
372
  5
379
331
46D
  5
474
331
364
  5
36B
331
45F
  5
466
331
38B
  5
392
331
486
  5
48D
331
385
  5
38C
331
3AC
  5
3B3
331
4A7
  5
4AE
331
39E
  5
3A5
331
3CD
  5
3D4
331
4C8
  5
4CF
331
3BF
  5
3C6
331
3EE
  5
3F5
331
4E9
  5
4F0
331
3E0
  5
3E7
331
510
  5
517
331
407
  5
40E
331
502
  5
509
331
531
  5
538
331
428
  5
42F
331
523
  5
52A
331
2E2
  5
2EB
331
31F
  5
326
331
41A
  5
421
331
544
  5
546
331
303
  5
30A
331
449
  5
450
331
340
  5
347
331
2F5
  5
2FD
331
43B
  5
442
331
46A
  5
471
331
361
  5
368
331
45C
  5
463
331
388
  5
38F
331
483
  5
48A
331
382
  5
389
331
3A9
  5
3B0
331
4A4
  5
4AB
331
39B
  5
3A2
331
496
  5
49D
331
3CA
  5
3D1
331
4C5
  5
4CC
331
3BC
  5
3C3
331
4B7
  5
4BE
331
3EB
  5
3F2
331
4E6
  5
4ED
331
3DD
  5
3E4
331
404
  5
40B
331
4FF
  5
506
331
3FE
  5
405
331
425
  5
42C
331
520
  5
527
331
2DF
  5
2E8
331
31C
  5
323
331
417
  5
41E
331
541
  5
543
331
300
  5
307
331
446
  5
44D
331
33D
  5
344
331
2F2
  5
2FA
331
438
  5
43F
331
32F
  5
336
331
467
  5
46E
331
35E
  5
365
331
459
  5
460
331
480
  5
487
331
37F
  5
386
331
4A1
  5
4A8
331
398
  5
39F
331
493
  5
49A
331
4C2
  5
4C9
331
3B9
  5
3C0
331
4B4
  5
4BB
331
3E8
  5
3EF
331
4E3
  5
4EA
331
3DA
  5
3E1
331
4D5
  5
4DC
331
401
  5
408
331
4FC
  5
503
331
3FB
  5
402
331
422
  5
429
331
51D
  5
524
331
2DC
  5
2E5
331
319
  5
320
331
414
  5
41B
331
50F
  5
516
331
2FD
  5
304
331
53E
  5
2D9
331
443
  5
44A
331
33A
  5
341
331
2EF
  5
2F7
331
435
  5
43C
331
32C
  5
333
331
464
  5
46B
331
35B
  5
362
331
456
  5
45D
331
34D
  5
355
331
47D
  5
484
331
37C
  5
383
331
477
  5
47E
331
36E
  5
375
331
49E
  5
4A5
331
395
  5
39C
331
490
  5
497
331
4BF
  5
4C6
331
3B6
  5
3BD
331
4B1
  5
4B8
331
4E0
  5
4E7
331
3D7
  5
3DE
331
4D2
  5
4D9
331
4F9
  5
500
331
3F8
  5
3FF
331
51A
  5
521
331
2D9
  5
2E2
331
316
  5
31D
331
411
  5
418
331
50C
  5
513
331
2FA
  5
302
331
53B
  5
2D5
331
440
  5
447
331
337
  5
33E
331
2EC
  5
2F4
331
52D
  5
534
331
432
  5
439
331
329
  5
330
331
461
  5
468
331
358
  5
35F
331
30D
  5
314
331
453
  5
45A
331
34A
  5
352
331
47A
  5
481
331
379
  5
380
331
474
  5
47B
331
36B
  5
372
331
49B
  5
4A2
331
392
  5
399
331
48D
  5
494
331
4BC
  5
4C3
331
3B3
  5
3BA
331
4AE
  5
4B5
331
3A5
  5
3AC
331
4DD
  5
4E4
331
3D4
  5
3DB
331
4CF
  5
4D6
331
3C6
  5
3CD
331
4F6
  5
4FD
331
3F5
  5
3FC
331
3E7
  5
3EE
331
517
  5
51E
331
313
  5
31A
331
40E
  5
415
331
509
  5
510
331
538
  5
53D
331
334
  5
33B
331
2E9
  5
2F1
331
52A
  5
531
331
42F
  5
436
331
326
  5
32D
331
355
  5
35C
331
30A
  5
311
331
450
  5
457
331
347
  5
34F
331
376
  5
37D
331
471
  5
478
331
368
  5
36F
331
498
  5
49F
331
38F
  5
396
331
48A
  5
491
331
4B9
  5
4C0
331
3B0
  5
3B7
331
4AB
  5
4B2
331
3A2
  5
3A9
331
4DA
  5
4E1
331
3D1
  5
3D8
331
4CC
  5
4D3
331
3C3
  5
3CA
331
4F3
  5
4FA
331
3F2
  5
3F9
331
4ED
  5
4F4
331
3E4
  5
3EB
331
514
  5
51B
331
310
  5
317
331
40B
  5
412
331
506
  5
50D
331
535
  5
53C
331
331
  5
338
331
2E6
  5
2EE
331
527
  5
52E
331
42C
  5
433
  0
XRECORD
  5
7F4
102
{ACAD_REACTORS
330
7F3
102
}
330
7F3
100
AcDbXrecord
340
50
  0
MLINESTYLE
  5
18
102
{ACAD_REACTORS
330
17
102
}
330
17
100
AcDbMlineStyle
  2
STANDARD
 70
     0
  3

 62
   256
 51
90.0
 52
90.0
 71
     2
 49
0.5
 62
   256
  6
BYLAYER
 49
-0.5
 62
   256
  6
BYLAYER
  0
ACDBPLACEHOLDER
  5
F
102
{ACAD_REACTORS
330
E
102
}
330
E
100
AcDbPlaceHolder
280
     0
  0
XRECORD
  5
7DB
102
{ACAD_REACTORS
330
7D1
102
}
330
7D1
100
AcDbXrecord
 90
        0
  0
XRECORD
  5
7DF
102
{ACAD_REACTORS
330
7D1
102
}
330
7D1
100
AcDbXrecord
1000
DSTYLE
1002
{
1070
   278
 70
    44
1002
}
  0
XRECORD
  5
7DC
102
{ACAD_REACTORS
330
7D1
102
}
330
7D1
100
AcDbXrecord
  1
{FDEAD578-A652-11D2-9A35-0060089B3A3F}
  0
XRECORD
  5
7D4
102
{ACAD_REACTORS
330
7D1
102
}
330
7D1
100
AcDbXrecord
  1

  0
XRECORD
  5
7DA
102
{ACAD_REACTORS
330
7D1
102
}
330
7D1
100
AcDbXrecord
 90
        4
  0
XRECORD
  5
7D6
102
{ACAD_REACTORS
330
7D1
102
}
330
7D1
100
AcDbXrecord
340
1A
  0
XRECORD
  5
7D9
102
{ACAD_REACTORS
330
7D1
102
}
330
7D1
100
AcDbXrecord
 90
    10781
  0
XRECORD
  5
7D7
102
{ACAD_REACTORS
330
7D1
102
}
330
7D1
100
AcDbXrecord
340
19
  0
XRECORD
  5
7D8
102
{ACAD_REACTORS
330
7D1
102
}
330
7D1
100
AcDbXrecord
340
E
  0
XRECORD
  5
7DE
102
{ACAD_REACTORS
330
7D1
102
}
330
7D1
100
AcDbXrecord
 40
0.0
  0
XRECORD
  5
7E2
102
{ACAD_REACTORS
330
7D1
102
}
330
7D1
100
AcDbXrecord
340
0
  0
XRECORD
  5
7E8
102
{ACAD_REACTORS
330
7D1
102
}
330
7D1
100
AcDbXrecord
 10
0.0
 20
0.0
 30
0.0
  0
XRECORD
  5
7E4
102
{ACAD_REACTORS
330
7D1
102
}
330
7D1
100
AcDbXrecord
 10
0.0
 20
0.0
 30
0.0
  0
XRECORD
  5
7E7
102
{ACAD_REACTORS
330
7D1
102
}
330
7D1
100
AcDbXrecord
 10
0.0
 20
0.0
 30
0.0
  0
XRECORD
  5
7E5
102
{ACAD_REACTORS
330
7D1
102
}
330
7D1
100
AcDbXrecord
 10
0.0
 20
0.0
 30
0.0
  0
XRECORD
  5
7E6
102
{ACAD_REACTORS
330
7D1
102
}
330
7D1
100
AcDbXrecord
 10
0.0
 20
0.0
 30
0.0
  0
XRECORD
  5
7E3
102
{ACAD_REACTORS
330
7D1
102
}
330
7D1
100
AcDbXrecord
 10
0.0
 20
0.0
 30
0.0
  0
XRECORD
  5
7E0
102
{ACAD_REACTORS
330
7D1
102
}
330
7D1
100
AcDbXrecord
340
0
  0
XRECORD
  5
7E1
102
{ACAD_REACTORS
330
7D1
102
}
330
7D1
100
AcDbXrecord
 70
     0
  0
XRECORD
  5
7D5
102
{ACAD_REACTORS
330
7D1
102
}
330
7D1
100
AcDbXrecord
  1

  0
XRECORD
  5
7D2
102
{ACAD_REACTORS
330
7D1
102
}
330
7D1
100
AcDbXrecord
 90
        1
  0
XRECORD
  5
7D3
102
{ACAD_REACTORS
330
7D1
102
}
330
7D1
100
AcDbXrecord
 90
       70
  0
XRECORD
  5
7EB
102
{ACAD_REACTORS
330
7D1
102
}
330
7D1
100
AcDbXrecord
340
0
  0
XRECORD
  5
7F1
102
{ACAD_REACTORS
330
7D1
102
}
330
7D1
100
AcDbXrecord
 10
0.0
 20
0.0
 30
0.0
  0
XRECORD
  5
7ED
102
{ACAD_REACTORS
330
7D1
102
}
330
7D1
100
AcDbXrecord
 10
0.0
 20
0.0
 30
0.0
  0
XRECORD
  5
7F0
102
{ACAD_REACTORS
330
7D1
102
}
330
7D1
100
AcDbXrecord
 10
0.0
 20
0.0
 30
0.0
  0
XRECORD
  5
7EE
102
{ACAD_REACTORS
330
7D1
102
}
330
7D1
100
AcDbXrecord
 10
0.0
 20
0.0
 30
0.0
  0
XRECORD
  5
7EF
102
{ACAD_REACTORS
330
7D1
102
}
330
7D1
100
AcDbXrecord
 10
0.0
 20
0.0
 30
0.0
  0
XRECORD
  5
7EC
102
{ACAD_REACTORS
330
7D1
102
}
330
7D1
100
AcDbXrecord
 10
0.0
 20
0.0
 30
0.0
  0
XRECORD
  5
7E9
102
{ACAD_REACTORS
330
7D1
102
}
330
7D1
100
AcDbXrecord
340
0
  0
XRECORD
  5
7EA
102
{ACAD_REACTORS
330
7D1
102
}
330
7D1
100
AcDbXrecord
 70
     0
  0
XRECORD
  5
7DD
102
{ACAD_REACTORS
330
7D1
102
}
330
7D1
100
AcDbXrecord
  1
{B556E77E-AA18-42ED-8DF2-F4987C2C3086}
  0
DICTIONARYVAR
  5
548
102
{ACAD_REACTORS
330
547
102
}
330
547
100
DictionaryVariables
280
     0
  1
127
  0
ENDSEC
  0
EOF
