  0
SECTION
  2
HEADER
  9
$ACADVER
  1
AC1014
  9
$ACADMAINTVER
 70
     9
  9
$DWGCODEPAGE
  3
ANSI_1252
  9
$INSBASE
 10
0.0
 20
0.0
 30
0.0
  9
$EXTMIN
 10
-310.7738556337281
 20
-64.3336018556638
 30
-0.0015258207003583
  9
$EXTMAX
 10
8659.650635880684
 20
5145.803729729937
 30
0.0000000349246037
  9
$LIMMIN
 10
0.0
 20
0.0
  9
$LIMMAX
 10
420.0
 20
297.0
  9
$ORTHOMODE
 70
     0
  9
$REGENMODE
 70
     1
  9
$FILLMODE
 70
     1
  9
$QTEXTMODE
 70
     0
  9
$MIRRTEXT
 70
     1
  9
$DRAGMODE
 70
     2
  9
$LTSCALE
 40
1.0
  9
$OSMODE
 70
   511
  9
$ATTMODE
 70
     1
  9
$TEXTSIZE
 40
2.5
  9
$TRACEWID
 40
1.0
  9
$TEXTSTYLE
  7
STANDARD
  9
$CLAYER
  8
0
  9
$CELTYPE
  6
BYLAYER
  9
$CECOLOR
 62
   256
  9
$CELTSCALE
 40
1.0
  9
$DELOBJ
 70
     1
  9
$DISPSILH
 70
     0
  9
$DIMSCALE
 40
1.0
  9
$DIMASZ
 40
2.5
  9
$DIMEXO
 40
0.625
  9
$DIMDLI
 40
3.75
  9
$DIMRND
 40
0.0
  9
$DIMDLE
 40
0.0
  9
$DIMEXE
 40
1.25
  9
$DIMTP
 40
0.0
  9
$DIMTM
 40
0.0
  9
$DIMTXT
 40
2.5
  9
$DIMCEN
 40
2.5
  9
$DIMTSZ
 40
0.0
  9
$DIMTOL
 70
     0
  9
$DIMLIM
 70
     0
  9
$DIMTIH
 70
     0
  9
$DIMTOH
 70
     0
  9
$DIMSE1
 70
     0
  9
$DIMSE2
 70
     0
  9
$DIMTAD
 70
     1
  9
$DIMZIN
 70
     8
  9
$DIMBLK
  1

  9
$DIMASO
 70
     1
  9
$DIMSHO
 70
     1
  9
$DIMPOST
  1

  9
$DIMAPOST
  1

  9
$DIMALT
 70
     0
  9
$DIMALTD
 70
     3
  9
$DIMALTF
 40
0.03937007874016
  9
$DIMLFAC
 40
1.0
  9
$DIMTOFL
 70
     1
  9
$DIMTVP
 40
0.0
  9
$DIMTIX
 70
     0
  9
$DIMSOXD
 70
     0
  9
$DIMSAH
 70
     0
  9
$DIMBLK1
  1

  9
$DIMBLK2
  1

  9
$DIMSTYLE
  2
ISO-25
  9
$DIMCLRD
 70
     0
  9
$DIMCLRE
 70
     0
  9
$DIMCLRT
 70
     0
  9
$DIMTFAC
 40
1.0
  9
$DIMGAP
 40
0.625
  9
$DIMJUST
 70
     0
  9
$DIMSD1
 70
     0
  9
$DIMSD2
 70
     0
  9
$DIMTOLJ
 70
     0
  9
$DIMTZIN
 70
     8
  9
$DIMALTZ
 70
     0
  9
$DIMALTTZ
 70
     0
  9
$DIMFIT
 70
     3
  9
$DIMUPT
 70
     0
  9
$DIMUNIT
 70
     2
  9
$DIMDEC
 70
     2
  9
$DIMTDEC
 70
     2
  9
$DIMALTU
 70
     2
  9
$DIMALTTD
 70
     3
  9
$DIMTXSTY
  7
STANDARD
  9
$DIMAUNIT
 70
     0
  9
$LUNITS
 70
     2
  9
$LUPREC
 70
     4
  9
$SKETCHINC
 40
1.0
  9
$FILLETRAD
 40
10.0
  9
$AUNITS
 70
     0
  9
$AUPREC
 70
     0
  9
$MENU
  1
.
  9
$ELEVATION
 40
0.0
  9
$PELEVATION
 40
0.0
  9
$THICKNESS
 40
0.0
  9
$LIMCHECK
 70
     0
  9
$BLIPMODE
 70
     0
  9
$CHAMFERA
 40
10.0
  9
$CHAMFERB
 40
10.0
  9
$CHAMFERC
 40
20.0
  9
$CHAMFERD
 40
0.0
  9
$SKPOLY
 70
     0
  9
$TDCREATE
 40
2453124.619587118
  9
$TDUPDATE
 40
2453186.701186504
  9
$TDINDWG
 40
0.0013836574
  9
$TDUSRTIMER
 40
0.0013836574
  9
$USRTIMER
 70
     1
  9
$ANGBASE
 50
0.0
  9
$ANGDIR
 70
     0
  9
$PDMODE
 70
     0
  9
$PDSIZE
 40
0.0
  9
$PLINEWID
 40
0.0
  9
$COORDS
 70
     2
  9
$SPLFRAME
 70
     0
  9
$SPLINETYPE
 70
     6
  9
$SPLINESEGS
 70
     8
  9
$ATTDIA
 70
     0
  9
$ATTREQ
 70
     1
  9
$HANDLING
 70
-16383
  9
$HANDSEED
  5
3E6
  9
$SURFTAB1
 70
     6
  9
$SURFTAB2
 70
     6
  9
$SURFTYPE
 70
     6
  9
$SURFU
 70
     6
  9
$SURFV
 70
     6
  9
$UCSNAME
  2

  9
$UCSORG
 10
0.0
 20
0.0
 30
0.0
  9
$UCSXDIR
 10
1.0
 20
0.0
 30
0.0
  9
$UCSYDIR
 10
0.0
 20
1.0
 30
0.0
  9
$PUCSNAME
  2

  9
$PUCSORG
 10
0.0
 20
0.0
 30
0.0
  9
$PUCSXDIR
 10
1.0
 20
0.0
 30
0.0
  9
$PUCSYDIR
 10
0.0
 20
1.0
 30
0.0
  9
$USERI1
 70
     0
  9
$USERI2
 70
     0
  9
$USERI3
 70
     0
  9
$USERI4
 70
     0
  9
$USERI5
 70
     0
  9
$USERR1
 40
0.0
  9
$USERR2
 40
0.0
  9
$USERR3
 40
0.0
  9
$USERR4
 40
0.0
  9
$USERR5
 40
0.0
  9
$WORLDVIEW
 70
     1
  9
$SHADEDGE
 70
     3
  9
$SHADEDIF
 70
    70
  9
$TILEMODE
 70
     1
  9
$MAXACTVP
 70
    64
  9
$PINSBASE
 10
0.0
 20
0.0
 30
0.0
  9
$PLIMCHECK
 70
     0
  9
$PEXTMIN
 10
0.0
 20
0.0
 30
0.0
  9
$PEXTMAX
 10
0.0
 20
0.0
 30
0.0
  9
$PLIMMIN
 10
0.0
 20
0.0
  9
$PLIMMAX
 10
12.0
 20
9.0
  9
$UNITMODE
 70
     0
  9
$VISRETAIN
 70
     1
  9
$PLINEGEN
 70
     0
  9
$PSLTSCALE
 70
     1
  9
$TREEDEPTH
 70
  3020
  9
$PICKSTYLE
 70
     0
  9
$CMLSTYLE
  2
STANDARD
  9
$CMLJUST
 70
     0
  9
$CMLSCALE
 40
20.0
  9
$PROXYGRAPHICS
 70
     1
  9
$MEASUREMENT
 70
     1
  0
ENDSEC
  0
SECTION
  2
CLASSES
  0
CLASS
  1
ACDBDICTIONARYWDFLT
  2
AcDbDictionaryWithDefault
  3
AutoCAD 2000
 90
        0
280
     0
281
     0
  0
CLASS
  1
ACDBPLACEHOLDER
  2
AcDbPlaceHolder
  3
AutoCAD 2000
 90
        0
280
     0
281
     0
  0
CLASS
  1
LAYOUT
  2
AcDbLayout
  3
AutoCAD 2000
 90
        0
280
     0
281
     0
  0
CLASS
  1
LONG_TRANSACTION
  2
AcDbLongTransaction
  3
AutoCAD 2000
 90
        0
280
     0
281
     0
  0
CLASS
  1
LWPOLYLINE
  2
AcDbPolyline
  3
AutoCAD 2000
 90
        0
280
     0
281
     1
  0
CLASS
  1
HATCH
  2
AcDbHatch
  3
AutoCAD 2000
 90
        0
280
     0
281
     1
  0
CLASS
  1
XRECORD
  2
AcDbXrecord
  3
AutoCAD 2000
 90
        0
280
     0
281
     0
  0
ENDSEC
  0
SECTION
  2
TABLES
  0
TABLE
  2
VPORT
  5
8
330
0
100
AcDbSymbolTable
 70
     3
  0
VPORT
  5
3BD
330
8
100
AcDbSymbolTableRecord
100
AcDbViewportTableRecord
  2
*ACTIVE
 70
     0
 10
0.0
 20
0.0
 11
1.0
 21
1.0
 12
4174.438390123479
 22
2540.735063937136
 13
0.0
 23
0.0
 14
10.0
 24
10.0
 15
10.0
 25
10.0
 16
0.0
 26
0.0
 36
1.0
 17
0.0
 27
0.0
 37
0.0
 40
5272.093464974525
 41
1.720238095238095
 42
50.0
 43
0.0
 44
0.0
 50
0.0
 51
0.0
 71
     0
 72
   100
 73
     1
 74
     3
 75
     0
 76
     0
 77
     0
 78
     0
  0
ENDTAB
  0
TABLE
  2
LTYPE
  5
5
330
0
100
AcDbSymbolTable
 70
     1
  0
LTYPE
  5
14
330
5
100
AcDbSymbolTableRecord
100
AcDbLinetypeTableRecord
  2
BYBLOCK
 70
     0
  3

 72
    65
 73
     0
 40
0.0
  0
LTYPE
  5
15
330
5
100
AcDbSymbolTableRecord
100
AcDbLinetypeTableRecord
  2
BYLAYER
 70
     0
  3

 72
    65
 73
     0
 40
0.0
  0
LTYPE
  5
16
330
5
100
AcDbSymbolTableRecord
100
AcDbLinetypeTableRecord
  2
CONTINUOUS
 70
     0
  3
Solid line
 72
    65
 73
     0
 40
0.0
  0
ENDTAB
  0
TABLE
  2
LAYER
  5
2
102
{ACAD_XDICTIONARY
360
5D
102
}
330
0
100
AcDbSymbolTable
 70
     1
  0
LAYER
  5
10
330
2
100
AcDbSymbolTableRecord
100
AcDbLayerTableRecord
  2
0
 70
     0
 62
     7
  6
CONTINUOUS
  0
ENDTAB
  0
TABLE
  2
STYLE
  5
3
330
0
100
AcDbSymbolTable
 70
     1
  0
STYLE
  5
11
330
3
100
AcDbSymbolTableRecord
100
AcDbTextStyleTableRecord
  2
STANDARD
 70
     0
 40
0.0
 41
1.0
 50
0.0
 71
     0
 42
2.5
  3
txt
  4

  0
ENDTAB
  0
TABLE
  2
VIEW
  5
6
330
0
100
AcDbSymbolTable
 70
     0
  0
ENDTAB
  0
TABLE
  2
UCS
  5
7
330
0
100
AcDbSymbolTable
 70
     0
  0
ENDTAB
  0
TABLE
  2
APPID
  5
9
330
0
100
AcDbSymbolTable
 70
     2
  0
APPID
  5
12
330
9
100
AcDbSymbolTableRecord
100
AcDbRegAppTableRecord
  2
ACAD
 70
     0
  0
APPID
  5
3E5
330
9
100
AcDbSymbolTableRecord
100
AcDbRegAppTableRecord
  2
CONTENTBLOCKICON
 70
     0
  0
ENDTAB
  0
TABLE
  2
DIMSTYLE
  5
A
330
0
100
AcDbSymbolTable
 70
     1
  0
DIMSTYLE
105
27
330
A
100
AcDbSymbolTableRecord
100
AcDbDimStyleTableRecord
  2
ISO-25
 70
     0
  3

  4

  5

  6

  7

 40
1.0
 41
2.5
 42
0.625
 43
3.75
 44
1.25
 45
0.0
 46
0.0
 47
0.0
 48
0.0
140
2.5
141
2.5
142
0.0
143
0.03937007874016
144
1.0
145
0.0
146
1.0
147
0.625
 71
     0
 72
     0
 73
     0
 74
     0
 75
     0
 76
     0
 77
     1
 78
     8
170
     0
171
     3
172
     1
173
     0
174
     0
175
     0
176
     0
177
     0
178
     0
270
     2
271
     2
272
     2
273
     2
274
     3
340
11
275
     0
280
     0
281
     0
282
     0
283
     0
284
     8
285
     0
286
     0
287
     3
288
     0
  0
ENDTAB
  0
TABLE
  2
BLOCK_RECORD
  5
1
330
0
100
AcDbSymbolTable
 70
     2
  0
BLOCK_RECORD
  5
1F
102
{ACAD_XDICTIONARY
360
3DF
102
}
330
1
100
AcDbSymbolTableRecord
100
AcDbBlockTableRecord
  2
*MODEL_SPACE
  0
BLOCK_RECORD
  5
50
102
{ACAD_XDICTIONARY
360
3E1
102
}
330
1
100
AcDbSymbolTableRecord
100
AcDbBlockTableRecord
  2
*PAPER_SPACE
  0
BLOCK_RECORD
  5
281
330
1
100
AcDbSymbolTableRecord
100
AcDbBlockTableRecord
  2
ADKU
1001
ACAD
1000
DesignCenter Data
1002
{
1070
     1
1070
     4
1002
}
1001
CONTENTBLOCKICON
1071
        0
1004
2800000020000000200000000100080000000000000400000000000000000000000000000000000000000000000080000080000000808000800000008000800080800000C0C0C000C0DCC000F0CAA6000020400000206000002080000020A0000020C0000020E00000400000004020000040400000406000004080000040A0
1004
000040C0000040E00000600000006020000060400000606000006080000060A0000060C0000060E00000800000008020000080400000806000008080000080A0000080C0000080E00000A0000000A0200000A0400000A0600000A0800000A0A00000A0C00000A0E00000C0000000C0200000C0400000C0600000C0800000C0
1004
A00000C0C00000C0E00000E0000000E0200000E0400000E0600000E0800000E0A00000E0C00000E0E00040000000400020004000400040006000400080004000A0004000C0004000E00040200000402020004020400040206000402080004020A0004020C0004020E000404000004040200040404000404060004040800040
1004
40A0004040C0004040E00040600000406020004060400040606000406080004060A0004060C0004060E00040800000408020004080400040806000408080004080A0004080C0004080E00040A0000040A0200040A0400040A0600040A0800040A0A00040A0C00040A0E00040C0000040C0200040C0400040C0600040C08000
1004
40C0A00040C0C00040C0E00040E0000040E0200040E0400040E0600040E0800040E0A00040E0C00040E0E00080000000800020008000400080006000800080008000A0008000C0008000E00080200000802020008020400080206000802080008020A0008020C0008020E00080400000804020008040400080406000804080
1004
008040A0008040C0008040E00080600000806020008060400080606000806080008060A0008060C0008060E00080800000808020008080400080806000808080008080A0008080C0008080E00080A0000080A0200080A0400080A0600080A0800080A0A00080A0C00080A0E00080C0000080C0200080C0400080C0600080C0
1004
800080C0A00080C0C00080C0E00080E0000080E0200080E0400080E0600080E0800080E0A00080E0C00080E0E000C0000000C0002000C0004000C0006000C0008000C000A000C000C000C000E000C0200000C0202000C0204000C0206000C0208000C020A000C020C000C020E000C0400000C0402000C0404000C0406000C0
1004
408000C040A000C040C000C040E000C0600000C0602000C0604000C0606000C0608000C060A000C060C000C060E000C0800000C0802000C0804000C0806000C0808000C080A000C080C000C080E000C0A00000C0A02000C0A04000C0A06000C0A08000C0A0A000C0A0C000C0A0E000C0C00000C0C02000C0C04000C0C06000
1004
C0C08000C0C0A000F0FBFF00A4A0A000808080000000FF0000FF000000FFFF00FF000000FF00FF00FFFF0000FFFFFF00FFFFFFFFFFFFFFFFFFFFFFFFFFFFFFFFFFFFFFFFFFFFFFFFFFFFFFFFFFFFFFFFFFFFFFFFFFFFFFFFFFFFFFFFFFFFFFFFFFFFFFFFFFFFFFFFFFFFFFFFFFFFFFFFFFFFFFFFFFFFFFFFFFFFFFFFFFFFFF
1004
FFFFFFFFFFFFFFFFFFFFFFFFFFFFFFFFFFFFFFFFFFFFFFFFFFFFFFFFFFFFFFFFFFFFFFFFFFFFFFFFFFFFFFFFFFFFFFFFFFFFFFFFFFFFFFFFFFFFFFFFFFFFFFFFFFFFFFFFFFFFFFFFFFFFFFFFFFFFFFFFFFFFFFFFFFFFFFFFFFFFFFFFFFFFFFFFFFFFFFFFFFFFFFFFFFFFFFFFFFFFFFFFFFFFFFFFFFFFFFFFFFFFFFFFFFFFFF
1004
FFFFFFFFFFFFFFFFFFFFFFFFFFFFFFFFFFFFFFFFFFFFFFFFFFFFFFFFFFFFFFFFFFFFFFFFFFFFFFFFFFFFFFFFFFFFFFFFFFFFFFFFFFFFFFFFFFFFFFFFFF00000000000000000000FFFFFFFFFFFFFFFFFFFFFFFFFFFFFFFFFFFFFFFF0000FFFFFFFFFFFFFFFFFFFF0000FFFFFFFFFFFFFFFFFFFFFFFFFFFFFFFF0000FFFFFFFF
1004
FFFFFFFFFFFFFFFFFFFF00FFFFFFFFFFFFFFFFFFFFFFFFFF0000FFFFFFFFFFFFFFFFFFFFFFFFFFFFFFFFFF0000FFFFFFFFFFFFFFFFFFFF00FFFFFFFFFFFFFFFFFFFFFFFFFFFFFFFFFFFFFFFFFF00FFFFFFFFFFFFFFFF00FFFFFFFFFFFFFFFFFF0000000000FFFFFFFFFFFFFFFFFF00000000FFFFFF00FFFFFFFFFFFFFFFFFF
1004
FF0000000000FFFFFFFFFFFFFFFFFFFFFFFF00FFFFFF00FFFFFFFFFFFFFFFFFFFFFF000000FFFFFFFFFFFFFFFFFFFFFFFFFF00FFFF00FFFFFFFF000000000000000000000000272700E0E000FFFFFFFFFFFF00FFFF00FFFFFFFFFF00FBFFFBFBFBFBFBFFFBFBFFFFFFFF0000FFFFFFFFFFFF00FFFF00FFFFFFFF0000000000
1004
000000003C0000272700E00000FFFFFFFFFFFF00FFFFFF00FFFFFF00FFFFFFFFFFFFFF00FF00FFFFFFFFFFFFFFFFFFFFFFFFFF00FFFFFF00FFFFFFFFFFFFFFFFFFFFFFFFFFFFFFFFFFFFFFFFFFFFFFFFFFFFFF00FFFFFF00FFFFFFFFFFFFFFFFFFFFFFFFFFFFFFFFFFFFFFFFFFFFFFFF00000000FFFFFFFF00FFFFFFFFFFFF
1004
FFFFFFFFFFFFFFFFFFFFFFFFFFFFFFFF00FFFFFFFFFFFFFFFFFF00000000000000000000000000000000000000000000FFFFFFFFFFFFFFFFFFFFFFFFFFFFFFFFFFFFFFFFFFFFFFFFFFFFFFFFFFFFFFFFFFFFFFFFFFFFFFFFFFFFFFFFFFFFFFFFFFFFFFFFFFFFFFFFFFFFFFFFFFFFFFFFFFFFFFFFFFFFFFFFFFFFFFFFFFFFFF
1004
FFFFFFFFFFFFFFFFFFFFFFFFFFFFFFFFFFFFFFFFFFFFFFFFFFFFFFFFFFFFFFFFFFFFFFFFFFFFFFFFFFFFFFFFFFFFFFFFFFFFFFFFFFFFFFFFFFFFFFFFFFFFFFFFFFFFFFFFFFFFFFFFFFFFFFFFFFFFFFFFFFFFFFFFFFFFFFFFFFFFFFFFFFFFFFFFFFFFFFFFFFFFFFFFFFFFFFFFFFFFFFFFFFFFFFFFFFFFFFFFFFFFFFFFFFFFFF
1004
FFFFFFFFFFFFFFFFFFFFFFFFFFFFFFFFFFFFFFFFFFFFFFFFFFFFFFFFFFFFFFFFFFFFFFFFFFFFFFFFFFFFFFFFFFFFFFFFFFFFFFFFFFFFFFFF
  0
ENDTAB
  0
ENDSEC
  0
SECTION
  2
BLOCKS
  0
BLOCK
  5
20
330
1F
100
AcDbEntity
  8
0
100
AcDbBlockBegin
  2
*MODEL_SPACE
 70
     0
 10
0.0
 20
0.0
 30
0.0
  3
*MODEL_SPACE
  1

  0
ENDBLK
  5
21
330
1F
100
AcDbEntity
  8
0
100
AcDbBlockEnd
  0
BLOCK
  5
52
330
50
100
AcDbEntity
 67
     1
  8
0
100
AcDbBlockBegin
  2
*PAPER_SPACE
 70
     0
 10
0.0
 20
0.0
 30
0.0
  3
*PAPER_SPACE
  1

  0
ENDBLK
  5
53
330
50
100
AcDbEntity
 67
     1
  8
0
100
AcDbBlockEnd
  0
BLOCK
  5
282
330
281
100
AcDbEntity
  8
0
100
AcDbBlockBegin
  2
ADKU
 70
     0
 10
0.0
 20
0.0
 30
0.0
  3
ADKU
  1

  0
LWPOLYLINE
  5
284
330
281
100
AcDbEntity
  8
0
100
AcDbPolyline
 90
       16
 70
     1
 43
0.0
 10
-7159.165204854819
 20
3135.214962746344
 42
0.4142567172948923
 10
-8659.386211660821
 20
1635.214979027674
 10
-8659.386211660821
 20
904.7850209723256
 42
0.2750248195914411
 10
-7874.88751945697
 20
-413.569210083202
 10
-5839.550011063067
 20
-1518.193911667695
 42
0.1249540958535825
 10
-5124.048703266933
 20
-1699.839680612167
 10
-3752.986432170808
 20
-1699.839680612167
 42
0.1513749930376706
 10
-2904.862282768226
 20
-1437.048404797431
 10
-1151.875850597411
 20
-235.351312273131
 42
0.0596878473666449
 10
-883.6301122850418
 20
0.0
 10
0.0
 20
0.0
 10
0.0
 20
2540.0
 10
-883.6301122850418
 20
2540.0
 42
0.2010177860402807
 10
-1931.159068819106
 20
3036.562064133919
 10
-4073.419421102276
 20
3134.987639147177
 10
-7159.165204882214
 20
3135.214962746344
  0
HATCH
  5
285
330
281
100
AcDbEntity
  8
0
 62
    50
100
AcDbHatch
 10
0.0
 20
0.0
 30
0.0
210
0.0
220
0.0
230
1.0
  2
SOLID
 70
     1
 71
     0
 91
        2
 92
        7
 72
     1
 73
     1
 93
        4
 10
-4628.965485068919
 20
962.524967717778
 42
0.0
 10
-4668.536972060887
 20
962.524967717778
 42
0.0
 10
-4668.536972060887
 20
942.6890540480671
 42
0.0
 10
-4628.965485068919
 20
942.6890540480671
 42
1.0
 97
        0
 92
        7
 72
     1
 73
     1
 93
        4
 10
-4173.426849903356
 20
962.524967717778
 42
0.0
 10
-4243.550274093991
 20
962.524967717778
 42
1.0
 10
-4243.550274093991
 20
942.6890540480671
 42
0.0
 10
-4173.426849903363
 20
942.6890540480671
 42
0.0
 97
        0
 75
     0
 76
     1
 47
2.157873133819138
 98
        2
 10
-4655.117595865042
 20
949.5339441356046
 10
-4214.452204265457
 20
949.5339441356046
  0
HATCH
  5
286
330
281
100
AcDbEntity
  8
0
 62
   250
100
AcDbHatch
 10
0.0
 20
0.0
 30
0.0
210
0.0
220
0.0
230
1.0
  2
SOLID
 70
     1
 71
     0
 91
        3
 92
        7
 72
     0
 73
     1
 93
        4
 10
-4707.153356342161
 20
1636.599143348903
 10
-7140.353341150323
 20
1636.599143348903
 10
-7140.353341150323
 20
1536.564319306002
 10
-4707.153356342147
 20
1536.564319306002
 97
        0
 92
        7
 72
     0
 73
     1
 93
        4
 10
-4707.153356342147
 20
1005.864866754898
 10
-7140.35334115033
 20
1005.864866754898
 10
-7140.35334115033
 20
905.8300427119903
 10
-4707.153356342147
 20
905.8300427119903
 97
        0
 92
        7
 72
     1
 73
     1
 93
       36
 10
-4163.293797489605
 20
1534.717666607561
 42
0.0
 10
-4168.426849903357
 20
1534.717666607561
 42
-0.4142135623730951
 10
-4173.426849903356
 20
1539.717666607561
 42
0.0
 10
-4173.426849903356
 20
1578.773099289959
 42
0.0
 10
-4668.536972060887
 20
1578.773099289959
 42
0.0
 10
-4668.536972060887
 20
1531.415468068502
 42
0.0
 10
-4687.661276657324
 20
1531.415468068502
 42
0.0
 10
-4707.153356342154
 20
1531.415468068502
 42
0.0
 10
-4707.153356342147
 20
1536.564319306002
 42
0.0
 10
-4791.373851584154
 20
1536.564319306002
 42
-0.2000000000001056
 10
-4798.664067833364
 20
1519.067800307886
 42
0.0
 10
-4798.664067833371
 20
1023.393696205479
 42
-0.2004846722166152
 10
-4791.341208824822
 20
1005.864866754891
 42
0.0
 10
-4707.153356342147
 20
1005.864866754891
 42
0.0
 10
-4707.153356342139
 20
1011.013717992391
 42
0.0
 10
-4687.661276657324
 20
1011.013717992391
 42
0.0
 10
-4668.536972060887
 20
1011.013717992398
 42
0.0
 10
-4668.536972060887
 20
962.524967717778
 42
0.0
 10
-4628.965485068919
 20
962.524967717778
 42
-1.0
 10
-4628.965485068919
 20
942.6890540480671
 42
0.0
 10
-4668.536972060887
 20
942.6890540480671
 42
0.0
 10
-4668.536972060887
 20
900.6811914744902
 42
0.0
 10
-4687.661276657324
 20
900.6811914744902
 42
0.0
 10
-4707.153356342154
 20
900.6811914744902
 42
0.0
 10
-4707.153356342147
 20
905.8300427119903
 42
0.0
 10
-4764.622439874197
 20
905.8300427119903
 42
0.0
 10
-4764.622439874204
 20
897.6070108829153
 42
0.0
 10
-4168.426849903364
 20
897.6070108829226
 42
-0.4142135623730951
 10
-4173.426849903363
 20
902.6070108829227
 42
0.0
 10
-4173.426849903363
 20
942.6890540480671
 42
0.0
 10
-4243.550274093991
 20
942.6890540480671
 42
-1.0
 10
-4243.550274093991
 20
962.524967717778
 42
0.0
 10
-4173.426849903363
 20
962.524967717778
 42
0.0
 10
-4173.426849903363
 20
1002.607010882922
 42
-0.4142135623730951
 10
-4168.426849903364
 20
1007.607010882922
 42
0.0
 10
-4163.293797489605
 20
1007.607010882922
 42
0.0
 97
        0
 75
     0
 76
     1
 47
5.783746173126641
 98
        3
 10
-5029.35995610879
 20
1611.889173584248
 10
-5342.008047219831
 20
935.1908648957468
 10
-4386.694400989159
 20
1201.243124532644
  0
LINE
  5
287
330
281
100
AcDbEntity
  8
0
100
AcDbLine
 10
-4173.426849903356
 20
1578.773099289959
 30
0.0
 11
-4668.536972060887
 21
1578.773099289959
 31
0.0
  0
LINE
  5
288
330
281
100
AcDbEntity
  8
0
100
AcDbLine
 10
-4173.426849903356
 20
1598.773099289959
 30
0.0
 11
-4668.536972060887
 21
1598.773099289959
 31
0.0
  0
LINE
  5
289
102
{ACAD_REACTORS
330
28E
102
}
330
281
100
AcDbEntity
  8
0
100
AcDbLine
 10
-4764.622439874204
 20
897.6070108829153
 30
0.0
 11
-4107.893319288705
 21
897.6070108829226
 31
0.0
  0
LINE
  5
28A
102
{ACAD_REACTORS
330
28D
330
28E
102
}
330
281
100
AcDbEntity
  8
0
100
AcDbLine
 10
-4262.003928299477
 20
683.1915921375038
 30
0.0
 11
-4361.586684858369
 21
683.1915921375038
 31
0.0
  0
LINE
  5
28B
102
{ACAD_REACTORS
330
28D
330
28E
102
}
330
281
100
AcDbEntity
  8
0
100
AcDbLine
 10
-4363.192858351256
 20
607.7014379718893
 30
0.0
 11
-4260.397754806596
 21
607.7014379718893
 31
0.0
  0
LINE
  5
28C
102
{ACAD_REACTORS
330
28E
102
}
330
281
100
AcDbEntity
  8
0
100
AcDbLine
 10
-5122.377529321726
 20
-185.9362686366512
 30
0.0
 11
-3750.705366397648
 21
-185.9362686366512
 31
0.0
  0
HATCH
  5
28D
330
281
100
AcDbEntity
  8
0
 62
    30
100
AcDbHatch
 10
0.0
 20
0.0
 30
0.0
210
0.0
220
0.0
230
1.0
  2
SOLID
 70
     1
 71
     1
 91
       12
 92
        7
 72
     0
 73
     1
 93
        8
 10
-4260.397754806596
 20
607.7014379718893
 10
-4239.51749939908
 20
624.2985640650377
 10
-4240.052890563384
 20
667.1298572086454
 10
-4262.003928299476
 20
683.1915921375038
 10
-4361.586684858367
 20
683.191592137504
 10
-4383.537722594468
 20
667.1298572086453
 10
-4384.073113758765
 20
624.2985640650366
 10
-4363.192858351256
 20
607.7014379718893
 97
        8
330
361
330
28A
330
2D2
330
2D3
330
2D0
330
28B
330
360
330
362
 92
        7
 72
     0
 73
     1
 93
        8
 10
-4063.373806345991
 20
426.5512233169574
 10
-4042.49355093848
 20
443.1483494101056
 10
-4043.028942102778
 20
485.9796425537134
 10
-4064.979979838869
 20
502.0413774825719
 10
-4164.562736397768
 20
502.0413774825719
 10
-4186.513774133869
 20
485.9796425537132
 10
-4187.049165298158
 20
443.1483494101047
 10
-4166.16890989065
 20
426.5512233169574
 97
        8
330
35E
330
355
330
35A
330
35B
330
357
330
356
330
35C
330
35F
 92
        7
 72
     0
 73
     1
 93
       10
 10
-4212.74794118433
 20
328.0392490866578
 10
-4280.207227885512
 20
349.9902868227581
 10
-4290.379660007123
 20
346.2425486726866
 10
-4296.80435397866
 20
341.9594193583325
 10
-4299.481309800132
 20
309.8359495006226
 10
-4250.760713849282
 20
265.3984828641259
 10
-4174.735168519371
 20
265.3984828641259
 10
-4126.549963732817
 20
309.0328627541824
 10
-4128.691528389993
 20
341.9594193583323
 10
-4143.147089825965
 20
348.3841133298702
 97
       10
330
348
330
35D
330
347
330
346
330
359
330
358
330
349
330
354
330
353
330
352
 92
        7
 72
     0
 73
     1
 93
        8
 10
-4143.682480990253
 20
135.8338211047084
 10
-4243.265237549144
 20
135.8338211047084
 10
-4265.216275285245
 20
119.7720861758573
 10
-4265.751666449541
 20
76.94079303224871
 10
-4244.871411042033
 20
60.34366693910125
 10
-4142.076307497372
 20
60.34366693910124
 10
-4121.196052089857
 20
76.94079303224895
 10
-4121.73144325416
 20
119.7720861758574
 97
        8
330
34F
330
34A
330
34C
330
34E
330
34D
330
34B
330
351
330
350
 92
        7
 72
     0
 73
     1
 93
       10
 10
-4161.885780576289
 20
-59.04856269870652
 10
-4172.058212697899
 20
-62.79630084877862
 10
-4178.482906669436
 20
-67.07943016313973
 10
-4181.159862490909
 20
-99.20290002084247
 10
-4132.439266540059
 20
-143.6403666573387
 10
-4056.413721210148
 20
-143.6403666573387
 10
-4008.228516423595
 20
-100.0059867672822
 10
-4010.370081080771
 20
-67.07943016313972
 10
-4024.825642516741
 20
-60.65473619159464
 10
-4094.426493875107
 20
-80.99960043480695
 97
       10
330
344
330
343
330
342
330
33B
330
33E
330
33D
330
33F
330
33C
330
341
330
340
 92
        7
 72
     0
 73
     1
 93
        8
 10
-4383.002331430173
 20
-30.1374398267726
 10
-4482.585087989063
 20
-30.1374398267726
 10
-4504.536125725166
 20
-46.19917475563191
 10
-4505.071516889461
 20
-89.03046789923948
 10
-4484.191261481952
 20
-105.6275939923871
 10
-4381.396157937293
 20
-105.6275939923871
 10
-4360.515902529776
 20
-89.03046789923966
 10
-4361.051293694079
 20
-46.19917475563119
 97
        8
330
293
330
2B2
330
292
330
299
330
298
330
29A
330
29C
330
29B
 92
        7
 72
     0
 73
     1
 93
       10
 10
-4426.369015738077
 20
169.5634644553066
 10
-4440.824577174047
 20
175.9881584268441
 10
-4510.425428532412
 20
155.6432941836318
 10
-4577.884715233595
 20
177.5943319197321
 10
-4588.057147355203
 20
173.8465937696601
 10
-4594.481841326742
 20
169.563464455306
 10
-4597.158797148223
 20
137.4399945975976
 10
-4548.438201197365
 20
93.00252796109999
 10
-4472.412655867461
 20
93.00252796109997
 10
-4424.227451080901
 20
136.6369078511559
 97
       10
330
2AE
330
2BB
330
2B5
330
2B8
330
2B6
330
2B7
330
2AF
330
2B1
330
2B0
330
2B3
 92
        7
 72
     0
 73
     1
 93
       10
 10
-4669.436604328061
 20
15.37080913830887
 10
-4683.892165764032
 20
21.79550310985362
 10
-4753.493017122397
 20
1.450638866634122
 10
-4820.952303823579
 20
23.40167660273436
 10
-4831.12473594518
 20
19.65393845266986
 10
-4837.549429916719
 20
15.37080913830834
 10
-4840.226385738199
 20
-16.75266071939429
 10
-4791.505789787349
 20
-61.19012735589058
 10
-4715.480244457437
 20
-61.19012735589057
 10
-4667.295039670876
 20
-17.55574746584215
 97
       10
330
2A5
330
2A2
330
2A4
330
2A3
330
2A0
330
2A1
330
295
330
297
330
294
330
29F
 92
        7
 72
     0
 73
     1
 93
        8
 10
-4737.966673357834
 20
234.8811864993033
 10
-4759.917711093933
 20
250.9429214281626
 10
-4859.500467652819
 20
250.9429214281626
 10
-4881.45150538892
 20
234.8811864993042
 10
-4881.986896553224
 20
192.0498933556952
 10
-4861.106641145714
 20
175.4527672625481
 10
-4758.311537601054
 20
175.4527672625481
 10
-4737.431282193538
 20
192.049893355695
 97
        8
330
2AB
330
2A6
330
2A8
330
2AA
330
2A9
330
2A7
330
2AC
330
2AD
 92
        7
 72
     0
 73
     1
 93
        8
 10
-4494.363693603562
 20
346.7779398369821
 10
-4516.314731339654
 20
362.8396747658407
 10
-4615.897487898546
 20
362.8396747658408
 10
-4637.848525634646
 20
346.7779398369822
 10
-4638.383916798942
 20
303.9466466933732
 10
-4617.503661391434
 20
287.3495206002262
 10
-4514.708557846773
 20
287.3495206002262
 10
-4493.828302439259
 20
303.9466466933733
 97
        8
330
2C6
330
2C8
330
2C9
330
29E
330
2BA
330
2B9
330
2B4
330
29D
 92
        7
 72
     0
 73
     1
 93
        8
 10
-4649.627131249144
 20
514.8907654256541
 10
-4650.162522413433
 20
557.7220585692633
 10
-4672.113560149533
 20
573.7837934981143
 10
-4771.696316708424
 20
573.7837934981143
 10
-4793.647354444524
 20
557.722058569263
 10
-4794.182745608821
 20
514.8907654256548
 10
-4773.302490201314
 20
498.2936393325071
 10
-4670.507386656653
 20
498.2936393325071
 97
        8
330
2BC
330
2C1
330
2C2
330
2BE
330
2C0
330
2BF
330
2BD
330
2C3
 92
        7
 72
     0
 73
     1
 93
       10
 10
-4416.196583616475
 20
525.8662842937044
 10
-4418.338148273651
 20
558.7928408978474
 10
-4432.793709709621
 20
565.2175348693925
 10
-4502.394561067986
 20
544.8726706261805
 10
-4569.853847769169
 20
566.8237083622807
 10
-4580.026279890779
 20
563.075970212209
 10
-4586.450973862316
 20
558.7928408978474
 10
-4589.127929683789
 20
526.6693710401453
 10
-4540.407333732939
 20
482.2319044036484
 10
-4464.381788403028
 20
482.2319044036485
 97
       10
330
2C4
330
2D1
330
2CC
330
2CF
330
2CE
330
2CD
330
2C5
330
2CA
330
2C7
330
2CB
 75
     0
 76
     1
 47
2.204275466911288
 98
       27
 10
-4304.120236556926
 20
643.5631112259434
 10
-4143.040274401392
 20
462.8124933675062
 10
-4220.270374064326
 20
343.7816113300578
 10
-4220.270374064326
 20
343.7816113300578
 10
-4220.270374064326
 20
343.7816113300578
 10
-4220.270374064326
 20
343.7816113300578
 10
-4220.270374064326
 20
343.7816113300578
 10
-4220.270374064326
 20
343.7816113300578
 10
-4220.270374064326
 20
343.7816113300578
 10
-4220.270374064326
 20
343.7816113300578
 10
-4220.270374064326
 20
343.7816113300578
 10
-4220.270374064326
 20
343.7816113300578
 10
-4220.270374064326
 20
343.7816113300578
 10
-4220.270374064326
 20
343.7816113300578
 10
-4220.270374064326
 20
343.7816113300578
 10
-4308.533439228653
 20
652.3802039946022
 10
-4151.866597388994
 20
453.9954005988475
 10
-4222.477016578116
 20
295.2875578822495
 10
-4207.030930760847
 20
85.88138852567499
 10
-4120.97450811031
 20
-108.094868485743
 10
-4403.416102510942
 20
-61.80508823010313
 10
-4504.918610978747
 20
112.3327100518435
 10
-4729.989229493738
 20
4.323193975214962
 10
-4785.153645221427
 20
211.5250901396211
 10
-4586.561830957559
 20
321.7388794084181
 10
-4696.890580057115
 20
548.7792343023029
 10
-4507.125171136686
 20
498.0809076623263
  0
HATCH
  5
28E
330
281
100
AcDbEntity
  8
0
 62
    70
100
AcDbHatch
 10
0.0
 20
0.0
 30
0.0
210
0.0
220
0.0
230
1.0
  2
SOLID
 70
     1
 71
     1
 91
       13
 92
        7
 72
     0
 73
     1
 93
        6
 10
-4764.622439874204
 20
897.6070108829155
 10
-5091.860232956904
 20
-38.16830729119791
 10
-5122.377529321726
 20
-185.9362686366512
 10
-3750.705366397648
 20
-185.9362686366512
 10
-3781.222662762468
 20
-38.16830729120134
 10
-4107.893319288705
 20
897.6070108829226
 97
        6
330
289
330
291
330
296
330
28C
330
345
330
33A
 92
       22
 72
     0
 73
     1
 93
        8
 10
-4262.003928299477
 20
683.1915921375045
 10
-4240.052890563382
 20
667.1298572086448
 10
-4239.51749939908
 20
624.2985640650372
 10
-4260.397754806596
 20
607.7014379718893
 10
-4363.192858351257
 20
607.7014379718893
 10
-4384.073113758764
 20
624.2985640650372
 10
-4383.537722594468
 20
667.1298572086453
 10
-4361.586684858369
 20
683.191592137504
 97
        8
330
361
330
362
330
360
330
28B
330
2D0
330
2D3
330
2D2
330
28A
 92
       22
 72
     0
 73
     1
 93
        9
 10
-4418.338148273652
 20
558.7928408978469
 10
-4416.196583616474
 20
525.8662842937037
 10
-4464.381788403028
 20
482.2319044036484
 10
-4540.407333732939
 20
482.2319044036485
 10
-4589.127929683789
 20
526.6693710401457
 10
-4586.286238119457
 20
560.7696698121659
 10
-4569.853847769169
 20
566.8237083622807
 10
-4502.394561067987
 20
544.8726706261805
 10
-4432.793709709623
 20
565.2175348693926
 97
       10
330
2C4
330
2CB
330
2C7
330
2CA
330
2C5
330
2CD
330
2CE
330
2CF
330
2CC
330
2D1
 92
       22
 72
     0
 73
     1
 93
        8
 10
-4164.562736397769
 20
502.041377482572
 10
-4064.979979838869
 20
502.0413774825718
 10
-4043.028942102777
 20
485.9796425537129
 10
-4042.493550938481
 20
443.1483494101047
 10
-4063.37380634599
 20
426.5512233169574
 10
-4166.16890989065
 20
426.5512233169574
 10
-4187.049165298158
 20
443.1483494101045
 10
-4186.513774133869
 20
485.9796425537133
 97
        8
330
355
330
35E
330
35F
330
35C
330
356
330
357
330
35B
330
35A
 92
       22
 72
     0
 73
     1
 93
        9
 10
-4280.207227885512
 20
349.9902868227582
 10
-4212.74794118433
 20
328.0392490866579
 10
-4143.147089825965
 20
348.3841133298702
 10
-4128.691528389993
 20
341.9594193583324
 10
-4126.549963732817
 20
309.0328627541818
 10
-4174.735168519371
 20
265.3984828641259
 10
-4250.760713849282
 20
265.3984828641259
 10
-4299.481309800132
 20
309.8359495006221
 10
-4296.6396182358
 20
343.9362482726432
 97
       10
330
346
330
347
330
35D
330
348
330
352
330
353
330
354
330
349
330
358
330
359
 92
       22
 72
     0
 73
     1
 93
        8
 10
-4650.162522413433
 20
557.722058569263
 10
-4649.627131249144
 20
514.8907654256544
 10
-4670.507386656653
 20
498.2936393325071
 10
-4773.302490201313
 20
498.293639332507
 10
-4794.182745608821
 20
514.8907654256541
 10
-4793.647354444526
 20
557.7220585692628
 10
-4771.696316708425
 20
573.7837934981143
 10
-4672.113560149533
 20
573.7837934981143
 97
        8
330
2C3
330
2BD
330
2BF
330
2C0
330
2BE
330
2C2
330
2C1
330
2BC
 92
       22
 72
     0
 73
     1
 93
        8
 10
-4516.314731339654
 20
362.8396747658405
 10
-4494.363693603562
 20
346.7779398369827
 10
-4493.828302439257
 20
303.9466466933741
 10
-4514.708557846773
 20
287.3495206002262
 10
-4617.503661391435
 20
287.3495206002262
 10
-4638.383916798942
 20
303.9466466933741
 10
-4637.848525634647
 20
346.7779398369823
 10
-4615.897487898547
 20
362.8396747658407
 97
        8
330
2C6
330
29D
330
2B4
330
2B9
330
2BA
330
29E
330
2C9
330
2C8
 92
       22
 72
     0
 73
     1
 93
        9
 10
-4440.824577174047
 20
175.9881584268441
 10
-4426.369015738077
 20
169.5634644553067
 10
-4424.2274510809
 20
136.6369078511558
 10
-4472.412655867462
 20
93.00252796109999
 10
-4548.438201197365
 20
93.00252796109997
 10
-4597.158797148222
 20
137.4399945975968
 10
-4594.317105583883
 20
171.5402933696172
 10
-4577.884715233595
 20
177.5943319197321
 10
-4510.425428532413
 20
155.6432941836319
 97
       10
330
2BB
330
2AE
330
2B3
330
2B0
330
2B1
330
2AF
330
2B7
330
2B6
330
2B8
330
2B5
 92
       22
 72
     0
 73
     1
 93
        8
 10
-4243.265237549144
 20
135.8338211047084
 10
-4143.682480990253
 20
135.8338211047084
 10
-4121.73144325416
 20
119.7720861758569
 10
-4121.196052089857
 20
76.94079303224866
 10
-4142.076307497371
 20
60.34366693910124
 10
-4244.871411042033
 20
60.34366693910123
 10
-4265.751666449541
 20
76.94079303224793
 10
-4265.216275285245
 20
119.7720861758574
 97
        8
330
34A
330
34F
330
350
330
351
330
34B
330
34D
330
34E
330
34C
 92
       22
 72
     0
 73
     1
 93
        8
 10
-4737.966673357834
 20
234.8811864993044
 10
-4737.431282193537
 20
192.0498933556958
 10
-4758.311537601055
 20
175.4527672625481
 10
-4861.106641145713
 20
175.4527672625481
 10
-4881.986896553222
 20
192.0498933556958
 10
-4881.45150538892
 20
234.8811864993037
 10
-4859.500467652819
 20
250.9429214281626
 10
-4759.917711093934
 20
250.9429214281626
 97
        8
330
2AD
330
2AC
330
2A7
330
2A9
330
2AA
330
2A8
330
2A6
330
2AB
 92
       22
 72
     0
 73
     1
 93
        8
 10
-4383.002331430172
 20
-30.13743982677276
 10
-4361.051293694079
 20
-46.1991747556311
 10
-4360.515902529776
 20
-89.03046789923907
 10
-4381.396157937291
 20
-105.6275939923871
 10
-4484.191261481952
 20
-105.6275939923871
 10
-4505.071516889461
 20
-89.03046789923919
 10
-4504.536125725166
 20
-46.19917475563215
 10
-4482.585087989064
 20
-30.1374398267726
 97
        8
330
293
330
29B
330
29C
330
29A
330
298
330
299
330
292
330
2B2
 92
       22
 72
     0
 73
     1
 93
        9
 10
-4161.885780576289
 20
-59.04856269870704
 10
-4094.426493875108
 20
-80.99960043480686
 10
-4024.825642516741
 20
-60.65473619159464
 10
-4010.370081080771
 20
-67.07943016313953
 10
-4008.228516423595
 20
-100.0059867672824
 10
-4056.413721210148
 20
-143.6403666573387
 10
-4132.439266540059
 20
-143.6403666573387
 10
-4181.159862490909
 20
-99.20290002084229
 10
-4178.318170926575
 20
-65.10260124882113
 97
       10
330
33B
330
342
330
343
330
344
330
340
330
341
330
33C
330
33F
330
33D
330
33E
 92
       22
 72
     0
 73
     1
 93
        9
 10
-4669.436604328061
 20
15.37080913830766
 10
-4667.295039670876
 20
-17.5557474658417
 10
-4715.480244457437
 20
-61.19012735589057
 10
-4791.505789787349
 20
-61.19012735589056
 10
-4840.226385738199
 20
-16.75266071939412
 10
-4837.384694173858
 20
17.34763805263019
 10
-4820.952303823578
 20
23.40167660273425
 10
-4753.493017122397
 20
1.450638866634117
 10
-4683.892165764031
 20
21.79550310985364
 97
       10
330
29F
330
294
330
297
330
295
330
2A1
330
2A0
330
2A3
330
2A4
330
2A2
330
2A5
 75
     0
 76
     1
 47
2.721598632278727
 98
       13
 10
-4265.773915853868
 20
763.2457609324482
 10
-4265.773915853868
 20
763.2457609324482
 10
-4265.773915853868
 20
763.2457609324482
 10
-4265.773915853868
 20
763.2457609324482
 10
-4265.773915853868
 20
763.2457609324482
 10
-4265.773915853868
 20
763.2457609324482
 10
-4265.773915853868
 20
763.2457609324482
 10
-4265.773915853868
 20
763.2457609324482
 10
-4265.773915853868
 20
763.2457609324482
 10
-4265.773915853868
 20
763.2457609324482
 10
-4265.773915853868
 20
763.2457609324482
 10
-4265.773915853868
 20
763.2457609324482
 10
-4265.773915853868
 20
763.2457609324482
  0
HATCH
  5
28F
330
281
100
AcDbEntity
  8
0
 62
    70
100
AcDbHatch
 10
0.0
 20
0.0
 30
0.0
210
0.0
220
0.0
230
1.0
  2
SOLID
 70
     1
 71
     0
 91
        1
 92
        7
 72
     0
 73
     1
 93
        4
 10
-4173.426849903356
 20
1598.773099289952
 10
-4668.536972060887
 20
1598.773099289952
 10
-4668.536972060887
 20
1578.773099289959
 10
-4173.426849903356
 20
1578.773099289959
 97
        0
 75
     0
 76
     1
 47
2.600288860104324
 98
        1
 10
-4424.407285396999
 20
1583.785479852966
  0
HATCH
  5
290
330
281
100
AcDbEntity
  8
0
 62
    30
100
AcDbHatch
 10
0.0
 20
0.0
 30
0.0
210
0.0
220
0.0
230
1.0
  2
SOLID
 70
     1
 71
     0
 91
        8
 92
        7
 72
     1
 73
     1
 93
        8
 10
-4063.426849903357
 20
1639.717666607561
 42
0.4142135623730951
 10
-4068.426849903357
 20
1644.717666607561
 42
0.0
 10
-4168.426849903357
 20
1644.717666607561
 42
0.4142135623730951
 10
-4173.426849903356
 20
1639.717666607561
 42
0.0
 10
-4173.426849903356
 20
1539.717666607561
 42
0.4142135623730951
 10
-4168.426849903357
 20
1534.717666607561
 42
0.0
 10
-4068.426849903357
 20
1534.717666607561
 42
0.4142135623730951
 10
-4063.426849903357
 20
1539.717666607561
 42
0.0
 97
        0
 92
        7
 72
     0
 73
     1
 93
        4
 10
-4687.661276657331
 20
1641.74799458641
 10
-4707.153356342147
 20
1641.747994586395
 10
-4707.153356342161
 20
1531.415468068502
 10
-4687.661276657324
 20
1531.415468068502
 97
        0
 92
        7
 72
     0
 73
     1
 93
        4
 10
-4668.536972060887
 20
1641.747994586403
 10
-4687.661276657324
 20
1641.747994586403
 10
-4687.661276657324
 20
1531.415468068502
 10
-4668.536972060887
 20
1531.415468068502
 97
        0
 92
        7
 72
     0
 73
     1
 93
        4
 10
-4687.661276657331
 20
1011.013717992391
 10
-4707.153356342147
 20
1011.013717992391
 10
-4707.153356342169
 20
900.6811914744902
 10
-4687.661276657308
 20
900.6811914744902
 97
        0
 92
        7
 72
     0
 73
     1
 93
        4
 10
-4668.536972060894
 20
1011.013717992391
 10
-4687.661276657324
 20
1011.013717992391
 10
-4687.661276657324
 20
900.6811914744902
 10
-4668.536972060887
 20
900.6811914744902
 97
        0
 92
        7
 72
     1
 73
     1
 93
        9
 10
-4063.426849903364
 20
1002.607010882922
 42
0.4142135623730951
 10
-4068.426849903364
 20
1007.607010882922
 42
0.0
 10
-4168.426849903364
 20
1007.607010882922
 42
0.4142135623730951
 10
-4173.426849903363
 20
1002.607010882922
 42
0.0
 10
-4173.426849903363
 20
902.6070108829154
 42
0.4142135623726688
 10
-4168.426849903364
 20
897.6070108829226
 42
0.0
 10
-4107.893319288705
 20
897.6070108829226
 42
0.0
 10
-4068.426849903364
 20
897.6070108829226
 42
0.4142135623730951
 10
-4063.426849903364
 20
902.6070108829227
 42
0.0
 97
        0
 92
        7
 72
     1
 73
     1
 93
        6
 10
-3892.585464006632
 20
1022.018066204334
 42
0.0
 10
-4163.293797489612
 20
1022.018066204342
 42
0.0
 10
-4163.293797489605
 20
1007.607010882922
 42
0.0
 10
-4068.426849903364
 20
1007.607010882922
 42
-0.4098810330393546
 10
-4063.427398589505
 20
1002.681082202361
 42
0.0
 10
-3924.415881167275
 20
1002.681082202361
 42
0.0309176435392358
 97
        0
 92
        7
 72
     1
 73
     1
 93
        6
 10
-3930.600584330386
 20
1539.449086395128
 42
0.0
 10
-4063.434068647431
 20
1539.449086395128
 42
-0.3985590994705665
 10
-4068.42684990335
 20
1534.717666607561
 42
0.0
 10
-4163.293797489605
 20
1534.717666607561
 42
0.0
 10
-4163.293797489605
 20
1520.112102393162
 42
0.0
 10
-3897.222605599374
 20
1520.112102393155
 42
0.0320247909552554
 97
        0
 75
     0
 76
     1
 47
2.600288860104324
 98
        8
 10
-4140.680125604645
 20
1573.384323051621
 10
-4700.325440472312
 20
1581.185189131589
 10
-4682.104429465893
 20
1573.384323051621
 10
-4692.516435755271
 20
946.7147063855373
 10
-4679.501427893549
 20
944.1144187062382
 10
-4132.871120887612
 20
949.314994064829
 10
-4044.369067427862
 20
1016.922507189432
 10
-3994.912037553294
 20
1531.779701930383
  0
LINE
  5
291
102
{ACAD_REACTORS
330
28E
102
}
330
281
100
AcDbEntity
  8
0
100
AcDbLine
 10
-4764.622439874204
 20
897.6070108829153
 30
0.0
 11
-5091.860232956904
 21
-38.16830729119828
 31
0.0
  0
LINE
  5
292
102
{ACAD_REACTORS
330
28D
330
28E
102
}
330
281
100
AcDbEntity
  8
0
100
AcDbLine
 10
-4482.585087989064
 20
-30.1374398267726
 30
0.0
 11
-4504.536125725164
 21
-46.19917475563124
 31
0.0
  0
LINE
  5
293
102
{ACAD_REACTORS
330
28D
330
28E
102
}
330
281
100
AcDbEntity
  8
0
100
AcDbLine
 10
-4361.051293694079
 20
-46.19917475563124
 30
0.0
 11
-4383.002331430172
 21
-30.1374398267726
 31
0.0
  0
LINE
  5
294
102
{ACAD_REACTORS
330
28D
330
28E
102
}
330
281
100
AcDbEntity
  8
0
100
AcDbLine
 10
-4715.480244457437
 20
-61.19012735589058
 30
0.0
 11
-4667.295039670876
 21
-17.5557474658417
 31
0.0
  0
LINE
  5
295
102
{ACAD_REACTORS
330
28D
330
28E
102
}
330
281
100
AcDbEntity
  8
0
100
AcDbLine
 10
-4840.226385738199
 20
-16.75266071939404
 30
0.0
 11
-4791.505789787349
 21
-61.19012735589058
 31
0.0
  0
LINE
  5
296
102
{ACAD_REACTORS
330
28E
102
}
330
281
100
AcDbEntity
  8
0
100
AcDbLine
 10
-5091.860232956904
 20
-38.16830729119828
 30
0.0
 11
-5122.377529321726
 21
-185.9362686366512
 31
0.0
  0
LINE
  5
297
102
{ACAD_REACTORS
330
28D
330
28E
102
}
330
281
100
AcDbEntity
  8
0
100
AcDbLine
 10
-4791.505789787349
 20
-61.19012735589058
 30
0.0
 11
-4715.480244457437
 21
-61.19012735589058
 31
0.0
  0
LINE
  5
298
102
{ACAD_REACTORS
330
28D
330
28E
102
}
330
281
100
AcDbEntity
  8
0
100
AcDbLine
 10
-4505.071516889461
 20
-89.03046789923974
 30
0.0
 11
-4484.191261481952
 21
-105.6275939923871
 31
0.0
  0
LINE
  5
299
102
{ACAD_REACTORS
330
28D
330
28E
102
}
330
281
100
AcDbEntity
  8
0
100
AcDbLine
 10
-4504.536125725164
 20
-46.19917475563124
 30
0.0
 11
-4505.071516889461
 21
-89.03046789923974
 31
0.0
  0
LINE
  5
29A
102
{ACAD_REACTORS
330
28D
330
28E
102
}
330
281
100
AcDbEntity
  8
0
100
AcDbLine
 10
-4484.191261481952
 20
-105.6275939923871
 30
0.0
 11
-4381.396157937291
 21
-105.6275939923871
 31
0.0
  0
LINE
  5
29B
102
{ACAD_REACTORS
330
28D
330
28E
102
}
330
281
100
AcDbEntity
  8
0
100
AcDbLine
 10
-4360.515902529776
 20
-89.03046789923974
 30
0.0
 11
-4361.051293694079
 21
-46.19917475563124
 31
0.0
  0
LINE
  5
29C
102
{ACAD_REACTORS
330
28D
330
28E
102
}
330
281
100
AcDbEntity
  8
0
100
AcDbLine
 10
-4381.396157937291
 20
-105.6275939923871
 30
0.0
 11
-4360.515902529776
 21
-89.03046789923974
 31
0.0
  0
LINE
  5
29D
102
{ACAD_REACTORS
330
28D
330
28E
102
}
330
281
100
AcDbEntity
  8
0
100
AcDbLine
 10
-4493.828302439259
 20
303.9466466933736
 30
0.0
 11
-4494.363693603562
 21
346.7779398369821
 31
0.0
  0
LINE
  5
29E
102
{ACAD_REACTORS
330
28D
330
28E
102
}
330
281
100
AcDbEntity
  8
0
100
AcDbLine
 10
-4637.848525634646
 20
346.7779398369821
 30
0.0
 11
-4638.383916798942
 21
303.9466466933736
 31
0.0
  0
LINE
  5
29F
102
{ACAD_REACTORS
330
28D
330
28E
102
}
330
281
100
AcDbEntity
  8
0
100
AcDbLine
 10
-4667.295039670876
 20
-17.5557474658417
 30
0.0
 11
-4669.436604328061
 21
15.37080913830868
 31
0.0
  0
LINE
  5
2A0
102
{ACAD_REACTORS
330
28D
330
28E
102
}
330
281
100
AcDbEntity
  8
0
100
AcDbLine
 10
-4831.124735945181
 20
19.65393845266953
 30
0.0
 11
-4837.549429916719
 21
15.37080913830868
 31
0.0
  0
LINE
  5
2A1
102
{ACAD_REACTORS
330
28D
330
28E
102
}
330
281
100
AcDbEntity
  8
0
100
AcDbLine
 10
-4837.549429916719
 20
15.37080913830868
 30
0.0
 11
-4840.226385738199
 21
-16.75266071939404
 31
0.0
  0
LINE
  5
2A2
102
{ACAD_REACTORS
330
28D
330
28E
102
}
330
281
100
AcDbEntity
  8
0
100
AcDbLine
 10
-4683.892165764031
 20
21.7955031098536
 30
0.0
 11
-4753.493017122397
 21
1.450638866634108
 31
0.0
  0
LINE
  5
2A3
102
{ACAD_REACTORS
330
28D
330
28E
102
}
330
281
100
AcDbEntity
  8
0
100
AcDbLine
 10
-4820.952303823578
 20
23.40167660273436
 30
0.0
 11
-4831.124735945181
 21
19.65393845266953
 31
0.0
  0
LINE
  5
2A4
102
{ACAD_REACTORS
330
28D
330
28E
102
}
330
281
100
AcDbEntity
  8
0
100
AcDbLine
 10
-4753.493017122397
 20
1.450638866634108
 30
0.0
 11
-4820.952303823578
 21
23.40167660273436
 31
0.0
  0
LINE
  5
2A5
102
{ACAD_REACTORS
330
28D
330
28E
102
}
330
281
100
AcDbEntity
  8
0
100
AcDbLine
 10
-4669.436604328061
 20
15.37080913830868
 30
0.0
 11
-4683.892165764031
 21
21.7955031098536
 31
0.0
  0
LINE
  5
2A6
102
{ACAD_REACTORS
330
28D
330
28E
102
}
330
281
100
AcDbEntity
  8
0
100
AcDbLine
 10
-4759.917711093934
 20
250.9429214281626
 30
0.0
 11
-4859.500467652819
 21
250.9429214281626
 31
0.0
  0
LINE
  5
2A7
102
{ACAD_REACTORS
330
28D
330
28E
102
}
330
281
100
AcDbEntity
  8
0
100
AcDbLine
 10
-4861.106641145714
 20
175.4527672625481
 30
0.0
 11
-4758.311537601054
 21
175.4527672625481
 31
0.0
  0
LINE
  5
2A8
102
{ACAD_REACTORS
330
28D
330
28E
102
}
330
281
100
AcDbEntity
  8
0
100
AcDbLine
 10
-4859.500467652819
 20
250.9429214281626
 30
0.0
 11
-4881.451505388919
 21
234.881186499304
 31
0.0
  0
LINE
  5
2A9
102
{ACAD_REACTORS
330
28D
330
28E
102
}
330
281
100
AcDbEntity
  8
0
100
AcDbLine
 10
-4881.986896553222
 20
192.0498933556955
 30
0.0
 11
-4861.106641145714
 21
175.4527672625481
 31
0.0
  0
LINE
  5
2AA
102
{ACAD_REACTORS
330
28D
330
28E
102
}
330
281
100
AcDbEntity
  8
0
100
AcDbLine
 10
-4881.451505388919
 20
234.881186499304
 30
0.0
 11
-4881.986896553222
 21
192.0498933556955
 31
0.0
  0
LINE
  5
2AB
102
{ACAD_REACTORS
330
28D
330
28E
102
}
330
281
100
AcDbEntity
  8
0
100
AcDbLine
 10
-4737.966673357834
 20
234.881186499304
 30
0.0
 11
-4759.917711093934
 21
250.9429214281626
 31
0.0
  0
LINE
  5
2AC
102
{ACAD_REACTORS
330
28D
330
28E
102
}
330
281
100
AcDbEntity
  8
0
100
AcDbLine
 10
-4758.311537601054
 20
175.4527672625481
 30
0.0
 11
-4737.431282193538
 21
192.0498933556955
 31
0.0
  0
LINE
  5
2AD
102
{ACAD_REACTORS
330
28D
330
28E
102
}
330
281
100
AcDbEntity
  8
0
100
AcDbLine
 10
-4737.431282193538
 20
192.0498933556955
 30
0.0
 11
-4737.966673357834
 21
234.881186499304
 31
0.0
  0
LINE
  5
2AE
102
{ACAD_REACTORS
330
28D
330
28E
102
}
330
281
100
AcDbEntity
  8
0
100
AcDbLine
 10
-4424.2274510809
 20
136.6369078511561
 30
0.0
 11
-4426.369015738077
 21
169.5634644553065
 31
0.0
  0
LINE
  5
2AF
102
{ACAD_REACTORS
330
28D
330
28E
102
}
330
281
100
AcDbEntity
  8
0
100
AcDbLine
 10
-4594.481841326742
 20
169.5634644553065
 30
0.0
 11
-4597.158797148222
 21
137.4399945975965
 31
0.0
  0
LINE
  5
2B0
102
{ACAD_REACTORS
330
28D
330
28E
102
}
330
281
100
AcDbEntity
  8
0
100
AcDbLine
 10
-4548.438201197365
 20
93.00252796109999
 30
0.0
 11
-4472.412655867461
 21
93.00252796109999
 31
0.0
  0
LINE
  5
2B1
102
{ACAD_REACTORS
330
28D
330
28E
102
}
330
281
100
AcDbEntity
  8
0
100
AcDbLine
 10
-4597.158797148222
 20
137.4399945975965
 30
0.0
 11
-4548.438201197365
 21
93.00252796109999
 31
0.0
  0
LINE
  5
2B2
102
{ACAD_REACTORS
330
28D
330
28E
102
}
330
281
100
AcDbEntity
  8
0
100
AcDbLine
 10
-4383.002331430172
 20
-30.1374398267726
 30
0.0
 11
-4482.585087989064
 21
-30.1374398267726
 31
0.0
  0
LINE
  5
2B3
102
{ACAD_REACTORS
330
28D
330
28E
102
}
330
281
100
AcDbEntity
  8
0
100
AcDbLine
 10
-4472.412655867461
 20
93.00252796109999
 30
0.0
 11
-4424.2274510809
 21
136.6369078511561
 31
0.0
  0
LINE
  5
2B4
102
{ACAD_REACTORS
330
28D
330
28E
102
}
330
281
100
AcDbEntity
  8
0
100
AcDbLine
 10
-4514.708557846773
 20
287.3495206002262
 30
0.0
 11
-4493.828302439259
 21
303.9466466933736
 31
0.0
  0
LINE
  5
2B5
102
{ACAD_REACTORS
330
28D
330
28E
102
}
330
281
100
AcDbEntity
  8
0
100
AcDbLine
 10
-4440.824577174047
 20
175.9881584268441
 30
0.0
 11
-4510.425428532413
 21
155.6432941836319
 31
0.0
  0
LINE
  5
2B6
102
{ACAD_REACTORS
330
28D
330
28E
102
}
330
281
100
AcDbEntity
  8
0
100
AcDbLine
 10
-4577.884715233595
 20
177.5943319197322
 30
0.0
 11
-4588.057147355204
 21
173.84659376966
 31
0.0
  0
LINE
  5
2B7
102
{ACAD_REACTORS
330
28D
330
28E
102
}
330
281
100
AcDbEntity
  8
0
100
AcDbLine
 10
-4588.057147355204
 20
173.84659376966
 30
0.0
 11
-4594.481841326742
 21
169.5634644553065
 31
0.0
  0
LINE
  5
2B8
102
{ACAD_REACTORS
330
28D
330
28E
102
}
330
281
100
AcDbEntity
  8
0
100
AcDbLine
 10
-4510.425428532413
 20
155.6432941836319
 30
0.0
 11
-4577.884715233595
 21
177.5943319197322
 31
0.0
  0
LINE
  5
2B9
102
{ACAD_REACTORS
330
28D
330
28E
102
}
330
281
100
AcDbEntity
  8
0
100
AcDbLine
 10
-4617.503661391434
 20
287.3495206002262
 30
0.0
 11
-4514.708557846773
 21
287.3495206002262
 31
0.0
  0
LINE
  5
2BA
102
{ACAD_REACTORS
330
28D
330
28E
102
}
330
281
100
AcDbEntity
  8
0
100
AcDbLine
 10
-4638.383916798942
 20
303.9466466933736
 30
0.0
 11
-4617.503661391434
 21
287.3495206002262
 31
0.0
  0
LINE
  5
2BB
102
{ACAD_REACTORS
330
28D
330
28E
102
}
330
281
100
AcDbEntity
  8
0
100
AcDbLine
 10
-4426.369015738077
 20
169.5634644553065
 30
0.0
 11
-4440.824577174047
 21
175.9881584268441
 31
0.0
  0
LINE
  5
2BC
102
{ACAD_REACTORS
330
28D
330
28E
102
}
330
281
100
AcDbEntity
  8
0
100
AcDbLine
 10
-4650.162522413433
 20
557.722058569263
 30
0.0
 11
-4672.113560149533
 21
573.7837934981143
 31
0.0
  0
LINE
  5
2BD
102
{ACAD_REACTORS
330
28D
330
28E
102
}
330
281
100
AcDbEntity
  8
0
100
AcDbLine
 10
-4670.507386656653
 20
498.2936393325071
 30
0.0
 11
-4649.627131249144
 21
514.8907654256545
 31
0.0
  0
LINE
  5
2BE
102
{ACAD_REACTORS
330
28D
330
28E
102
}
330
281
100
AcDbEntity
  8
0
100
AcDbLine
 10
-4793.647354444526
 20
557.722058569263
 30
0.0
 11
-4794.182745608821
 21
514.8907654256545
 31
0.0
  0
LINE
  5
2BF
102
{ACAD_REACTORS
330
28D
330
28E
102
}
330
281
100
AcDbEntity
  8
0
100
AcDbLine
 10
-4773.302490201313
 20
498.2936393325071
 30
0.0
 11
-4670.507386656653
 21
498.2936393325071
 31
0.0
  0
LINE
  5
2C0
102
{ACAD_REACTORS
330
28D
330
28E
102
}
330
281
100
AcDbEntity
  8
0
100
AcDbLine
 10
-4794.182745608821
 20
514.8907654256545
 30
0.0
 11
-4773.302490201313
 21
498.2936393325071
 31
0.0
  0
LINE
  5
2C1
102
{ACAD_REACTORS
330
28D
330
28E
102
}
330
281
100
AcDbEntity
  8
0
100
AcDbLine
 10
-4672.113560149533
 20
573.7837934981143
 30
0.0
 11
-4771.696316708425
 21
573.7837934981143
 31
0.0
  0
LINE
  5
2C2
102
{ACAD_REACTORS
330
28D
330
28E
102
}
330
281
100
AcDbEntity
  8
0
100
AcDbLine
 10
-4771.696316708425
 20
573.7837934981143
 30
0.0
 11
-4793.647354444526
 21
557.722058569263
 31
0.0
  0
LINE
  5
2C3
102
{ACAD_REACTORS
330
28D
330
28E
102
}
330
281
100
AcDbEntity
  8
0
100
AcDbLine
 10
-4649.627131249144
 20
514.8907654256545
 30
0.0
 11
-4650.162522413433
 21
557.722058569263
 31
0.0
  0
LINE
  5
2C4
102
{ACAD_REACTORS
330
28D
330
28E
102
}
330
281
100
AcDbEntity
  8
0
100
AcDbLine
 10
-4416.196583616474
 20
525.8662842937046
 30
0.0
 11
-4418.338148273651
 21
558.7928408978477
 31
0.0
  0
LINE
  5
2C5
102
{ACAD_REACTORS
330
28D
330
28E
102
}
330
281
100
AcDbEntity
  8
0
100
AcDbLine
 10
-4586.450973862316
 20
558.7928408978477
 30
0.0
 11
-4589.127929683789
 21
526.669371040145
 31
0.0
  0
LINE
  5
2C6
102
{ACAD_REACTORS
330
28D
330
28E
102
}
330
281
100
AcDbEntity
  8
0
100
AcDbLine
 10
-4494.363693603562
 20
346.7779398369821
 30
0.0
 11
-4516.314731339654
 21
362.8396747658407
 31
0.0
  0
LINE
  5
2C7
102
{ACAD_REACTORS
330
28D
330
28E
102
}
330
281
100
AcDbEntity
  8
0
100
AcDbLine
 10
-4540.407333732939
 20
482.2319044036484
 30
0.0
 11
-4464.381788403028
 21
482.2319044036484
 31
0.0
  0
LINE
  5
2C8
102
{ACAD_REACTORS
330
28D
330
28E
102
}
330
281
100
AcDbEntity
  8
0
100
AcDbLine
 10
-4516.314731339654
 20
362.8396747658407
 30
0.0
 11
-4615.897487898546
 21
362.8396747658407
 31
0.0
  0
LINE
  5
2C9
102
{ACAD_REACTORS
330
28D
330
28E
102
}
330
281
100
AcDbEntity
  8
0
100
AcDbLine
 10
-4615.897487898546
 20
362.8396747658407
 30
0.0
 11
-4637.848525634646
 21
346.7779398369821
 31
0.0
  0
LINE
  5
2CA
102
{ACAD_REACTORS
330
28D
330
28E
102
}
330
281
100
AcDbEntity
  8
0
100
AcDbLine
 10
-4589.127929683789
 20
526.669371040145
 30
0.0
 11
-4540.407333732939
 21
482.2319044036484
 31
0.0
  0
LINE
  5
2CB
102
{ACAD_REACTORS
330
28D
330
28E
102
}
330
281
100
AcDbEntity
  8
0
100
AcDbLine
 10
-4464.381788403028
 20
482.2319044036484
 30
0.0
 11
-4416.196583616474
 21
525.8662842937046
 31
0.0
  0
LINE
  5
2CC
102
{ACAD_REACTORS
330
28D
330
28E
102
}
330
281
100
AcDbEntity
  8
0
100
AcDbLine
 10
-4432.793709709621
 20
565.2175348693926
 30
0.0
 11
-4502.394561067987
 21
544.8726706261805
 31
0.0
  0
LINE
  5
2CD
102
{ACAD_REACTORS
330
28D
330
28E
102
}
330
281
100
AcDbEntity
  8
0
100
AcDbLine
 10
-4580.026279890779
 20
563.0759702122086
 30
0.0
 11
-4586.450973862316
 21
558.7928408978477
 31
0.0
  0
LINE
  5
2CE
102
{ACAD_REACTORS
330
28D
330
28E
102
}
330
281
100
AcDbEntity
  8
0
100
AcDbLine
 10
-4569.853847769169
 20
566.8237083622807
 30
0.0
 11
-4580.026279890779
 21
563.0759702122086
 31
0.0
  0
LINE
  5
2CF
102
{ACAD_REACTORS
330
28D
330
28E
102
}
330
281
100
AcDbEntity
  8
0
100
AcDbLine
 10
-4502.394561067987
 20
544.8726706261805
 30
0.0
 11
-4569.853847769169
 21
566.8237083622807
 31
0.0
  0
LINE
  5
2D0
102
{ACAD_REACTORS
330
28D
330
28E
102
}
330
281
100
AcDbEntity
  8
0
100
AcDbLine
 10
-4384.073113758764
 20
624.2985640650367
 30
0.0
 11
-4363.192858351256
 21
607.7014379718893
 31
0.0
  0
LINE
  5
2D1
102
{ACAD_REACTORS
330
28D
330
28E
102
}
330
281
100
AcDbEntity
  8
0
100
AcDbLine
 10
-4418.338148273651
 20
558.7928408978477
 30
0.0
 11
-4432.793709709621
 21
565.2175348693926
 31
0.0
  0
LINE
  5
2D2
102
{ACAD_REACTORS
330
28D
330
28E
102
}
330
281
100
AcDbEntity
  8
0
100
AcDbLine
 10
-4361.586684858369
 20
683.1915921375038
 30
0.0
 11
-4383.537722594468
 21
667.1298572086453
 31
0.0
  0
LINE
  5
2D3
102
{ACAD_REACTORS
330
28D
330
28E
102
}
330
281
100
AcDbEntity
  8
0
100
AcDbLine
 10
-4383.537722594468
 20
667.1298572086453
 30
0.0
 11
-4384.073113758764
 21
624.2985640650367
 31
0.0
  0
LINE
  5
2D4
102
{ACAD_REACTORS
330
2DC
102
}
330
281
100
AcDbEntity
  8
0
 62
   250
100
AcDbLine
 10
-7049.145119228843
 20
1023.393696205479
 30
0.0
 11
-7014.508975401273
 21
1023.393696205486
 31
0.0
  0
LINE
  5
2D5
330
281
100
AcDbEntity
  8
0
 62
   250
100
AcDbLine
 10
-7014.508975401266
 20
1005.864866754891
 30
0.0
 11
-7049.145119228843
 21
1005.864866754891
 31
0.0
  0
LINE
  5
2D6
102
{ACAD_REACTORS
330
2DC
102
}
330
281
100
AcDbEntity
  8
0
 62
   250
100
AcDbLine
 10
-7049.145119228843
 20
1519.003299527379
 30
0.0
 11
-7014.574260919923
 21
1519.003299527379
 31
0.0
  0
LINE
  5
2D7
330
281
100
AcDbEntity
  8
0
 62
   250
100
AcDbLine
 10
-7140.353341150323
 20
905.8300427119903
 30
0.0
 11
-4707.153356342154
 21
905.8300427119903
 31
0.0
  0
LINE
  5
2D8
330
281
100
AcDbEntity
  8
0
 62
   250
100
AcDbLine
 10
-7140.353341150323
 20
1005.864866754891
 30
0.0
 11
-4707.153356342154
 21
1005.864866754891
 31
0.0
  0
LINE
  5
2D9
330
281
100
AcDbEntity
  8
0
 62
   250
100
AcDbLine
 10
-7140.353341150323
 20
1536.564319306002
 30
0.0
 11
-4707.153356342154
 21
1536.564319306002
 31
0.0
  0
LINE
  5
2DA
330
281
100
AcDbEntity
  8
0
 62
   250
100
AcDbLine
 10
-4707.153356342154
 20
1636.599143348903
 30
0.0
 11
-7140.353341150323
 21
1636.599143348903
 31
0.0
  0
HATCH
  5
2DB
330
281
100
AcDbEntity
  8
0
 62
   150
100
AcDbHatch
 10
0.0
 20
0.0
 30
0.0
210
0.0
220
0.0
230
1.0
  2
SOLID
 70
     1
 71
     0
 91
        2
 92
        7
 72
     1
 73
     1
 93
        4
 10
-7014.574260919923
 20
1519.003299527379
 42
0.200968543846378
 10
-7007.218759152063
 20
1536.564319306002
 42
0.0
 10
-7056.500620996718
 20
1536.564319306002
 42
0.2009685438464969
 10
-7049.145119228836
 20
1519.003299527379
 42
0.0
 97
        0
 92
        7
 72
     1
 73
     1
 93
        4
 10
-7007.186116392723
 20
1005.864866754891
 42
0.200484672216724
 10
-7014.50897540128
 20
1023.393696205486
 42
0.0
 10
-7049.145119228843
 20
1023.393696205479
 42
0.2004846722166156
 10
-7056.467978237392
 20
1005.864866754891
 42
0.0
 97
        0
 75
     0
 76
     1
 47
1.950875136170907
 98
        2
 10
-7039.165793391629
 20
1525.40563653448
 10
-7041.118699593418
 20
1012.325476715544
  0
HATCH
  5
2DC
330
281
100
AcDbEntity
  8
0
 62
    50
100
AcDbHatch
 10
0.0
 20
0.0
 30
0.0
210
0.0
220
0.0
230
1.0
  2
SOLID
 70
     1
 71
     1
 91
        1
 92
        7
 72
     0
 73
     1
 93
        4
 10
-7014.508975401266
 20
1519.003299527379
 10
-7049.145119228845
 20
1519.003299527379
 10
-7049.145119228843
 20
1023.393696205479
 10
-7014.508975401274
 20
1023.393696205487
 97
        4
330
2D6
330
2DD
330
2D4
330
2EE
 75
     0
 76
     1
 47
1.950875136170907
 98
        1
 10
-7021.589596998899
 20
1096.213105002476
  0
LINE
  5
2DD
102
{ACAD_REACTORS
330
2DC
102
}
330
281
100
AcDbEntity
  8
0
 62
   250
100
AcDbLine
 10
-7049.145119228843
 20
1519.003299527372
 30
0.0
 11
-7049.145119228843
 21
1023.393696205479
 31
0.0
  0
HATCH
  5
2DE
330
281
100
AcDbEntity
  8
0
 62
    30
100
AcDbHatch
 10
0.0
 20
0.0
 30
0.0
210
0.0
220
0.0
230
1.0
  2
SOLID
 70
     1
 71
     0
 91
        4
 92
        7
 72
     0
 73
     1
 93
        4
 10
-7140.35334115033
 20
1641.747994586403
 10
-7159.47764574676
 20
1641.747994586403
 10
-7159.47764574676
 20
1531.783243156889
 10
-7140.353341150323
 20
1531.783243156889
 97
        0
 92
        7
 72
     0
 73
     1
 93
        4
 10
-7159.47764574676
 20
1641.747994586403
 10
-7179.337500519963
 20
1641.747994586403
 10
-7179.337500519977
 20
1531.783243156882
 10
-7159.477645746753
 20
1531.783243156889
 97
        0
 92
        7
 72
     0
 73
     1
 93
        4
 10
-7140.35334115033
 20
1011.013717992384
 10
-7159.47764574676
 20
1011.013717992391
 10
-7159.47764574676
 20
901.0489665628847
 10
-7140.353341150323
 20
901.0489665628774
 97
        0
 92
        7
 72
     0
 73
     1
 93
        4
 10
-7159.47764574676
 20
1011.013717992391
 10
-7179.337500519963
 20
1011.013717992384
 10
-7179.33750051997
 20
901.0489665628774
 10
-7159.477645746767
 20
901.0489665628774
 97
        0
 75
     0
 76
     1
 47
2.339559730848378
 98
        4
 10
-7144.853685755457
 20
1573.773780843927
 10
-7168.273584806243
 20
1571.434305452785
 10
-7151.879562314018
 20
939.7529722776235
 10
-7170.615543659078
 20
942.0926106302504
  0
LWPOLYLINE
  5
2DF
330
281
100
AcDbEntity
  8
0
 62
   250
100
AcDbPolyline
 90
        4
 70
     1
 43
0.0
 10
-7159.47764574676
 20
1011.013717992391
 10
-7179.337500519977
 20
1011.013717992391
 10
-7179.337500519977
 20
901.0489665628774
 10
-7159.47764574676
 20
901.0489665628774
  0
LWPOLYLINE
  5
2E0
330
281
100
AcDbEntity
  8
0
 62
   250
100
AcDbPolyline
 90
        4
 70
     1
 43
0.0
 10
-7140.353341150323
 20
901.0489665628774
 10
-7159.47764574676
 20
901.0489665628774
 10
-7159.47764574676
 20
1011.013717992391
 10
-7140.353341150323
 20
1011.013717992391
  0
ARC
  5
2E1
330
281
100
AcDbEntity
  8
0
 62
   250
100
AcDbCircle
 10
-7031.827047315054
 20
1005.864866754891
 30
0.0
 40
24.64093092233088
100
AcDbArc
 50
134.6534736332769
 51
180.0
  0
LWPOLYLINE
  5
2E2
330
281
100
AcDbEntity
  8
0
 62
   250
100
AcDbPolyline
 90
        4
 70
     1
 43
0.0
 10
-7159.47764574676
 20
1641.747994586403
 10
-7179.337500519977
 20
1641.747994586403
 10
-7179.337500519977
 20
1531.783243156889
 10
-7159.47764574676
 20
1531.783243156889
  0
LWPOLYLINE
  5
2E3
330
281
100
AcDbEntity
  8
0
 62
   250
100
AcDbPolyline
 90
        4
 70
     1
 43
0.0
 10
-7140.353341150323
 20
1531.783243156889
 10
-7159.47764574676
 20
1531.783243156889
 10
-7159.47764574676
 20
1641.747994586403
 10
-7140.353341150323
 20
1641.747994586403
  0
ARC
  5
2E4
330
281
100
AcDbEntity
  8
0
 62
   250
100
AcDbCircle
 10
-7031.859690074387
 20
1536.564319306002
 30
0.0
 40
24.64093092233088
100
AcDbArc
 50
180.0
 51
225.4531265289216
  0
ARC
  5
2E5
330
281
100
AcDbEntity
  8
0
 62
   250
100
AcDbCircle
 10
-5702.320102774305
 20
1005.864866754891
 30
0.0
 40
24.64093092233088
100
AcDbArc
 50
0.0
 51
45.34652636672301
  0
ARC
  5
2E6
330
281
100
AcDbEntity
  8
0
 62
   250
100
AcDbCircle
 10
-5702.352745533637
 20
1536.564319306002
 30
0.0
 40
24.64093092233088
100
AcDbArc
 50
314.5468734710782
 51
0.0
  0
HATCH
  5
2E7
330
281
100
AcDbEntity
  8
0
 62
   150
100
AcDbHatch
 10
0.0
 20
0.0
 30
0.0
210
0.0
220
0.0
230
1.0
  2
SOLID
 70
     1
 71
     0
 91
        2
 92
        7
 72
     1
 73
     1
 93
        4
 10
-5677.711814611306
 20
1536.564319306002
 42
0.0
 10
-5726.993676455968
 20
1536.564319306002
 42
0.2009685438464969
 10
-5719.638174688087
 20
1519.003299527379
 42
0.0
 10
-5685.067316379172
 20
1519.003299527379
 42
0.2009685438464102
 97
        0
 92
        7
 72
     1
 73
     1
 93
        4
 10
-5685.00203086053
 20
1023.393696205486
 42
0.0
 10
-5719.638174688094
 20
1023.393696205479
 42
0.2004846722166156
 10
-5726.961033696643
 20
1005.864866754891
 42
0.0
 10
-5677.679171851974
 20
1005.864866754891
 42
0.200484672216724
 97
        0
 75
     0
 76
     1
 47
1.950875136170907
 98
        2
 10
-5709.658848850878
 20
1525.40563653448
 10
-5711.611755052668
 20
1012.325476715544
  0
LINE
  5
2E8
102
{ACAD_REACTORS
330
2EF
102
}
330
281
100
AcDbEntity
  8
0
 62
   250
100
AcDbLine
 10
-5685.002030860516
 20
1519.067800307901
 30
0.0
 11
-5685.002030860523
 21
1023.393696205486
 31
0.0
  0
LINE
  5
2E9
102
{ACAD_REACTORS
330
2EF
102
}
330
281
100
AcDbEntity
  8
0
 62
   250
100
AcDbLine
 10
-5719.638174688094
 20
1519.003299527372
 30
0.0
 11
-5719.638174688094
 21
1023.393696205479
 31
0.0
  0
LINE
  5
2EA
102
{ACAD_REACTORS
330
2F1
102
}
330
281
100
AcDbEntity
  8
0
 62
   250
100
AcDbLine
 10
-6078.889150529438
 20
1519.067800307901
 30
0.0
 11
-6078.889150529445
 21
1023.393696205486
 31
0.0
  0
LINE
  5
2EB
102
{ACAD_REACTORS
330
2F1
102
}
330
281
100
AcDbEntity
  8
0
 62
   250
100
AcDbLine
 10
-6113.525294357016
 20
1519.003299527372
 30
0.0
 11
-6113.525294357016
 21
1023.393696205479
 31
0.0
  0
LINE
  5
2EC
102
{ACAD_REACTORS
330
2F3
102
}
330
281
100
AcDbEntity
  8
0
 62
   250
100
AcDbLine
 10
-6522.058132043021
 20
1519.067800307901
 30
0.0
 11
-6522.058132043028
 21
1023.393696205486
 31
0.0
  0
LINE
  5
2ED
102
{ACAD_REACTORS
330
2F3
102
}
330
281
100
AcDbEntity
  8
0
 62
   250
100
AcDbLine
 10
-6556.694275870599
 20
1519.003299527372
 30
0.0
 11
-6556.694275870599
 21
1023.393696205479
 31
0.0
  0
LINE
  5
2EE
102
{ACAD_REACTORS
330
2DC
102
}
330
281
100
AcDbEntity
  8
0
 62
   250
100
AcDbLine
 10
-7014.508975401266
 20
1519.067800307901
 30
0.0
 11
-7014.508975401273
 21
1023.393696205486
 31
0.0
  0
HATCH
  5
2EF
330
281
100
AcDbEntity
  8
0
 62
    50
100
AcDbHatch
 10
0.0
 20
0.0
 30
0.0
210
0.0
220
0.0
230
1.0
  2
SOLID
 70
     1
 71
     1
 91
        1
 92
        7
 72
     0
 73
     1
 93
        4
 10
-5685.002030860515
 20
1519.003299527379
 10
-5719.638174688095
 20
1519.003299527379
 10
-5719.638174688094
 20
1023.393696205479
 10
-5685.002030860524
 20
1023.393696205487
 97
        4
330
30A
330
2E9
330
2FE
330
2E8
 75
     0
 76
     1
 47
1.950875136170907
 98
        1
 10
-5692.08265245815
 20
1096.213105002476
  0
HATCH
  5
2F0
330
281
100
AcDbEntity
  8
0
 62
   150
100
AcDbHatch
 10
0.0
 20
0.0
 30
0.0
210
0.0
220
0.0
230
1.0
  2
SOLID
 70
     1
 71
     0
 91
        2
 92
        7
 72
     1
 73
     1
 93
        4
 10
-6071.598934280228
 20
1536.564319306002
 42
0.0
 10
-6120.88079612489
 20
1536.564319306002
 42
0.2009685438464969
 10
-6113.525294357009
 20
1519.003299527379
 42
0.0
 10
-6078.954436048094
 20
1519.003299527379
 42
0.2009685438464102
 97
        0
 92
        7
 72
     1
 73
     1
 93
        4
 10
-6078.889150529452
 20
1023.393696205486
 42
0.0
 10
-6113.525294357016
 20
1023.393696205479
 42
0.2004846722166156
 10
-6120.848153365565
 20
1005.864866754891
 42
0.0
 10
-6071.566291520896
 20
1005.864866754891
 42
0.200484672216724
 97
        0
 75
     0
 76
     1
 47
1.950875136170907
 98
        2
 10
-6103.5459685198
 20
1525.40563653448
 10
-6105.49887472159
 20
1012.325476715544
  0
HATCH
  5
2F1
330
281
100
AcDbEntity
  8
0
 62
    50
100
AcDbHatch
 10
0.0
 20
0.0
 30
0.0
210
0.0
220
0.0
230
1.0
  2
SOLID
 70
     1
 71
     1
 91
        1
 92
        7
 72
     0
 73
     1
 93
        4
 10
-6078.889150529438
 20
1519.003299527379
 10
-6113.525294357016
 20
1519.003299527379
 10
-6113.525294357015
 20
1023.393696205479
 10
-6078.889150529445
 20
1023.393696205487
 97
        4
330
306
330
2EB
330
2F9
330
2EA
 75
     0
 76
     1
 47
1.950875136170907
 98
        1
 10
-6085.969772127072
 20
1096.213105002476
  0
HATCH
  5
2F2
330
281
100
AcDbEntity
  8
0
 62
   150
100
AcDbHatch
 10
0.0
 20
0.0
 30
0.0
210
0.0
220
0.0
230
1.0
  2
SOLID
 70
     1
 71
     0
 91
        2
 92
        7
 72
     1
 73
     1
 93
        4
 10
-6514.767915793811
 20
1536.564319306002
 42
0.0
 10
-6564.049777638473
 20
1536.564319306002
 42
0.2009685438464969
 10
-6556.694275870592
 20
1519.003299527379
 42
0.0
 10
-6522.123417561677
 20
1519.003299527379
 42
0.2009685438464102
 97
        0
 92
        7
 72
     1
 73
     1
 93
        4
 10
-6522.058132043035
 20
1023.393696205486
 42
0.0
 10
-6556.694275870599
 20
1023.393696205479
 42
0.2004846722166156
 10
-6564.017134879148
 20
1005.864866754891
 42
0.0
 10
-6514.735273034479
 20
1005.864866754891
 42
0.200484672216724
 97
        0
 75
     0
 76
     1
 47
1.950875136170907
 98
        2
 10
-6546.714950033383
 20
1525.40563653448
 10
-6548.667856235174
 20
1012.325476715544
  0
HATCH
  5
2F3
330
281
100
AcDbEntity
  8
0
 62
    50
100
AcDbHatch
 10
0.0
 20
0.0
 30
0.0
210
0.0
220
0.0
230
1.0
  2
SOLID
 70
     1
 71
     1
 91
        1
 92
        7
 72
     0
 73
     1
 93
        4
 10
-6522.05813204302
 20
1519.003299527379
 10
-6556.694275870599
 20
1519.003299527379
 10
-6556.694275870601
 20
1023.393696205479
 10
-6522.05813204303
 20
1023.393696205486
 97
        4
330
302
330
2ED
330
2F5
330
2EC
 75
     0
 76
     1
 47
1.950875136170907
 98
        1
 10
-6529.138753640655
 20
1096.213105002476
  0
ARC
  5
2F4
330
281
100
AcDbEntity
  8
0
 62
   250
100
AcDbCircle
 10
-7031.827047315054
 20
1005.864866754891
 30
0.0
 40
24.64093092233088
100
AcDbArc
 50
0.0
 51
45.34652636672301
  0
LINE
  5
2F5
102
{ACAD_REACTORS
330
2F3
102
}
330
281
100
AcDbEntity
  8
0
 62
   250
100
AcDbLine
 10
-6556.694275870599
 20
1023.393696205479
 30
0.0
 11
-6522.058132043028
 21
1023.393696205486
 31
0.0
  0
LINE
  5
2F6
330
281
100
AcDbEntity
  8
0
 62
   250
100
AcDbLine
 10
-6522.058132043021
 20
1005.864866754891
 30
0.0
 11
-6556.694275870599
 21
1005.864866754891
 31
0.0
  0
ARC
  5
2F7
330
281
100
AcDbEntity
  8
0
 62
   250
100
AcDbCircle
 10
-6539.37620395681
 20
1005.864866754891
 30
0.0
 40
24.64093092233088
100
AcDbArc
 50
134.6534736332769
 51
180.0
  0
ARC
  5
2F8
330
281
100
AcDbEntity
  8
0
 62
   250
100
AcDbCircle
 10
-6539.37620395681
 20
1005.864866754891
 30
0.0
 40
24.64093092233088
100
AcDbArc
 50
0.0
 51
45.34652636672301
  0
LINE
  5
2F9
102
{ACAD_REACTORS
330
2F1
102
}
330
281
100
AcDbEntity
  8
0
 62
   250
100
AcDbLine
 10
-6113.525294357016
 20
1023.393696205479
 30
0.0
 11
-6078.889150529445
 21
1023.393696205486
 31
0.0
  0
LINE
  5
2FA
330
281
100
AcDbEntity
  8
0
 62
   250
100
AcDbLine
 10
-6078.889150529438
 20
1005.864866754891
 30
0.0
 11
-6113.525294357016
 21
1005.864866754891
 31
0.0
  0
ARC
  5
2FB
330
281
100
AcDbEntity
  8
0
 62
   250
100
AcDbCircle
 10
-6096.207222443227
 20
1005.864866754891
 30
0.0
 40
24.64093092233088
100
AcDbArc
 50
134.6534736332769
 51
180.0
  0
ARC
  5
2FC
330
281
100
AcDbEntity
  8
0
 62
   250
100
AcDbCircle
 10
-6096.207222443227
 20
1005.864866754891
 30
0.0
 40
24.64093092233088
100
AcDbArc
 50
0.0
 51
45.34652636672301
  0
ARC
  5
2FD
330
281
100
AcDbEntity
  8
0
 62
   250
100
AcDbCircle
 10
-5702.320102774305
 20
1005.864866754891
 30
0.0
 40
24.64093092233088
100
AcDbArc
 50
134.6534736332769
 51
180.0
  0
LINE
  5
2FE
102
{ACAD_REACTORS
330
2EF
102
}
330
281
100
AcDbEntity
  8
0
 62
   250
100
AcDbLine
 10
-5719.638174688094
 20
1023.393696205479
 30
0.0
 11
-5685.002030860523
 21
1023.393696205486
 31
0.0
  0
LINE
  5
2FF
330
281
100
AcDbEntity
  8
0
 62
   250
100
AcDbLine
 10
-5685.002030860516
 20
1005.864866754891
 30
0.0
 11
-5719.638174688094
 21
1005.864866754891
 31
0.0
  0
ARC
  5
300
330
281
100
AcDbEntity
  8
0
 62
   250
100
AcDbCircle
 10
-7031.859690074387
 20
1536.564319306002
 30
0.0
 40
24.64093092233088
100
AcDbArc
 50
314.5468734710782
 51
0.0
  0
LINE
  5
301
330
281
100
AcDbEntity
  8
0
 62
   250
100
AcDbLine
 10
-7014.574260919923
 20
1519.003299527379
 30
0.0
 11
-7014.508975401266
 21
1519.003299527379
 31
0.0
  0
LINE
  5
302
102
{ACAD_REACTORS
330
2F3
102
}
330
281
100
AcDbEntity
  8
0
 62
   250
100
AcDbLine
 10
-6556.694275870599
 20
1519.003299527379
 30
0.0
 11
-6522.123417561677
 21
1519.003299527379
 31
0.0
  0
ARC
  5
303
330
281
100
AcDbEntity
  8
0
 62
   250
100
AcDbCircle
 10
-6539.408846716142
 20
1536.564319306002
 30
0.0
 40
24.64093092233088
100
AcDbArc
 50
180.0
 51
225.4531265289216
  0
ARC
  5
304
330
281
100
AcDbEntity
  8
0
 62
   250
100
AcDbCircle
 10
-6539.408846716142
 20
1536.564319306002
 30
0.0
 40
24.64093092233088
100
AcDbArc
 50
314.5468734710782
 51
0.0
  0
LINE
  5
305
330
281
100
AcDbEntity
  8
0
 62
   250
100
AcDbLine
 10
-6522.123417561677
 20
1519.003299527379
 30
0.0
 11
-6522.058132043021
 21
1519.003299527379
 31
0.0
  0
LINE
  5
306
102
{ACAD_REACTORS
330
2F1
102
}
330
281
100
AcDbEntity
  8
0
 62
   250
100
AcDbLine
 10
-6113.525294357016
 20
1519.003299527379
 30
0.0
 11
-6078.954436048094
 21
1519.003299527379
 31
0.0
  0
ARC
  5
307
330
281
100
AcDbEntity
  8
0
 62
   250
100
AcDbCircle
 10
-6096.239865202559
 20
1536.564319306002
 30
0.0
 40
24.64093092233088
100
AcDbArc
 50
180.0
 51
225.4531265289216
  0
ARC
  5
308
330
281
100
AcDbEntity
  8
0
 62
   250
100
AcDbCircle
 10
-6096.239865202559
 20
1536.564319306002
 30
0.0
 40
24.64093092233088
100
AcDbArc
 50
314.5468734710782
 51
0.0
  0
LINE
  5
309
330
281
100
AcDbEntity
  8
0
 62
   250
100
AcDbLine
 10
-6078.954436048094
 20
1519.003299527379
 30
0.0
 11
-6078.889150529438
 21
1519.003299527379
 31
0.0
  0
LINE
  5
30A
102
{ACAD_REACTORS
330
2EF
102
}
330
281
100
AcDbEntity
  8
0
 62
   250
100
AcDbLine
 10
-5719.638174688094
 20
1519.003299527379
 30
0.0
 11
-5685.067316379172
 21
1519.003299527379
 31
0.0
  0
LINE
  5
30B
330
281
100
AcDbEntity
  8
0
 62
   250
100
AcDbLine
 10
-5685.067316379172
 20
1519.003299527379
 30
0.0
 11
-5685.002030860516
 21
1519.003299527379
 31
0.0
  0
ARC
  5
30C
330
281
100
AcDbEntity
  8
0
 62
   250
100
AcDbCircle
 10
-5702.352745533637
 20
1536.564319306002
 30
0.0
 40
24.64093092233088
100
AcDbArc
 50
180.0
 51
225.4531265289216
  0
LINE
  5
30D
102
{ACAD_REACTORS
330
314
102
}
330
281
100
AcDbEntity
  8
0
 62
   250
100
AcDbLine
 10
-4798.664067833364
 20
1519.067800307901
 30
0.0
 11
-4798.664067833371
 21
1023.393696205486
 31
0.0
  0
LINE
  5
30E
102
{ACAD_REACTORS
330
314
102
}
330
281
100
AcDbEntity
  8
0
 62
   250
100
AcDbLine
 10
-4833.300211660942
 20
1519.003299527372
 30
0.0
 11
-4833.300211660942
 21
1023.393696205479
 31
0.0
  0
LINE
  5
30F
102
{ACAD_REACTORS
330
316
102
}
330
281
100
AcDbEntity
  8
0
 62
   250
100
AcDbLine
 10
-5044.705601968293
 20
1519.067800307901
 30
0.0
 11
-5044.7056019683
 21
1023.393696205486
 31
0.0
  0
LINE
  5
310
102
{ACAD_REACTORS
330
316
102
}
330
281
100
AcDbEntity
  8
0
 62
   250
100
AcDbLine
 10
-5079.341745795871
 20
1519.003299527372
 30
0.0
 11
-5079.341745795871
 21
1023.393696205479
 31
0.0
  0
LINE
  5
311
102
{ACAD_REACTORS
330
318
102
}
330
281
100
AcDbEntity
  8
0
 62
   250
100
AcDbLine
 10
-5340.396773036264
 20
1519.067800307901
 30
0.0
 11
-5340.396773036271
 21
1023.393696205486
 31
0.0
  0
LINE
  5
312
102
{ACAD_REACTORS
330
318
102
}
330
281
100
AcDbEntity
  8
0
 62
   250
100
AcDbLine
 10
-5375.032916863841
 20
1519.003299527372
 30
0.0
 11
-5375.032916863841
 21
1023.393696205479
 31
0.0
  0
HATCH
  5
313
330
281
100
AcDbEntity
  8
0
 62
   150
100
AcDbHatch
 10
0.0
 20
0.0
 30
0.0
210
0.0
220
0.0
230
1.0
  2
SOLID
 70
     1
 71
     0
 91
        2
 92
        7
 72
     1
 73
     1
 93
        4
 10
-4791.373851584154
 20
1536.564319306002
 42
0.0
 10
-4840.655713428816
 20
1536.564319306002
 42
0.2009685438464969
 10
-4833.300211660935
 20
1519.003299527379
 42
0.0
 10
-4798.729353352021
 20
1519.003299527379
 42
0.2009685438464102
 97
        0
 92
        7
 72
     1
 73
     1
 93
        4
 10
-4798.664067833379
 20
1023.393696205486
 42
0.0
 10
-4833.300211660942
 20
1023.393696205479
 42
0.2004846722166156
 10
-4840.623070669491
 20
1005.864866754891
 42
0.0
 10
-4791.341208824822
 20
1005.864866754891
 42
0.200484672216724
 97
        0
 75
     0
 76
     1
 47
1.950875136170907
 98
        2
 10
-4823.320885823727
 20
1525.40563653448
 10
-4825.273792025517
 20
1012.325476715544
  0
HATCH
  5
314
330
281
100
AcDbEntity
  8
0
 62
    50
100
AcDbHatch
 10
0.0
 20
0.0
 30
0.0
210
0.0
220
0.0
230
1.0
  2
SOLID
 70
     1
 71
     1
 91
        1
 92
        7
 72
     0
 73
     1
 93
        4
 10
-4798.664067833364
 20
1519.003299527379
 10
-4833.300211660944
 20
1519.003299527379
 10
-4833.300211660941
 20
1023.393696205479
 10
-4798.664067833373
 20
1023.393696205487
 97
        4
330
336
330
30E
330
327
330
30D
 75
     0
 76
     1
 47
1.950875136170907
 98
        1
 10
-4805.744689430998
 20
1096.213105002476
  0
HATCH
  5
315
330
281
100
AcDbEntity
  8
0
 62
   150
100
AcDbHatch
 10
0.0
 20
0.0
 30
0.0
210
0.0
220
0.0
230
1.0
  2
SOLID
 70
     1
 71
     0
 91
        2
 92
        7
 72
     1
 73
     1
 93
        4
 10
-5037.415385719083
 20
1536.564319306002
 42
0.0
 10
-5086.697247563745
 20
1536.564319306002
 42
0.2009685438464969
 10
-5079.341745795864
 20
1519.003299527379
 42
0.0
 10
-5044.77088748695
 20
1519.003299527379
 42
0.2009685438464102
 97
        0
 92
        7
 72
     1
 73
     1
 93
        4
 10
-5044.705601968308
 20
1023.393696205486
 42
0.0
 10
-5079.341745795871
 20
1023.393696205479
 42
0.2004846722166156
 10
-5086.66460480442
 20
1005.864866754891
 42
0.0
 10
-5037.382742959751
 20
1005.864866754891
 42
0.200484672216724
 97
        0
 75
     0
 76
     1
 47
1.950875136170907
 98
        2
 10
-5069.362419958656
 20
1525.40563653448
 10
-5071.315326160446
 20
1012.325476715544
  0
HATCH
  5
316
330
281
100
AcDbEntity
  8
0
 62
    50
100
AcDbHatch
 10
0.0
 20
0.0
 30
0.0
210
0.0
220
0.0
230
1.0
  2
SOLID
 70
     1
 71
     1
 91
        1
 92
        7
 72
     0
 73
     1
 93
        4
 10
-5044.705601968293
 20
1519.003299527379
 10
-5079.341745795871
 20
1519.003299527379
 10
-5079.341745795871
 20
1023.393696205479
 10
-5044.705601968302
 20
1023.393696205486
 97
        4
330
32F
330
310
330
31E
330
30F
 75
     0
 76
     1
 47
1.950875136170907
 98
        1
 10
-5051.786223565926
 20
1096.213105002476
  0
HATCH
  5
317
330
281
100
AcDbEntity
  8
0
 62
   150
100
AcDbHatch
 10
0.0
 20
0.0
 30
0.0
210
0.0
220
0.0
230
1.0
  2
SOLID
 70
     1
 71
     0
 91
        2
 92
        7
 72
     1
 73
     1
 93
        4
 10
-5333.106556787054
 20
1536.564319306002
 42
0.0
 10
-5382.388418631716
 20
1536.564319306002
 42
0.2009685438464969
 10
-5375.032916863834
 20
1519.003299527379
 42
0.0
 10
-5340.46205855492
 20
1519.003299527379
 42
0.2009685438464102
 97
        0
 92
        7
 72
     1
 73
     1
 93
        4
 10
-5340.396773036278
 20
1023.393696205486
 42
0.0
 10
-5375.032916863841
 20
1023.393696205479
 42
0.2004846722166156
 10
-5382.35577587239
 20
1005.864866754891
 42
0.0
 10
-5333.073914027721
 20
1005.864866754891
 42
0.200484672216724
 97
        0
 75
     0
 76
     1
 47
1.950875136170907
 98
        2
 10
-5365.053591026626
 20
1525.40563653448
 10
-5367.006497228416
 20
1012.325476715544
  0
HATCH
  5
318
330
281
100
AcDbEntity
  8
0
 62
    50
100
AcDbHatch
 10
0.0
 20
0.0
 30
0.0
210
0.0
220
0.0
230
1.0
  2
SOLID
 70
     1
 71
     1
 91
        1
 92
        7
 72
     0
 73
     1
 93
        4
 10
-5340.396773036264
 20
1519.003299527379
 10
-5375.032916863841
 20
1519.003299527379
 10
-5375.03291686384
 20
1023.393696205479
 10
-5340.396773036272
 20
1023.393696205487
 97
        4
330
32B
330
312
330
319
330
311
 75
     0
 76
     1
 47
1.950875136170907
 98
        1
 10
-5347.477394633898
 20
1096.213105002476
  0
LINE
  5
319
102
{ACAD_REACTORS
330
318
102
}
330
281
100
AcDbEntity
  8
0
 62
   250
100
AcDbLine
 10
-5375.032916863841
 20
1023.393696205479
 30
0.0
 11
-5340.396773036271
 21
1023.393696205486
 31
0.0
  0
LINE
  5
31A
330
281
100
AcDbEntity
  8
0
 62
   250
100
AcDbLine
 10
-5340.396773036264
 20
1005.864866754891
 30
0.0
 11
-5375.032916863841
 21
1005.864866754891
 31
0.0
  0
ARC
  5
31B
330
281
100
AcDbEntity
  8
0
 62
   250
100
AcDbCircle
 10
-5357.714844950052
 20
1005.864866754891
 30
0.0
 40
24.64093092233088
100
AcDbArc
 50
134.6534736332769
 51
180.0
  0
ARC
  5
31C
330
281
100
AcDbEntity
  8
0
 62
   250
100
AcDbCircle
 10
-5357.714844950052
 20
1005.864866754891
 30
0.0
 40
24.64093092233088
100
AcDbArc
 50
0.0
 51
45.34652636672301
  0
ARC
  5
31D
330
281
100
AcDbEntity
  8
0
 62
   250
100
AcDbCircle
 10
-5062.023673882082
 20
1005.864866754891
 30
0.0
 40
24.64093092233088
100
AcDbArc
 50
134.6534736332769
 51
180.0
  0
LINE
  5
31E
102
{ACAD_REACTORS
330
316
102
}
330
281
100
AcDbEntity
  8
0
 62
   250
100
AcDbLine
 10
-5079.341745795871
 20
1023.393696205479
 30
0.0
 11
-5044.7056019683
 21
1023.393696205486
 31
0.0
  0
ARC
  5
31F
330
281
100
AcDbEntity
  8
0
 62
   250
100
AcDbCircle
 10
-5062.023673882082
 20
1005.864866754891
 30
0.0
 40
24.64093092233088
100
AcDbArc
 50
0.0
 51
45.34652636672301
  0
LINE
  5
320
330
281
100
AcDbEntity
  8
0
 62
   250
100
AcDbLine
 10
-5044.705601968293
 20
1005.864866754891
 30
0.0
 11
-5079.341745795871
 21
1005.864866754891
 31
0.0
  0
LINE
  5
321
330
281
100
AcDbEntity
  8
0
100
AcDbLine
 10
-4628.965485068919
 20
942.6890540480671
 30
0.0
 11
-4668.536972060887
 21
942.6890540480671
 31
0.0
  0
LINE
  5
322
330
281
100
AcDbEntity
  8
0
100
AcDbLine
 10
-4668.536972060887
 20
962.524967717778
 30
0.0
 11
-4628.965485068919
 21
962.524967717778
 31
0.0
  0
LWPOLYLINE
  5
323
330
281
100
AcDbEntity
  8
0
 62
   250
100
AcDbPolyline
 90
        4
 70
     1
 43
0.0
 10
-4687.661276657324
 20
1011.013717992391
 10
-4707.153356342154
 20
1011.013717992391
 10
-4707.153356342154
 20
900.6811914744902
 10
-4687.661276657324
 20
900.6811914744902
  0
LWPOLYLINE
  5
324
330
281
100
AcDbEntity
  8
0
 62
   250
100
AcDbPolyline
 90
        4
 70
     1
 43
0.0
 10
-4668.536972060887
 20
900.6811914744902
 10
-4687.661276657324
 20
900.6811914744902
 10
-4687.661276657324
 20
1011.013717992391
 10
-4668.536972060887
 20
1011.013717992391
  0
LINE
  5
325
330
281
100
AcDbEntity
  8
0
100
AcDbLine
 10
-4764.622439874204
 20
897.6070108829153
 30
0.0
 11
-4764.622439874204
 21
905.8300427119903
 31
0.0
  0
ARC
  5
326
330
281
100
AcDbEntity
  8
0
 62
   250
100
AcDbCircle
 10
-4815.982139747153
 20
1005.864866754891
 30
0.0
 40
24.64093092233088
100
AcDbArc
 50
134.6534736332769
 51
180.0
  0
LINE
  5
327
102
{ACAD_REACTORS
330
314
102
}
330
281
100
AcDbEntity
  8
0
 62
   250
100
AcDbLine
 10
-4833.300211660942
 20
1023.393696205479
 30
0.0
 11
-4798.664067833371
 21
1023.393696205486
 31
0.0
  0
ARC
  5
328
330
281
100
AcDbEntity
  8
0
 62
   250
100
AcDbCircle
 10
-4815.982139747153
 20
1005.864866754891
 30
0.0
 40
24.64093092233088
100
AcDbArc
 50
0.0
 51
45.34652636672301
  0
LINE
  5
329
330
281
100
AcDbEntity
  8
0
 62
   250
100
AcDbLine
 10
-4798.664067833364
 20
1005.864866754891
 30
0.0
 11
-4833.300211660942
 21
1005.864866754891
 31
0.0
  0
ARC
  5
32A
330
281
100
AcDbEntity
  8
0
100
AcDbCircle
 10
-4628.965485068919
 20
952.6070108829227
 30
0.0
 40
9.917956834853612
100
AcDbArc
 50
270.0
 51
90.0
  0
LINE
  5
32B
102
{ACAD_REACTORS
330
318
102
}
330
281
100
AcDbEntity
  8
0
 62
   250
100
AcDbLine
 10
-5375.032916863841
 20
1519.003299527379
 30
0.0
 11
-5340.46205855492
 21
1519.003299527379
 31
0.0
  0
ARC
  5
32C
330
281
100
AcDbEntity
  8
0
 62
   250
100
AcDbCircle
 10
-5357.747487709385
 20
1536.564319306002
 30
0.0
 40
24.64093092233088
100
AcDbArc
 50
180.0
 51
225.4531265289216
  0
ARC
  5
32D
330
281
100
AcDbEntity
  8
0
 62
   250
100
AcDbCircle
 10
-5357.747487709385
 20
1536.564319306002
 30
0.0
 40
24.64093092233088
100
AcDbArc
 50
314.5468734710782
 51
0.0
  0
LINE
  5
32E
330
281
100
AcDbEntity
  8
0
 62
   250
100
AcDbLine
 10
-5340.46205855492
 20
1519.003299527379
 30
0.0
 11
-5340.396773036264
 21
1519.003299527379
 31
0.0
  0
LINE
  5
32F
102
{ACAD_REACTORS
330
316
102
}
330
281
100
AcDbEntity
  8
0
 62
   250
100
AcDbLine
 10
-5079.341745795871
 20
1519.003299527379
 30
0.0
 11
-5044.77088748695
 21
1519.003299527379
 31
0.0
  0
ARC
  5
330
330
281
100
AcDbEntity
  8
0
 62
   250
100
AcDbCircle
 10
-5062.056316641414
 20
1536.564319306002
 30
0.0
 40
24.64093092233088
100
AcDbArc
 50
314.5468734710782
 51
0.0
  0
LINE
  5
331
330
281
100
AcDbEntity
  8
0
 62
   250
100
AcDbLine
 10
-5044.77088748695
 20
1519.003299527379
 30
0.0
 11
-5044.705601968293
 21
1519.003299527379
 31
0.0
  0
ARC
  5
332
330
281
100
AcDbEntity
  8
0
 62
   250
100
AcDbCircle
 10
-5062.056316641414
 20
1536.564319306002
 30
0.0
 40
24.64093092233088
100
AcDbArc
 50
180.0
 51
225.4531265289216
  0
ARC
  5
333
330
281
100
AcDbEntity
  8
0
 62
   250
100
AcDbCircle
 10
-4816.014782506485
 20
1536.564319306002
 30
0.0
 40
24.64093092233088
100
AcDbArc
 50
180.0
 51
225.4531265289216
  0
LWPOLYLINE
  5
334
330
281
100
AcDbEntity
  8
0
 62
   250
100
AcDbPolyline
 90
        4
 70
     1
 43
0.0
 10
-4687.661276657324
 20
1641.747994586403
 10
-4707.153356342154
 20
1641.747994586403
 10
-4707.153356342154
 20
1531.415468068502
 10
-4687.661276657324
 20
1531.415468068502
  0
LWPOLYLINE
  5
335
330
281
100
AcDbEntity
  8
0
 62
   250
100
AcDbPolyline
 90
        4
 70
     1
 43
0.0
 10
-4668.536972060887
 20
1531.415468068502
 10
-4687.661276657324
 20
1531.415468068502
 10
-4687.661276657324
 20
1641.747994586403
 10
-4668.536972060887
 20
1641.747994586403
  0
LINE
  5
336
102
{ACAD_REACTORS
330
314
102
}
330
281
100
AcDbEntity
  8
0
 62
   250
100
AcDbLine
 10
-4833.300211660942
 20
1519.003299527379
 30
0.0
 11
-4798.729353352021
 21
1519.003299527379
 31
0.0
  0
ARC
  5
337
330
281
100
AcDbEntity
  8
0
 62
   250
100
AcDbCircle
 10
-4816.014782506485
 20
1536.564319306002
 30
0.0
 40
24.64093092233088
100
AcDbArc
 50
314.5468734710782
 51
0.0
  0
LINE
  5
338
330
281
100
AcDbEntity
  8
0
 62
   250
100
AcDbLine
 10
-4798.729353352021
 20
1519.003299527379
 30
0.0
 11
-4798.664067833364
 21
1519.003299527379
 31
0.0
  0
LINE
  5
339
330
281
100
AcDbEntity
  8
0
100
AcDbLine
 10
-4808.090124437687
 20
1636.985445051119
 30
0.0
 11
-4822.964092916969
 21
1636.985445051119
 31
0.0
  0
LINE
  5
33A
102
{ACAD_REACTORS
330
28E
102
}
330
281
100
AcDbEntity
  8
0
100
AcDbLine
 10
-3781.222662762469
 20
-38.16830729119828
 30
0.0
 11
-4107.893319288705
 21
897.6070108829226
 31
0.0
  0
LINE
  5
33B
102
{ACAD_REACTORS
330
28D
330
28E
102
}
330
281
100
AcDbEntity
  8
0
100
AcDbLine
 10
-4094.426493875107
 20
-80.99960043480677
 30
0.0
 11
-4161.885780576289
 21
-59.04856269870652
 31
0.0
  0
LINE
  5
33C
102
{ACAD_REACTORS
330
28D
330
28E
102
}
330
281
100
AcDbEntity
  8
0
100
AcDbLine
 10
-4181.159862490909
 20
-99.20290002084222
 30
0.0
 11
-4132.439266540059
 21
-143.6403666573387
 31
0.0
  0
LINE
  5
33D
102
{ACAD_REACTORS
330
28D
330
28E
102
}
330
281
100
AcDbEntity
  8
0
100
AcDbLine
 10
-4172.058212697899
 20
-62.79630084877863
 30
0.0
 11
-4178.482906669436
 21
-67.07943016313947
 31
0.0
  0
LINE
  5
33E
102
{ACAD_REACTORS
330
28D
330
28E
102
}
330
281
100
AcDbEntity
  8
0
100
AcDbLine
 10
-4161.885780576289
 20
-59.04856269870652
 30
0.0
 11
-4172.058212697899
 21
-62.79630084877863
 31
0.0
  0
LINE
  5
33F
102
{ACAD_REACTORS
330
28D
330
28E
102
}
330
281
100
AcDbEntity
  8
0
100
AcDbLine
 10
-4178.482906669436
 20
-67.07943016313947
 30
0.0
 11
-4181.159862490909
 21
-99.20290002084222
 31
0.0
  0
LINE
  5
340
102
{ACAD_REACTORS
330
28D
330
28E
102
}
330
281
100
AcDbEntity
  8
0
100
AcDbLine
 10
-4056.413721210148
 20
-143.6403666573387
 30
0.0
 11
-4008.228516423595
 21
-100.0059867672825
 31
0.0
  0
LINE
  5
341
102
{ACAD_REACTORS
330
28D
330
28E
102
}
330
281
100
AcDbEntity
  8
0
100
AcDbLine
 10
-4132.439266540059
 20
-143.6403666573387
 30
0.0
 11
-4056.413721210148
 21
-143.6403666573387
 31
0.0
  0
LINE
  5
342
102
{ACAD_REACTORS
330
28D
330
28E
102
}
330
281
100
AcDbEntity
  8
0
100
AcDbLine
 10
-4024.825642516741
 20
-60.65473619159456
 30
0.0
 11
-4094.426493875107
 21
-80.99960043480677
 31
0.0
  0
LINE
  5
343
102
{ACAD_REACTORS
330
28D
330
28E
102
}
330
281
100
AcDbEntity
  8
0
100
AcDbLine
 10
-4010.370081080771
 20
-67.07943016313947
 30
0.0
 11
-4024.825642516741
 21
-60.65473619159456
 31
0.0
  0
LINE
  5
344
102
{ACAD_REACTORS
330
28D
330
28E
102
}
330
281
100
AcDbEntity
  8
0
100
AcDbLine
 10
-4008.228516423595
 20
-100.0059867672825
 30
0.0
 11
-4010.370081080771
 21
-67.07943016313947
 31
0.0
  0
LINE
  5
345
102
{ACAD_REACTORS
330
28E
102
}
330
281
100
AcDbEntity
  8
0
100
AcDbLine
 10
-3781.222662762469
 20
-38.16830729119828
 30
0.0
 11
-3750.705366397648
 21
-185.9362686366512
 31
0.0
  0
LINE
  5
346
102
{ACAD_REACTORS
330
28D
330
28E
102
}
330
281
100
AcDbEntity
  8
0
100
AcDbLine
 10
-4212.74794118433
 20
328.0392490866579
 30
0.0
 11
-4280.207227885512
 21
349.9902868227582
 31
0.0
  0
LINE
  5
347
102
{ACAD_REACTORS
330
28D
330
28E
102
}
330
281
100
AcDbEntity
  8
0
100
AcDbLine
 10
-4143.147089825965
 20
348.3841133298701
 30
0.0
 11
-4212.74794118433
 21
328.0392490866579
 31
0.0
  0
LINE
  5
348
102
{ACAD_REACTORS
330
28D
330
28E
102
}
330
281
100
AcDbEntity
  8
0
100
AcDbLine
 10
-4126.549963732817
 20
309.0328627541821
 30
0.0
 11
-4128.691528389994
 21
341.9594193583325
 31
0.0
  0
LINE
  5
349
102
{ACAD_REACTORS
330
28D
330
28E
102
}
330
281
100
AcDbEntity
  8
0
100
AcDbLine
 10
-4296.80435397866
 20
341.9594193583325
 30
0.0
 11
-4299.481309800132
 21
309.8359495006225
 31
0.0
  0
LINE
  5
34A
102
{ACAD_REACTORS
330
28D
330
28E
102
}
330
281
100
AcDbEntity
  8
0
100
AcDbLine
 10
-4143.682480990253
 20
135.8338211047084
 30
0.0
 11
-4243.265237549144
 21
135.8338211047084
 31
0.0
  0
LINE
  5
34B
102
{ACAD_REACTORS
330
28D
330
28E
102
}
330
281
100
AcDbEntity
  8
0
100
AcDbLine
 10
-4244.871411042033
 20
60.34366693910124
 30
0.0
 11
-4142.076307497372
 21
60.34366693910124
 31
0.0
  0
LINE
  5
34C
102
{ACAD_REACTORS
330
28D
330
28E
102
}
330
281
100
AcDbEntity
  8
0
100
AcDbLine
 10
-4243.265237549144
 20
135.8338211047084
 30
0.0
 11
-4265.216275285245
 21
119.7720861758571
 31
0.0
  0
LINE
  5
34D
102
{ACAD_REACTORS
330
28D
330
28E
102
}
330
281
100
AcDbEntity
  8
0
100
AcDbLine
 10
-4265.751666449541
 20
76.94079303224862
 30
0.0
 11
-4244.871411042033
 21
60.34366693910124
 31
0.0
  0
LINE
  5
34E
102
{ACAD_REACTORS
330
28D
330
28E
102
}
330
281
100
AcDbEntity
  8
0
100
AcDbLine
 10
-4265.216275285245
 20
119.7720861758571
 30
0.0
 11
-4265.751666449541
 21
76.94079303224862
 31
0.0
  0
LINE
  5
34F
102
{ACAD_REACTORS
330
28D
330
28E
102
}
330
281
100
AcDbEntity
  8
0
100
AcDbLine
 10
-4121.73144325416
 20
119.7720861758571
 30
0.0
 11
-4143.682480990253
 21
135.8338211047084
 31
0.0
  0
LINE
  5
350
102
{ACAD_REACTORS
330
28D
330
28E
102
}
330
281
100
AcDbEntity
  8
0
100
AcDbLine
 10
-4121.196052089857
 20
76.94079303224862
 30
0.0
 11
-4121.73144325416
 21
119.7720861758571
 31
0.0
  0
LINE
  5
351
102
{ACAD_REACTORS
330
28D
330
28E
102
}
330
281
100
AcDbEntity
  8
0
100
AcDbLine
 10
-4142.076307497372
 20
60.34366693910124
 30
0.0
 11
-4121.196052089857
 21
76.94079303224862
 31
0.0
  0
LINE
  5
352
102
{ACAD_REACTORS
330
28D
330
28E
102
}
330
281
100
AcDbEntity
  8
0
100
AcDbLine
 10
-4174.735168519371
 20
265.3984828641259
 30
0.0
 11
-4126.549963732817
 21
309.0328627541821
 31
0.0
  0
LINE
  5
353
102
{ACAD_REACTORS
330
28D
330
28E
102
}
330
281
100
AcDbEntity
  8
0
100
AcDbLine
 10
-4250.760713849282
 20
265.3984828641259
 30
0.0
 11
-4174.735168519371
 21
265.3984828641259
 31
0.0
  0
LINE
  5
354
102
{ACAD_REACTORS
330
28D
330
28E
102
}
330
281
100
AcDbEntity
  8
0
100
AcDbLine
 10
-4299.481309800132
 20
309.8359495006225
 30
0.0
 11
-4250.760713849282
 21
265.3984828641259
 31
0.0
  0
LINE
  5
355
102
{ACAD_REACTORS
330
28D
330
28E
102
}
330
281
100
AcDbEntity
  8
0
100
AcDbLine
 10
-4064.97997983887
 20
502.0413774825719
 30
0.0
 11
-4164.562736397769
 21
502.0413774825719
 31
0.0
  0
LINE
  5
356
102
{ACAD_REACTORS
330
28D
330
28E
102
}
330
281
100
AcDbEntity
  8
0
100
AcDbLine
 10
-4166.168909890649
 20
426.5512233169574
 30
0.0
 11
-4063.373806345989
 21
426.5512233169574
 31
0.0
  0
LINE
  5
357
102
{ACAD_REACTORS
330
28D
330
28E
102
}
330
281
100
AcDbEntity
  8
0
100
AcDbLine
 10
-4187.049165298158
 20
443.1483494101049
 30
0.0
 11
-4166.168909890649
 21
426.5512233169574
 31
0.0
  0
LINE
  5
358
102
{ACAD_REACTORS
330
28D
330
28E
102
}
330
281
100
AcDbEntity
  8
0
100
AcDbLine
 10
-4290.379660007121
 20
346.2425486726861
 30
0.0
 11
-4296.80435397866
 21
341.9594193583325
 31
0.0
  0
LINE
  5
359
102
{ACAD_REACTORS
330
28D
330
28E
102
}
330
281
100
AcDbEntity
  8
0
100
AcDbLine
 10
-4280.207227885512
 20
349.9902868227582
 30
0.0
 11
-4290.379660007121
 21
346.2425486726861
 31
0.0
  0
LINE
  5
35A
102
{ACAD_REACTORS
330
28D
330
28E
102
}
330
281
100
AcDbEntity
  8
0
100
AcDbLine
 10
-4164.562736397769
 20
502.0413774825719
 30
0.0
 11
-4186.513774133869
 21
485.9796425537133
 31
0.0
  0
LINE
  5
35B
102
{ACAD_REACTORS
330
28D
330
28E
102
}
330
281
100
AcDbEntity
  8
0
100
AcDbLine
 10
-4186.513774133869
 20
485.9796425537133
 30
0.0
 11
-4187.049165298158
 21
443.1483494101049
 31
0.0
  0
LINE
  5
35C
102
{ACAD_REACTORS
330
28D
330
28E
102
}
330
281
100
AcDbEntity
  8
0
100
AcDbLine
 10
-4063.373806345989
 20
426.5512233169574
 30
0.0
 11
-4042.493550938481
 21
443.1483494101049
 31
0.0
  0
LINE
  5
35D
102
{ACAD_REACTORS
330
28D
330
28E
102
}
330
281
100
AcDbEntity
  8
0
100
AcDbLine
 10
-4128.691528389994
 20
341.9594193583325
 30
0.0
 11
-4143.147089825965
 21
348.3841133298701
 31
0.0
  0
LINE
  5
35E
102
{ACAD_REACTORS
330
28D
330
28E
102
}
330
281
100
AcDbEntity
  8
0
100
AcDbLine
 10
-4043.028942102777
 20
485.9796425537133
 30
0.0
 11
-4064.97997983887
 21
502.0413774825719
 31
0.0
  0
LINE
  5
35F
102
{ACAD_REACTORS
330
28D
330
28E
102
}
330
281
100
AcDbEntity
  8
0
100
AcDbLine
 10
-4042.493550938481
 20
443.1483494101049
 30
0.0
 11
-4043.028942102777
 21
485.9796425537133
 31
0.0
  0
LINE
  5
360
102
{ACAD_REACTORS
330
28D
330
28E
102
}
330
281
100
AcDbEntity
  8
0
100
AcDbLine
 10
-4260.397754806596
 20
607.7014379718893
 30
0.0
 11
-4239.51749939908
 21
624.2985640650367
 31
0.0
  0
LINE
  5
361
102
{ACAD_REACTORS
330
28D
330
28E
102
}
330
281
100
AcDbEntity
  8
0
100
AcDbLine
 10
-4240.052890563384
 20
667.1298572086453
 30
0.0
 11
-4262.003928299477
 21
683.1915921375038
 31
0.0
  0
LINE
  5
362
102
{ACAD_REACTORS
330
28D
330
28E
102
}
330
281
100
AcDbEntity
  8
0
100
AcDbLine
 10
-4239.51749939908
 20
624.2985640650367
 30
0.0
 11
-4240.052890563384
 21
667.1298572086453
 31
0.0
  0
LINE
  5
363
330
281
100
AcDbEntity
  8
0
100
AcDbLine
 10
-1997.778974115172
 20
1520.112102393155
 30
0.0
 11
-3856.79660851197
 21
1520.112102393155
 31
0.0
  0
LINE
  5
364
330
281
100
AcDbEntity
  8
0
100
AcDbLine
 10
-3856.79660851197
 20
1539.449086395128
 30
0.0
 11
-1997.778974115164
 21
1539.449086395143
 31
0.0
  0
LINE
  5
365
330
281
100
AcDbEntity
  8
0
100
AcDbLine
 10
-1997.778974115164
 20
1022.018066204334
 30
0.0
 11
-3856.79660851197
 21
1022.018066204334
 31
0.0
  0
LINE
  5
366
330
281
100
AcDbEntity
  8
0
100
AcDbLine
 10
-3856.79660851197
 20
1002.681082202361
 30
0.0
 11
-1997.778974115164
 21
1002.681082202361
 31
0.0
  0
HATCH
  5
367
330
281
100
AcDbEntity
  8
0
 62
    50
100
AcDbHatch
 10
0.0
 20
0.0
 30
0.0
210
0.0
220
0.0
230
1.0
  2
SOLID
 70
     1
 71
     0
 91
        3
 92
        7
 72
     1
 73
     1
 93
       22
 10
-2183.480699789302
 20
1271.398480574571
 42
0.0
 10
-2181.81371840983
 20
1179.381108427311
 42
0.0
 10
-2174.479000340113
 20
1141.373932975162
 42
0.0
 10
-2157.142393993519
 20
1114.035438351675
 42
0.0
 10
-2132.471069577208
 20
1093.364869246113
 42
0.0
 10
-2105.799367505511
 20
1078.02864055489
 42
0.0
 10
-2091.796723917883
 20
1064.692789519045
 42
0.0
 10
-2084.462005848152
 20
1050.690145931403
 42
0.0
 10
-2081.79483564099
 20
1034.687124688389
 42
0.0
 10
-2081.79483564099
 20
1022.018066204334
 42
0.0
 10
-3856.79660851197
 20
1022.018066204349
 42
0.0
 10
-3856.79660851197
 20
1022.684858756132
 42
0.5047677450341376
 10
-3853.183392500883
 20
1520.112102393155
 42
0.0
 10
-2081.79483564099
 20
1520.112102393155
 42
0.0
 10
-2081.79483564099
 20
1507.443043909101
 42
0.0
 10
-2085.12879839995
 20
1488.772852458918
 42
0.0
 10
-2093.797101573254
 20
1474.77020887129
 42
0.0
 10
-2105.799367505518
 20
1464.768320594397
 42
0.0
 10
-2132.471069577208
 20
1448.765299351383
 42
0.0
 10
-2161.809941856059
 20
1422.760389831491
 42
0.0
 10
-2176.479377995492
 20
1394.755102656207
 42
0.0
 10
-2181.81371840983
 20
1362.749060170179
 42
0.0
 97
        0
 92
       22
 72
     1
 73
     1
 93
        2
 10
-3856.79660851197
 20
1069.041085190125
 42
0.0
 10
-3856.79660851197
 20
1476.423046166331
 42
-0.4582969605586812
 97
        0
 92
        7
 72
     1
 73
     1
 93
        5
 10
-3856.79660851197
 20
1022.684858756132
 42
0.0
 10
-3856.79660851197
 20
1069.041085190125
 42
0.4582969605586812
 10
-3856.79660851197
 20
1476.423046166331
 42
0.0
 10
-3856.79660851197
 20
1520.112102393155
 42
0.0
 10
-3853.183392500883
 20
1520.112102393155
 42
-0.5047677450341411
 97
        0
 75
     0
 76
     1
 47
4.472321723810398
 98
        3
 10
-2534.086390430988
 20
1296.027237571521
 10
-3818.183014620895
 20
1237.887093261037
 10
-3773.440939786015
 20
1175.274580661229
  0
HATCH
  5
368
330
281
100
AcDbEntity
  8
0
 62
    30
100
AcDbHatch
 10
0.0
 20
0.0
 30
0.0
210
0.0
220
0.0
230
1.0
  2
SOLID
 70
     1
 71
     0
 91
        2
 92
        7
 72
     0
 73
     1
 93
        4
 10
-2927.287791313574
 20
1002.681082202361
 10
-3856.79660851197
 20
1002.681082202361
 10
-3856.79660851197
 20
1022.018066204334
 10
-2927.287791313567
 20
1022.018066204334
 97
        0
 92
        7
 72
     1
 73
     1
 93
        5
 10
-2927.287791313574
 20
1520.112102393155
 42
0.0
 10
-3853.183392500883
 20
1520.112102393155
 42
0.003631856113254
 10
-3856.79660851197
 20
1522.779272600324
 42
0.0
 10
-3856.79660851197
 20
1539.449086395128
 42
0.0
 10
-2927.287791313567
 20
1539.449086395135
 42
0.0
 97
        0
 75
     0
 76
     1
 47
3.387716884985549
 98
        2
 10
-3642.190683722423
 20
1013.369070400753
 10
-3550.626907114915
 20
1531.689761846682
  0
LINE
  5
369
102
{ACAD_REACTORS
330
36E
102
}
330
281
100
AcDbEntity
  8
0
100
AcDbLine
 10
-4163.293797489605
 20
1520.291968763587
 30
0.0
 11
-4163.293797489605
 21
1022.018066204334
 31
0.0
  0
LINE
  5
36A
330
281
100
AcDbEntity
  8
0
100
AcDbLine
 10
-4163.293797489605
 20
1007.607010882922
 30
0.0
 11
-4163.293797489605
 21
1534.717666607561
 31
0.0
  0
ARC
  5
36B
102
{ACAD_REACTORS
330
36D
102
}
330
281
100
AcDbEntity
  8
0
100
AcDbCircle
 10
-4064.971426228629
 20
1269.742487867079
 30
0.0
 40
335.2341085902283
100
AcDbArc
 50
270.2639887034412
 51
89.73601129655873
  0
ARC
  5
36C
102
{ACAD_REACTORS
330
36D
330
36E
102
}
330
281
100
AcDbEntity
  8
0
100
AcDbCircle
 10
-4064.710020667283
 20
1269.484229394773
 30
0.0
 40
301.4404832298143
100
AcDbArc
 50
270.2438972044028
 51
89.70721767778803
  0
HATCH
  5
36D
330
281
100
AcDbEntity
  8
0
 62
    50
100
AcDbHatch
 10
0.0
 20
0.0
 30
0.0
210
0.0
220
0.0
230
1.0
  2
SOLID
 70
     1
 71
     1
 91
        1
 92
        7
 72
     1
 73
     1
 93
        4
 10
-4063.426849903364
 20
968.0464772756755
 42
0.0
 10
-4063.426849903364
 20
934.5119375792801
 42
0.9954031098254535
 10
-4063.426849903357
 20
1604.973038154878
 42
0.0
 10
-4063.426849903357
 20
1570.921981513871
 42
-0.9957522253128692
 97
        4
330
378
330
36C
330
371
330
36B
 75
     0
 76
     1
 47
3.550999638198877
 98
        1
 10
-3927.111281677549
 20
1555.377235819876
  0
HATCH
  5
36E
330
281
100
AcDbEntity
  8
0
 62
    50
100
AcDbHatch
 10
0.0
 20
0.0
 30
0.0
210
0.0
220
0.0
230
1.0
  2
SOLID
 70
     1
 71
     1
 91
        1
 92
        7
 72
     1
 73
     1
 93
        4
 10
-4163.293797489605
 20
1022.018066204334
 42
0.0
 10
-3892.585464006627
 20
1022.018066204334
 42
0.5285003451181573
 10
-3897.222605599374
 20
1520.112102393155
 42
0.0
 10
-4163.293797489605
 20
1520.112102393162
 42
0.0
 97
        4
330
377
330
369
330
370
330
36C
 75
     0
 76
     1
 47
2.596708625795336
 98
        1
 10
-4056.502601223379
 20
1340.736285404302
  0
LINE
  5
36F
330
281
100
AcDbEntity
  8
0
100
AcDbLine
 10
-3924.415881167267
 20
1002.681082202361
 30
0.0
 11
-4063.427398589498
 21
1002.681082202361
 31
0.0
  0
LINE
  5
370
102
{ACAD_REACTORS
330
36E
102
}
330
281
100
AcDbEntity
  8
0
100
AcDbLine
 10
-3892.585464006625
 20
1022.018066204334
 30
0.0
 11
-4163.293797489605
 21
1022.018066204334
 31
0.0
  0
LWPOLYLINE
  5
371
102
{ACAD_REACTORS
330
36D
102
}
330
281
100
AcDbEntity
  8
0
100
AcDbPolyline
 90
        8
 70
     1
 43
0.0
 10
-4168.426849903364
 20
897.6070108829153
 10
-4068.426849903364
 20
897.6070108829226
 42
0.4142135623730951
 10
-4063.426849903364
 20
902.6070108829227
 10
-4063.426849903364
 20
1002.607010882922
 42
0.4142135623730951
 10
-4068.426849903364
 20
1007.607010882922
 10
-4168.426849903364
 20
1007.607010882922
 42
0.4142135623730951
 10
-4173.426849903363
 20
1002.607010882922
 10
-4173.426849903363
 20
902.6070108829154
 42
0.4142135623730951
  0
ARC
  5
372
330
281
100
AcDbEntity
  8
0
100
AcDbCircle
 10
-4243.550274093991
 20
952.6070108829227
 30
0.0
 40
9.917956834853612
100
AcDbArc
 50
90.0
 51
270.0
  0
LINE
  5
373
330
281
100
AcDbEntity
  8
0
100
AcDbLine
 10
-4243.550274093991
 20
942.6890540480671
 30
0.0
 11
-4172.686679023114
 21
942.6890540480671
 31
0.0
  0
LINE
  5
374
330
281
100
AcDbEntity
  8
0
100
AcDbLine
 10
-4172.686679023114
 20
962.524967717778
 30
0.0
 11
-4243.550274093991
 21
962.524967717778
 31
0.0
  0
LINE
  5
375
330
281
100
AcDbEntity
  8
0
100
AcDbLine
 10
-3856.79660851197
 20
1002.681082202361
 30
0.0
 11
-3862.338474400283
 21
1002.681082202361
 31
0.0
  0
LINE
  5
376
330
281
100
AcDbEntity
  8
0
100
AcDbLine
 10
-3930.600584330386
 20
1539.449086395128
 30
0.0
 11
-4064.440742393337
 21
1539.449086395128
 31
0.0
  0
LINE
  5
377
102
{ACAD_REACTORS
330
36E
102
}
330
281
100
AcDbEntity
  8
0
100
AcDbLine
 10
-3897.222605599381
 20
1520.112102393155
 30
0.0
 11
-4163.293797489605
 21
1520.112102393162
 31
0.0
  0
LWPOLYLINE
  5
378
102
{ACAD_REACTORS
330
36D
102
}
330
281
100
AcDbEntity
  8
0
100
AcDbPolyline
 90
        8
 70
     1
 43
0.0
 10
-4168.426849903357
 20
1534.717666607561
 10
-4068.426849903357
 20
1534.717666607561
 42
0.4142135623730951
 10
-4063.426849903357
 20
1539.717666607561
 10
-4063.426849903357
 20
1639.717666607561
 42
0.4142135623730951
 10
-4068.426849903357
 20
1644.717666607561
 10
-4168.426849903357
 20
1644.717666607561
 42
0.4142135623730951
 10
-4173.426849903356
 20
1639.717666607561
 10
-4173.426849903356
 20
1539.717666607561
 42
0.4142135623730951
  0
LINE
  5
379
330
281
100
AcDbEntity
  8
0
100
AcDbLine
 10
-3856.79660851197
 20
1539.449086395128
 30
0.0
 11
-3865.872811786656
 21
1539.449086395128
 31
0.0
  0
LINE
  5
37A
330
281
100
AcDbEntity
  8
0
100
AcDbLine
 10
-2105.799367505518
 20
1464.768320594397
 30
0.0
 11
-2093.797101573247
 21
1474.770208871283
 31
0.0
  0
HATCH
  5
37B
330
281
100
AcDbEntity
  8
0
 62
   150
100
AcDbHatch
 10
0.0
 20
0.0
 30
0.0
210
0.0
220
0.0
230
1.0
  2
SOLID
 70
     1
 71
     0
 91
        2
 92
        7
 72
     0
 73
     1
 93
        4
 10
-1997.778974115164
 20
1002.681082202361
 10
-2927.287791313567
 20
1002.681082202361
 10
-2927.287791313567
 20
1022.018066204334
 10
-1997.778974115164
 20
1022.018066204334
 97
        0
 92
        7
 72
     0
 73
     1
 93
        4
 10
-1997.778974115172
 20
1520.112102393155
 10
-2927.287791313574
 20
1520.112102393155
 10
-2927.287791313567
 20
1539.449086395135
 10
-1997.778974115164
 20
1539.449086395143
 97
        0
 75
     0
 76
     1
 47
2.231880503813954
 98
        2
 10
-2370.738541634076
 20
1011.487877995685
 10
-2473.512160305173
 20
1535.97984055864
  0
LINE
  5
37C
330
281
100
AcDbEntity
  8
0
100
AcDbLine
 10
-2927.287791313574
 20
1002.681082202361
 30
0.0
 11
-2927.287791313574
 21
1022.018066204334
 31
0.0
  0
LINE
  5
37D
330
281
100
AcDbEntity
  8
0
100
AcDbLine
 10
-2132.471069577201
 20
1093.364869246106
 30
0.0
 11
-2157.142393993519
 21
1114.035438351675
 31
0.0
  0
LINE
  5
37E
330
281
100
AcDbEntity
  8
0
100
AcDbLine
 10
-2105.799367505518
 20
1078.02864055489
 30
0.0
 11
-2132.471069577201
 21
1093.364869246106
 31
0.0
  0
LINE
  5
37F
330
281
100
AcDbEntity
  8
0
100
AcDbLine
 10
-2091.796723917883
 20
1064.692789519038
 30
0.0
 11
-2105.799367505518
 21
1078.02864055489
 31
0.0
  0
LINE
  5
380
330
281
100
AcDbEntity
  8
0
100
AcDbLine
 10
-2084.462005848159
 20
1050.69014593141
 30
0.0
 11
-2091.796723917883
 21
1064.692789519038
 31
0.0
  0
LINE
  5
381
330
281
100
AcDbEntity
  8
0
100
AcDbLine
 10
-2081.79483564099
 20
1034.687124688389
 30
0.0
 11
-2084.462005848159
 21
1050.69014593141
 31
0.0
  0
LINE
  5
382
330
281
100
AcDbEntity
  8
0
100
AcDbLine
 10
-2081.79483564099
 20
1022.018066204334
 30
0.0
 11
-2081.79483564099
 21
1034.687124688389
 31
0.0
  0
LINE
  5
383
330
281
100
AcDbEntity
  8
0
100
AcDbLine
 10
-1997.778974115164
 20
1002.681082202361
 30
0.0
 11
-1997.778974115164
 21
1022.018066204334
 31
0.0
  0
LINE
  5
384
330
281
100
AcDbEntity
  8
0
100
AcDbLine
 10
-2183.48069978931
 20
1271.398480574644
 30
0.0
 11
-2181.81371840983
 21
1362.749060170179
 31
0.0
  0
LINE
  5
385
330
281
100
AcDbEntity
  8
0
100
AcDbLine
 10
-2181.81371840983
 20
1179.381108427311
 30
0.0
 11
-2183.48069978931
 21
1271.398480574644
 31
0.0
  0
LINE
  5
386
330
281
100
AcDbEntity
  8
0
100
AcDbLine
 10
-2174.479000340113
 20
1141.373932975155
 30
0.0
 11
-2181.81371840983
 21
1179.381108427311
 31
0.0
  0
LINE
  5
387
330
281
100
AcDbEntity
  8
0
100
AcDbLine
 10
-2157.142393993519
 20
1114.035438351675
 30
0.0
 11
-2174.479000340113
 21
1141.373932975155
 31
0.0
  0
LINE
  5
388
330
281
100
AcDbEntity
  8
0
100
AcDbLine
 10
-2132.471069577201
 20
1448.765299351383
 30
0.0
 11
-2105.799367505518
 21
1464.768320594397
 31
0.0
  0
LINE
  5
389
330
281
100
AcDbEntity
  8
0
100
AcDbLine
 10
-2181.81371840983
 20
1362.749060170179
 30
0.0
 11
-2176.479377995492
 21
1394.755102656207
 31
0.0
  0
LINE
  5
38A
330
281
100
AcDbEntity
  8
0
100
AcDbLine
 10
-2161.809941856059
 20
1422.760389831484
 30
0.0
 11
-2132.471069577201
 21
1448.765299351383
 31
0.0
  0
LINE
  5
38B
330
281
100
AcDbEntity
  8
0
100
AcDbLine
 10
-2176.479377995492
 20
1394.755102656207
 30
0.0
 11
-2161.809941856059
 21
1422.760389831484
 31
0.0
  0
LINE
  5
38C
330
281
100
AcDbEntity
  8
0
100
AcDbLine
 10
-2927.287791313574
 20
1539.449086395135
 30
0.0
 11
-2927.287791313574
 21
1520.112102393155
 31
0.0
  0
LINE
  5
38D
330
281
100
AcDbEntity
  8
0
100
AcDbLine
 10
-2081.79483564099
 20
1507.443043909101
 30
0.0
 11
-2081.79483564099
 21
1520.112102393155
 31
0.0
  0
LINE
  5
38E
330
281
100
AcDbEntity
  8
0
100
AcDbLine
 10
-2085.12879839995
 20
1488.772852458918
 30
0.0
 11
-2081.79483564099
 21
1507.443043909101
 31
0.0
  0
LINE
  5
38F
330
281
100
AcDbEntity
  8
0
100
AcDbLine
 10
-2093.797101573247
 20
1474.770208871283
 30
0.0
 11
-2085.12879839995
 21
1488.772852458918
 31
0.0
  0
LINE
  5
390
330
281
100
AcDbEntity
  8
0
100
AcDbLine
 10
-1997.778974115164
 20
1539.449086395143
 30
0.0
 11
-1997.778974115172
 21
1520.112102393155
 31
0.0
  0
ENDBLK
  5
283
330
281
100
AcDbEntity
  8
0
100
AcDbBlockEnd
  0
ENDSEC
  0
SECTION
  2
ENTITIES
  0
INSERT
  5
391
330
1F
100
AcDbEntity
  8
0
100
AcDbBlockReference
  2
ADKU
 10
8659.386352219154
 20
1699.839697890551
 30
0.0
  0
MTEXT
  5
392
330
1F
100
AcDbEntity
  8
0
100
AcDbMText
 10
2454.996056148607
 20
4460.519958855526
 30
0.0
 40
250.0
 41
12313.81999999999
 71
     1
 72
     5
  1
{\Fisocp2.shx;Hoogte:250cm\PVrije Valhoogte:90cm}
1001
ACAD
1000
MTEXTBEGIN
1070
    73
1070
     1
1070
    44
1040
1.0
1070
    74
1070
     0
1000
MTEXTEND
  0
ENDSEC
  0
SECTION
  2
OBJECTS
  0
DICTIONARY
  5
C
330
0
100
AcDbDictionary
  3
ACAD_GROUP
350
D
  3
ACAD_LAYOUT
350
1A
  3
ACAD_MLINESTYLE
350
17
  3
ACAD_PLOTSETTINGS
350
19
  3
ACAD_PLOTSTYLENAME
350
E
  3
ACDBHEADERROUNDTRIPXREC
350
3BE
  0
DICTIONARY
  5
5D
330
2
100
AcDbDictionary
280
     1
  3
ACAD_LAYERSTATES
360
5E
  0
DICTIONARY
  5
3DF
330
1F
100
AcDbDictionary
280
     1
  3
ACAD_LAYOUTSELFREF
360
3E0
  0
DICTIONARY
  5
3E1
330
50
100
AcDbDictionary
280
     1
  3
ACAD_LAYOUTSELFREF
360
3E2
  0
DICTIONARY
  5
D
102
{ACAD_REACTORS
330
C
102
}
330
C
100
AcDbDictionary
  0
DICTIONARY
  5
1A
102
{ACAD_REACTORS
330
C
102
}
330
C
100
AcDbDictionary
  0
DICTIONARY
  5
17
102
{ACAD_REACTORS
330
C
102
}
330
C
100
AcDbDictionary
  3
STANDARD
350
18
  0
DICTIONARY
  5
19
102
{ACAD_REACTORS
330
C
102
}
330
C
100
AcDbDictionary
  0
ACDBDICTIONARYWDFLT
  5
E
102
{ACAD_REACTORS
330
C
102
}
330
C
100
AcDbDictionary
281
     1
  3
Normal
350
F
100
AcDbDictionaryWithDefault
340
F
  0
DICTIONARY
  5
3BE
102
{ACAD_REACTORS
330
C
102
}
330
C
100
AcDbDictionary
  3
CEPSNTYPE
350
3C8
  3
DIMSTYLEDATA
350
3CC
  3
FINGERPRINTGUID
350
3C9
  3
HYPERLINKBASE
350
3C1
  3
INSUNITS
350
3C7
  3
LAYOUTDICT
350
3C3
  3
LWETCUNION
350
3C6
  3
PLOTSETDICT
350
3C4
  3
PLOTSTYLNAMDICT
350
3C5
  3
PSVPSCALE
350
3CB
  3
PUCSBASE
350
3CF
  3
PUCSORGBACK
350
3D5
  3
PUCSORGBOTTOM
350
3D1
  3
PUCSORGFRONT
350
3D4
  3
PUCSORGLEFT
350
3D2
  3
PUCSORGRIGHT
350
3D3
  3
PUCSORGTOP
350
3D0
  3
PUCSORTHOREF
350
3CD
  3
PUCSORTHOVIEW
350
3CE
  3
STYLESHEET
350
3C2
  3
TSTACKALIGN
350
3BF
  3
TSTACKSIZE
350
3C0
  3
UCSBASE
350
3D8
  3
UCSORGBACK
350
3DE
  3
UCSORGBOTTOM
350
3DA
  3
UCSORGFRONT
350
3DD
  3
UCSORGLEFT
350
3DB
  3
UCSORGRIGHT
350
3DC
  3
UCSORGTOP
350
3D9
  3
UCSORTHOREF
350
3D6
  3
UCSORTHOVIEW
350
3D7
  3
VERSIONGUID
350
3CA
  0
DICTIONARY
  5
5E
102
{ACAD_REACTORS
330
5D
102
}
330
5D
100
AcDbDictionary
  0
XRECORD
  5
3E0
102
{ACAD_REACTORS
330
3DF
102
}
330
3DF
100
AcDbXrecord
340
1F
  0
XRECORD
  5
3E2
102
{ACAD_REACTORS
330
3E1
102
}
330
3E1
100
AcDbXrecord
340
50
  0
MLINESTYLE
  5
18
102
{ACAD_REACTORS
330
17
102
}
330
17
100
AcDbMlineStyle
  2
STANDARD
 70
     0
  3

 62
   256
 51
90.0
 52
90.0
 71
     2
 49
0.5
 62
   256
  6
BYLAYER
 49
-0.5
 62
   256
  6
BYLAYER
  0
ACDBPLACEHOLDER
  5
F
102
{ACAD_REACTORS
330
E
102
}
330
E
100
AcDbPlaceHolder
280
     0
  0
XRECORD
  5
3C8
102
{ACAD_REACTORS
330
3BE
102
}
330
3BE
100
AcDbXrecord
 90
        0
  0
XRECORD
  5
3CC
102
{ACAD_REACTORS
330
3BE
102
}
330
3BE
100
AcDbXrecord
1000
DSTYLE
1002
{
1070
   278
 70
    44
1002
}
  0
XRECORD
  5
3C9
102
{ACAD_REACTORS
330
3BE
102
}
330
3BE
100
AcDbXrecord
  1
{FDEAD578-A652-11D2-9A35-0060089B3A3F}
  0
XRECORD
  5
3C1
102
{ACAD_REACTORS
330
3BE
102
}
330
3BE
100
AcDbXrecord
  1

  0
XRECORD
  5
3C7
102
{ACAD_REACTORS
330
3BE
102
}
330
3BE
100
AcDbXrecord
 90
        4
  0
XRECORD
  5
3C3
102
{ACAD_REACTORS
330
3BE
102
}
330
3BE
100
AcDbXrecord
340
1A
  0
XRECORD
  5
3C6
102
{ACAD_REACTORS
330
3BE
102
}
330
3BE
100
AcDbXrecord
 90
    10781
  0
XRECORD
  5
3C4
102
{ACAD_REACTORS
330
3BE
102
}
330
3BE
100
AcDbXrecord
340
19
  0
XRECORD
  5
3C5
102
{ACAD_REACTORS
330
3BE
102
}
330
3BE
100
AcDbXrecord
340
E
  0
XRECORD
  5
3CB
102
{ACAD_REACTORS
330
3BE
102
}
330
3BE
100
AcDbXrecord
 40
0.0
  0
XRECORD
  5
3CF
102
{ACAD_REACTORS
330
3BE
102
}
330
3BE
100
AcDbXrecord
340
0
  0
XRECORD
  5
3D5
102
{ACAD_REACTORS
330
3BE
102
}
330
3BE
100
AcDbXrecord
 10
0.0
 20
0.0
 30
0.0
  0
XRECORD
  5
3D1
102
{ACAD_REACTORS
330
3BE
102
}
330
3BE
100
AcDbXrecord
 10
0.0
 20
0.0
 30
0.0
  0
XRECORD
  5
3D4
102
{ACAD_REACTORS
330
3BE
102
}
330
3BE
100
AcDbXrecord
 10
0.0
 20
0.0
 30
0.0
  0
XRECORD
  5
3D2
102
{ACAD_REACTORS
330
3BE
102
}
330
3BE
100
AcDbXrecord
 10
0.0
 20
0.0
 30
0.0
  0
XRECORD
  5
3D3
102
{ACAD_REACTORS
330
3BE
102
}
330
3BE
100
AcDbXrecord
 10
0.0
 20
0.0
 30
0.0
  0
XRECORD
  5
3D0
102
{ACAD_REACTORS
330
3BE
102
}
330
3BE
100
AcDbXrecord
 10
0.0
 20
0.0
 30
0.0
  0
XRECORD
  5
3CD
102
{ACAD_REACTORS
330
3BE
102
}
330
3BE
100
AcDbXrecord
340
0
  0
XRECORD
  5
3CE
102
{ACAD_REACTORS
330
3BE
102
}
330
3BE
100
AcDbXrecord
 70
     0
  0
XRECORD
  5
3C2
102
{ACAD_REACTORS
330
3BE
102
}
330
3BE
100
AcDbXrecord
  1

  0
XRECORD
  5
3BF
102
{ACAD_REACTORS
330
3BE
102
}
330
3BE
100
AcDbXrecord
 90
        1
  0
XRECORD
  5
3C0
102
{ACAD_REACTORS
330
3BE
102
}
330
3BE
100
AcDbXrecord
 90
       70
  0
XRECORD
  5
3D8
102
{ACAD_REACTORS
330
3BE
102
}
330
3BE
100
AcDbXrecord
340
0
  0
XRECORD
  5
3DE
102
{ACAD_REACTORS
330
3BE
102
}
330
3BE
100
AcDbXrecord
 10
0.0
 20
0.0
 30
0.0
  0
XRECORD
  5
3DA
102
{ACAD_REACTORS
330
3BE
102
}
330
3BE
100
AcDbXrecord
 10
0.0
 20
0.0
 30
0.0
  0
XRECORD
  5
3DD
102
{ACAD_REACTORS
330
3BE
102
}
330
3BE
100
AcDbXrecord
 10
0.0
 20
0.0
 30
0.0
  0
XRECORD
  5
3DB
102
{ACAD_REACTORS
330
3BE
102
}
330
3BE
100
AcDbXrecord
 10
0.0
 20
0.0
 30
0.0
  0
XRECORD
  5
3DC
102
{ACAD_REACTORS
330
3BE
102
}
330
3BE
100
AcDbXrecord
 10
0.0
 20
0.0
 30
0.0
  0
XRECORD
  5
3D9
102
{ACAD_REACTORS
330
3BE
102
}
330
3BE
100
AcDbXrecord
 10
0.0
 20
0.0
 30
0.0
  0
XRECORD
  5
3D6
102
{ACAD_REACTORS
330
3BE
102
}
330
3BE
100
AcDbXrecord
340
0
  0
XRECORD
  5
3D7
102
{ACAD_REACTORS
330
3BE
102
}
330
3BE
100
AcDbXrecord
 70
     0
  0
XRECORD
  5
3CA
102
{ACAD_REACTORS
330
3BE
102
}
330
3BE
100
AcDbXrecord
  1
{3B051B8D-E3AB-4937-A41C-0A1CFEC64A81}
  0
ENDSEC
  0
EOF
