  0
SECTION
  2
HEADER
  9
$ACADVER
  1
AC1014
  9
$ACADMAINTVER
 70
     9
  9
$DWGCODEPAGE
  3
ANSI_1252
  9
$INSBASE
 10
0.0
 20
0.0
 30
0.0
  9
$EXTMIN
 10
-0.2569384043126774
 20
-0.1634663044060289
 30
-0.0015258207003583
  9
$EXTMAX
 10
8420.256995328735
 20
5357.036044705017
 30
0.0000000349246037
  9
$LIMMIN
 10
0.0
 20
0.0
  9
$LIMMAX
 10
420.0
 20
297.0
  9
$ORTHOMODE
 70
     0
  9
$REGENMODE
 70
     1
  9
$FILLMODE
 70
     1
  9
$QTEXTMODE
 70
     0
  9
$MIRRTEXT
 70
     1
  9
$DRAGMODE
 70
     2
  9
$LTSCALE
 40
1.0
  9
$OSMODE
 70
   511
  9
$ATTMODE
 70
     1
  9
$TEXTSIZE
 40
2.5
  9
$TRACEWID
 40
1.0
  9
$TEXTSTYLE
  7
STANDARD
  9
$CLAYER
  8
0
  9
$CELTYPE
  6
BYLAYER
  9
$CECOLOR
 62
   256
  9
$CELTSCALE
 40
1.0
  9
$DELOBJ
 70
     1
  9
$DISPSILH
 70
     0
  9
$DIMSCALE
 40
1.0
  9
$DIMASZ
 40
2.5
  9
$DIMEXO
 40
0.625
  9
$DIMDLI
 40
3.75
  9
$DIMRND
 40
0.0
  9
$DIMDLE
 40
0.0
  9
$DIMEXE
 40
1.25
  9
$DIMTP
 40
0.0
  9
$DIMTM
 40
0.0
  9
$DIMTXT
 40
2.5
  9
$DIMCEN
 40
2.5
  9
$DIMTSZ
 40
0.0
  9
$DIMTOL
 70
     0
  9
$DIMLIM
 70
     0
  9
$DIMTIH
 70
     0
  9
$DIMTOH
 70
     0
  9
$DIMSE1
 70
     0
  9
$DIMSE2
 70
     0
  9
$DIMTAD
 70
     1
  9
$DIMZIN
 70
     8
  9
$DIMBLK
  1

  9
$DIMASO
 70
     1
  9
$DIMSHO
 70
     1
  9
$DIMPOST
  1

  9
$DIMAPOST
  1

  9
$DIMALT
 70
     0
  9
$DIMALTD
 70
     3
  9
$DIMALTF
 40
0.03937007874016
  9
$DIMLFAC
 40
1.0
  9
$DIMTOFL
 70
     1
  9
$DIMTVP
 40
0.0
  9
$DIMTIX
 70
     0
  9
$DIMSOXD
 70
     0
  9
$DIMSAH
 70
     0
  9
$DIMBLK1
  1

  9
$DIMBLK2
  1

  9
$DIMSTYLE
  2
ISO-25
  9
$DIMCLRD
 70
     0
  9
$DIMCLRE
 70
     0
  9
$DIMCLRT
 70
     0
  9
$DIMTFAC
 40
1.0
  9
$DIMGAP
 40
0.625
  9
$DIMJUST
 70
     0
  9
$DIMSD1
 70
     0
  9
$DIMSD2
 70
     0
  9
$DIMTOLJ
 70
     0
  9
$DIMTZIN
 70
     8
  9
$DIMALTZ
 70
     0
  9
$DIMALTTZ
 70
     0
  9
$DIMFIT
 70
     3
  9
$DIMUPT
 70
     0
  9
$DIMUNIT
 70
     2
  9
$DIMDEC
 70
     2
  9
$DIMTDEC
 70
     2
  9
$DIMALTU
 70
     2
  9
$DIMALTTD
 70
     3
  9
$DIMTXSTY
  7
STANDARD
  9
$DIMAUNIT
 70
     0
  9
$LUNITS
 70
     2
  9
$LUPREC
 70
     4
  9
$SKETCHINC
 40
1.0
  9
$FILLETRAD
 40
10.0
  9
$AUNITS
 70
     0
  9
$AUPREC
 70
     0
  9
$MENU
  1
.
  9
$ELEVATION
 40
0.0
  9
$PELEVATION
 40
0.0
  9
$THICKNESS
 40
0.0
  9
$LIMCHECK
 70
     0
  9
$BLIPMODE
 70
     0
  9
$CHAMFERA
 40
10.0
  9
$CHAMFERB
 40
10.0
  9
$CHAMFERC
 40
20.0
  9
$CHAMFERD
 40
0.0
  9
$SKPOLY
 70
     0
  9
$TDCREATE
 40
2453124.599852419
  9
$TDUPDATE
 40
2453186.700031632
  9
$TDINDWG
 40
0.0009431019
  9
$TDUSRTIMER
 40
0.0009431019
  9
$USRTIMER
 70
     1
  9
$ANGBASE
 50
0.0
  9
$ANGDIR
 70
     0
  9
$PDMODE
 70
     0
  9
$PDSIZE
 40
0.0
  9
$PLINEWID
 40
0.0
  9
$COORDS
 70
     2
  9
$SPLFRAME
 70
     0
  9
$SPLINETYPE
 70
     6
  9
$SPLINESEGS
 70
     8
  9
$ATTDIA
 70
     0
  9
$ATTREQ
 70
     1
  9
$HANDLING
 70
-16383
  9
$HANDSEED
  5
2E0
  9
$SURFTAB1
 70
     6
  9
$SURFTAB2
 70
     6
  9
$SURFTYPE
 70
     6
  9
$SURFU
 70
     6
  9
$SURFV
 70
     6
  9
$UCSNAME
  2

  9
$UCSORG
 10
0.0
 20
0.0
 30
0.0
  9
$UCSXDIR
 10
1.0
 20
0.0
 30
0.0
  9
$UCSYDIR
 10
0.0
 20
1.0
 30
0.0
  9
$PUCSNAME
  2

  9
$PUCSORG
 10
0.0
 20
0.0
 30
0.0
  9
$PUCSXDIR
 10
1.0
 20
0.0
 30
0.0
  9
$PUCSYDIR
 10
0.0
 20
1.0
 30
0.0
  9
$USERI1
 70
     0
  9
$USERI2
 70
     0
  9
$USERI3
 70
     0
  9
$USERI4
 70
     0
  9
$USERI5
 70
     0
  9
$USERR1
 40
0.0
  9
$USERR2
 40
0.0
  9
$USERR3
 40
0.0
  9
$USERR4
 40
0.0
  9
$USERR5
 40
0.0
  9
$WORLDVIEW
 70
     1
  9
$SHADEDGE
 70
     3
  9
$SHADEDIF
 70
    70
  9
$TILEMODE
 70
     1
  9
$MAXACTVP
 70
    64
  9
$PINSBASE
 10
0.0
 20
0.0
 30
0.0
  9
$PLIMCHECK
 70
     0
  9
$PEXTMIN
 10
0.0
 20
0.0
 30
0.0
  9
$PEXTMAX
 10
0.0
 20
0.0
 30
0.0
  9
$PLIMMIN
 10
0.0
 20
0.0
  9
$PLIMMAX
 10
12.0
 20
9.0
  9
$UNITMODE
 70
     0
  9
$VISRETAIN
 70
     1
  9
$PLINEGEN
 70
     0
  9
$PSLTSCALE
 70
     1
  9
$TREEDEPTH
 70
  3020
  9
$PICKSTYLE
 70
     0
  9
$CMLSTYLE
  2
STANDARD
  9
$CMLJUST
 70
     0
  9
$CMLSCALE
 40
20.0
  9
$PROXYGRAPHICS
 70
     1
  9
$MEASUREMENT
 70
     1
  0
ENDSEC
  0
SECTION
  2
CLASSES
  0
CLASS
  1
ACDBDICTIONARYWDFLT
  2
AcDbDictionaryWithDefault
  3
AutoCAD 2000
 90
        0
280
     0
281
     0
  0
CLASS
  1
ACDBPLACEHOLDER
  2
AcDbPlaceHolder
  3
AutoCAD 2000
 90
        0
280
     0
281
     0
  0
CLASS
  1
LAYOUT
  2
AcDbLayout
  3
AutoCAD 2000
 90
        0
280
     0
281
     0
  0
CLASS
  1
LONG_TRANSACTION
  2
AcDbLongTransaction
  3
AutoCAD 2000
 90
        0
280
     0
281
     0
  0
CLASS
  1
LWPOLYLINE
  2
AcDbPolyline
  3
AutoCAD 2000
 90
        0
280
     0
281
     1
  0
CLASS
  1
HATCH
  2
AcDbHatch
  3
AutoCAD 2000
 90
        0
280
     0
281
     1
  0
CLASS
  1
XRECORD
  2
AcDbXrecord
  3
AutoCAD 2000
 90
        0
280
     0
281
     0
  0
ENDSEC
  0
SECTION
  2
TABLES
  0
TABLE
  2
VPORT
  5
8
330
0
100
AcDbSymbolTable
 70
     2
  0
VPORT
  5
2B7
330
8
100
AcDbSymbolTableRecord
100
AcDbViewportTableRecord
  2
*ACTIVE
 70
     0
 10
0.0
 20
0.0
 11
1.0
 21
1.0
 12
4210.000028462211
 22
2678.436289200305
 13
0.0
 23
0.0
 14
10.0
 24
10.0
 15
10.0
 25
10.0
 16
0.0
 26
0.0
 36
1.0
 17
0.0
 27
0.0
 37
0.0
 40
5420.849406189732
 41
1.720238095238095
 42
50.0
 43
0.0
 44
0.0
 50
0.0
 51
0.0
 71
     0
 72
   100
 73
     1
 74
     3
 75
     0
 76
     0
 77
     0
 78
     0
  0
ENDTAB
  0
TABLE
  2
LTYPE
  5
5
330
0
100
AcDbSymbolTable
 70
     1
  0
LTYPE
  5
14
330
5
100
AcDbSymbolTableRecord
100
AcDbLinetypeTableRecord
  2
BYBLOCK
 70
     0
  3

 72
    65
 73
     0
 40
0.0
  0
LTYPE
  5
15
330
5
100
AcDbSymbolTableRecord
100
AcDbLinetypeTableRecord
  2
BYLAYER
 70
     0
  3

 72
    65
 73
     0
 40
0.0
  0
LTYPE
  5
16
330
5
100
AcDbSymbolTableRecord
100
AcDbLinetypeTableRecord
  2
CONTINUOUS
 70
     0
  3
Solid line
 72
    65
 73
     0
 40
0.0
  0
ENDTAB
  0
TABLE
  2
LAYER
  5
2
102
{ACAD_XDICTIONARY
360
5D
102
}
330
0
100
AcDbSymbolTable
 70
     1
  0
LAYER
  5
10
330
2
100
AcDbSymbolTableRecord
100
AcDbLayerTableRecord
  2
0
 70
     0
 62
     7
  6
CONTINUOUS
  0
ENDTAB
  0
TABLE
  2
STYLE
  5
3
330
0
100
AcDbSymbolTable
 70
     1
  0
STYLE
  5
11
330
3
100
AcDbSymbolTableRecord
100
AcDbTextStyleTableRecord
  2
STANDARD
 70
     0
 40
0.0
 41
1.0
 50
0.0
 71
     0
 42
2.5
  3
txt
  4

  0
ENDTAB
  0
TABLE
  2
VIEW
  5
6
330
0
100
AcDbSymbolTable
 70
     0
  0
ENDTAB
  0
TABLE
  2
UCS
  5
7
330
0
100
AcDbSymbolTable
 70
     0
  0
ENDTAB
  0
TABLE
  2
APPID
  5
9
330
0
100
AcDbSymbolTable
 70
     2
  0
APPID
  5
12
330
9
100
AcDbSymbolTableRecord
100
AcDbRegAppTableRecord
  2
ACAD
 70
     0
  0
APPID
  5
2DF
330
9
100
AcDbSymbolTableRecord
100
AcDbRegAppTableRecord
  2
CONTENTBLOCKICON
 70
     0
  0
ENDTAB
  0
TABLE
  2
DIMSTYLE
  5
A
330
0
100
AcDbSymbolTable
 70
     1
  0
DIMSTYLE
105
27
330
A
100
AcDbSymbolTableRecord
100
AcDbDimStyleTableRecord
  2
ISO-25
 70
     0
  3

  4

  5

  6

  7

 40
1.0
 41
2.5
 42
0.625
 43
3.75
 44
1.25
 45
0.0
 46
0.0
 47
0.0
 48
0.0
140
2.5
141
2.5
142
0.0
143
0.03937007874016
144
1.0
145
0.0
146
1.0
147
0.625
 71
     0
 72
     0
 73
     0
 74
     0
 75
     0
 76
     0
 77
     1
 78
     8
170
     0
171
     3
172
     1
173
     0
174
     0
175
     0
176
     0
177
     0
178
     0
270
     2
271
     2
272
     2
273
     2
274
     3
340
11
275
     0
280
     0
281
     0
282
     0
283
     0
284
     8
285
     0
286
     0
287
     3
288
     0
  0
ENDTAB
  0
TABLE
  2
BLOCK_RECORD
  5
1
330
0
100
AcDbSymbolTable
 70
     2
  0
BLOCK_RECORD
  5
1F
102
{ACAD_XDICTIONARY
360
2D9
102
}
330
1
100
AcDbSymbolTableRecord
100
AcDbBlockTableRecord
  2
*MODEL_SPACE
  0
BLOCK_RECORD
  5
50
102
{ACAD_XDICTIONARY
360
2DB
102
}
330
1
100
AcDbSymbolTableRecord
100
AcDbBlockTableRecord
  2
*PAPER_SPACE
  0
BLOCK_RECORD
  5
1ED
330
1
100
AcDbSymbolTableRecord
100
AcDbBlockTableRecord
  2
ADKT
1001
ACAD
1000
DesignCenter Data
1002
{
1070
     1
1070
     4
1002
}
1001
CONTENTBLOCKICON
1071
        0
1004
2800000020000000200000000100080000000000000400000000000000000000000000000000000000000000000080000080000000808000800000008000800080800000C0C0C000C0DCC000F0CAA6000020400000206000002080000020A0000020C0000020E00000400000004020000040400000406000004080000040A0
1004
000040C0000040E00000600000006020000060400000606000006080000060A0000060C0000060E00000800000008020000080400000806000008080000080A0000080C0000080E00000A0000000A0200000A0400000A0600000A0800000A0A00000A0C00000A0E00000C0000000C0200000C0400000C0600000C0800000C0
1004
A00000C0C00000C0E00000E0000000E0200000E0400000E0600000E0800000E0A00000E0C00000E0E00040000000400020004000400040006000400080004000A0004000C0004000E00040200000402020004020400040206000402080004020A0004020C0004020E000404000004040200040404000404060004040800040
1004
40A0004040C0004040E00040600000406020004060400040606000406080004060A0004060C0004060E00040800000408020004080400040806000408080004080A0004080C0004080E00040A0000040A0200040A0400040A0600040A0800040A0A00040A0C00040A0E00040C0000040C0200040C0400040C0600040C08000
1004
40C0A00040C0C00040C0E00040E0000040E0200040E0400040E0600040E0800040E0A00040E0C00040E0E00080000000800020008000400080006000800080008000A0008000C0008000E00080200000802020008020400080206000802080008020A0008020C0008020E00080400000804020008040400080406000804080
1004
008040A0008040C0008040E00080600000806020008060400080606000806080008060A0008060C0008060E00080800000808020008080400080806000808080008080A0008080C0008080E00080A0000080A0200080A0400080A0600080A0800080A0A00080A0C00080A0E00080C0000080C0200080C0400080C0600080C0
1004
800080C0A00080C0C00080C0E00080E0000080E0200080E0400080E0600080E0800080E0A00080E0C00080E0E000C0000000C0002000C0004000C0006000C0008000C000A000C000C000C000E000C0200000C0202000C0204000C0206000C0208000C020A000C020C000C020E000C0400000C0402000C0404000C0406000C0
1004
408000C040A000C040C000C040E000C0600000C0602000C0604000C0606000C0608000C060A000C060C000C060E000C0800000C0802000C0804000C0806000C0808000C080A000C080C000C080E000C0A00000C0A02000C0A04000C0A06000C0A08000C0A0A000C0A0C000C0A0E000C0C00000C0C02000C0C04000C0C06000
1004
C0C08000C0C0A000F0FBFF00A4A0A000808080000000FF0000FF000000FFFF00FF000000FF00FF00FFFF0000FFFFFF00FFFFFFFFFFFFFFFFFFFFFFFFFFFFFFFFFFFFFFFFFFFFFFFFFFFFFFFFFFFFFFFFFFFFFFFFFFFFFFFFFFFFFFFFFFFFFFFFFFFFFFFFFFFFFFFFFFFFFFFFFFFFFFFFFFFFFFFFFFFFFFFFFFFFFFFFFFFFFF
1004
FFFFFFFFFFFFFFFFFFFFFFFFFFFFFFFFFFFFFFFFFFFFFFFFFFFFFFFFFFFFFFFFFFFFFFFFFFFFFFFFFFFFFFFFFFFFFFFFFFFFFFFFFFFFFFFFFFFFFFFFFFFFFFFFFFFFFFFFFFFFFFFFFFFFFFFFFFFFFFFFFFFFFFFFFFFFFFFFFFFFFFFFFFFFFFFFFFFFFFFFFFFFFFFFFFFFFFFFFFFFFFFFFFFFFFFFFFFFFFFFFFFFFFFFFFFFFF
1004
FFFFFFFFFFFFFFFFFFFFFFFFFFFFFFFFFFFFFFFFFFFFFFFFFFFFFFFFFF000000000000000000FFFFFFFFFFFFFFFFFFFFFFFFFFFFFFFFFFFFFFFFFF0000FFFFFFFFFFFFFFFFFF0000FFFFFFFFFFFFFFFFFFFFFFFFFFFFFFFFFF0000FFFFFFFFFFFFFFFFFFFFFFFFFF00FFFFFFFFFFFFFFFFFFFFFFFFFFFF0000FFFFFFFFFFFF
1004
FFFFFFFFFFFFFFFFFFFF0000FFFFFFFFFFFFFFFFFFFF0000FFFFFFFFFFFFFFFFFFFFFFFFFFFFFFFFFFFFFFFF00FFFFFFFFFFFFFFFFFF00FFFFFFFFFFFFFFFFFF00000000FFFFFFFFFFFFFFFFFF0000000000FFFFFF00FFFFFFFFFFFFFFFFFFFF00000000FFFFFFFFFFFFFFFFFFFFFFFFFF00FFFFFF00FFFFFFFFFFFFFFFFFF
1004
FF0000000021FFFFFFFFFFFFFFFFFFFFFFFF00FFFF00FFFFFFFF000000000000000021002100000000000000FFFFFFFFFFFF00FFFF00FFFFFFFF0000000000FFFF0000210000FFFFFFFF0000FFFFFFFFFFFF00FFFF00FFFFFFFF0000000000FFFF0021002100000000000000FFFFFFFFFFFF00FFFFFF00FFFFFFFFFFFFFF00
1004
FFFF0000000021FFFFFFFFFFFFFFFFFFFFFFFF00FFFFFF00FFFFFFFFFFFFFF0000000000FBFFFFFFFFFFFFFFFFFFFFFFFFFFFF00FFFFFF00FFFFFFFFFFFFFFFFFFFFFFFFFFFFFFFFFFFFFFFFFFFFFFFF00000000FFFFFFFF00FFFFFFFFFFFFFFFFFFFFFFFFFFFFFFFFFFFFFFFFFF0000FFFFFFFFFFFFFFFFFF0000FFFFFFFF
1004
FFFFFFFFFFFFFFFFFFFFFFFF000000FFFFFFFFFFFFFFFFFFFFFFFFFF0000FFFFFFFFFFFFFFFF000000000000FFFFFFFFFFFFFFFFFFFFFFFFFFFFFFFFFFFF0000000000000000FFFFFFFFFFFFFFFFFFFFFFFFFFFFFFFFFFFFFFFFFFFFFFFFFFFFFFFFFFFFFFFFFFFFFFFFFFFFFFFFFFFFFFFFFFFFFFFFFFFFFFFFFFFFFFFFFF
1004
FFFFFFFFFFFFFFFFFFFFFFFFFFFFFFFFFFFFFFFFFFFFFFFFFFFFFFFFFFFFFFFFFFFFFFFFFFFFFFFFFFFFFFFFFFFFFFFFFFFFFFFFFFFFFFFFFFFFFFFFFFFFFFFFFFFFFFFFFFFFFFFFFFFFFFFFFFFFFFFFFFFFFFFFFFFFFFFFFFFFFFFFFFFFFFFFFFFFFFFFFFFFFFFFFFFFFFFFFFFFFFFFFFFFFFFFFFFFFFFFFFFFFFFFFFFFFF
1004
FFFFFFFFFFFFFFFFFFFFFFFFFFFFFFFFFFFFFFFFFFFFFFFFFFFFFFFFFFFFFFFFFFFFFFFFFFFFFFFFFFFFFFFFFFFFFFFFFFFFFFFFFFFFFFFF
  0
ENDTAB
  0
ENDSEC
  0
SECTION
  2
BLOCKS
  0
BLOCK
  5
20
330
1F
100
AcDbEntity
  8
0
100
AcDbBlockBegin
  2
*MODEL_SPACE
 70
     0
 10
0.0
 20
0.0
 30
0.0
  3
*MODEL_SPACE
  1

  0
ENDBLK
  5
21
330
1F
100
AcDbEntity
  8
0
100
AcDbBlockEnd
  0
BLOCK
  5
52
330
50
100
AcDbEntity
 67
     1
  8
0
100
AcDbBlockBegin
  2
*PAPER_SPACE
 70
     0
 10
0.0
 20
0.0
 30
0.0
  3
*PAPER_SPACE
  1

  0
ENDBLK
  5
53
330
50
100
AcDbEntity
 67
     1
  8
0
100
AcDbBlockEnd
  0
BLOCK
  5
1EE
330
1ED
100
AcDbEntity
  8
0
100
AcDbBlockBegin
  2
ADKT
 70
     0
 10
0.0
 20
0.0
 30
0.0
  3
ADKT
  1

  0
LWPOLYLINE
  5
1F0
330
1ED
100
AcDbEntity
  8
0
 62
     7
100
AcDbPolyline
 90
       27
 70
     1
 43
0.0
 10
-1686.508859467598
 20
3005.981355579981
 10
-1250.246650365647
 20
2836.865866641634
 10
-887.3917139347396
 20
2541.378363991116
 10
0.0
 20
2541.378363991116
 10
0.0
 20
0.0
 10
-887.3917139347396
 20
0.0
 10
-1252.569665323586
 20
-296.8813116252858
 10
-3183.924301358529
 20
-1414.716109388107
 10
-3545.85003180625
 20
-1565.247478662902
 10
-3934.25813277455
 20
-1616.35380773768
 10
-4934.083770673788
 20
-1616.35380773768
 10
-5297.86791308788
 20
-1571.751920545146
 10
-5639.81571489729
 20
-1439.804670933903
 10
-7626.458106931292
 20
-379.1160411365199
 10
-7954.003216001445
 20
-142.168515426194
 10
-8206.282640434197
 20
173.296915862651
 10
-8365.641466549183
 20
544.5147061421594
 10
-8420.000016565078
 20
945.4670878833494
 10
-8420.000016565078
 20
1596.375879099359
 10
-8356.814009708999
 20
2027.062852302238
 10
-8172.831225039809
 20
2421.510792161196
 10
-7883.848164271526
 20
2746.732886273403
 10
-7513.094976983608
 20
2974.852955143538
 10
-6132.759488973075
 20
3569.544784377288
 10
-5719.727429450569
 20
3698.704416038996
 10
-5289.505059239273
 20
3740.518685281994
 10
-4859.74729201958
 20
3693.129180139924
  0
HATCH
  5
1F1
330
1ED
100
AcDbEntity
  8
0
 62
   250
100
AcDbHatch
 10
0.0
 20
0.0
 30
0.0
210
0.0
220
0.0
230
1.0
  2
SOLID
 70
     1
 71
     0
 91
        3
 92
        7
 72
     1
 73
     1
 93
        4
 10
-4871.79112396617
 20
135.9394655608375
 42
-0.2679491924310617
 10
-4871.79112396617
 20
115.9356890070739
 42
0.0
 10
-4592.000939579717
 20
115.9356890070739
 42
-0.2679491924310617
 10
-4592.000939579717
 20
135.9394655608375
 42
0.0
 97
        0
 92
        7
 72
     1
 73
     1
 93
        4
 10
-4557.353382245325
 20
135.9394655608375
 42
-0.2679491924310617
 10
-4557.353382245325
 20
115.9356890070739
 42
0.0
 10
-4309.659347446483
 20
115.9356890070739
 42
-0.2679491924310617
 10
-4309.659347446483
 20
135.9394655608375
 42
0.0
 97
        0
 92
        7
 72
     1
 73
     1
 93
        4
 10
-4275.011790112105
 20
135.9394655608375
 42
-0.2679491924310617
 10
-4275.011790112105
 20
115.9356890070739
 42
0.0
 10
-3996.26684810414
 20
115.9356890070739
 42
-0.2679491924310617
 10
-3996.26684810414
 20
135.9394655608375
 42
0.0
 97
        0
 75
     0
 76
     1
 47
3.005531458579665
 98
        3
 10
-4705.498000816435
 20
129.6660322020725
 10
-4489.099735798699
 20
126.6573729495321
 10
-4158.491264247809
 20
123.6487136969917
  0
HATCH
  5
1F2
330
1ED
100
AcDbEntity
  8
0
 62
   250
100
AcDbHatch
 10
0.0
 20
0.0
 30
0.0
210
0.0
220
0.0
230
1.0
  2
SOLID
 70
     1
 71
     0
 91
        3
 92
        7
 72
     1
 73
     1
 93
        4
 10
-4835.117533617601
 20
327.9757204770175
 42
-0.2679491924311883
 10
-4835.117533617601
 20
307.9719439232394
 42
0.0
 10
-4572.375612852637
 20
307.9719439232394
 42
-0.2679491924311883
 10
-4572.375612852637
 20
327.9757204770175
 42
0.0
 97
        0
 92
        7
 72
     1
 73
     1
 93
        4
 10
-4537.728055518244
 20
327.9757204770175
 42
-0.2679491924311883
 10
-4537.728055518244
 20
307.9719439232394
 42
0.0
 10
-4328.996331448456
 20
307.9719439232394
 42
-0.2679491924311883
 10
-4328.996331448456
 20
327.9757204770175
 42
0.0
 97
        0
 92
        7
 72
     1
 73
     1
 93
        4
 10
-4294.348774114078
 20
327.9757204770175
 42
-0.2679491924311883
 10
-4294.348774114078
 20
307.9719439232394
 42
0.0
 10
-4033.607231004491
 20
307.9719439232394
 42
-0.2679491924311883
 10
-4033.607231004491
 20
327.9757204770175
 42
0.0
 97
        0
 75
     0
 76
     1
 47
3.005531458579665
 98
        3
 10
-4684.459294093605
 20
322.2206960322255
 10
-4422.978045296673
 20
313.1947182746116
 10
-4110.402767257452
 20
316.203377527152
  0
HATCH
  5
1F3
330
1ED
100
AcDbEntity
  8
0
 62
   250
100
AcDbHatch
 10
0.0
 20
0.0
 30
0.0
210
0.0
220
0.0
230
1.0
  2
SOLID
 70
     1
 71
     0
 91
        4
 92
        7
 72
     1
 73
     1
 93
        4
 10
-4799.110735820817
 20
519.3451828413854
 42
-0.2679491924310617
 10
-4799.110735820817
 20
499.3414062876218
 42
0.0
 10
-4553.038628850663
 20
499.3414062876218
 42
-0.2679491924310617
 10
-4553.038628850663
 20
519.3451828413854
 42
0.0
 97
        0
 92
        7
 72
     1
 73
     1
 93
        4
 10
-4518.391071516271
 20
519.3451828413854
 42
-0.2679491924310617
 10
-4518.391071516271
 20
499.3414062876218
 42
0.0
 10
-4452.352953530041
 20
499.3414062876218
 42
-0.2679491924310617
 10
-4452.352953530041
 20
519.3451828413854
 42
0.0
 97
        0
 92
        7
 72
     1
 73
     1
 93
        4
 10
-4417.705396195648
 20
519.3451828413854
 42
-0.2679491924310617
 10
-4417.705396195648
 20
499.3414062876218
 42
0.0
 10
-4348.333315450443
 20
499.3414062876218
 42
-0.2679491924310617
 10
-4348.333315450443
 20
519.3451828413854
 42
0.0
 97
        0
 92
        7
 72
     1
 73
     1
 93
        4
 10
-4313.685758116051
 20
519.3451828413854
 42
-0.2679491924310617
 10
-4313.685758116051
 20
499.3414062876218
 42
0.0
 10
-4070.947613904871
 20
499.3414062876218
 42
-0.2679491924310617
 10
-4070.947613904871
 20
519.3451828413854
 42
0.0
 97
        0
 75
     0
 76
     1
 47
3.005531458579665
 98
        4
 10
-4642.381842566356
 20
508.758041357305
 10
-4483.088671294805
 20
508.758041357305
 10
-4374.889548306331
 20
505.7493821047646
 10
-4233.629551505663
 20
511.7667368919756
  0
HATCH
  5
1F4
330
1ED
100
AcDbEntity
  8
0
 62
   250
100
AcDbHatch
 10
0.0
 20
0.0
 30
0.0
210
0.0
220
0.0
230
1.0
  2
SOLID
 70
     1
 71
     1
 91
       13
 92
        7
 72
     1
 73
     1
 93
        2
 10
-4796.430737934243
 20
509.3432945645
 42
1.0
 10
-4836.438291041783
 20
509.3432945644999
 42
1.0
 97
        1
330
248
 92
        7
 72
     1
 73
     1
 93
        2
 10
-4872.445088838554
 20
317.9738322001249
 42
1.0
 10
-4832.437535731013
 20
317.9738322001249
 42
1.0
 97
        1
330
239
 92
        7
 72
     1
 73
     1
 93
        2
 10
-4869.111126079596
 20
125.9375772839558
 42
1.0
 10
-4909.118679187136
 20
125.9375772839557
 42
1.0
 97
        1
330
22E
 92
        7
 72
     1
 73
     1
 93
        2
 10
-4554.673384358751
 20
125.9375772839557
 42
1.0
 10
-4594.680937466292
 20
125.9375772839557
 42
1.0
 97
        1
330
234
 92
        7
 72
     1
 73
     1
 93
        2
 10
-4575.055610739211
 20
317.9738322001249
 42
1.0
 10
-4535.048057631669
 20
317.9738322001249
 42
1.0
 97
        1
330
23F
 92
        7
 72
     1
 73
     1
 93
        2
 10
-4515.711073629697
 20
509.3432945644999
 42
1.0
 10
-4555.718626737237
 20
509.3432945644999
 42
1.0
 97
        1
330
240
 92
        7
 72
     1
 73
     1
 93
        2
 10
-4415.025398309074
 20
509.3432945645
 42
1.0
 10
-4455.032951416614
 20
509.3432945644999
 42
1.0
 97
        1
330
252
 92
        7
 72
     1
 73
     1
 93
        2
 10
-4311.005760229477
 20
509.3432945644999
 42
1.0
 10
-4351.013313337017
 20
509.3432945644999
 42
1.0
 97
        1
330
253
 92
        7
 72
     1
 73
     1
 93
        2
 10
-4291.668776227504
 20
317.9738322001249
 42
1.0
 10
-4331.676329335044
 20
317.9738322001249
 42
1.0
 97
        1
330
24D
 92
        7
 72
     1
 73
     1
 93
        2
 10
-4272.331792225531
 20
125.9375772839557
 42
1.0
 10
-4312.339345333071
 20
125.9375772839557
 42
1.0
 97
        1
330
238
 92
        7
 72
     1
 73
     1
 93
        2
 10
-4033.620058683904
 20
509.3432945644999
 42
1.0
 10
-4073.627611791446
 20
509.3432945644999
 42
1.0
 97
        1
330
296
 92
        7
 72
     1
 73
     1
 93
        2
 10
-3996.279675783524
 20
317.9738322001249
 42
1.0
 10
-4036.287228891064
 20
317.9738322001249
 42
1.0
 97
        1
330
295
 92
        7
 72
     1
 73
     1
 93
        2
 10
-3958.939292883173
 20
125.9375772839558
 42
1.0
 10
-3998.946845990714
 20
125.9375772839557
 42
1.0
 97
        1
330
290
 75
     0
 76
     1
 47
2.676158162350435
 98
       13
 10
-4816.907001860883
 20
505.7247828214131
 10
-4849.200341256358
 20
326.4567071394158
 10
-4887.365195174577
 20
123.6780296570977
 10
-4570.303277660925
 20
126.6168820937346
 10
-4561.49599635641
 20
326.4567071394158
 10
-4529.202656960922
 20
508.6636352580426
 10
-4432.322619733684
 20
505.7247828214131
 10
-4326.635320242735
 20
508.6636352580426
 10
-4309.020757633705
 20
317.6402586758886
 10
-4294.341961806458
 20
123.6780296570977
 10
-4047.7382376065
 20
502.7859666668992
 10
-4015.444898211011
 20
314.7014062392518
 10
-3983.151558815538
 20
132.4945144027551
  0
HATCH
  5
1F5
330
1ED
100
AcDbEntity
  8
0
 62
   250
100
AcDbHatch
 10
0.0
 20
0.0
 30
0.0
210
0.0
220
0.0
230
1.0
  2
SOLID
 70
     1
 71
     0
 91
       23
 92
        7
 72
     1
 73
     1
 93
        2
 10
-4889.114902633366
 20
105.9338007301885
 42
1.0
 10
-4889.114902633366
 20
145.9413538377302
 42
1.0
 97
        0
 92
        7
 72
     1
 73
     1
 93
        2
 10
-4852.441312284784
 20
337.9776087538957
 42
1.0
 10
-4852.441312284784
 20
297.970055646354
 42
1.0
 97
        0
 92
        7
 72
     1
 73
     1
 93
        2
 10
-4816.434514488014
 20
489.339518010729
 42
1.0
 10
-4816.434514488014
 20
529.3470711182708
 42
1.0
 97
        0
 92
        7
 72
     1
 73
     1
 93
        4
 10
-4799.110735820817
 20
519.3451828413854
 42
-0.2679491924310617
 10
-4799.110735820817
 20
499.3414062876218
 42
0.0
 10
-4553.038628850663
 20
499.3414062876218
 42
-0.2679491924310617
 10
-4553.038628850663
 20
519.3451828413854
 42
0.0
 97
        0
 92
        7
 72
     1
 73
     1
 93
        4
 10
-4835.117533617601
 20
327.9757204770175
 42
-0.2679491924311883
 10
-4835.117533617601
 20
307.9719439232394
 42
0.0
 10
-4572.375612852637
 20
307.9719439232394
 42
-0.2679491924311883
 10
-4572.375612852637
 20
327.9757204770175
 42
0.0
 97
        0
 92
        7
 72
     1
 73
     1
 93
        4
 10
-4871.79112396617
 20
135.9394655608375
 42
-0.2679491924310617
 10
-4871.79112396617
 20
115.9356890070739
 42
0.0
 10
-4592.000939579717
 20
115.9356890070739
 42
-0.2679491924310617
 10
-4592.000939579717
 20
135.9394655608375
 42
0.0
 97
        0
 92
        7
 72
     1
 73
     1
 93
        2
 10
-4574.67716091252
 20
145.9413538377229
 42
1.0
 10
-4574.67716091252
 20
105.9338007301885
 42
1.0
 97
        0
 92
        7
 72
     1
 73
     1
 93
        2
 10
-4555.05183418544
 20
337.9776087538957
 42
1.0
 10
-4555.05183418544
 20
297.970055646354
 42
1.0
 97
        0
 92
        7
 72
     1
 73
     1
 93
        2
 10
-4535.714850183467
 20
489.339518010729
 42
1.0
 10
-4535.714850183467
 20
529.3470711182708
 42
1.0
 97
        0
 92
        7
 72
     1
 73
     1
 93
        4
 10
-4518.391071516271
 20
519.3451828413854
 42
-0.2679491924310617
 10
-4518.391071516271
 20
499.3414062876218
 42
0.0
 10
-4452.352953530041
 20
499.3414062876218
 42
-0.2679491924310617
 10
-4452.352953530041
 20
519.3451828413854
 42
0.0
 97
        0
 92
        7
 72
     1
 73
     1
 93
        2
 10
-4435.029174862844
 20
489.339518010729
 42
1.0
 10
-4435.029174862844
 20
529.3470711182708
 42
1.0
 97
        0
 92
        7
 72
     1
 73
     1
 93
        4
 10
-4417.705396195648
 20
519.3451828413854
 42
-0.2679491924310617
 10
-4417.705396195648
 20
499.3414062876218
 42
0.0
 10
-4348.333315450443
 20
499.3414062876218
 42
-0.2679491924310617
 10
-4348.333315450443
 20
519.3451828413854
 42
0.0
 97
        0
 92
        7
 72
     1
 73
     1
 93
        2
 10
-4331.009536783247
 20
529.3470711182708
 42
1.0
 10
-4331.009536783247
 20
489.339518010729
 42
1.0
 97
        0
 92
        7
 72
     1
 73
     1
 93
        4
 10
-4313.685758116051
 20
519.3451828413854
 42
-0.2679491924310617
 10
-4313.685758116051
 20
499.3414062876218
 42
0.0
 10
-4070.947613904871
 20
499.3414062876218
 42
-0.2679491924310617
 10
-4070.947613904871
 20
519.3451828413854
 42
0.0
 97
        0
 92
        7
 72
     1
 73
     1
 93
        4
 10
-4537.728055518244
 20
327.9757204770175
 42
-0.2679491924311883
 10
-4537.728055518244
 20
307.9719439232394
 42
0.0
 10
-4328.996331448456
 20
307.9719439232394
 42
-0.2679491924311883
 10
-4328.996331448456
 20
327.9757204770175
 42
0.0
 97
        0
 92
        7
 72
     1
 73
     1
 93
        4
 10
-4294.348774114078
 20
327.9757204770175
 42
-0.2679491924311883
 10
-4294.348774114078
 20
307.9719439232394
 42
0.0
 10
-4033.607231004491
 20
307.9719439232394
 42
-0.2679491924311883
 10
-4033.607231004491
 20
327.9757204770175
 42
0.0
 97
        0
 92
        7
 72
     1
 73
     1
 93
        2
 10
-4311.672552781273
 20
337.9776087538957
 42
1.0
 10
-4311.672552781273
 20
297.970055646354
 42
1.0
 97
        0
 92
        7
 72
     1
 73
     1
 93
        2
 10
-4053.623835237675
 20
529.3470711182708
 42
1.0
 10
-4053.623835237675
 20
489.339518010729
 42
1.0
 97
        0
 92
        7
 72
     1
 73
     1
 93
        2
 10
-4016.283452337295
 20
297.970055646354
 42
1.0
 10
-4016.283452337295
 20
337.9776087538957
 42
1.0
 97
        0
 92
        7
 72
     1
 73
     1
 93
        2
 10
-3978.943069436944
 20
145.9413538377229
 42
1.0
 10
-3978.943069436944
 20
105.9338007301885
 42
1.0
 97
        0
 92
        7
 72
     1
 73
     1
 93
        4
 10
-4275.011790112105
 20
135.9394655608375
 42
-0.2679491924310617
 10
-4275.011790112105
 20
115.9356890070739
 42
0.0
 10
-3996.26684810414
 20
115.9356890070739
 42
-0.2679491924310617
 10
-3996.26684810414
 20
135.9394655608375
 42
0.0
 97
        0
 92
        7
 72
     1
 73
     1
 93
        2
 10
-4292.335568779301
 20
145.9413538377229
 42
1.0
 10
-4292.335568779301
 20
105.9338007301885
 42
1.0
 97
        0
 92
        7
 72
     1
 73
     1
 93
        4
 10
-4557.353382245325
 20
135.9394655608375
 42
-0.2679491924310617
 10
-4557.353382245325
 20
115.9356890070739
 42
0.0
 10
-4309.659347446483
 20
115.9356890070739
 42
-0.2679491924310617
 10
-4309.659347446483
 20
135.9394655608375
 42
0.0
 97
        0
 75
     0
 76
     1
 47
2.764541729509131
 98
       23
 10
-4892.144320289698
 20
122.8572553383164
 10
-4850.676212260434
 20
319.344466549981
 10
-4817.501702988076
 20
501.9945808724842
 10
-4740.094533726696
 20
510.2968390059795
 10
-4706.920024454339
 20
316.5770471721516
 10
-4712.449109333065
 20
133.9269691317786
 10
-4571.457492527516
 20
128.3920940939824
 10
-4549.34115301261
 20
322.1118859278176
 10
-4538.282983255157
 20
510.2968390059795
 10
-4477.463068629957
 20
507.5294196281502
 10
-4435.994941559918
 20
510.2968390059795
 10
-4377.939559853672
 20
513.0642946659463
 10
-4325.413263026166
 20
510.2968390059795
 10
-4278.416051077387
 20
513.0642946659463
 10
-4471.93398375123
 20
319.344466549981
 10
-4201.008881816007
 20
319.344466549981
 10
-4306.061475471018
 20
319.344466549981
 10
-4046.194543293262
 20
513.0642946659463
 10
-4015.784585980662
 20
316.5770471721516
 10
-3977.081010870366
 20
131.1595134718118
 10
-4024.078222819145
 20
125.6246747161458
 10
-4289.474220834854
 20
128.3920940939824
 10
-4350.294135460041
 20
122.8572553383164
  0
HATCH
  5
1F6
330
1ED
100
AcDbEntity
  8
0
 62
    50
100
AcDbHatch
 10
0.0
 20
0.0
 30
0.0
210
0.0
220
0.0
230
1.0
  2
SOLID
 70
     1
 71
     0
 91
       15
 92
        7
 72
     1
 73
     1
 93
        5
 10
-4943.791891880326
 20
-104.7726456361669
 42
0.0
 10
-4923.788115326555
 20
-110.1069860505049
 42
0.0
 10
-4882.451612266981
 20
107.0761977504625
 42
-0.0851023481420786
 10
-4889.114902633366
 20
105.9338007301885
 42
-0.1859621584946757
 10
-4902.535820470984
 20
111.1041676688655
 42
0.0
 97
        0
 92
        7
 72
     1
 73
     1
 93
        6
 10
-4896.120193000337
 20
144.6746256984588
 42
-0.0896850285161526
 10
-4889.114902633366
 20
145.9413538377229
 42
-0.1808726405839401
 10
-4875.988719435852
 20
141.0324237912536
 42
0.0
 10
-4845.910110125122
 20
299.0663079105033
 42
-0.0833413142280533
 10
-4852.441312284784
 20
297.970055646354
 42
-0.1855709679467075
 10
-4865.839778285888
 20
303.120139553841
 42
0.0
 97
        0
 92
        7
 72
     1
 73
     1
 93
        6
 10
-4859.418253650051
 20
336.721455132083
 42
-0.0893038586945105
 10
-4852.441312284784
 20
337.9776087538957
 42
-0.1790673735504051
 10
-4839.421030512291
 20
333.1601200605037
 42
0.0
 10
-4809.456204994123
 20
490.5961808394313
 42
-0.0893222485011883
 10
-4816.434514488014
 20
489.339518010729
 42
-0.1772621847634118
 10
-4829.348195519189
 20
494.0662556289644
 42
0.0
 97
        0
 92
        7
 72
     1
 73
     1
 93
        5
 10
-4822.804725215487
 20
528.3056649780519
 42
-0.0812013531982661
 10
-4816.434514488014
 20
529.3470711182708
 42
-0.1852009961545732
 10
-4803.057313613543
 20
524.2161414062247
 42
0.0
 10
-4772.915212997708
 20
682.5836106805691
 42
-0.2685811292006837
 10
-4792.651933965891
 20
686.0833753816587
 42
0.0
 97
        0
 92
        7
 72
     1
 73
     1
 93
        5
 10
-4586.39438937448
 20
109.7246924825631
 42
0.0
 10
-4608.39523832882
 20
-106.1062307397478
 42
0.0
 10
-4588.391461775063
 20
-108.7734009469168
 42
0.0
 10
-4566.460943517966
 20
107.6990233901124
 42
-0.10621125263883
 10
-4574.67716091252
 20
105.9338007301885
 42
-0.1577406454984231
 97
        0
 92
        7
 72
     1
 73
     1
 93
        6
 10
-4566.871760728863
 20
301.8356658569136
 42
0.0
 10
-4582.893378307061
 20
144.1761311777991
 42
-0.1062112526389573
 10
-4574.67716091252
 20
145.9413538377229
 42
-0.1577406454982801
 10
-4562.959932450562
 20
142.1504620853556
 42
0.0
 10
-4546.951152396512
 20
299.6836700639505
 42
-0.1046122499629626
 10
-4555.05183418544
 20
297.970055646354
 42
-0.1593677876891822
 97
        0
 92
        7
 72
     1
 73
     1
 93
        6
 10
-4547.432078645426
 20
493.1304097631036
 42
0.0
 10
-4563.383681024911
 20
336.159854433059
 42
-0.1078166695744589
 10
-4555.05183418544
 20
337.9776087538957
 42
-0.1561202689644205
 10
-4543.437397644236
 20
334.2605120411353
 42
0.0
 10
-4527.498632788913
 20
491.1047406706602
 42
-0.106211252638881
 10
-4535.714850183467
 20
489.339518010729
 42
-0.1577406454983651
 97
        0
 92
        7
 72
     1
 73
     1
 93
        5
 10
-4444.75087629012
 20
683.6633965409746
 42
0.0
 10
-4444.398070047442
 20
527.0174247958093
 42
-0.1224641477092257
 10
-4435.029174862844
 20
529.3470711182708
 42
-0.1206628716633466
 10
-4425.786004251299
 20
527.083499564982
 42
0.0
 10
-4426.490584081745
 20
683.5002219248817
 42
-0.2415336677682219
 97
        0
 92
        7
 72
     1
 73
     1
 93
        6
 10
-4319.292308321288
 20
493.1304097631036
 42
-0.1577406454983381
 10
-4331.009536783247
 20
489.339518010729
 42
-0.1062112526390083
 10
-4339.225754177801
 20
491.1047406706602
 42
0.0
 10
-4323.286989322478
 20
334.2605120411353
 42
-0.1561202689644513
 10
-4311.672552781273
 20
337.9776087538957
 42
-0.1078166695745329
 10
-4303.340705941788
 20
336.159854433059
 42
0.0
 97
        0
 92
        7
 72
     1
 73
     1
 93
        6
 10
-4311.672552781273
 20
297.970055646354
 42
-0.104612249963011
 10
-4319.773234570202
 20
299.6836700639505
 42
0.0
 10
-4303.783864739736
 20
142.3414669451049
 42
-0.1535182735215436
 10
-4292.335568779301
 20
145.9413538377229
 42
-0.1104223275205014
 10
-4283.816851477582
 20
144.0368184820508
 42
0.0
 10
-4299.852626237836
 20
301.8356658569209
 42
-0.1593677876892712
 97
        0
 92
        7
 72
     1
 73
     1
 93
        5
 10
-4292.335568779301
 20
105.9338007301885
 42
-0.102044031375449
 10
-4300.249927756719
 20
107.5660232291229
 42
0.0
 10
-4278.332925191651
 20
-108.1066083951263
 42
0.0
 10
-4258.329148637894
 20
-106.1062307397478
 42
0.0
 10
-4280.35004930583
 20
109.9220098770711
 42
-0.1620092734141219
 97
        0
 92
        7
 72
     1
 73
     1
 93
        5
 10
-3978.943069436944
 20
105.9338007301885
 42
-0.079198403321382
 10
-3985.1621281802
 20
106.9250975729628
 42
0.0
 10
-3942.936271640159
 20
-110.1069860504976
 42
0.0
 10
-3922.91704586536
 20
-106.1850909425738
 42
0.0
 10
-3965.490951391133
 20
111.1324566665825
 42
-0.1865067590877368
 97
        0
 92
        7
 72
     1
 73
     1
 93
        6
 10
-4003.07024222354
 20
302.9551053931536
 42
-0.1823652781536637
 10
-4016.283452337295
 20
297.970055646354
 42
-0.0827944421143663
 10
-4022.773562565773
 20
299.052163520133
 42
0.0
 10
-3991.872199461278
 20
141.2015437811387
 42
-0.1775230658767542
 10
-3978.943069436944
 20
145.9413538377229
 42
-0.0878853185701973
 10
-3972.071786639899
 20
144.7241828617661
 42
0.0
 97
        0
 92
        7
 72
     1
 73
     1
 93
        6
 10
-4040.53884106718
 20
494.2127293413614
 42
-0.1801690726475175
 10
-4053.623835237675
 20
489.339518010729
 42
-0.0845485779383144
 10
-4060.245628515062
 20
490.4673063730333
 42
0.0
 10
-4029.429382819573
 20
333.0514841449294
 42
-0.181210605973591
 10
-4016.283452337295
 20
337.9776087538957
 42
-0.0838505500870652
 10
-4009.714017284765
 20
336.868106451966
 42
0.0
 97
        0
 92
        7
 72
     1
 73
     1
 93
        5
 10
-4078.216974251446
 20
686.5399166401003
 42
-0.2684352454930941
 10
-4097.810009285466
 20
682.3540126218031
 42
0.0
 10
-4066.874503228063
 20
524.328983545045
 42
-0.1830103166745941
 10
-4053.623835237675
 20
529.3470711182708
 42
-0.0817096404766589
 10
-4047.215338318878
 20
528.2927600887596
 42
0.0
 97
        0
 75
     0
 76
     1
 47
3.667923569414485
 98
       15
 10
-4912.827540428909
 20
-14.8485216990266
 10
-4872.480416018916
 20
219.9974107742709
 10
-4835.801153514338
 20
399.8013029434623
 10
-4799.121955354807
 20
594.2830459876822
 10
-4579.046509017404
 20
51.20192666591538
 10
-4560.706877765107
 20
227.3362964027
 10
-4546.035172763273
 20
381.4539296360271
 10
-4432.329587689186
 20
568.5967870518179
 10
-4318.623938270022
 20
410.8097110042836
 10
-4300.284307017726
 20
216.3278883418788
 10
-4281.944675765429
 20
14.50718005104499
 10
-3966.503275606235
 20
29.18511054425835
 10
-3995.846621264842
 20
201.6500374668357
 10
-4032.525883769435
 20
403.4707457576696
 10
-4069.205146274013
 20
594.2830459876822
  0
ARC
  5
1F7
102
{ACAD_REACTORS
330
202
102
}
330
1ED
100
AcDbEntity
  8
0
100
AcDbCircle
 10
-4436.125601790794
 20
1663.942388136223
 30
0.0
 40
327.0140425069816
100
AcDbArc
 50
35.01856011990454
 51
144.9814398800954
  0
LINE
  5
1F8
330
1ED
100
AcDbEntity
  8
0
100
AcDbLine
 10
-4070.947613904871
 20
519.3451828413854
 30
0.0
 11
-4313.685758116051
 21
519.3451828413854
 31
0.0
  0
LINE
  5
1F9
330
1ED
100
AcDbEntity
  8
0
100
AcDbLine
 10
-4313.685758116051
 20
499.3414062876218
 30
0.0
 11
-4070.947613904871
 21
499.3414062876218
 31
0.0
  0
LINE
  5
1FA
330
1ED
100
AcDbEntity
  8
0
100
AcDbLine
 10
-4033.607231004491
 20
327.9757204770175
 30
0.0
 11
-4294.348774114078
 21
327.9757204770175
 31
0.0
  0
LINE
  5
1FB
330
1ED
100
AcDbEntity
  8
0
100
AcDbLine
 10
-4294.348774114078
 20
307.9719439232394
 30
0.0
 11
-4033.607231004491
 21
307.9719439232394
 31
0.0
  0
LINE
  5
1FC
330
1ED
100
AcDbEntity
  8
0
100
AcDbLine
 10
-3996.26684810414
 20
135.9394655608375
 30
0.0
 11
-4275.011790112105
 21
135.9394655608375
 31
0.0
  0
LINE
  5
1FD
330
1ED
100
AcDbEntity
  8
0
100
AcDbLine
 10
-4275.011790112105
 20
115.9356890070739
 30
0.0
 11
-3996.26684810414
 21
115.9356890070739
 31
0.0
  0
LINE
  5
1FE
330
1ED
100
AcDbEntity
  8
0
100
AcDbLine
 10
-3855.586447355374
 20
1851.596701322305
 30
0.0
 11
-5016.472280025679
 21
690.7108686519932
 31
0.0
  0
LINE
  5
1FF
330
1ED
100
AcDbEntity
  8
0
100
AcDbLine
 10
-5016.472280025679
 20
1851.596701322305
 30
0.0
 11
-3855.586447355374
 21
690.7108686519932
 31
0.0
  0
LWPOLYLINE
  5
200
330
1ED
100
AcDbEntity
  8
0
100
AcDbPolyline
 90
        4
 70
     1
 43
0.0
 10
-4727.751105099633
 20
1562.875526396259
 10
-4144.446737274229
 20
1562.875526396259
 10
-4144.446737274229
 20
979.4320435780354
 10
-4727.751105099633
 20
979.4320435780354
  0
LWPOLYLINE
  5
201
102
{ACAD_REACTORS
330
202
330
27A
330
203
330
263
330
21C
102
}
330
1ED
100
AcDbEntity
  8
0
100
AcDbPolyline
 90
        4
 70
     1
 43
0.0
 10
-5016.472280025679
 20
690.7108686519932
 10
-3855.586447355374
 20
690.7108686519932
 10
-3855.586447355374
 20
1851.596701322297
 10
-5016.472280025679
 20
1851.596701322297
  0
HATCH
  5
202
330
1ED
100
AcDbEntity
  8
0
 62
    50
100
AcDbHatch
 10
0.0
 20
0.0
 30
0.0
210
0.0
220
0.0
230
1.0
  2
SOLID
 70
     1
 71
     1
 91
        1
 92
        7
 72
     1
 73
     1
 93
        4
 10
-4263.663489052216
 20
1851.596701322297
 42
0.0
 10
-4168.312154145945
 20
1851.596701322297
 42
0.5203612086937236
 10
-4703.939049435644
 20
1851.596701322297
 42
0.0
 10
-4608.395238328821
 20
1851.596701322297
 42
-0.3984526112186032
 97
        3
330
201
330
279
330
1F7
 75
     0
 76
     1
 47
5.50999374987631
 98
        1
 10
-4430.379121391736
 20
1949.687776810635
  0
HATCH
  5
203
330
1ED
100
AcDbEntity
  8
0
 62
    84
100
AcDbHatch
 10
0.0
 20
0.0
 30
0.0
210
0.0
220
0.0
230
1.0
  2
SOLID
 70
     1
 71
     1
 91
        1
 92
        1
 93
        4
 72
     1
 10
-5016.472280025679
 20
690.7108686519932
 11
-3855.586447355374
 21
690.7108686519932
 72
     1
 10
-3855.586447355374
 20
690.7108686519932
 11
-3855.586447355374
 21
1851.596701322297
 72
     1
 10
-3855.586447355374
 20
1851.596701322297
 11
-5016.472280025679
 21
1851.596701322297
 72
     1
 10
-5016.472280025679
 20
1851.596701322297
 11
-5016.472280025679
 21
690.7108686519932
 97
        1
330
201
 75
     0
 76
     1
 98
        1
 10
1996.376681035202
 20
-12901.0651823731
  0
HATCH
  5
204
330
1ED
100
AcDbEntity
  8
0
 62
   250
100
AcDbHatch
 10
0.0
 20
0.0
 30
0.0
210
0.0
220
0.0
230
1.0
  2
SOLID
 70
     1
 71
     0
 91
       28
 92
        7
 72
     1
 73
     1
 93
       13
 10
-5016.472280025679
 20
1851.596701322301
 42
0.0
 10
-4862.163146668092
 20
1851.596701322301
 42
0.8054755908513124
 10
-5802.667884371963
 20
1643.942231233937
 42
0.0
 10
-5800.629322330737
 20
1643.942231233937
 42
-0.4142135623730951
 10
-5795.629322330737
 20
1638.942231233937
 42
0.0
 10
-5795.629322330737
 20
1538.942231233937
 42
-0.4142135623730951
 10
-5800.629322330737
 20
1533.942231233937
 42
0.0
 10
-5802.316405144993
 20
1533.942231233937
 42
0.0
 10
-5802.316405144993
 20
1007.668434252977
 42
0.0
 10
-5800.629322330737
 20
1007.668434252977
 42
-0.4142135623730951
 10
-5795.629322330737
 20
1002.668434252977
 42
0.0
 10
-5795.629322330737
 20
992.1927955805477
 42
0.0
 10
-5016.472280025693
 20
992.1927955805477
 42
0.0
 97
        0
 92
        7
 72
     0
 73
     1
 93
        4
 10
-5802.316405144993
 20
1533.942231233933
 10
-5902.316405144993
 20
1533.942231233941
 10
-5902.316405144993
 20
1007.668434252977
 10
-5802.316405144993
 20
1007.668434252973
 97
        0
 92
        7
 72
     1
 73
     1
 93
        8
 10
-5902.316405144993
 20
1534.2354540374
 42
-0.3166446299930454
 10
-5905.629322330736
 20
1538.942231233937
 42
0.0
 10
-5905.629322330736
 20
1555.955418831119
 42
0.0
 10
-5950.457993178636
 20
1555.955418831115
 42
0.0
 10
-5950.45799317865
 20
1278.689181995563
 42
0.0
 10
-5922.294333783305
 20
1278.689181995563
 42
0.0
 10
-5922.294333783305
 20
1280.910447810514
 42
0.0
 10
-5902.316405144978
 20
1280.910447810514
 42
0.0
 97
        0
 92
        7
 72
     1
 73
     1
 93
        8
 10
-5902.316405144993
 20
1260.932519172198
 42
0.0
 10
-5922.294333783305
 20
1260.932519172198
 42
0.0
 10
-5922.294333783305
 20
1262.689181995556
 42
0.0
 10
-5950.457993178636
 20
1262.689181995552
 42
0.0
 10
-5950.457993178636
 20
985.8875481515823
 42
0.0
 10
-5905.629322330736
 20
985.8875481515788
 42
0.0
 10
-5905.629322330736
 20
1002.668434252977
 42
-0.3166446299930454
 10
-5902.316405144993
 20
1007.375211449514
 42
0.0
 97
        0
 92
        7
 72
     0
 73
     1
 93
        4
 10
-5950.457993178636
 20
1555.955418831123
 10
-6070.425541845696
 20
1555.955418831123
 10
-6070.425541845696
 20
1278.689181995556
 10
-5950.45799317865
 20
1278.689181995567
 97
        0
 92
        7
 72
     0
 73
     1
 93
        4
 10
-6070.425541845711
 20
1555.955418831119
 10
-6187.712600736624
 20
1555.955418831119
 10
-6187.71260073661
 20
1278.689181995556
 10
-6070.425541845711
 20
1278.689181995559
 97
        0
 92
        7
 72
     0
 73
     1
 93
        4
 10
-6187.712600736624
 20
1555.955418831126
 10
-6300.469482868742
 20
1555.95541883113
 10
-6300.469482868757
 20
1278.689181995556
 10
-6187.712600736624
 20
1278.689181995559
 97
        0
 92
        7
 72
     0
 73
     1
 93
        4
 10
-6300.469482868742
 20
1555.955418831123
 10
-6406.917944853173
 20
1555.955418831119
 10
-6406.917944853173
 20
1278.689181995556
 10
-6300.469482868757
 20
1278.689181995563
 97
        0
 92
        7
 72
     0
 73
     1
 93
        4
 10
-6406.917944853173
 20
1555.955418831119
 10
-6505.379230855201
 20
1555.955418831119
 10
-6505.379230855186
 20
1278.689181995556
 10
-6406.917944853173
 20
1278.689181995559
 97
        0
 92
        7
 72
     0
 73
     1
 93
        4
 10
-6505.379230855201
 20
1555.955418831126
 10
-6594.300547576619
 20
1555.955418831123
 10
-6594.300547576619
 20
1278.689181995556
 10
-6505.379230855201
 20
1278.689181995556
 97
        0
 92
        7
 72
     0
 73
     1
 93
        4
 10
-6594.300547576633
 20
1555.955418831123
 10
-6672.279552733737
 20
1555.955418831123
 10
-6672.279552733737
 20
1278.689181995556
 10
-6594.300547576633
 20
1278.689181995556
 97
        0
 92
        7
 72
     0
 73
     1
 93
        4
 10
-6672.279552733737
 20
1555.955418831123
 10
-6738.086470832808
 20
1555.955418831123
 10
-6738.086470832823
 20
1278.689181995556
 10
-6672.279552733737
 20
1278.689181995556
 97
        0
 92
        7
 72
     0
 73
     1
 93
        4
 10
-6738.086470832837
 20
1555.955418831123
 10
-6790.683487464303
 20
1555.955418831119
 10
-6790.683487464303
 20
1278.689181995556
 10
-6738.086470832823
 20
1278.689181995556
 97
        0
 92
        7
 72
     0
 73
     1
 93
        4
 10
-6790.683487464303
 20
1555.955418831123
 10
-6829.241116255952
 20
1555.955418831123
 10
-6829.241116255966
 20
1278.689181995556
 10
-6790.683487464288
 20
1278.689181995556
 97
        0
 92
        7
 72
     0
 73
     1
 93
        4
 10
-6829.241116255966
 20
1555.955418831123
 10
-6853.15128036854
 20
1555.955418831119
 10
-6853.15128036854
 20
1278.689181995556
 10
-6829.241116255952
 20
1278.689181995552
 97
        0
 92
        7
 72
     0
 73
     1
 93
        4
 10
-6853.15128036854
 20
1555.955418831123
 10
-6862.03690223075
 20
1555.955418831123
 10
-6862.03690223075
 20
1278.689181995556
 10
-6853.15128036854
 20
1278.689181995556
 97
        0
 92
        7
 72
     0
 73
     1
 93
        4
 10
-5950.457993178636
 20
1262.689181995556
 10
-6070.425541845696
 20
1262.689181995552
 10
-6070.425541845711
 20
985.8875481515823
 10
-5950.457993178636
 20
985.8875481515823
 97
        0
 92
        7
 72
     0
 73
     1
 93
        4
 10
-6070.425541845711
 20
1262.689181995559
 10
-6187.71260073661
 20
1262.689181995563
 10
-6187.712600736624
 20
985.8875481515861
 10
-6070.425541845711
 20
985.8875481515896
 97
        0
 92
        7
 72
     0
 73
     1
 93
        4
 10
-6187.712600736624
 20
1262.689181995559
 10
-6300.469482868742
 20
1262.689181995556
 10
-6300.469482868727
 20
985.8875481515788
 10
-6187.712600736624
 20
985.8875481515751
 97
        0
 92
        7
 72
     0
 73
     1
 93
        4
 10
-6300.469482868742
 20
1262.689181995559
 10
-6406.917944853187
 20
1262.689181995563
 10
-6406.917944853187
 20
985.8875481515861
 10
-6300.469482868742
 20
985.8875481515751
 97
        0
 92
        7
 72
     0
 73
     1
 93
        4
 10
-6406.917944853157
 20
1262.689181995559
 10
-6505.379230855201
 20
1262.689181995563
 10
-6505.379230855201
 20
985.8875481515861
 10
-6406.917944853173
 20
985.8875481515861
 97
        0
 92
        7
 72
     0
 73
     1
 93
        4
 10
-6505.379230855215
 20
1262.689181995559
 10
-6594.300547576619
 20
1262.689181995559
 10
-6594.300547576619
 20
985.8875481515823
 10
-6505.379230855186
 20
985.8875481515823
 97
        0
 92
        7
 72
     0
 73
     1
 93
        4
 10
-6594.300547576648
 20
1262.689181995559
 10
-6672.279552733737
 20
1262.689181995559
 10
-6672.279552733723
 20
985.8875481515823
 10
-6594.300547576633
 20
985.8875481515823
 97
        0
 92
        7
 72
     0
 73
     1
 93
        4
 10
-6672.279552733737
 20
1262.689181995559
 10
-6738.086470832823
 20
1262.689181995556
 10
-6738.086470832808
 20
985.8875481515788
 10
-6672.279552733737
 20
985.8875481515788
 97
        0
 92
        7
 72
     0
 73
     1
 93
        4
 10
-6738.086470832823
 20
1262.689181995559
 10
-6790.683487464303
 20
1262.689181995563
 10
-6790.683487464303
 20
985.8875481515861
 10
-6738.086470832823
 20
985.8875481515896
 97
        0
 92
        7
 72
     0
 73
     1
 93
        4
 10
-6790.683487464303
 20
1262.689181995559
 10
-6829.241116255966
 20
1262.689181995563
 10
-6829.24111625598
 20
985.8875481515861
 10
-6790.683487464288
 20
985.8875481515861
 97
        0
 92
        7
 72
     0
 73
     1
 93
        4
 10
-6829.241116255966
 20
1262.689181995559
 10
-6853.15128036854
 20
1262.689181995556
 10
-6853.15128036854
 20
985.8875481515788
 10
-6829.241116255966
 20
985.8875481515751
 97
        0
 92
        7
 72
     0
 73
     1
 93
        4
 10
-6853.15128036854
 20
1262.689181995559
 10
-6862.03690223075
 20
1262.689181995559
 10
-6862.03690223075
 20
985.8875481515823
 10
-6853.15128036854
 20
985.8875481515823
 97
        0
 75
     0
 76
     1
 47
3.488562230754465
 98
       28
 10
-5290.902492138215
 20
1569.645513933781
 10
-5860.131692612434
 20
1353.354628639896
 10
-5926.4833517765
 20
1353.354628639896
 10
-5922.991031516059
 20
1206.834989822284
 10
-5999.81965146133
 20
1339.400336909737
 10
-6125.538733565896
 20
1363.820347437507
 10
-6251.258219967778
 20
1381.262999925722
 10
-6349.039952880943
 20
1377.774426993175
 10
-6471.266714725068
 20
1384.75157285824
 10
-6576.033088159114
 20
1381.262999925722
 10
-6642.384747323122
 20
1377.774426993175
 10
-6712.22872674757
 20
1377.774426993175
 10
-6764.611913464563
 20
1377.774426993175
 10
-6813.502779921176
 20
1374.286066235119
 10
-6844.932449372958
 20
1374.286066235119
 10
-6858.901326117346
 20
1377.774426993175
 10
-6013.788528205718
 20
1095.200868155563
 10
-6111.570261118883
 20
1109.155159885722
 10
-6237.289343223449
 20
1119.620878683334
 10
-6345.547632620561
 20
1119.620878683334
 10
-6446.821281496792
 20
1119.620878683334
 10
-6572.540767898674
 20
1130.086597480945
 10
-6649.368983546628
 20
1130.086597480945
 10
-6722.705283231516
 20
1119.620878683334
 10
-6761.119593204181
 20
1112.643732818269
 10
-6816.994695884242
 20
1109.155159885722
 10
-6841.440129112576
 20
1102.178014020657
 10
-6858.901326117346
 20
1102.178014020657
  0
LINE
  5
205
330
1ED
100
AcDbEntity
  8
0
100
AcDbLine
 10
-6862.03690223075
 20
985.8875481515788
 30
0.0
 11
-6862.036902230764
 21
1262.689181995563
 31
0.0
  0
LINE
  5
206
330
1ED
100
AcDbEntity
  8
0
100
AcDbLine
 10
-6853.15128036854
 20
985.8875481515788
 30
0.0
 11
-6853.15128036854
 21
1262.689181995563
 31
0.0
  0
LINE
  5
207
330
1ED
100
AcDbEntity
  8
0
100
AcDbLine
 10
-6829.241116255966
 20
985.8875481515788
 30
0.0
 11
-6829.241116255966
 21
1262.689181995563
 31
0.0
  0
LINE
  5
208
330
1ED
100
AcDbEntity
  8
0
100
AcDbLine
 10
-6790.683487464303
 20
985.8875481515788
 30
0.0
 11
-6790.683487464303
 21
1262.689181995563
 31
0.0
  0
LINE
  5
209
330
1ED
100
AcDbEntity
  8
0
100
AcDbLine
 10
-6738.086470832823
 20
985.8875481515788
 30
0.0
 11
-6738.086470832823
 21
1262.689181995563
 31
0.0
  0
LINE
  5
20A
330
1ED
100
AcDbEntity
  8
0
100
AcDbLine
 10
-6672.279552733737
 20
985.8875481515788
 30
0.0
 11
-6672.279552733737
 21
1262.689181995563
 31
0.0
  0
LINE
  5
20B
330
1ED
100
AcDbEntity
  8
0
100
AcDbLine
 10
-6594.300547576633
 20
985.8875481515788
 30
0.0
 11
-6594.300547576633
 21
1262.689181995563
 31
0.0
  0
LINE
  5
20C
330
1ED
100
AcDbEntity
  8
0
100
AcDbLine
 10
-6505.379230855201
 20
985.8875481515788
 30
0.0
 11
-6505.379230855201
 21
1262.689181995563
 31
0.0
  0
LINE
  5
20D
330
1ED
100
AcDbEntity
  8
0
100
AcDbLine
 10
-6406.917944853173
 20
985.8875481515788
 30
0.0
 11
-6406.917944853173
 21
1262.689181995563
 31
0.0
  0
LINE
  5
20E
330
1ED
100
AcDbEntity
  8
0
100
AcDbLine
 10
-6300.469482868742
 20
985.8875481515788
 30
0.0
 11
-6300.469482868742
 21
1262.689181995563
 31
0.0
  0
LINE
  5
20F
330
1ED
100
AcDbEntity
  8
0
100
AcDbLine
 10
-6187.712600736624
 20
985.8875481515788
 30
0.0
 11
-6187.712600736624
 21
1262.689181995563
 31
0.0
  0
LINE
  5
210
330
1ED
100
AcDbEntity
  8
0
100
AcDbLine
 10
-6070.425541845711
 20
985.8875481515788
 30
0.0
 11
-6070.425541845711
 21
1262.689181995563
 31
0.0
  0
LINE
  5
211
330
1ED
100
AcDbEntity
  8
0
100
AcDbLine
 10
-5950.457993178636
 20
985.8875481515788
 30
0.0
 11
-5950.457993178636
 21
1262.689181995563
 31
0.0
  0
LINE
  5
212
330
1ED
100
AcDbEntity
  8
0
100
AcDbLine
 10
-5802.316405144993
 20
1534.2354540374
 30
0.0
 11
-5802.316405144993
 21
1007.37521144951
 31
0.0
  0
LINE
  5
213
330
1ED
100
AcDbEntity
  8
0
100
AcDbLine
 10
-5902.316405144993
 20
1534.2354540374
 30
0.0
 11
-5902.316405144993
 21
1007.37521144951
 31
0.0
  0
HATCH
  5
214
330
1ED
100
AcDbEntity
  8
0
 62
    30
100
AcDbHatch
 10
0.0
 20
0.0
 30
0.0
210
0.0
220
0.0
230
1.0
  2
SOLID
 70
     1
 71
     0
 91
        2
 92
        7
 72
     0
 73
     1
 93
        4
 10
-5905.629322330736
 20
1595.91127610777
 10
-6920.261559716215
 20
1595.91127610777
 10
-6920.261559716215
 20
1575.93334746945
 10
-5905.629322330736
 20
1575.93334746945
 97
        0
 92
        7
 72
     0
 73
     1
 93
        4
 10
-5905.629322330736
 20
965.4450165216694
 10
-6920.261559716215
 20
965.4450165216731
 10
-6920.261559716215
 20
945.467087883353
 10
-5905.629322330736
 20
945.4670878833457
 97
        0
 75
     0
 76
     1
 47
5.023106726455871
 98
        2
 10
-6240.259982501877
 20
1584.156766556952
 10
-6255.34497163089
 20
956.2683385385243
  0
HATCH
  5
215
330
1ED
100
AcDbEntity
  8
0
 62
    30
100
AcDbHatch
 10
0.0
 20
0.0
 30
0.0
210
0.0
220
0.0
230
1.0
  2
SOLID
 70
     1
 71
     1
 91
        2
 92
        1
 93
        8
 72
     1
 10
-5900.629322330736
 20
1533.942231233937
 11
-5800.629322330737
 21
1533.942231233937
 72
     2
 10
-5800.629322330737
 20
1538.942231233937
 40
5.0
 50
270.0
 51
360.0
 73
     1
 72
     1
 10
-5795.629322330737
 20
1538.942231233937
 11
-5795.629322330737
 21
1638.942231233937
 72
     2
 10
-5800.629322330737
 20
1638.942231233937
 40
5.0
 50
0.0
 51
90.0
 73
     1
 72
     1
 10
-5800.629322330737
 20
1643.942231233937
 11
-5900.629322330736
 21
1643.942231233937
 72
     2
 10
-5900.629322330736
 20
1638.942231233937
 40
5.0
 50
90.0
 51
180.0
 73
     1
 72
     1
 10
-5905.629322330736
 20
1638.942231233937
 11
-5905.629322330736
 21
1538.942231233937
 72
     2
 10
-5900.629322330736
 20
1538.942231233937
 40
5.0
 50
180.0
 51
270.0
 73
     1
 97
        1
330
272
 92
        1
 93
        8
 72
     1
 10
-5900.629322330736
 20
897.668434252977
 11
-5800.629322330737
 21
897.668434252977
 72
     2
 10
-5800.629322330737
 20
902.6684342529771
 40
5.0
 50
270.0
 51
360.0
 73
     1
 72
     1
 10
-5795.629322330737
 20
902.6684342529771
 11
-5795.629322330737
 21
1002.668434252977
 72
     2
 10
-5800.629322330737
 20
1002.668434252977
 40
5.0
 50
0.0
 51
90.0
 73
     1
 72
     1
 10
-5800.629322330737
 20
1007.668434252977
 11
-5900.629322330736
 21
1007.668434252977
 72
     2
 10
-5900.629322330736
 20
1002.668434252977
 40
5.0
 50
90.0
 51
180.0
 73
     1
 72
     1
 10
-5905.629322330736
 20
1002.668434252977
 11
-5905.629322330736
 21
902.6684342529771
 72
     2
 10
-5900.629322330736
 20
902.6684342529771
 40
5.0
 50
180.0
 51
270.0
 73
     1
 97
        1
330
21F
 75
     0
 76
     1
 98
        1
 10
5974.709110421398
 20
-31254.31215631859
  0
HATCH
  5
216
330
1ED
100
AcDbEntity
  8
0
 62
    70
100
AcDbHatch
 10
0.0
 20
0.0
 30
0.0
210
0.0
220
0.0
230
1.0
  2
SOLID
 70
     1
 71
     0
 91
        4
 92
        7
 72
     0
 73
     1
 93
        4
 10
-5905.629322330736
 20
1615.889204746083
 10
-6071.43189408334
 20
1615.889204746083
 10
-6071.43189408334
 20
1595.91127610777
 10
-5905.629322330736
 20
1595.91127610777
 97
        0
 92
        7
 72
     0
 73
     1
 93
        4
 10
-5905.629322330736
 20
1575.93334746945
 10
-6920.261559716215
 20
1575.933347469443
 10
-6920.261559716215
 20
1555.955418831123
 10
-5905.629322330736
 20
1555.955418831115
 97
        0
 92
        7
 72
     0
 73
     1
 93
        4
 10
-5905.629322330736
 20
985.8875481515861
 10
-6920.261559716215
 20
985.8875481515788
 10
-6920.261559716215
 20
965.4450165216731
 10
-5905.629322330736
 20
965.4450165216731
 97
        0
 92
        7
 72
     0
 73
     1
 93
        4
 10
-5905.629322330736
 20
945.4670878833494
 10
-6071.43189408334
 20
945.467087883353
 10
-6071.43189408334
 20
925.4891592450331
 10
-5905.629322330736
 20
925.4891592450293
 97
        0
 75
     0
 76
     1
 47
5.023106726455871
 98
        4
 10
-6015.798130547358
 20
1607.071131527271
 10
-6089.409669047505
 20
1564.064297867378
 10
-6039.126090507888
 20
976.3608072280986
 10
-6024.041101378905
 20
936.1759806244881
  0
LINE
  5
217
330
1ED
100
AcDbEntity
  8
0
100
AcDbLine
 10
-6920.261559716215
 20
985.8875481515823
 30
0.0
 11
-5905.629322330736
 21
985.8875481515823
 31
0.0
  0
LINE
  5
218
330
1ED
100
AcDbEntity
  8
0
100
AcDbLine
 10
-6920.261559716215
 20
965.4450165216731
 30
0.0
 11
-5905.629322330736
 21
965.4450165216731
 31
0.0
  0
LINE
  5
219
330
1ED
100
AcDbEntity
  8
0
100
AcDbLine
 10
-5905.629322330736
 20
945.4670878833494
 30
0.0
 11
-6920.261559716215
 21
945.4670878833494
 31
0.0
  0
LINE
  5
21A
330
1ED
100
AcDbEntity
  8
0
100
AcDbLine
 10
-6920.261559716215
 20
945.4670878833494
 30
0.0
 11
-6920.261559716215
 21
965.4450165216731
 31
0.0
  0
LINE
  5
21B
330
1ED
100
AcDbEntity
  8
0
100
AcDbLine
 10
-6920.261559716215
 20
965.4450165216731
 30
0.0
 11
-6920.261559716215
 21
985.8875481515823
 31
0.0
  0
HATCH
  5
21C
330
1ED
100
AcDbEntity
  8
0
 62
    70
100
AcDbHatch
 10
0.0
 20
0.0
 30
0.0
210
0.0
220
0.0
230
1.0
  2
SOLID
 70
     1
 71
     1
 91
        1
 92
        7
 72
     0
 73
     1
 93
        4
 10
-5795.629322330737
 20
992.1927955805513
 10
-5795.629322330736
 20
912.2148669422276
 10
-5016.472280025679
 20
912.2148669422276
 10
-5016.47228002568
 20
992.1927955805513
 97
        4
330
21E
330
21F
330
21D
330
201
 75
     0
 76
     1
 47
5.421051190284184
 98
        1
 10
-5553.739819318238
 20
964.125834672177
  0
LINE
  5
21D
102
{ACAD_REACTORS
330
21C
102
}
330
1ED
100
AcDbEntity
  8
0
100
AcDbLine
 10
-5016.318500185029
 20
912.2148669422276
 30
0.0
 11
-5795.92232007115
 21
912.2148669422276
 31
0.0
  0
LINE
  5
21E
102
{ACAD_REACTORS
330
21C
102
}
330
1ED
100
AcDbEntity
  8
0
100
AcDbLine
 10
-5795.629322330737
 20
992.1927955805513
 30
0.0
 11
-5016.318500185029
 21
992.1927955805513
 31
0.0
  0
LWPOLYLINE
  5
21F
102
{ACAD_REACTORS
330
215
330
21C
102
}
330
1ED
100
AcDbEntity
  8
0
100
AcDbPolyline
 90
        8
 70
     1
 43
0.0
 10
-5900.629322330736
 20
897.668434252977
 10
-5800.629322330737
 20
897.668434252977
 42
0.4142135623730951
 10
-5795.629322330737
 20
902.6684342529771
 10
-5795.629322330737
 20
1002.668434252977
 42
0.4142135623730951
 10
-5800.629322330737
 20
1007.668434252977
 10
-5900.629322330736
 20
1007.668434252977
 42
0.4142135623730951
 10
-5905.629322330736
 20
1002.668434252977
 10
-5905.629322330736
 20
902.6684342529771
 42
0.4142135623730951
  0
LINE
  5
220
330
1ED
100
AcDbEntity
  8
0
100
AcDbLine
 10
-6071.43189408334
 20
945.4670878833494
 30
0.0
 11
-5905.629322330736
 21
945.4670878833494
 31
0.0
  0
LINE
  5
221
330
1ED
100
AcDbEntity
  8
0
100
AcDbLine
 10
-5905.568626086118
 20
925.4891592450293
 30
0.0
 11
-6071.43189408334
 21
925.4891592450293
 31
0.0
  0
LINE
  5
222
330
1ED
100
AcDbEntity
  8
0
100
AcDbLine
 10
-6071.43189408334
 20
925.4891592450293
 30
0.0
 11
-6071.43189408334
 21
945.4670878833494
 31
0.0
  0
LINE
  5
223
330
1ED
100
AcDbEntity
  8
0
100
AcDbLine
 10
-4865.839778285888
 20
303.120139553841
 30
0.0
 11
-4896.120193000337
 21
144.6746256984588
 31
0.0
  0
LINE
  5
224
330
1ED
100
AcDbEntity
  8
0
100
AcDbLine
 10
-4875.988719435852
 20
141.0324237912536
 30
0.0
 11
-4845.910110125122
 21
299.0663079105033
 31
0.0
  0
LINE
  5
225
330
1ED
100
AcDbEntity
  8
0
100
AcDbLine
 10
-4299.852626237836
 20
301.8356658569209
 30
0.0
 11
-4283.816851477582
 21
144.0368184820508
 31
0.0
  0
LINE
  5
226
330
1ED
100
AcDbEntity
  8
0
100
AcDbLine
 10
-4303.783864739736
 20
142.3414669451049
 30
0.0
 11
-4319.773234570202
 21
299.6836700639505
 31
0.0
  0
LINE
  5
227
330
1ED
100
AcDbEntity
  8
0
100
AcDbLine
 10
-4546.951152396512
 20
299.6836700639505
 30
0.0
 11
-4562.959932450562
 21
142.1504620853556
 31
0.0
  0
LINE
  5
228
330
1ED
100
AcDbEntity
  8
0
100
AcDbLine
 10
-4582.893378307061
 20
144.1761311777991
 30
0.0
 11
-4566.871760728863
 21
301.8356658569136
 31
0.0
  0
LINE
  5
229
330
1ED
100
AcDbEntity
  8
0
100
AcDbLine
 10
-4871.79112396617
 20
135.9394655608375
 30
0.0
 11
-4592.000939579717
 21
135.9394655608375
 31
0.0
  0
LINE
  5
22A
330
1ED
100
AcDbEntity
  8
0
100
AcDbLine
 10
-4871.79112396617
 20
115.9356890070739
 30
0.0
 11
-4592.000939579717
 21
115.9356890070739
 31
0.0
  0
LINE
  5
22B
330
1ED
100
AcDbEntity
  8
0
100
AcDbLine
 10
-4902.535820470984
 20
111.1041676688655
 30
0.0
 11
-4943.791891880326
 21
-104.7726456361669
 31
0.0
  0
LINE
  5
22C
330
1ED
100
AcDbEntity
  8
0
100
AcDbLine
 10
-4923.788115326555
 20
-110.1069860505049
 30
0.0
 11
-4882.451612266981
 21
107.0761977504625
 31
0.0
  0
LINE
  5
22D
330
1ED
100
AcDbEntity
  8
0
100
AcDbLine
 10
-4943.791891880326
 20
-104.7726456361669
 30
0.0
 11
-4923.788115326555
 21
-110.1069860505049
 31
0.0
  0
CIRCLE
  5
22E
102
{ACAD_REACTORS
330
1F4
102
}
330
1ED
100
AcDbEntity
  8
0
100
AcDbCircle
 10
-4889.114902633366
 20
125.9375772839557
 30
0.0
 40
20.00377655377027
  0
LINE
  5
22F
330
1ED
100
AcDbEntity
  8
0
100
AcDbLine
 10
-4557.353382245325
 20
135.9394655608375
 30
0.0
 11
-4309.659347446497
 21
135.9394655608375
 31
0.0
  0
LINE
  5
230
330
1ED
100
AcDbEntity
  8
0
100
AcDbLine
 10
-4557.353382245325
 20
115.9356890070739
 30
0.0
 11
-4306.338212366921
 21
115.9356890070739
 31
0.0
  0
LINE
  5
231
330
1ED
100
AcDbEntity
  8
0
100
AcDbLine
 10
-4566.460943517966
 20
107.6990233901124
 30
0.0
 11
-4588.391461775063
 21
-108.7734009469168
 31
0.0
  0
LINE
  5
232
330
1ED
100
AcDbEntity
  8
0
100
AcDbLine
 10
-4608.39523832882
 20
-106.1062307397478
 30
0.0
 11
-4586.39438937448
 21
109.7246924825631
 31
0.0
  0
LINE
  5
233
330
1ED
100
AcDbEntity
  8
0
100
AcDbLine
 10
-4588.391461775063
 20
-108.7734009469168
 30
0.0
 11
-4608.39523832882
 21
-106.1062307397478
 31
0.0
  0
CIRCLE
  5
234
102
{ACAD_REACTORS
330
1F4
102
}
330
1ED
100
AcDbEntity
  8
0
100
AcDbCircle
 10
-4574.67716091252
 20
125.9375772839557
 30
0.0
 40
20.00377655377027
  0
LINE
  5
235
330
1ED
100
AcDbEntity
  8
0
100
AcDbLine
 10
-4258.329148637894
 20
-106.1062307397478
 30
0.0
 11
-4280.35004930583
 21
109.9220098770711
 31
0.0
  0
LINE
  5
236
330
1ED
100
AcDbEntity
  8
0
100
AcDbLine
 10
-4300.249927756719
 20
107.5660232291229
 30
0.0
 11
-4278.332925191651
 21
-108.1066083951263
 31
0.0
  0
LINE
  5
237
330
1ED
100
AcDbEntity
  8
0
100
AcDbLine
 10
-4278.332925191651
 20
-108.1066083951263
 30
0.0
 11
-4258.329148637894
 21
-106.1062307397478
 31
0.0
  0
CIRCLE
  5
238
102
{ACAD_REACTORS
330
1F4
102
}
330
1ED
100
AcDbEntity
  8
0
100
AcDbCircle
 10
-4292.335568779301
 20
125.9375772839557
 30
0.0
 40
20.00377655377027
  0
CIRCLE
  5
239
102
{ACAD_REACTORS
330
1F4
102
}
330
1ED
100
AcDbEntity
  8
0
100
AcDbCircle
 10
-4852.441312284784
 20
317.9738322001249
 30
0.0
 40
20.00377655377027
  0
LINE
  5
23A
330
1ED
100
AcDbEntity
  8
0
100
AcDbLine
 10
-4803.057313613543
 20
524.2161414062247
 30
0.0
 11
-4772.557518739289
 21
684.4629466698206
 31
0.0
  0
LINE
  5
23B
330
1ED
100
AcDbEntity
  8
0
100
AcDbLine
 10
-4426.490584081745
 20
683.5002219248817
 30
0.0
 11
-4425.786004251299
 21
527.083499564982
 31
0.0
  0
LINE
  5
23C
330
1ED
100
AcDbEntity
  8
0
100
AcDbLine
 10
-4444.398070047442
 20
527.0174247958093
 30
0.0
 11
-4444.75087629012
 21
683.6633965409819
 31
0.0
  0
LINE
  5
23D
330
1ED
100
AcDbEntity
  8
0
100
AcDbLine
 10
-4791.767576864796
 20
690.7108686519968
 30
0.0
 11
-4822.804725215487
 21
528.3056649780519
 31
0.0
  0
LINE
  5
23E
330
1ED
100
AcDbEntity
  8
0
100
AcDbLine
 10
-4527.498632788913
 20
491.1047406706602
 30
0.0
 11
-4543.437397644236
 21
334.2605120411353
 31
0.0
  0
CIRCLE
  5
23F
102
{ACAD_REACTORS
330
1F4
102
}
330
1ED
100
AcDbEntity
  8
0
100
AcDbCircle
 10
-4555.05183418544
 20
317.9738322001249
 30
0.0
 40
20.00377655377027
  0
CIRCLE
  5
240
102
{ACAD_REACTORS
330
1F4
102
}
330
1ED
100
AcDbEntity
  8
0
100
AcDbCircle
 10
-4535.714850183467
 20
509.3432945644999
 30
0.0
 40
20.00377655377027
  0
LINE
  5
241
330
1ED
100
AcDbEntity
  8
0
100
AcDbLine
 10
-4829.348195519189
 20
494.0662556289644
 30
0.0
 11
-4859.418253650051
 21
336.721455132083
 31
0.0
  0
LINE
  5
242
330
1ED
100
AcDbEntity
  8
0
100
AcDbLine
 10
-4839.421030512291
 20
333.1601200605037
 30
0.0
 11
-4809.456204994123
 21
490.5961808394313
 31
0.0
  0
LINE
  5
243
330
1ED
100
AcDbEntity
  8
0
100
AcDbLine
 10
-4563.383681024911
 20
336.159854433059
 30
0.0
 11
-4547.432078645426
 21
493.1304097631036
 31
0.0
  0
LINE
  5
244
330
1ED
100
AcDbEntity
  8
0
100
AcDbLine
 10
-4572.375612852637
 20
327.9757204770175
 30
0.0
 11
-4835.117533617601
 21
327.9757204770175
 31
0.0
  0
LINE
  5
245
330
1ED
100
AcDbEntity
  8
0
100
AcDbLine
 10
-4835.117533617601
 20
307.9719439232394
 30
0.0
 11
-4572.375612852637
 21
307.9719439232394
 31
0.0
  0
LINE
  5
246
330
1ED
100
AcDbEntity
  8
0
100
AcDbLine
 10
-4553.038628850663
 20
519.3451828413854
 30
0.0
 11
-4799.110735820817
 21
519.3451828413854
 31
0.0
  0
LINE
  5
247
330
1ED
100
AcDbEntity
  8
0
100
AcDbLine
 10
-4799.110735820817
 20
499.3414062876218
 30
0.0
 11
-4553.038628850663
 21
499.3414062876218
 31
0.0
  0
CIRCLE
  5
248
102
{ACAD_REACTORS
330
1F4
102
}
330
1ED
100
AcDbEntity
  8
0
100
AcDbCircle
 10
-4816.434514488014
 20
509.3432945644999
 30
0.0
 40
20.00377655377027
  0
LINE
  5
249
330
1ED
100
AcDbEntity
  8
0
100
AcDbLine
 10
-4319.292308321288
 20
493.1304097631036
 30
0.0
 11
-4303.340705941788
 21
336.159854433059
 31
0.0
  0
LINE
  5
24A
330
1ED
100
AcDbEntity
  8
0
100
AcDbLine
 10
-4323.286989322478
 20
334.2605120411353
 30
0.0
 11
-4339.225754177801
 21
491.1047406706675
 31
0.0
  0
LINE
  5
24B
330
1ED
100
AcDbEntity
  8
0
100
AcDbLine
 10
-4328.996331448456
 20
327.9757204770175
 30
0.0
 11
-4537.728055518244
 21
327.9757204770175
 31
0.0
  0
LINE
  5
24C
330
1ED
100
AcDbEntity
  8
0
100
AcDbLine
 10
-4537.728055518244
 20
307.9719439232394
 30
0.0
 11
-4328.996331448456
 21
307.9719439232394
 31
0.0
  0
CIRCLE
  5
24D
102
{ACAD_REACTORS
330
1F4
102
}
330
1ED
100
AcDbEntity
  8
0
100
AcDbCircle
 10
-4311.672552781273
 20
317.9738322001249
 30
0.0
 40
20.00377655377027
  0
LINE
  5
24E
330
1ED
100
AcDbEntity
  8
0
100
AcDbLine
 10
-4417.705396195648
 20
519.3451828413854
 30
0.0
 11
-4348.333315450443
 21
519.3451828413854
 31
0.0
  0
LINE
  5
24F
330
1ED
100
AcDbEntity
  8
0
100
AcDbLine
 10
-4417.705396195648
 20
499.3414062876218
 30
0.0
 11
-4348.333315450443
 21
499.3414062876218
 31
0.0
  0
LINE
  5
250
330
1ED
100
AcDbEntity
  8
0
100
AcDbLine
 10
-4518.391071516271
 20
519.3451828413854
 30
0.0
 11
-4452.352953530041
 21
519.3451828413854
 31
0.0
  0
LINE
  5
251
330
1ED
100
AcDbEntity
  8
0
100
AcDbLine
 10
-4518.391071516271
 20
499.3414062876218
 30
0.0
 11
-4452.352953530041
 21
499.3414062876218
 31
0.0
  0
CIRCLE
  5
252
102
{ACAD_REACTORS
330
1F4
102
}
330
1ED
100
AcDbEntity
  8
0
100
AcDbCircle
 10
-4435.029174862844
 20
509.3432945644999
 30
0.0
 40
20.00377655377027
  0
CIRCLE
  5
253
102
{ACAD_REACTORS
330
1F4
102
}
330
1ED
100
AcDbEntity
  8
0
100
AcDbCircle
 10
-4331.009536783247
 20
509.3432945644999
 30
0.0
 40
20.00377655377027
  0
ARC
  5
254
330
1ED
100
AcDbEntity
  8
0
100
AcDbCircle
 10
-4779.760924139431
 20
701.3795494806654
 30
0.0
 40
20.00377655376609
100
AcDbArc
 50
212.2309526354225
 51
327.7690473645774
  0
ARC
  5
255
330
1ED
100
AcDbEntity
  8
0
100
AcDbCircle
 10
-4435.46168895049
 20
701.3795494806654
 30
0.0
 40
20.00377655377027
100
AcDbArc
 50
212.2309526354225
 51
327.7690473645774
  0
LINE
  5
256
330
1ED
100
AcDbEntity
  8
0
100
AcDbLine
 10
-5922.29433378332
 20
1262.689181995559
 30
0.0
 11
-6948.137739211546
 21
1262.689181995559
 31
0.0
  0
LINE
  5
257
330
1ED
100
AcDbEntity
  8
0
100
AcDbLine
 10
-5922.29433378332
 20
1278.689181995559
 30
0.0
 11
-6948.137739211546
 21
1278.689181995559
 31
0.0
  0
LINE
  5
258
330
1ED
100
AcDbEntity
  8
0
100
AcDbLine
 10
-6920.261559716215
 20
1555.955418831123
 30
0.0
 11
-5905.629322330736
 21
1555.955418831123
 31
0.0
  0
LINE
  5
259
330
1ED
100
AcDbEntity
  8
0
100
AcDbLine
 10
-6920.261559716215
 20
1575.93334746945
 30
0.0
 11
-5905.629322330736
 21
1575.93334746945
 31
0.0
  0
LINE
  5
25A
330
1ED
100
AcDbEntity
  8
0
100
AcDbLine
 10
-5905.629322330736
 20
1595.91127610777
 30
0.0
 11
-6920.261559716215
 21
1595.91127610777
 31
0.0
  0
HATCH
  5
25B
330
1ED
100
AcDbEntity
  8
0
 62
    10
100
AcDbHatch
 10
0.0
 20
0.0
 30
0.0
210
0.0
220
0.0
230
1.0
  2
SOLID
 70
     1
 71
     0
 91
        1
 92
        7
 72
     1
 73
     1
 93
        4
 10
-5922.29433378332
 20
1278.689181995559
 42
0.0
 10
-6948.137739211546
 20
1278.689181995559
 42
1.0
 10
-6948.137739211546
 20
1262.689181995559
 42
0.0
 10
-5922.29433378332
 20
1262.689181995559
 42
0.0
 97
        0
 75
     0
 76
     1
 47
2.692802199520468
 98
        1
 10
-6340.264394446822
 20
1277.324342656189
  0
LINE
  5
25C
330
1ED
100
AcDbEntity
  8
0
100
AcDbLine
 10
-6853.15128036854
 20
1278.689181995559
 30
0.0
 11
-6853.15128036854
 21
1555.955418831115
 31
0.0
  0
LINE
  5
25D
330
1ED
100
AcDbEntity
  8
0
100
AcDbLine
 10
-6862.036902230764
 20
1278.689181995559
 30
0.0
 11
-6862.03690223075
 21
1555.955418831115
 31
0.0
  0
ARC
  5
25E
330
1ED
100
AcDbEntity
  8
0
100
AcDbCircle
 10
-6948.137739211546
 20
1270.689181995559
 30
0.0
 40
8.0
100
AcDbArc
 50
90.0
 51
270.0
  0
LINE
  5
25F
330
1ED
100
AcDbEntity
  8
0
100
AcDbLine
 10
-6920.261559716215
 20
1595.91127610777
 30
0.0
 11
-6920.261559716215
 21
1575.93334746945
 31
0.0
  0
LINE
  5
260
330
1ED
100
AcDbEntity
  8
0
100
AcDbLine
 10
-6920.261559716215
 20
1575.93334746945
 30
0.0
 11
-6920.261559716215
 21
1555.955418831123
 31
0.0
  0
ARC
  5
261
102
{ACAD_REACTORS
330
263
102
}
330
1ED
100
AcDbEntity
  8
0
100
AcDbCircle
 10
-5305.65523366494
 20
1640.878015030612
 30
0.0
 40
597.5874547885669
100
AcDbArc
 50
20.58403729458416
 51
179.805541578853
  0
ARC
  5
262
102
{ACAD_REACTORS
330
263
102
}
330
1ED
100
AcDbEntity
  8
0
100
AcDbCircle
 10
-5309.779778733769
 20
1645.248111068016
 30
0.0
 40
492.8898355634428
100
AcDbArc
 50
24.67028999200136
 51
180.1183514774642
  0
HATCH
  5
263
330
1ED
100
AcDbEntity
  8
0
 62
    70
100
AcDbHatch
 10
0.0
 20
0.0
 30
0.0
210
0.0
220
0.0
230
1.0
  2
SOLID
 70
     1
 71
     1
 91
       12
 92
        7
 72
     1
 73
     1
 93
        4
 10
-4862.163146668083
 20
1851.596701322297
 42
0.0
 10
-4746.451870506077
 20
1851.596701322297
 42
0.8321255136302411
 10
-5903.234832295732
 20
1643.942231233937
 42
0.0
 10
-5802.667884371973
 20
1643.942231233937
 42
-0.8054755908513589
 97
        4
330
272
330
262
330
201
330
261
 92
       22
 72
     1
 73
     1
 93
        2
 10
-5085.079742940176
 20
2152.505660031231
 42
-1.0
 10
-5134.327660048595
 20
2152.505660031231
 42
-1.0
 97
        1
330
283
 92
       22
 72
     1
 73
     1
 93
        2
 10
-5263.022688718713
 20
2184.098663459277
 42
-1.0
 10
-5213.774771610292
 20
2184.098663459277
 42
-1.0
 97
        1
330
280
 92
       22
 72
     1
 73
     1
 93
        2
 10
-4967.535186068188
 20
2090.713462149913
 42
-1.0
 10
-5016.783103176607
 20
2090.713462149913
 42
-1.0
 97
        1
330
281
 92
       22
 72
     1
 73
     1
 93
        2
 10
-5395.434541321545
 20
2184.098663459277
 42
-1.0
 10
-5346.186624213125
 20
2184.098663459277
 42
-1.0
 97
        1
330
27E
 92
       22
 72
     1
 73
     1
 93
        2
 10
-4868.574748859759
 20
2002.903496739614
 42
-1.0
 10
-4917.822665968179
 20
2002.903496739614
 42
-1.0
 97
        1
330
282
 92
       22
 72
     1
 73
     1
 93
        2
 10
-5524.129569991663
 20
2152.505660031231
 42
-1.0
 10
-5474.881652883244
 20
2152.505660031231
 42
-1.0
 97
        1
330
27F
 92
       22
 72
     1
 73
     1
 93
        2
 10
-4793.309064222358
 20
1893.721793716235
 42
-1.0
 10
-4842.556981330777
 20
1893.721793716235
 42
-1.0
 97
        1
330
278
 92
       22
 72
     1
 73
     1
 93
        2
 10
-5641.209523872046
 20
2090.713462149913
 42
-1.0
 10
-5591.961606763627
 20
2090.713462149913
 42
-1.0
 97
        1
330
276
 92
       22
 72
     1
 73
     1
 93
        2
 10
-5741.099167063651
 20
2002.903496739614
 42
-1.0
 10
-5690.922043972058
 20
2002.903496739614
 42
-1.0
 97
        1
330
277
 92
       22
 72
     1
 73
     1
 93
        2
 10
-5766.187728609459
 20
1893.721793716235
 42
-1.0
 10
-5816.364851701053
 20
1893.721793716235
 42
-1.0
 97
        1
330
265
 92
       22
 72
     1
 73
     1
 93
        2
 10
-5813.112630759937
 20
1769.672794962003
 42
-1.0
 10
-5863.289753851535
 20
1769.672794962003
 42
-1.0
 97
        1
330
273
 75
     0
 76
     1
 47
4.964459576902267
 98
       12
 10
-5172.501538940844
 20
2137.857481536259
 10
-5172.501538940844
 20
2137.857481536259
 10
-5172.501538940844
 20
2137.857481536259
 10
-5172.501538940844
 20
2137.857481536259
 10
-5172.501538940844
 20
2137.857481536259
 10
-5172.501538940844
 20
2137.857481536259
 10
-5172.501538940844
 20
2137.857481536259
 10
-5172.501538940844
 20
2137.857481536259
 10
-5172.501538940844
 20
2137.857481536259
 10
-5172.501538940844
 20
2137.857481536259
 10
-5172.501538940844
 20
2137.857481536259
 10
-5172.501538940844
 20
2137.857481536259
  0
HATCH
  5
264
330
1ED
100
AcDbEntity
  8
0
 62
    50
100
AcDbHatch
 10
0.0
 20
0.0
 30
0.0
210
0.0
220
0.0
230
1.0
  2
SOLID
 70
     1
 71
     1
 91
       11
 92
        7
 72
     1
 73
     1
 93
        2
 10
-4793.309064222358
 20
1893.721793716235
 42
1.0
 10
-4842.556981330777
 20
1893.721793716235
 42
1.0
 97
        1
330
278
 92
        7
 72
     1
 73
     1
 93
        2
 10
-4868.574748859759
 20
2002.903496739614
 42
1.0
 10
-4917.822665968179
 20
2002.903496739614
 42
1.0
 97
        1
330
282
 92
        7
 72
     1
 73
     1
 93
        2
 10
-4967.535186068188
 20
2090.713462149913
 42
1.0
 10
-5016.783103176607
 20
2090.713462149913
 42
1.0
 97
        1
330
281
 92
        7
 72
     1
 73
     1
 93
        2
 10
-5085.079742940176
 20
2152.505660031231
 42
1.0
 10
-5134.327660048595
 20
2152.505660031231
 42
1.0
 97
        1
330
283
 92
        7
 72
     1
 73
     1
 93
        2
 10
-5213.774771610292
 20
2184.098663459277
 42
1.0
 10
-5263.022688718713
 20
2184.098663459277
 42
1.0
 97
        1
330
280
 92
        7
 72
     1
 73
     1
 93
        2
 10
-5346.186624213125
 20
2184.098663459277
 42
1.0
 10
-5395.434541321545
 20
2184.098663459277
 42
1.0
 97
        1
330
27E
 92
        7
 72
     1
 73
     1
 93
        2
 10
-5474.881652883244
 20
2152.505660031231
 42
1.0
 10
-5524.129569991663
 20
2152.505660031231
 42
1.0
 97
        1
330
27F
 92
        7
 72
     1
 73
     1
 93
        2
 10
-5591.961606763627
 20
2090.713462149913
 42
1.0
 10
-5641.209523872046
 20
2090.713462149913
 42
1.0
 97
        1
330
276
 92
        7
 72
     1
 73
     1
 93
        2
 10
-5690.922043972058
 20
2002.903496739614
 42
1.0
 10
-5741.099167063651
 20
2002.903496739614
 42
1.0
 97
        1
330
277
 92
        7
 72
     1
 73
     1
 93
        2
 10
-5766.187728609459
 20
1893.721793716235
 42
1.0
 10
-5816.364851701053
 20
1893.721793716235
 42
1.0
 97
        1
330
265
 92
        7
 72
     1
 73
     1
 93
        2
 10
-5813.112630759937
 20
1769.672794962003
 42
1.0
 10
-5863.289753851535
 20
1769.672794962003
 42
1.0
 97
        1
330
273
 75
     0
 76
     1
 47
5.023106726455871
 98
       11
 10
-4817.237749415006
 20
1885.54313224741
 10
-4887.634717153989
 20
1996.051488489021
 10
-4998.258252209598
 20
2086.467486816596
 10
-5103.85359827699
 20
2156.790905679045
 10
-5234.590522531965
 20
2186.929608713406
 10
-5375.384246927766
 20
2181.90649154102
 10
-5496.064582124141
 20
2146.744782109796
 10
-5611.716517250133
 20
2086.467486816596
 10
-5717.311863317526
 20
2006.097722833808
 10
-5787.708831056509
 20
1895.589366592197
 10
-5848.048998654725
 20
1764.98865243655
  0
CIRCLE
  5
265
102
{ACAD_REACTORS
330
263
330
264
102
}
330
1ED
100
AcDbEntity
  8
0
100
AcDbCircle
 10
-5791.276290155256
 20
1893.721793716235
 30
0.0
 40
25.08856154579734
  0
LINE
  5
266
330
1ED
100
AcDbEntity
  8
0
100
AcDbLine
 10
-6187.712600736624
 20
1278.689181995559
 30
0.0
 11
-6187.712600736624
 21
1555.955418831115
 31
0.0
  0
LINE
  5
267
330
1ED
100
AcDbEntity
  8
0
100
AcDbLine
 10
-6300.469482868742
 20
1278.689181995559
 30
0.0
 11
-6300.469482868742
 21
1555.955418831115
 31
0.0
  0
LINE
  5
268
330
1ED
100
AcDbEntity
  8
0
100
AcDbLine
 10
-6505.379230855201
 20
1278.689181995559
 30
0.0
 11
-6505.379230855201
 21
1555.955418831115
 31
0.0
  0
LINE
  5
269
330
1ED
100
AcDbEntity
  8
0
100
AcDbLine
 10
-6406.917944853173
 20
1278.689181995559
 30
0.0
 11
-6406.917944853173
 21
1555.955418831115
 31
0.0
  0
LINE
  5
26A
330
1ED
100
AcDbEntity
  8
0
100
AcDbLine
 10
-6594.300547576633
 20
1278.689181995559
 30
0.0
 11
-6594.300547576633
 21
1555.955418831115
 31
0.0
  0
LINE
  5
26B
330
1ED
100
AcDbEntity
  8
0
100
AcDbLine
 10
-6672.279552733737
 20
1278.689181995559
 30
0.0
 11
-6672.279552733737
 21
1555.955418831115
 31
0.0
  0
LINE
  5
26C
330
1ED
100
AcDbEntity
  8
0
100
AcDbLine
 10
-6738.086470832823
 20
1278.689181995559
 30
0.0
 11
-6738.086470832823
 21
1555.955418831115
 31
0.0
  0
LINE
  5
26D
330
1ED
100
AcDbEntity
  8
0
100
AcDbLine
 10
-6790.683487464303
 20
1278.689181995559
 30
0.0
 11
-6790.683487464303
 21
1555.955418831115
 31
0.0
  0
LINE
  5
26E
330
1ED
100
AcDbEntity
  8
0
100
AcDbLine
 10
-6829.241116255966
 20
1278.689181995559
 30
0.0
 11
-6829.241116255966
 21
1555.955418831115
 31
0.0
  0
LINE
  5
26F
330
1ED
100
AcDbEntity
  8
0
100
AcDbLine
 10
-5950.457993178636
 20
1278.689181995559
 30
0.0
 11
-5950.457993178636
 21
1555.955418831115
 31
0.0
  0
LINE
  5
270
330
1ED
100
AcDbEntity
  8
0
100
AcDbLine
 10
-6070.425541845711
 20
1278.689181995559
 30
0.0
 11
-6070.425541845711
 21
1555.955418831115
 31
0.0
  0
LWPOLYLINE
  5
271
330
1ED
100
AcDbEntity
  8
0
100
AcDbPolyline
 90
        4
 70
     1
 43
0.0
 10
-5902.316405144993
 20
1260.932519172194
 10
-5922.29433378332
 20
1260.932519172194
 10
-5922.29433378332
 20
1280.910447810514
 10
-5902.316405144993
 20
1280.910447810514
  0
LWPOLYLINE
  5
272
102
{ACAD_REACTORS
330
263
330
215
102
}
330
1ED
100
AcDbEntity
  8
0
100
AcDbPolyline
 90
        8
 70
     1
 43
0.0
 10
-5900.629322330736
 20
1533.942231233937
 10
-5800.629322330737
 20
1533.942231233937
 42
0.4142135623730951
 10
-5795.629322330737
 20
1538.942231233937
 10
-5795.629322330737
 20
1638.942231233937
 42
0.4142135623730951
 10
-5800.629322330737
 20
1643.942231233937
 10
-5900.629322330736
 20
1643.942231233937
 42
0.4142135623730951
 10
-5905.629322330736
 20
1638.942231233937
 10
-5905.629322330736
 20
1538.942231233937
 42
0.4142135623730951
  0
CIRCLE
  5
273
102
{ACAD_REACTORS
330
263
330
264
102
}
330
1ED
100
AcDbEntity
  8
0
100
AcDbCircle
 10
-5838.201192305736
 20
1769.672794962003
 30
0.0
 40
25.08856154579916
  0
LINE
  5
274
330
1ED
100
AcDbEntity
  8
0
100
AcDbLine
 10
-5905.568626086118
 20
1615.88920474609
 30
0.0
 11
-6071.43189408334
 21
1615.88920474609
 31
0.0
  0
LINE
  5
275
330
1ED
100
AcDbEntity
  8
0
100
AcDbLine
 10
-6071.43189408334
 20
1615.88920474609
 30
0.0
 11
-6071.43189408334
 21
1595.91127610777
 31
0.0
  0
CIRCLE
  5
276
102
{ACAD_REACTORS
330
263
330
264
102
}
330
1ED
100
AcDbEntity
  8
0
100
AcDbCircle
 10
-5616.585565317837
 20
2090.713462149913
 30
0.0
 40
24.62395855420982
  0
CIRCLE
  5
277
102
{ACAD_REACTORS
330
263
330
264
102
}
330
1ED
100
AcDbEntity
  8
0
100
AcDbCircle
 10
-5716.010605517855
 20
2002.903496739614
 30
0.0
 40
25.08856154579734
  0
CIRCLE
  5
278
102
{ACAD_REACTORS
330
263
330
264
102
}
330
1ED
100
AcDbEntity
  8
0
100
AcDbCircle
 10
-4817.933022776568
 20
1893.721793716235
 30
0.0
 40
24.62395855420982
  0
ARC
  5
279
102
{ACAD_REACTORS
330
202
330
27A
102
}
330
1ED
100
AcDbEntity
  8
0
100
AcDbCircle
 10
-4436.029363690519
 20
1669.642446894955
 30
0.0
 40
250.6338872619529
100
AcDbArc
 50
46.55012262332018
 51
133.4498773766798
  0
HATCH
  5
27A
330
1ED
100
AcDbEntity
  8
0
 62
   250
100
AcDbHatch
 10
0.0
 20
0.0
 30
0.0
210
0.0
220
0.0
230
1.0
  2
SOLID
 70
     1
 71
     1
 91
        1
 92
        7
 72
     1
 73
     1
 93
        2
 10
-4263.663489052216
 20
1851.596701322297
 42
0.3984526112186032
 10
-4608.395238328821
 20
1851.596701322297
 42
0.0
 97
        2
330
201
330
279
 75
     0
 76
     1
 47
3.366206442624165
 98
        1
 10
-4409.829952841966
 20
1878.737707761131
  0
LINE
  5
27B
330
1ED
100
AcDbEntity
  8
0
100
AcDbLine
 10
-4711.081291304835
 20
1859.598211943812
 30
0.0
 11
-4698.150376586862
 21
1859.598211943812
 31
0.0
  0
LINE
  5
27C
330
1ED
100
AcDbEntity
  8
0
100
AcDbLine
 10
-4677.164731678836
 20
1884.936328911913
 30
0.0
 11
-4711.081291304835
 21
1884.936328911913
 31
0.0
  0
LINE
  5
27D
330
1ED
100
AcDbEntity
  8
0
100
AcDbLine
 10
-4711.081291304835
 20
1884.936328911913
 30
0.0
 11
-4711.081291304835
 21
1859.598211943812
 31
0.0
  0
CIRCLE
  5
27E
102
{ACAD_REACTORS
330
263
330
264
102
}
330
1ED
100
AcDbEntity
  8
0
100
AcDbCircle
 10
-5370.810582767336
 20
2184.098663459277
 30
0.0
 40
24.62395855420982
  0
CIRCLE
  5
27F
102
{ACAD_REACTORS
330
263
330
264
102
}
330
1ED
100
AcDbEntity
  8
0
100
AcDbCircle
 10
-5499.505611437452
 20
2152.505660031231
 30
0.0
 40
24.62395855420982
  0
CIRCLE
  5
280
102
{ACAD_REACTORS
330
263
330
264
102
}
330
1ED
100
AcDbEntity
  8
0
100
AcDbCircle
 10
-5238.398730164503
 20
2184.098663459277
 30
0.0
 40
24.62395855420982
  0
CIRCLE
  5
281
102
{ACAD_REACTORS
330
263
330
264
102
}
330
1ED
100
AcDbEntity
  8
0
100
AcDbCircle
 10
-4992.159144622398
 20
2090.713462149913
 30
0.0
 40
24.62395855420982
  0
CIRCLE
  5
282
102
{ACAD_REACTORS
330
263
330
264
102
}
330
1ED
100
AcDbEntity
  8
0
100
AcDbCircle
 10
-4893.198707413969
 20
2002.903496739614
 30
0.0
 40
24.62395855420982
  0
CIRCLE
  5
283
102
{ACAD_REACTORS
330
263
330
264
102
}
330
1ED
100
AcDbEntity
  8
0
100
AcDbCircle
 10
-5109.703701494385
 20
2152.505660031231
 30
0.0
 40
24.62395855420982
  0
LINE
  5
284
330
1ED
100
AcDbEntity
  8
0
100
AcDbLine
 10
-2092.586940416651
 20
1067.448660414611
 30
0.0
 11
-2083.918637243354
 21
1053.446016826976
 31
0.0
  0
ARC
  5
285
330
1ED
100
AcDbEntity
  8
0
100
AcDbCircle
 10
-4037.372948700525
 20
1269.486803607662
 30
0.0
 40
309.1438787374797
100
AcDbArc
 50
306.0174788173781
 51
53.98252118262187
  0
HATCH
  5
286
330
1ED
100
AcDbEntity
  8
0
 62
    50
100
AcDbHatch
 10
0.0
 20
0.0
 30
0.0
210
0.0
220
0.0
230
1.0
  2
SOLID
 70
     1
 71
     0
 91
        3
 92
        7
 72
     1
 73
     1
 93
       22
 10
-2182.270538632706
 20
1270.820388711323
 42
0.0
 10
-2180.603557253234
 20
1362.837760858583
 42
0.0
 10
-2173.268839183518
 20
1400.844936310735
 42
0.0
 10
-2155.932232836923
 20
1428.183430934219
 42
0.0
 10
-2131.260908420598
 20
1448.85400003978
 42
0.0
 10
-2104.589206348908
 20
1464.190228731004
 42
0.0
 10
-2090.586562761273
 20
1477.526079766849
 42
0.0
 10
-2083.251844691556
 20
1491.528723354487
 42
0.0
 10
-2080.584674484394
 20
1507.531744597501
 42
0.0
 10
-2080.584674484394
 20
1520.200803081555
 42
0.0
 10
-3855.586447355374
 20
1520.200803081548
 42
0.0
 10
-3855.586447355374
 20
1519.534010529758
 42
-0.5047677450341376
 10
-3851.973231344287
 20
1022.106766892739
 42
0.0
 10
-2080.584674484394
 20
1022.106766892739
 42
0.0
 10
-2080.584674484394
 20
1034.775825376793
 42
0.0
 10
-2083.918637243354
 20
1053.446016826976
 42
0.0
 10
-2092.586940416651
 20
1067.448660414607
 42
0.0
 10
-2104.589206348922
 20
1077.450548691496
 42
0.0
 10
-2131.260908420598
 20
1093.45356993451
 42
0.0
 10
-2160.599780699463
 20
1119.458479454402
 42
0.0
 10
-2175.269216838896
 20
1147.463766629684
 42
0.0
 10
-2180.603557253234
 20
1179.469809115715
 42
0.0
 97
        0
 92
       22
 72
     1
 73
     1
 93
        2
 10
-3855.586447355374
 20
1473.177784095769
 42
0.0
 10
-3855.586447355374
 20
1065.795823119562
 42
0.4582969605586812
 97
        0
 92
        7
 72
     1
 73
     1
 93
        5
 10
-3855.586447355374
 20
1519.534010529758
 42
0.0
 10
-3855.586447355374
 20
1473.177784095769
 42
-0.4582969605586812
 10
-3855.586447355374
 20
1065.795823119562
 42
0.0
 10
-3855.586447355374
 20
1022.106766892739
 42
0.0
 10
-3851.973231344287
 20
1022.106766892739
 42
0.5047677450341411
 97
        0
 75
     0
 76
     1
 47
4.472321723810398
 98
        3
 10
-2532.876229274385
 20
1246.191631714377
 10
-3816.972853464299
 20
1304.331776024861
 10
-3772.230778629419
 20
1366.944288624668
  0
HATCH
  5
287
330
1ED
100
AcDbEntity
  8
0
 62
    30
100
AcDbHatch
 10
0.0
 20
0.0
 30
0.0
210
0.0
220
0.0
230
1.0
  2
SOLID
 70
     1
 71
     0
 91
        2
 92
        7
 72
     0
 73
     1
 93
        4
 10
-2926.077630156978
 20
1539.537787083529
 10
-3855.586447355374
 20
1539.537787083529
 10
-3855.586447355374
 20
1520.200803081555
 10
-2926.077630156964
 20
1520.200803081555
 97
        0
 92
        7
 72
     1
 73
     1
 93
        5
 10
-2926.077630156978
 20
1022.106766892739
 42
0.0
 10
-3851.973231344287
 20
1022.106766892739
 42
-0.003631856113254
 10
-3855.586447355374
 20
1019.43959668557
 42
0.0
 10
-3855.586447355374
 20
1002.769782890766
 42
0.0
 10
-2926.077630156964
 20
1002.769782890758
 42
0.0
 97
        0
 75
     0
 76
     1
 47
3.387716884985549
 98
        2
 10
-3640.980522565827
 20
1528.849798885145
 10
-3549.416745958319
 20
1010.529107439215
  0
HATCH
  5
288
330
1ED
100
AcDbEntity
  8
0
 62
   150
100
AcDbHatch
 10
0.0
 20
0.0
 30
0.0
210
0.0
220
0.0
230
1.0
  2
SOLID
 70
     1
 71
     0
 91
        2
 92
        7
 72
     0
 73
     1
 93
        4
 10
-1996.568812958568
 20
1539.537787083529
 10
-2926.077630156964
 20
1539.537787083529
 10
-2926.077630156964
 20
1520.200803081555
 10
-1996.568812958568
 20
1520.200803081555
 97
        0
 92
        7
 72
     0
 73
     1
 93
        4
 10
-1996.568812958568
 20
1022.106766892739
 10
-2926.077630156978
 20
1022.106766892739
 10
-2926.077630156964
 20
1002.769782890758
 10
-1996.568812958568
 20
1002.769782890754
 97
        0
 75
     0
 76
     1
 47
2.231880503813954
 98
        2
 10
-2369.528380477473
 20
1530.730991290212
 10
-2472.30199914857
 20
1006.239028727257
  0
LINE
  5
289
330
1ED
100
AcDbEntity
  8
0
100
AcDbLine
 10
-1996.568812958568
 20
1022.106766892739
 30
0.0
 11
-3855.586447355374
 21
1022.106766892739
 31
0.0
  0
LINE
  5
28A
330
1ED
100
AcDbEntity
  8
0
100
AcDbLine
 10
-3855.586447355374
 20
1002.769782890766
 30
0.0
 11
-1996.568812958568
 21
1002.769782890751
 31
0.0
  0
LINE
  5
28B
330
1ED
100
AcDbEntity
  8
0
100
AcDbLine
 10
-3972.071786639899
 20
144.7241828617661
 30
0.0
 11
-4003.07024222354
 21
302.9551053931536
 31
0.0
  0
LINE
  5
28C
330
1ED
100
AcDbEntity
  8
0
100
AcDbLine
 10
-4022.773562565773
 20
299.052163520133
 30
0.0
 11
-3991.872199461278
 21
141.2015437811314
 31
0.0
  0
LINE
  5
28D
330
1ED
100
AcDbEntity
  8
0
100
AcDbLine
 10
-3922.91704586536
 20
-106.1850909425738
 30
0.0
 11
-3965.490951391133
 21
111.1324566665825
 31
0.0
  0
LINE
  5
28E
330
1ED
100
AcDbEntity
  8
0
100
AcDbLine
 10
-3985.1621281802
 20
106.9250975729628
 30
0.0
 11
-3942.936271640159
 21
-110.1069860505049
 31
0.0
  0
LINE
  5
28F
330
1ED
100
AcDbEntity
  8
0
100
AcDbLine
 10
-3942.936271640159
 20
-110.1069860505049
 30
0.0
 11
-3922.91704586536
 21
-106.1850909425738
 31
0.0
  0
CIRCLE
  5
290
102
{ACAD_REACTORS
330
1F4
102
}
330
1ED
100
AcDbEntity
  8
0
100
AcDbCircle
 10
-3978.943069436944
 20
125.9375772839557
 30
0.0
 40
20.00377655377027
  0
LINE
  5
291
330
1ED
100
AcDbEntity
  8
0
100
AcDbLine
 10
-4047.215338318878
 20
528.2927600887596
 30
0.0
 11
-4078.27563256806
 21
686.8393367039934
 31
0.0
  0
LINE
  5
292
330
1ED
100
AcDbEntity
  8
0
100
AcDbLine
 10
-4098.166853710027
 20
684.1768485069878
 30
0.0
 11
-4066.874503228063
 21
524.328983545045
 31
0.0
  0
LINE
  5
293
330
1ED
100
AcDbEntity
  8
0
100
AcDbLine
 10
-4009.714017284765
 20
336.868106451966
 30
0.0
 11
-4040.53884106718
 21
494.2127293413614
 31
0.0
  0
LINE
  5
294
330
1ED
100
AcDbEntity
  8
0
100
AcDbLine
 10
-4060.245628515062
 20
490.467306373026
 30
0.0
 11
-4029.429382819573
 21
333.0514841449294
 31
0.0
  0
CIRCLE
  5
295
102
{ACAD_REACTORS
330
1F4
102
}
330
1ED
100
AcDbEntity
  8
0
100
AcDbCircle
 10
-4016.283452337295
 20
317.9738322001249
 30
0.0
 40
20.00377655377027
  0
CIRCLE
  5
296
102
{ACAD_REACTORS
330
1F4
102
}
330
1ED
100
AcDbEntity
  8
0
100
AcDbCircle
 10
-4053.623835237675
 20
509.3432945644999
 30
0.0
 40
20.00377655377027
  0
ARC
  5
297
330
1ED
100
AcDbEntity
  8
0
100
AcDbCircle
 10
-4091.631010689823
 20
701.3795494806654
 30
0.0
 40
20.00377655376609
100
AcDbArc
 50
212.2309526354225
 51
327.7690473645774
  0
LINE
  5
298
330
1ED
100
AcDbEntity
  8
0
100
AcDbLine
 10
-2926.077630156964
 20
1002.769782890758
 30
0.0
 11
-2926.077630156978
 21
1022.106766892739
 31
0.0
  0
LINE
  5
299
330
1ED
100
AcDbEntity
  8
0
100
AcDbLine
 10
-2080.584674484394
 20
1034.775825376793
 30
0.0
 11
-2080.584674484394
 21
1022.106766892739
 31
0.0
  0
LINE
  5
29A
330
1ED
100
AcDbEntity
  8
0
100
AcDbLine
 10
-2083.918637243354
 20
1053.446016826976
 30
0.0
 11
-2080.584674484394
 21
1034.775825376793
 31
0.0
  0
LINE
  5
29B
330
1ED
100
AcDbEntity
  8
0
100
AcDbLine
 10
-1996.568812958568
 20
1002.769782890751
 30
0.0
 11
-1996.568812958568
 21
1022.106766892739
 31
0.0
  0
LINE
  5
29C
330
1ED
100
AcDbEntity
  8
0
100
AcDbLine
 10
-1996.568812958568
 20
1520.200803081555
 30
0.0
 11
-3855.586447355374
 21
1520.200803081555
 31
0.0
  0
LINE
  5
29D
330
1ED
100
AcDbEntity
  8
0
100
AcDbLine
 10
-3855.586447355374
 20
1539.537787083529
 30
0.0
 11
-1996.568812958568
 21
1539.537787083529
 31
0.0
  0
ARC
  5
29E
330
1ED
100
AcDbEntity
  8
0
100
AcDbCircle
 10
-4031.136946663297
 20
1269.486803607666
 30
0.0
 40
268.9014565588423
100
AcDbArc
 50
310.7563149165168
 51
49.24368508348315
  0
LINE
  5
29F
330
1ED
100
AcDbEntity
  8
0
100
AcDbLine
 10
-4160.977436076216
 20
1859.598211943812
 30
0.0
 11
-4174.100826994727
 21
1859.598211943812
 31
0.0
  0
LINE
  5
2A0
330
1ED
100
AcDbEntity
  8
0
100
AcDbLine
 10
-4160.977436076216
 20
1884.936328911913
 30
0.0
 11
-4160.977436076216
 21
1859.598211943812
 31
0.0
  0
LINE
  5
2A1
330
1ED
100
AcDbEntity
  8
0
100
AcDbLine
 10
-4195.086471902738
 20
1884.936328911913
 30
0.0
 11
-4160.977436076216
 21
1884.936328911913
 31
0.0
  0
LINE
  5
2A2
330
1ED
100
AcDbEntity
  8
0
100
AcDbLine
 10
-2926.077630156964
 20
1539.537787083529
 30
0.0
 11
-2926.077630156964
 21
1520.200803081555
 31
0.0
  0
LINE
  5
2A3
330
1ED
100
AcDbEntity
  8
0
100
AcDbLine
 10
-2083.251844691556
 20
1491.528723354484
 30
0.0
 11
-2090.586562761273
 21
1477.526079766852
 31
0.0
  0
LINE
  5
2A4
330
1ED
100
AcDbEntity
  8
0
100
AcDbLine
 10
-2180.603557253234
 20
1362.837760858583
 30
0.0
 11
-2182.270538632706
 21
1270.82038871125
 31
0.0
  0
LINE
  5
2A5
330
1ED
100
AcDbEntity
  8
0
100
AcDbLine
 10
-2180.603557253234
 20
1179.469809115715
 30
0.0
 11
-2175.269216838896
 21
1147.463766629687
 31
0.0
  0
LINE
  5
2A6
330
1ED
100
AcDbEntity
  8
0
100
AcDbLine
 10
-2160.599780699463
 20
1119.45847945441
 30
0.0
 11
-2131.260908420598
 21
1093.45356993451
 31
0.0
  0
LINE
  5
2A7
330
1ED
100
AcDbEntity
  8
0
100
AcDbLine
 10
-2175.269216838896
 20
1147.463766629687
 30
0.0
 11
-2160.599780699463
 21
1119.45847945441
 31
0.0
  0
LINE
  5
2A8
330
1ED
100
AcDbEntity
  8
0
100
AcDbLine
 10
-2104.589206348908
 20
1077.450548691496
 30
0.0
 11
-2092.586940416651
 21
1067.448660414611
 31
0.0
  0
LINE
  5
2A9
330
1ED
100
AcDbEntity
  8
0
100
AcDbLine
 10
-2131.260908420598
 20
1093.45356993451
 30
0.0
 11
-2104.589206348908
 21
1077.450548691496
 31
0.0
  0
LINE
  5
2AA
330
1ED
100
AcDbEntity
  8
0
100
AcDbLine
 10
-2182.270538632706
 20
1270.82038871125
 30
0.0
 11
-2180.603557253234
 21
1179.469809115715
 31
0.0
  0
LINE
  5
2AB
330
1ED
100
AcDbEntity
  8
0
100
AcDbLine
 10
-2173.268839183518
 20
1400.844936310739
 30
0.0
 11
-2180.603557253234
 21
1362.837760858583
 31
0.0
  0
LINE
  5
2AC
330
1ED
100
AcDbEntity
  8
0
100
AcDbLine
 10
-2131.260908420598
 20
1448.854000039784
 30
0.0
 11
-2155.932232836923
 21
1428.183430934223
 31
0.0
  0
LINE
  5
2AD
330
1ED
100
AcDbEntity
  8
0
100
AcDbLine
 10
-2155.932232836923
 20
1428.183430934223
 30
0.0
 11
-2173.268839183518
 21
1400.844936310739
 31
0.0
  0
LINE
  5
2AE
330
1ED
100
AcDbEntity
  8
0
100
AcDbLine
 10
-2104.589206348908
 20
1464.190228731004
 30
0.0
 11
-2131.260908420598
 21
1448.854000039784
 31
0.0
  0
LINE
  5
2AF
330
1ED
100
AcDbEntity
  8
0
100
AcDbLine
 10
-2090.586562761273
 20
1477.526079766852
 30
0.0
 11
-2104.589206348908
 21
1464.190228731004
 31
0.0
  0
LINE
  5
2B0
330
1ED
100
AcDbEntity
  8
0
100
AcDbLine
 10
-2080.584674484394
 20
1507.531744597501
 30
0.0
 11
-2083.251844691556
 21
1491.528723354484
 31
0.0
  0
LINE
  5
2B1
330
1ED
100
AcDbEntity
  8
0
100
AcDbLine
 10
-2080.584674484394
 20
1520.200803081555
 30
0.0
 11
-2080.584674484394
 21
1507.531744597501
 31
0.0
  0
LINE
  5
2B2
330
1ED
100
AcDbEntity
  8
0
100
AcDbLine
 10
-1996.568812958568
 20
1539.537787083529
 30
0.0
 11
-1996.568812958568
 21
1520.200803081555
 31
0.0
  0
ENDBLK
  5
1EF
330
1ED
100
AcDbEntity
  8
0
100
AcDbBlockEnd
  0
ENDSEC
  0
SECTION
  2
ENTITIES
  0
INSERT
  5
2B3
330
1F
100
AcDbEntity
  8
0
100
AcDbBlockReference
  2
ADKT
 10
8420.000017715741
 20
1616.353868173737
 30
0.0
  0
MTEXT
  5
2B4
330
1F
100
AcDbEntity
  8
0
100
AcDbMText
 10
2512.236382969335
 20
4693.896918886574
 30
0.0
 40
250.0
 41
138355.43
 71
     1
 72
     5
  1
{\Fisocp.shx;Hoogte:315cm\PVrije Valhoogte:90cm}
1001
ACAD
1000
MTEXTBEGIN
1070
    73
1070
     1
1070
    44
1040
1.0
1070
    74
1070
     0
1000
MTEXTEND
  0
MTEXT
  5
2B6
330
1F
100
AcDbEntity
  8
0
100
AcDbMText
 10
2512.236382969331
 20
4693.896918886578
 30
0.0
 40
2.5
 41
100.0
 71
     1
 72
     5
  1

1001
ACAD
1000
MTEXTBEGIN
1070
    73
1070
     1
1070
    44
1040
1.0
1070
    74
1070
     0
1000
MTEXTEND
  0
ENDSEC
  0
SECTION
  2
OBJECTS
  0
DICTIONARY
  5
C
330
0
100
AcDbDictionary
  3
ACAD_GROUP
350
D
  3
ACAD_LAYOUT
350
1A
  3
ACAD_MLINESTYLE
350
17
  3
ACAD_PLOTSETTINGS
350
19
  3
ACAD_PLOTSTYLENAME
350
E
  3
ACDBHEADERROUNDTRIPXREC
350
2B8
  0
DICTIONARY
  5
5D
330
2
100
AcDbDictionary
280
     1
  3
ACAD_LAYERSTATES
360
5E
  0
DICTIONARY
  5
2D9
330
1F
100
AcDbDictionary
280
     1
  3
ACAD_LAYOUTSELFREF
360
2DA
  0
DICTIONARY
  5
2DB
330
50
100
AcDbDictionary
280
     1
  3
ACAD_LAYOUTSELFREF
360
2DC
  0
DICTIONARY
  5
D
102
{ACAD_REACTORS
330
C
102
}
330
C
100
AcDbDictionary
  0
DICTIONARY
  5
1A
102
{ACAD_REACTORS
330
C
102
}
330
C
100
AcDbDictionary
  0
DICTIONARY
  5
17
102
{ACAD_REACTORS
330
C
102
}
330
C
100
AcDbDictionary
  3
STANDARD
350
18
  0
DICTIONARY
  5
19
102
{ACAD_REACTORS
330
C
102
}
330
C
100
AcDbDictionary
  0
ACDBDICTIONARYWDFLT
  5
E
102
{ACAD_REACTORS
330
C
102
}
330
C
100
AcDbDictionary
281
     1
  3
Normal
350
F
100
AcDbDictionaryWithDefault
340
F
  0
DICTIONARY
  5
2B8
102
{ACAD_REACTORS
330
C
102
}
330
C
100
AcDbDictionary
  3
CEPSNTYPE
350
2C2
  3
DIMSTYLEDATA
350
2C6
  3
FINGERPRINTGUID
350
2C3
  3
HYPERLINKBASE
350
2BB
  3
INSUNITS
350
2C1
  3
LAYOUTDICT
350
2BD
  3
LWETCUNION
350
2C0
  3
PLOTSETDICT
350
2BE
  3
PLOTSTYLNAMDICT
350
2BF
  3
PSVPSCALE
350
2C5
  3
PUCSBASE
350
2C9
  3
PUCSORGBACK
350
2CF
  3
PUCSORGBOTTOM
350
2CB
  3
PUCSORGFRONT
350
2CE
  3
PUCSORGLEFT
350
2CC
  3
PUCSORGRIGHT
350
2CD
  3
PUCSORGTOP
350
2CA
  3
PUCSORTHOREF
350
2C7
  3
PUCSORTHOVIEW
350
2C8
  3
STYLESHEET
350
2BC
  3
TSTACKALIGN
350
2B9
  3
TSTACKSIZE
350
2BA
  3
UCSBASE
350
2D2
  3
UCSORGBACK
350
2D8
  3
UCSORGBOTTOM
350
2D4
  3
UCSORGFRONT
350
2D7
  3
UCSORGLEFT
350
2D5
  3
UCSORGRIGHT
350
2D6
  3
UCSORGTOP
350
2D3
  3
UCSORTHOREF
350
2D0
  3
UCSORTHOVIEW
350
2D1
  3
VERSIONGUID
350
2C4
  0
DICTIONARY
  5
5E
102
{ACAD_REACTORS
330
5D
102
}
330
5D
100
AcDbDictionary
  0
XRECORD
  5
2DA
102
{ACAD_REACTORS
330
2D9
102
}
330
2D9
100
AcDbXrecord
340
1F
  0
XRECORD
  5
2DC
102
{ACAD_REACTORS
330
2DB
102
}
330
2DB
100
AcDbXrecord
340
50
  0
MLINESTYLE
  5
18
102
{ACAD_REACTORS
330
17
102
}
330
17
100
AcDbMlineStyle
  2
STANDARD
 70
     0
  3

 62
   256
 51
90.0
 52
90.0
 71
     2
 49
0.5
 62
   256
  6
BYLAYER
 49
-0.5
 62
   256
  6
BYLAYER
  0
ACDBPLACEHOLDER
  5
F
102
{ACAD_REACTORS
330
E
102
}
330
E
100
AcDbPlaceHolder
280
     0
  0
XRECORD
  5
2C2
102
{ACAD_REACTORS
330
2B8
102
}
330
2B8
100
AcDbXrecord
 90
        0
  0
XRECORD
  5
2C6
102
{ACAD_REACTORS
330
2B8
102
}
330
2B8
100
AcDbXrecord
1000
DSTYLE
1002
{
1070
   278
 70
    44
1002
}
  0
XRECORD
  5
2C3
102
{ACAD_REACTORS
330
2B8
102
}
330
2B8
100
AcDbXrecord
  1
{FDEAD578-A652-11D2-9A35-0060089B3A3F}
  0
XRECORD
  5
2BB
102
{ACAD_REACTORS
330
2B8
102
}
330
2B8
100
AcDbXrecord
  1

  0
XRECORD
  5
2C1
102
{ACAD_REACTORS
330
2B8
102
}
330
2B8
100
AcDbXrecord
 90
        4
  0
XRECORD
  5
2BD
102
{ACAD_REACTORS
330
2B8
102
}
330
2B8
100
AcDbXrecord
340
1A
  0
XRECORD
  5
2C0
102
{ACAD_REACTORS
330
2B8
102
}
330
2B8
100
AcDbXrecord
 90
    10781
  0
XRECORD
  5
2BE
102
{ACAD_REACTORS
330
2B8
102
}
330
2B8
100
AcDbXrecord
340
19
  0
XRECORD
  5
2BF
102
{ACAD_REACTORS
330
2B8
102
}
330
2B8
100
AcDbXrecord
340
E
  0
XRECORD
  5
2C5
102
{ACAD_REACTORS
330
2B8
102
}
330
2B8
100
AcDbXrecord
 40
0.0
  0
XRECORD
  5
2C9
102
{ACAD_REACTORS
330
2B8
102
}
330
2B8
100
AcDbXrecord
340
0
  0
XRECORD
  5
2CF
102
{ACAD_REACTORS
330
2B8
102
}
330
2B8
100
AcDbXrecord
 10
0.0
 20
0.0
 30
0.0
  0
XRECORD
  5
2CB
102
{ACAD_REACTORS
330
2B8
102
}
330
2B8
100
AcDbXrecord
 10
0.0
 20
0.0
 30
0.0
  0
XRECORD
  5
2CE
102
{ACAD_REACTORS
330
2B8
102
}
330
2B8
100
AcDbXrecord
 10
0.0
 20
0.0
 30
0.0
  0
XRECORD
  5
2CC
102
{ACAD_REACTORS
330
2B8
102
}
330
2B8
100
AcDbXrecord
 10
0.0
 20
0.0
 30
0.0
  0
XRECORD
  5
2CD
102
{ACAD_REACTORS
330
2B8
102
}
330
2B8
100
AcDbXrecord
 10
0.0
 20
0.0
 30
0.0
  0
XRECORD
  5
2CA
102
{ACAD_REACTORS
330
2B8
102
}
330
2B8
100
AcDbXrecord
 10
0.0
 20
0.0
 30
0.0
  0
XRECORD
  5
2C7
102
{ACAD_REACTORS
330
2B8
102
}
330
2B8
100
AcDbXrecord
340
0
  0
XRECORD
  5
2C8
102
{ACAD_REACTORS
330
2B8
102
}
330
2B8
100
AcDbXrecord
 70
     0
  0
XRECORD
  5
2BC
102
{ACAD_REACTORS
330
2B8
102
}
330
2B8
100
AcDbXrecord
  1

  0
XRECORD
  5
2B9
102
{ACAD_REACTORS
330
2B8
102
}
330
2B8
100
AcDbXrecord
 90
        1
  0
XRECORD
  5
2BA
102
{ACAD_REACTORS
330
2B8
102
}
330
2B8
100
AcDbXrecord
 90
       70
  0
XRECORD
  5
2D2
102
{ACAD_REACTORS
330
2B8
102
}
330
2B8
100
AcDbXrecord
340
0
  0
XRECORD
  5
2D8
102
{ACAD_REACTORS
330
2B8
102
}
330
2B8
100
AcDbXrecord
 10
0.0
 20
0.0
 30
0.0
  0
XRECORD
  5
2D4
102
{ACAD_REACTORS
330
2B8
102
}
330
2B8
100
AcDbXrecord
 10
0.0
 20
0.0
 30
0.0
  0
XRECORD
  5
2D7
102
{ACAD_REACTORS
330
2B8
102
}
330
2B8
100
AcDbXrecord
 10
0.0
 20
0.0
 30
0.0
  0
XRECORD
  5
2D5
102
{ACAD_REACTORS
330
2B8
102
}
330
2B8
100
AcDbXrecord
 10
0.0
 20
0.0
 30
0.0
  0
XRECORD
  5
2D6
102
{ACAD_REACTORS
330
2B8
102
}
330
2B8
100
AcDbXrecord
 10
0.0
 20
0.0
 30
0.0
  0
XRECORD
  5
2D3
102
{ACAD_REACTORS
330
2B8
102
}
330
2B8
100
AcDbXrecord
 10
0.0
 20
0.0
 30
0.0
  0
XRECORD
  5
2D0
102
{ACAD_REACTORS
330
2B8
102
}
330
2B8
100
AcDbXrecord
340
0
  0
XRECORD
  5
2D1
102
{ACAD_REACTORS
330
2B8
102
}
330
2B8
100
AcDbXrecord
 70
     0
  0
XRECORD
  5
2C4
102
{ACAD_REACTORS
330
2B8
102
}
330
2B8
100
AcDbXrecord
  1
{739BD793-B29D-46CA-8CA1-75887D02FE1B}
  0
ENDSEC
  0
EOF
