  0
SECTION
  2
HEADER
  9
$ACADVER
  1
AC1014
  9
$ACADMAINTVER
 70
     9
  9
$DWGCODEPAGE
  3
ANSI_1252
  9
$INSBASE
 10
0.0
 20
0.0
 30
0.0
  9
$EXTMIN
 10
-273.647290038094
 20
-0.4554942472532276
 30
-0.0000000349181948
  9
$EXTMAX
 10
7842.167459214
 20
7598.662788259129
 30
0.0000000814935746
  9
$LIMMIN
 10
0.0
 20
0.0
  9
$LIMMAX
 10
420.0
 20
297.0
  9
$ORTHOMODE
 70
     0
  9
$REGENMODE
 70
     1
  9
$FILLMODE
 70
     1
  9
$QTEXTMODE
 70
     0
  9
$MIRRTEXT
 70
     1
  9
$DRAGMODE
 70
     2
  9
$LTSCALE
 40
1.0
  9
$OSMODE
 70
   511
  9
$ATTMODE
 70
     1
  9
$TEXTSIZE
 40
2.5
  9
$TRACEWID
 40
1.0
  9
$TEXTSTYLE
  7
STANDARD
  9
$CLAYER
  8
0
  9
$CELTYPE
  6
BYLAYER
  9
$CECOLOR
 62
   256
  9
$CELTSCALE
 40
1.0
  9
$DELOBJ
 70
     1
  9
$DISPSILH
 70
     0
  9
$DIMSCALE
 40
1.0
  9
$DIMASZ
 40
2.5
  9
$DIMEXO
 40
0.625
  9
$DIMDLI
 40
3.75
  9
$DIMRND
 40
0.0
  9
$DIMDLE
 40
0.0
  9
$DIMEXE
 40
1.25
  9
$DIMTP
 40
0.0
  9
$DIMTM
 40
0.0
  9
$DIMTXT
 40
2.5
  9
$DIMCEN
 40
2.5
  9
$DIMTSZ
 40
0.0
  9
$DIMTOL
 70
     0
  9
$DIMLIM
 70
     0
  9
$DIMTIH
 70
     0
  9
$DIMTOH
 70
     0
  9
$DIMSE1
 70
     0
  9
$DIMSE2
 70
     0
  9
$DIMTAD
 70
     1
  9
$DIMZIN
 70
     8
  9
$DIMBLK
  1

  9
$DIMASO
 70
     1
  9
$DIMSHO
 70
     1
  9
$DIMPOST
  1

  9
$DIMAPOST
  1

  9
$DIMALT
 70
     0
  9
$DIMALTD
 70
     3
  9
$DIMALTF
 40
0.03937007874016
  9
$DIMLFAC
 40
1.0
  9
$DIMTOFL
 70
     1
  9
$DIMTVP
 40
0.0
  9
$DIMTIX
 70
     0
  9
$DIMSOXD
 70
     0
  9
$DIMSAH
 70
     0
  9
$DIMBLK1
  1

  9
$DIMBLK2
  1

  9
$DIMSTYLE
  2
ISO-25
  9
$DIMCLRD
 70
     0
  9
$DIMCLRE
 70
     0
  9
$DIMCLRT
 70
     0
  9
$DIMTFAC
 40
1.0
  9
$DIMGAP
 40
0.625
  9
$DIMJUST
 70
     0
  9
$DIMSD1
 70
     0
  9
$DIMSD2
 70
     0
  9
$DIMTOLJ
 70
     0
  9
$DIMTZIN
 70
     8
  9
$DIMALTZ
 70
     0
  9
$DIMALTTZ
 70
     0
  9
$DIMFIT
 70
     3
  9
$DIMUPT
 70
     0
  9
$DIMUNIT
 70
     2
  9
$DIMDEC
 70
     2
  9
$DIMTDEC
 70
     2
  9
$DIMALTU
 70
     2
  9
$DIMALTTD
 70
     3
  9
$DIMTXSTY
  7
STANDARD
  9
$DIMAUNIT
 70
     0
  9
$LUNITS
 70
     2
  9
$LUPREC
 70
     4
  9
$SKETCHINC
 40
1.0
  9
$FILLETRAD
 40
10.0
  9
$AUNITS
 70
     0
  9
$AUPREC
 70
     0
  9
$MENU
  1
.
  9
$ELEVATION
 40
0.0
  9
$PELEVATION
 40
0.0
  9
$THICKNESS
 40
0.0
  9
$LIMCHECK
 70
     0
  9
$BLIPMODE
 70
     0
  9
$CHAMFERA
 40
10.0
  9
$CHAMFERB
 40
10.0
  9
$CHAMFERC
 40
20.0
  9
$CHAMFERD
 40
0.0
  9
$SKPOLY
 70
     0
  9
$TDCREATE
 40
2453124.597461284
  9
$TDUPDATE
 40
2453186.699125232
  9
$TDINDWG
 40
0.0020932870
  9
$TDUSRTIMER
 40
0.0020932870
  9
$USRTIMER
 70
     1
  9
$ANGBASE
 50
0.0
  9
$ANGDIR
 70
     0
  9
$PDMODE
 70
     0
  9
$PDSIZE
 40
0.0
  9
$PLINEWID
 40
0.0
  9
$COORDS
 70
     2
  9
$SPLFRAME
 70
     0
  9
$SPLINETYPE
 70
     6
  9
$SPLINESEGS
 70
     8
  9
$ATTDIA
 70
     0
  9
$ATTREQ
 70
     1
  9
$HANDLING
 70
-16383
  9
$HANDSEED
  5
2D5
  9
$SURFTAB1
 70
     6
  9
$SURFTAB2
 70
     6
  9
$SURFTYPE
 70
     6
  9
$SURFU
 70
     6
  9
$SURFV
 70
     6
  9
$UCSNAME
  2

  9
$UCSORG
 10
0.0
 20
0.0
 30
0.0
  9
$UCSXDIR
 10
1.0
 20
0.0
 30
0.0
  9
$UCSYDIR
 10
0.0
 20
1.0
 30
0.0
  9
$PUCSNAME
  2

  9
$PUCSORG
 10
0.0
 20
0.0
 30
0.0
  9
$PUCSXDIR
 10
1.0
 20
0.0
 30
0.0
  9
$PUCSYDIR
 10
0.0
 20
1.0
 30
0.0
  9
$USERI1
 70
     0
  9
$USERI2
 70
     0
  9
$USERI3
 70
     0
  9
$USERI4
 70
     0
  9
$USERI5
 70
     0
  9
$USERR1
 40
0.0
  9
$USERR2
 40
0.0
  9
$USERR3
 40
0.0
  9
$USERR4
 40
0.0
  9
$USERR5
 40
0.0
  9
$WORLDVIEW
 70
     1
  9
$SHADEDGE
 70
     3
  9
$SHADEDIF
 70
    70
  9
$TILEMODE
 70
     1
  9
$MAXACTVP
 70
    64
  9
$PINSBASE
 10
0.0
 20
0.0
 30
0.0
  9
$PLIMCHECK
 70
     0
  9
$PEXTMIN
 10
0.0
 20
0.0
 30
0.0
  9
$PEXTMAX
 10
0.0
 20
0.0
 30
0.0
  9
$PLIMMIN
 10
0.0
 20
0.0
  9
$PLIMMAX
 10
12.0
 20
9.0
  9
$UNITMODE
 70
     0
  9
$VISRETAIN
 70
     1
  9
$PLINEGEN
 70
     0
  9
$PSLTSCALE
 70
     1
  9
$TREEDEPTH
 70
  3020
  9
$PICKSTYLE
 70
     0
  9
$CMLSTYLE
  2
STANDARD
  9
$CMLJUST
 70
     0
  9
$CMLSCALE
 40
20.0
  9
$PROXYGRAPHICS
 70
     1
  9
$MEASUREMENT
 70
     1
  0
ENDSEC
  0
SECTION
  2
CLASSES
  0
CLASS
  1
ACDBDICTIONARYWDFLT
  2
AcDbDictionaryWithDefault
  3
AutoCAD 2000
 90
        0
280
     0
281
     0
  0
CLASS
  1
ACDBPLACEHOLDER
  2
AcDbPlaceHolder
  3
AutoCAD 2000
 90
        0
280
     0
281
     0
  0
CLASS
  1
LAYOUT
  2
AcDbLayout
  3
AutoCAD 2000
 90
        0
280
     0
281
     0
  0
CLASS
  1
DICTIONARYVAR
  2
AcDbDictionaryVar
  3
AutoCAD 2000
 90
        0
280
     0
281
     0
  0
CLASS
  1
SORTENTSTABLE
  2
AcDbSortentsTable
  3
AutoCAD 2000
 90
        0
280
     0
281
     0
  0
CLASS
  1
LONG_TRANSACTION
  2
AcDbLongTransaction
  3
AutoCAD 2000
 90
        0
280
     0
281
     0
  0
CLASS
  1
LWPOLYLINE
  2
AcDbPolyline
  3
AutoCAD 2000
 90
        0
280
     0
281
     1
  0
CLASS
  1
HATCH
  2
AcDbHatch
  3
AutoCAD 2000
 90
        0
280
     0
281
     1
  0
CLASS
  1
XRECORD
  2
AcDbXrecord
  3
AutoCAD 2000
 90
        0
280
     0
281
     0
  0
ENDSEC
  0
SECTION
  2
TABLES
  0
TABLE
  2
VPORT
  5
8
330
0
100
AcDbSymbolTable
 70
     2
  0
VPORT
  5
2AD
330
8
100
AcDbSymbolTableRecord
100
AcDbViewportTableRecord
  2
*ACTIVE
 70
     0
 10
0.0
 20
0.0
 11
1.0
 21
1.0
 12
3784.260084587953
 22
3799.103647005938
 13
0.0
 23
0.0
 14
10.0
 24
10.0
 15
10.0
 25
10.0
 16
0.0
 26
0.0
 36
1.0
 17
0.0
 27
0.0
 37
0.0
 40
7689.404836357944
 41
1.720238095238095
 42
50.0
 43
0.0
 44
0.0
 50
0.0
 51
0.0
 71
     0
 72
   100
 73
     1
 74
     3
 75
     0
 76
     0
 77
     0
 78
     0
  0
ENDTAB
  0
TABLE
  2
LTYPE
  5
5
330
0
100
AcDbSymbolTable
 70
     1
  0
LTYPE
  5
14
330
5
100
AcDbSymbolTableRecord
100
AcDbLinetypeTableRecord
  2
BYBLOCK
 70
     0
  3

 72
    65
 73
     0
 40
0.0
  0
LTYPE
  5
15
330
5
100
AcDbSymbolTableRecord
100
AcDbLinetypeTableRecord
  2
BYLAYER
 70
     0
  3

 72
    65
 73
     0
 40
0.0
  0
LTYPE
  5
16
330
5
100
AcDbSymbolTableRecord
100
AcDbLinetypeTableRecord
  2
CONTINUOUS
 70
     0
  3
Solid line
 72
    65
 73
     0
 40
0.0
  0
ENDTAB
  0
TABLE
  2
LAYER
  5
2
102
{ACAD_XDICTIONARY
360
5D
102
}
330
0
100
AcDbSymbolTable
 70
     1
  0
LAYER
  5
10
330
2
100
AcDbSymbolTableRecord
100
AcDbLayerTableRecord
  2
0
 70
     0
 62
     7
  6
CONTINUOUS
  0
ENDTAB
  0
TABLE
  2
STYLE
  5
3
330
0
100
AcDbSymbolTable
 70
     1
  0
STYLE
  5
11
330
3
100
AcDbSymbolTableRecord
100
AcDbTextStyleTableRecord
  2
STANDARD
 70
     0
 40
0.0
 41
1.0
 50
0.0
 71
     0
 42
2.5
  3
txt
  4

  0
ENDTAB
  0
TABLE
  2
VIEW
  5
6
330
0
100
AcDbSymbolTable
 70
     0
  0
ENDTAB
  0
TABLE
  2
UCS
  5
7
330
0
100
AcDbSymbolTable
 70
     0
  0
ENDTAB
  0
TABLE
  2
APPID
  5
9
330
0
100
AcDbSymbolTable
 70
     2
  0
APPID
  5
12
330
9
100
AcDbSymbolTableRecord
100
AcDbRegAppTableRecord
  2
ACAD
 70
     0
  0
APPID
  5
2D4
330
9
100
AcDbSymbolTableRecord
100
AcDbRegAppTableRecord
  2
CONTENTBLOCKICON
 70
     0
  0
ENDTAB
  0
TABLE
  2
DIMSTYLE
  5
A
330
0
100
AcDbSymbolTable
 70
     1
  0
DIMSTYLE
105
27
330
A
100
AcDbSymbolTableRecord
100
AcDbDimStyleTableRecord
  2
ISO-25
 70
     0
  3

  4

  5

  6

  7

 40
1.0
 41
2.5
 42
0.625
 43
3.75
 44
1.25
 45
0.0
 46
0.0
 47
0.0
 48
0.0
140
2.5
141
2.5
142
0.0
143
0.03937007874016
144
1.0
145
0.0
146
1.0
147
0.625
 71
     0
 72
     0
 73
     0
 74
     0
 75
     0
 76
     0
 77
     1
 78
     8
170
     0
171
     3
172
     1
173
     0
174
     0
175
     0
176
     0
177
     0
178
     0
270
     2
271
     2
272
     2
273
     2
274
     3
340
11
275
     0
280
     0
281
     0
282
     0
283
     0
284
     8
285
     0
286
     0
287
     3
288
     0
  0
ENDTAB
  0
TABLE
  2
BLOCK_RECORD
  5
1
330
0
100
AcDbSymbolTable
 70
     2
  0
BLOCK_RECORD
  5
1F
102
{ACAD_XDICTIONARY
360
1DF
102
}
330
1
100
AcDbSymbolTableRecord
100
AcDbBlockTableRecord
  2
*MODEL_SPACE
  0
BLOCK_RECORD
  5
50
102
{ACAD_XDICTIONARY
360
2D0
102
}
330
1
100
AcDbSymbolTableRecord
100
AcDbBlockTableRecord
  2
*PAPER_SPACE
  0
BLOCK_RECORD
  5
1EA
330
1
100
AcDbSymbolTableRecord
100
AcDbBlockTableRecord
  2
ADKS
1001
ACAD
1000
DesignCenter Data
1002
{
1070
     1
1070
     4
1002
}
1001
CONTENTBLOCKICON
1071
        0
1004
2800000020000000200000000100080000000000000400000000000000000000000000000000000000000000000080000080000000808000800000008000800080800000C0C0C000C0DCC000F0CAA6000020400000206000002080000020A0000020C0000020E00000400000004020000040400000406000004080000040A0
1004
000040C0000040E00000600000006020000060400000606000006080000060A0000060C0000060E00000800000008020000080400000806000008080000080A0000080C0000080E00000A0000000A0200000A0400000A0600000A0800000A0A00000A0C00000A0E00000C0000000C0200000C0400000C0600000C0800000C0
1004
A00000C0C00000C0E00000E0000000E0200000E0400000E0600000E0800000E0A00000E0C00000E0E00040000000400020004000400040006000400080004000A0004000C0004000E00040200000402020004020400040206000402080004020A0004020C0004020E000404000004040200040404000404060004040800040
1004
40A0004040C0004040E00040600000406020004060400040606000406080004060A0004060C0004060E00040800000408020004080400040806000408080004080A0004080C0004080E00040A0000040A0200040A0400040A0600040A0800040A0A00040A0C00040A0E00040C0000040C0200040C0400040C0600040C08000
1004
40C0A00040C0C00040C0E00040E0000040E0200040E0400040E0600040E0800040E0A00040E0C00040E0E00080000000800020008000400080006000800080008000A0008000C0008000E00080200000802020008020400080206000802080008020A0008020C0008020E00080400000804020008040400080406000804080
1004
008040A0008040C0008040E00080600000806020008060400080606000806080008060A0008060C0008060E00080800000808020008080400080806000808080008080A0008080C0008080E00080A0000080A0200080A0400080A0600080A0800080A0A00080A0C00080A0E00080C0000080C0200080C0400080C0600080C0
1004
800080C0A00080C0C00080C0E00080E0000080E0200080E0400080E0600080E0800080E0A00080E0C00080E0E000C0000000C0002000C0004000C0006000C0008000C000A000C000C000C000E000C0200000C0202000C0204000C0206000C0208000C020A000C020C000C020E000C0400000C0402000C0404000C0406000C0
1004
408000C040A000C040C000C040E000C0600000C0602000C0604000C0606000C0608000C060A000C060C000C060E000C0800000C0802000C0804000C0806000C0808000C080A000C080C000C080E000C0A00000C0A02000C0A04000C0A06000C0A08000C0A0A000C0A0C000C0A0E000C0C00000C0C02000C0C04000C0C06000
1004
C0C08000C0C0A000F0FBFF00A4A0A000808080000000FF0000FF000000FFFF00FF000000FF00FF00FFFF0000FFFFFF00FFFFFFFFFFFFFFFFFFFFFFFFFFFFFFFFFFFFFFFFFFFFFFFFFFFFFFFFFFFFFFFFFFFFFFFFFFFFFFFFFFFFFFFFFFFFFFFFFFFFFFFFFFFFFFFFFFFFFFFFFFFFFFFFFFFFFFFFFFFFFFFFFFFFFFFFFFFFFF
1004
FFFF00000000000000000000FFFFFFFFFFFFFFFFFFFFFFFFFFFFFFFFFFFFFFFFFFFF00FFFFFFFFFFFFFFFF00FFFFFFFFFFFFFFFFFFFFFFFFFFFFFFFFFFFFFFFFFFFF00FFFFFFFFFFFFFFFF00FFFFFFFFFFFFFFFFFFFFFFFFFFFFFFFFFFFFFFFFFFFF00FFFFFFFFFFFFFFFF00FFFFFFFFFFFFFFFFFFFFFFFFFFFFFFFFFFFFFF
1004
FF000000FFFFFFFFFFFFFFFF00FFFFFFFFFFFFFFFFFFFFFFFFFFFFFF0000000000FFFFFFFFFFFFFFFFFFFFFFFF00FFFFFFFFFFFFFFFFFFFFFFFF0000FFFFFFFFFFFFFFFFFFFFFFFFFFFFFFFFFF00FFFFFFFFFFFFFFFFFFFFFF00FFFFFFFFFFFFFFFFFFFFFFFFFFFFFFFFFFFFFFFF00FFFFFFFFFFFFFFFFFF00FFFFFFFFFFFF
1004
FFFFFFFFFFFFFFFFE0FBE0FFFFFFFF00FFFFFFFFFFFFFFFF00FFFFFFFFFFFFFFFFFFFFFFFFFFFFFFE0FFE0FFFFFFFF00FFFFFFFFFFFFFF00FFFFFFFFFFFFFFFFFFFFFFFFFFFFFFFFE0FFE0FFFFFFFF00FFFFFFFFFFFF00FFFFFFFFFFFFFFFFFFFFFFFFFFFFFFFFFFE0FFE0FFFFFFFFFF00FFFFFFFFFF00FFFFFFFFFFFFFFFF
1004
FFFFFFFFFFFFFFFFFF27FF27FFFFFFFFFF00FFFFFFFF00FFFFFFFFFFFFFFFFFFFFFFFFFFFFFFFFFFFF27FF27FFFFFFFFFF00FFFFFFFF00FFFFFFFFFFFFFF2121212121FFFFFFFFFF2127FB2721FFFFFFFF00FFFFFF00FFFFFFFFFF0000002121002127272727272727210021FBFFFFFFFF00FFFFFF00FFFFFFFFFF00000021
1004
00210027272727272727002100FBFFFFFFFFFF00FFFF00FFFFFFFFFF0000002121002127272727272727210021FBFFFFFFFFFF00FFFFFF00FFFFFFFFFFFFFF2121212121FFFFFFFFFF0021000021FFFFFFFFFF00FFFFFF00FFFFFFFFFFFFFFFFFFFFFFFFFFFFFFFFFF00000000FFFFFFFFFFFF00FFFFFF00FFFFFFFFFFFFFF
1004
FFFFFFFFFFFFFFFFFFFF00000000FFFFFFFFFF00FFFFFFFFFF00FFFFFFFFFFFFFFFFFFFFFFFFFFFFFFFF00000000FFFFFFFFFF00FFFFFFFFFF000000FFFFFFFFFFFFFFFFFFFFFFFFFFFFFFFFFFFFFFFFFFFFFF00FFFFFFFFFFFFFFFF0000FFFFFFFFFFFFFFFFFFFFFFFFFFFFFFFFFFFFFFFFFF00FFFFFFFFFFFFFFFFFFFF00
1004
000000FFFFFFFFFFFFFFFFFFFFFFFFFFFFFFFF00FFFFFFFFFFFFFFFFFFFFFFFFFFFFFF00000000FFFFFFFFFFFFFFFFFFFFFF00FFFFFFFFFFFFFFFFFFFFFFFFFFFFFFFFFFFFFFFF000000FFFFFFFFFFFF0000FFFFFFFFFFFFFFFFFFFFFFFFFFFFFFFFFFFFFFFFFFFFFFFF000000000000FFFFFFFFFFFFFFFFFFFFFFFFFFFFFF
1004
FFFFFFFFFFFFFFFFFFFFFFFFFFFFFFFFFFFFFFFFFFFFFFFFFFFFFFFFFFFFFFFFFFFFFFFFFFFFFFFFFFFFFFFFFFFFFFFFFFFFFFFFFFFFFFFF
  0
ENDTAB
  0
ENDSEC
  0
SECTION
  2
BLOCKS
  0
BLOCK
  5
20
330
1F
100
AcDbEntity
  8
0
100
AcDbBlockBegin
  2
*MODEL_SPACE
 70
     0
 10
0.0
 20
0.0
 30
0.0
  3
*MODEL_SPACE
  1

  0
ENDBLK
  5
21
330
1F
100
AcDbEntity
  8
0
100
AcDbBlockEnd
  0
BLOCK
  5
52
330
50
100
AcDbEntity
 67
     1
  8
0
100
AcDbBlockBegin
  2
*PAPER_SPACE
 70
     0
 10
0.0
 20
0.0
 30
0.0
  3
*PAPER_SPACE
  1

  0
ENDBLK
  5
53
330
50
100
AcDbEntity
 67
     1
  8
0
100
AcDbBlockEnd
  0
BLOCK
  5
1EB
330
1EA
100
AcDbEntity
  8
0
100
AcDbBlockBegin
  2
ADKS
 70
     0
 10
0.0
 20
0.0
 30
0.0
  3
ADKS
  1

  0
HATCH
  5
1ED
330
1EA
100
AcDbEntity
  8
0
 62
    30
100
AcDbHatch
 10
0.0
 20
0.0
 30
0.0
210
0.0
220
0.0
230
1.0
  2
SOLID
 70
     1
 71
     0
 91
       15
 92
        7
 72
     0
 73
     1
 93
        4
 10
-497.9599525228986
 20
4713.39174656749
 10
-884.3756108182024
 20
4713.39174656749
 10
-884.3756108181988
 20
4636.996252087803
 10
-497.9599525228986
 20
4636.996252087803
 97
        0
 92
        7
 72
     0
 73
     1
 93
        4
 10
-497.9599525229023
 20
4636.996252087803
 10
-884.3756108182061
 20
4636.996252087796
 10
-884.3756108182061
 20
4520.650820127914
 10
-497.959952522895
 20
4520.650820127914
 97
        0
 92
        7
 72
     0
 73
     1
 93
        4
 10
-497.9599525228986
 20
4520.650820127921
 10
-884.3756108182024
 20
4520.650820127921
 10
-884.3756108181988
 20
4367.859831168564
 10
-497.9599525228986
 20
4367.859831168571
 97
        0
 92
        7
 72
     0
 73
     1
 93
        4
 10
-497.959952522895
 20
4367.859831168564
 10
-884.3756108182061
 20
4367.859831168564
 10
-884.3756108182024
 20
4251.514399208696
 10
-497.9599525228986
 20
4251.514399208689
 97
        0
 92
        7
 72
     0
 73
     1
 93
        4
 10
-497.9599525228986
 20
4251.514399208689
 10
-884.3756108182024
 20
4251.514399208689
 10
-884.3756108182024
 20
4175.118904728996
 10
-497.9599525228986
 20
4175.118904728996
 97
        0
 92
        7
 72
     0
 73
     1
 93
        4
 10
222.5406743129897
 20
4713.391746567482
 10
-417.3592014663554
 20
4713.391746567482
 10
-417.359201466359
 20
4636.996252087803
 10
222.5406743129933
 20
4636.99625208781
 97
        0
 92
        7
 72
     0
 73
     1
 93
        4
 10
222.5406743129897
 20
4636.99625208781
 10
-417.3592014663554
 20
4636.996252087803
 10
-417.3592014663554
 20
4520.650820127921
 10
222.5406743129897
 20
4520.650820127906
 97
        0
 92
        7
 72
     0
 73
     1
 93
        4
 10
222.5406743129933
 20
4520.650820127914
 10
-417.3592014663517
 20
4520.650820127921
 10
-417.3592014663554
 20
4367.859831168564
 10
222.5406743129897
 20
4367.859831168564
 97
        0
 92
        7
 72
     0
 73
     1
 93
        4
 10
222.5406743129969
 20
4367.859831168556
 10
-417.359201466359
 20
4367.859831168564
 10
-417.359201466359
 20
4251.514399208681
 10
222.5406743129933
 20
4251.514399208667
 97
        0
 92
        7
 72
     0
 73
     1
 93
        4
 10
222.5406743130006
 20
4251.514399208667
 10
-417.3592014663554
 20
4251.514399208681
 10
-417.3592014663554
 20
4175.118904729003
 10
222.5406743129897
 20
4175.118904728988
 97
        0
 92
        7
 72
     0
 73
     1
 93
        4
 10
688.5057695206269
 20
4713.39174656749
 10
302.4405492733931
 20
4713.39174656749
 10
302.4405492733894
 20
4636.99625208781
 10
688.5057695206269
 20
4636.99625208781
 97
        0
 92
        7
 72
     0
 73
     1
 93
        4
 10
688.5057695206305
 20
4636.996252087818
 10
302.4405492733894
 20
4636.996252087818
 10
302.4405492733931
 20
4520.650820127921
 10
688.5057695206269
 20
4520.650820127914
 97
        0
 92
        7
 72
     0
 73
     1
 93
        4
 10
688.5057695206305
 20
4520.650820127914
 10
302.4405492733894
 20
4520.650820127914
 10
302.4405492733931
 20
4367.859831168564
 10
688.5057695206269
 20
4367.859831168571
 97
        0
 92
        7
 72
     0
 73
     1
 93
        4
 10
688.5057695206269
 20
4367.859831168571
 10
302.4405492733931
 20
4367.859831168564
 10
302.4405492733931
 20
4251.514399208667
 10
688.5057695206269
 20
4251.51439920866
 97
        0
 92
        7
 72
     0
 73
     1
 93
        4
 10
688.5057695206269
 20
4251.51439920866
 10
302.4405492733931
 20
4251.51439920866
 10
302.4405492733931
 20
4175.118904728996
 10
688.5057695206269
 20
4175.118904728996
 97
        0
 75
     0
 76
     1
 47
11.42819137539826
 98
       15
 10
-640.9715714409976
 20
4656.369545184949
 10
-665.986410321595
 20
4560.579331901128
 10
-682.663027382121
 20
4414.811475881288
 10
-695.1704468224343
 20
4256.549384368904
 10
-699.339471022322
 20
4194.077506140311
 10
-269.918359272342
 20
4664.699128948763
 10
-269.918359272342
 20
4568.908915664942
 10
-269.918359272342
 20
4452.294602818408
 10
-274.0875568925257
 20
4306.52688695176
 10
-253.241742211816
 20
4181.583130494604
 10
438.8350043642713
 20
4673.028712712548
 10
417.9893631038575
 20
4577.238499428757
 10
405.4819436635734
 20
4443.965019054624
 10
392.9745242232602
 20
4310.691678833653
 10
363.7906611427461
 20
4198.242298022233
  0
HATCH
  5
1EE
330
1EA
100
AcDbEntity
  8
0
 62
   150
100
AcDbHatch
 10
0.0
 20
0.0
 30
0.0
210
0.0
220
0.0
230
1.0
  2
SOLID
 70
     1
 71
     1
 91
        2
 92
        7
 72
     0
 73
     1
 93
        4
 10
222.5406743129933
 20
4170.212772055987
 10
302.4405492733931
 20
4170.212772055987
 10
302.4405492733931
 20
4718.297879240497
 10
222.5406743129934
 20
4718.297879240497
 97
        1
330
262
 92
        7
 72
     0
 73
     1
 93
        4
 10
-497.9599525228985
 20
4170.212772055995
 10
-417.3592014663554
 20
4170.212772055995
 10
-417.3592014663554
 20
4718.297879240497
 10
-497.9599525228985
 20
4718.297879240497
 97
        1
330
261
 75
     0
 76
     1
 47
4.164792803965259
 98
        2
 10
259.5621080000855
 20
4456.45939470033
 10
-470.0368968969123
 20
4443.965019054624
  0
HATCH
  5
1EF
330
1EA
100
AcDbEntity
  8
0
 62
    50
100
AcDbHatch
 10
0.0
 20
0.0
 30
0.0
210
0.0
220
0.0
230
1.0
  2
SOLID
 70
     1
 71
     1
 91
        1
 92
        7
 72
     1
 73
     1
 93
        4
 10
1849.391602190935
 20
4271.889451009939
 42
0.0
 10
1849.391602190935
 20
4176.538116103663
 42
0.5203612086937153
 10
1849.391602190935
 20
4712.165011393358
 42
0.0
 10
1849.391602190935
 20
4616.621200286544
 42
-0.3984526112186029
 97
        3
330
269
330
232
330
231
 75
     0
 76
     1
 47
5.50999374987631
 98
        1
 10
1947.482677679272
 20
4438.605083349459
  0
HATCH
  5
1F0
330
1EA
100
AcDbEntity
  8
0
 62
   150
100
AcDbHatch
 10
0.0
 20
0.0
 30
0.0
210
0.0
220
0.0
230
1.0
  2
SOLID
 70
     1
 71
     0
 91
        2
 92
        7
 72
     0
 73
     1
 93
        4
 10
1537.33268795217
 20
2004.794774916285
 10
1537.33268795217
 20
2934.303592114687
 10
1517.995703950189
 20
2934.303592114687
 10
1517.995703950189
 20
2004.794774916285
 97
        0
 92
        7
 72
     0
 73
     1
 93
        4
 10
1019.901667761376
 20
2004.794774916292
 10
1019.901667761376
 20
2934.303592114694
 10
1000.564683759396
 20
2934.303592114687
 10
1000.564683759392
 20
2004.794774916285
 97
        0
 75
     0
 76
     1
 47
2.231880503813954
 98
        2
 10
1528.52589215885
 20
2377.754342435197
 10
1004.033929595894
 20
2480.527961106294
  0
HATCH
  5
1F1
330
1EA
100
AcDbEntity
  8
0
 62
    30
100
AcDbHatch
 10
0.0
 20
0.0
 30
0.0
210
0.0
220
0.0
230
1.0
  2
SOLID
 70
     1
 71
     0
 91
        2
 92
        7
 72
     0
 73
     1
 93
        4
 10
1537.332687952166
 20
2934.303592114694
 10
1537.332687952166
 20
3863.812409313089
 10
1517.995703950189
 20
3863.812409313089
 10
1517.995703950189
 20
2934.303592114687
 97
        0
 92
        7
 72
     1
 73
     1
 93
        5
 10
1019.901667761376
 20
2934.303592114694
 42
0.0
 10
1019.901667761376
 20
3860.199193302003
 42
-0.003631856113254
 10
1017.234497554207
 20
3863.812409313089
 42
0.0
 10
1000.564683759403
 20
3863.812409313089
 42
0.0
 10
1000.564683759396
 20
2934.303592114687
 42
0.0
 97
        0
 75
     0
 76
     1
 47
3.387716884985549
 98
        2
 10
1526.644699753782
 20
3649.206484523551
 10
1008.324008307852
 20
3557.642707916042
  0
HATCH
  5
1F2
330
1EA
100
AcDbEntity
  8
0
 62
    50
100
AcDbHatch
 10
0.0
 20
0.0
 30
0.0
210
0.0
220
0.0
230
1.0
  2
SOLID
 70
     1
 71
     0
 91
        3
 92
        7
 72
     1
 73
     1
 93
       22
 10
1268.61528957996
 20
2190.496500590423
 42
0.0
 10
1360.63266172722
 20
2188.829519210951
 42
0.0
 10
1398.639837179373
 20
2181.494801141234
 42
0.0
 10
1425.978331802856
 20
2164.158194794639
 42
0.0
 10
1446.648900908417
 20
2139.486870378321
 42
0.0
 10
1461.985129599641
 20
2112.815168306631
 42
0.0
 10
1475.320980635486
 20
2098.812524719003
 42
0.0
 10
1489.323624223125
 20
2091.477806649272
 42
0.0
 10
1505.326645466138
 20
2088.810636442111
 42
0.0
 10
1517.995703950193
 20
2088.810636442111
 42
0.0
 10
1517.995703950186
 20
3863.812409313089
 42
0.0
 10
1517.328911398392
 20
3863.812409313089
 42
-0.5047677450341376
 10
1019.901667761376
 20
3860.199193302003
 42
0.0
 10
1019.901667761376
 20
2088.810636442111
 42
0.0
 10
1032.57072624543
 20
2088.810636442111
 42
0.0
 10
1051.240917695613
 20
2092.14459920107
 42
0.0
 10
1065.243561283245
 20
2100.812902374375
 42
0.0
 10
1075.245449560134
 20
2112.815168306638
 42
0.0
 10
1091.248470803148
 20
2139.486870378321
 42
0.0
 10
1117.25338032304
 20
2168.825742657179
 42
0.0
 10
1145.258667498321
 20
2183.495178796613
 42
0.0
 10
1177.264709984352
 20
2188.829519210951
 42
0.0
 97
        0
 92
       22
 72
     1
 73
     1
 93
        2
 10
1470.972684964406
 20
3863.812409313089
 42
0.0
 10
1063.5907239882
 20
3863.812409313089
 42
0.4582969605586812
 97
        0
 92
        7
 72
     1
 73
     1
 93
        5
 10
1517.328911398392
 20
3863.812409313089
 42
0.0
 10
1470.972684964406
 20
3863.812409313089
 42
-0.4582969605586812
 10
1063.5907239882
 20
3863.812409313089
 42
0.0
 10
1019.901667761376
 20
3863.812409313089
 42
0.0
 10
1019.901667761376
 20
3860.199193302003
 42
0.5047677450341411
 97
        0
 75
     0
 76
     1
 47
4.472321723810398
 98
        3
 10
1243.986532583014
 20
2541.102191232108
 10
1302.126676893498
 20
3825.198815422023
 10
1364.739189493306
 20
3780.456740587142
  0
HATCH
  5
1F3
330
1EA
100
AcDbEntity
  8
0
 62
   250
100
AcDbHatch
 10
0.0
 20
0.0
 30
0.0
210
0.0
220
0.0
230
1.0
  2
SOLID
 70
     1
 71
     0
 91
        1
 92
        7
 72
     1
 73
     1
 93
        2
 10
1849.391602190935
 20
4271.889451009942
 42
0.3984526112186023
 10
1849.391602190935
 20
4616.621200286544
 42
0.0
 97
        0
 75
     0
 76
     1
 47
3.366206442624165
 98
        1
 10
1876.532608629768
 20
4418.055914799682
  0
LINE
  5
1F4
330
1EA
100
AcDbEntity
  8
0
100
AcDbLine
 10
1624.686899030057
 20
5024.698241983394
 30
0.0
 11
1655.724047380746
 21
5187.103445657339
 31
0.0
  0
LINE
  5
1F5
330
1EA
100
AcDbEntity
  8
0
100
AcDbLine
 10
1776.711214045586
 20
5820.181756271558
 30
0.0
 11
1756.707437491815
 21
5825.516096685896
 31
0.0
  0
LINE
  5
1F6
330
1EA
100
AcDbEntity
  8
0
100
AcDbLine
 10
1756.707437491815
 20
5825.516096685896
 30
0.0
 11
1715.370934432241
 21
5608.332912884929
 31
0.0
  0
CIRCLE
  5
1F7
102
{ACAD_REACTORS
330
257
102
}
330
1EA
100
AcDbEntity
  8
0
100
AcDbCircle
 10
1722.034224798619
 20
5589.471533351432
 30
0.0
 40
20.00377655377027
  0
CIRCLE
  5
1F8
102
{ACAD_REACTORS
330
257
102
}
330
1EA
100
AcDbEntity
  8
0
100
AcDbCircle
 10
1685.360634450044
 20
5397.435278435267
 30
0.0
 40
20.00377655377027
  0
CIRCLE
  5
1F9
102
{ACAD_REACTORS
330
257
102
}
330
1EA
100
AcDbEntity
  8
0
100
AcDbCircle
 10
1649.353836653267
 20
5206.065816070892
 30
0.0
 40
20.00377655377027
  0
CIRCLE
  5
1FA
102
{ACAD_REACTORS
330
257
102
}
330
1EA
100
AcDbEntity
  8
0
100
AcDbCircle
 10
1368.634172348727
 20
5206.065816070892
 30
0.0
 40
20.00377655377027
  0
CIRCLE
  5
1FB
102
{ACAD_REACTORS
330
257
102
}
330
1EA
100
AcDbEntity
  8
0
100
AcDbCircle
 10
1387.971156350704
 20
5397.435278435267
 30
0.0
 40
20.00377655377027
  0
CIRCLE
  5
1FC
102
{ACAD_REACTORS
330
257
102
}
330
1EA
100
AcDbEntity
  8
0
100
AcDbCircle
 10
1407.596483077774
 20
5589.471533351432
 30
0.0
 40
20.00377655377027
  0
CIRCLE
  5
1FD
102
{ACAD_REACTORS
330
257
102
}
330
1EA
100
AcDbEntity
  8
0
100
AcDbCircle
 10
1267.948497028097
 20
5206.065816070892
 30
0.0
 40
20.00377655377027
  0
CIRCLE
  5
1FE
102
{ACAD_REACTORS
330
257
102
}
330
1EA
100
AcDbEntity
  8
0
100
AcDbCircle
 10
1163.928858948504
 20
5206.065816070892
 30
0.0
 40
20.00377655377027
  0
CIRCLE
  5
1FF
102
{ACAD_REACTORS
330
257
102
}
330
1EA
100
AcDbEntity
  8
0
100
AcDbCircle
 10
1144.591874946527
 20
5397.435278435267
 30
0.0
 40
20.00377655377027
  0
CIRCLE
  5
200
102
{ACAD_REACTORS
330
257
102
}
330
1EA
100
AcDbEntity
  8
0
100
AcDbCircle
 10
1125.254890944554
 20
5589.471533351432
 30
0.0
 40
20.00377655377027
  0
CIRCLE
  5
201
102
{ACAD_REACTORS
330
257
102
}
330
1EA
100
AcDbEntity
  8
0
100
AcDbCircle
 10
886.543157402928
 20
5206.065816070892
 30
0.0
 40
20.00377655377027
  0
CIRCLE
  5
202
102
{ACAD_REACTORS
330
257
102
}
330
1EA
100
AcDbEntity
  8
0
100
AcDbCircle
 10
849.2027745025625
 20
5397.435278435267
 30
0.0
 40
20.00377655377027
  0
CIRCLE
  5
203
102
{ACAD_REACTORS
330
257
102
}
330
1EA
100
AcDbEntity
  8
0
100
AcDbCircle
 10
811.862391602197
 20
5589.471533351432
 30
0.0
 40
20.00377655377027
  0
LINE
  5
204
330
1EA
100
AcDbEntity
  8
0
100
AcDbLine
 10
1441.31456049408
 20
5821.515341375139
 30
0.0
 11
1419.31371153974
 21
5605.684418152828
 31
0.0
  0
LINE
  5
205
330
1EA
100
AcDbEntity
  8
0
100
AcDbLine
 10
1415.812700472328
 20
5571.232979457593
 30
0.0
 11
1399.791082894131
 21
5413.573444778478
 31
0.0
  0
LINE
  5
206
330
1EA
100
AcDbEntity
  8
0
100
AcDbLine
 10
1396.303003190172
 20
5379.249256202332
 30
0.0
 11
1380.351400810686
 21
5222.278700872288
 31
0.0
  0
LINE
  5
207
330
1EA
100
AcDbEntity
  8
0
100
AcDbLine
 10
1360.417954954177
 20
5224.304369964731
 30
0.0
 11
1376.356719809497
 21
5381.148598594257
 31
0.0
  0
LINE
  5
208
330
1EA
100
AcDbEntity
  8
0
100
AcDbLine
 10
1379.870474561772
 20
5415.725440571448
 30
0.0
 11
1395.879254615818
 21
5573.258648550036
 31
0.0
  0
LINE
  5
209
330
1EA
100
AcDbEntity
  8
0
100
AcDbLine
 10
1399.380265683226
 20
5607.710087245287
 30
0.0
 11
1421.310783940316
 21
5824.182511582308
 31
0.0
  0
LINE
  5
20A
330
1EA
100
AcDbEntity
  8
0
100
AcDbLine
 10
1421.310783940316
 20
5824.182511582308
 30
0.0
 11
1441.31456049408
 21
5821.515341375139
 31
0.0
  0
LINE
  5
20B
330
1EA
100
AcDbEntity
  8
0
100
AcDbLine
 10
1133.169249921975
 20
5607.843087406276
 30
0.0
 11
1111.252247356918
 21
5823.515719030518
 31
0.0
  0
LINE
  5
20C
330
1EA
100
AcDbEntity
  8
0
100
AcDbLine
 10
1111.252247356918
 20
5823.515719030518
 30
0.0
 11
1091.248470803148
 21
5821.515341375139
 31
0.0
  0
LINE
  5
20D
330
1EA
100
AcDbEntity
  8
0
100
AcDbLine
 10
1091.248470803148
 20
5821.515341375139
 30
0.0
 11
1113.269371471095
 21
5605.48710075832
 31
0.0
  0
LINE
  5
20E
330
1EA
100
AcDbEntity
  8
0
100
AcDbLine
 10
1136.703186905004
 20
5573.067643690286
 30
0.0
 11
1152.692556735462
 21
5415.725440571441
 31
0.0
  0
LINE
  5
20F
330
1EA
100
AcDbEntity
  8
0
100
AcDbLine
 10
1132.771948403096
 20
5413.573444778478
 30
0.0
 11
1116.736173642842
 21
5571.372292153348
 31
0.0
  0
LINE
  5
210
330
1EA
100
AcDbEntity
  8
0
100
AcDbLine
 10
1156.206311487738
 20
5381.148598594257
 30
0.0
 11
1172.145076343062
 21
5224.304369964724
 31
0.0
  0
LINE
  5
211
330
1EA
100
AcDbEntity
  8
0
100
AcDbLine
 10
1152.211630486544
 20
5222.278700872288
 30
0.0
 11
1136.260028107055
 21
5379.249256202339
 31
0.0
  0
LINE
  5
212
330
1EA
100
AcDbEntity
  8
0
100
AcDbLine
 10
1277.317392212702
 20
5188.391685839582
 30
0.0
 11
1277.670198455372
 21
5031.745714094417
 31
0.0
  0
LINE
  5
213
330
1EA
100
AcDbEntity
  8
0
100
AcDbLine
 10
1259.409906247005
 20
5031.908888710518
 30
0.0
 11
1258.705326416555
 21
5188.32561107041
 31
0.0
  0
LINE
  5
214
330
1EA
100
AcDbEntity
  8
0
100
AcDbLine
 10
931.0861758752798
 20
5031.232262128404
 30
0.0
 11
899.7938253933243
 21
5191.080127090347
 31
0.0
  0
LINE
  5
215
330
1EA
100
AcDbEntity
  8
0
100
AcDbLine
 10
893.1649506803223
 20
5224.941804262366
 30
0.0
 11
862.3487049848263
 21
5382.357626490462
 31
0.0
  0
LINE
  5
216
330
1EA
100
AcDbEntity
  8
0
100
AcDbLine
 10
855.6928847310336
 20
5416.356947115258
 30
0.0
 11
824.7915216265319
 21
5574.20756685426
 31
0.0
  0
LINE
  5
217
330
1EA
100
AcDbEntity
  8
0
100
AcDbLine
 10
818.0814503454566
 20
5608.484013062437
 30
0.0
 11
775.8555938054159
 21
5825.516096685896
 31
0.0
  0
LINE
  5
218
330
1EA
100
AcDbEntity
  8
0
100
AcDbLine
 10
775.8555938054159
 20
5825.516096685896
 30
0.0
 11
755.8363680306247
 21
5821.594201577966
 31
0.0
  0
LINE
  5
219
330
1EA
100
AcDbEntity
  8
0
100
AcDbLine
 10
755.8363680306247
 20
5821.594201577966
 30
0.0
 11
798.4102735563974
 21
5604.27665396881
 31
0.0
  0
LINE
  5
21A
330
1EA
100
AcDbEntity
  8
0
100
AcDbLine
 10
804.9911088051594
 20
5570.684927773625
 30
0.0
 11
835.989564388794
 21
5412.454005242238
 31
0.0
  0
LINE
  5
21B
330
1EA
100
AcDbEntity
  8
0
100
AcDbLine
 10
842.6333394500252
 20
5378.541004183426
 30
0.0
 11
873.4581632324479
 21
5221.196381294038
 31
0.0
  0
LINE
  5
21C
330
1EA
100
AcDbEntity
  8
0
100
AcDbLine
 10
880.134660484131
 20
5187.116350546632
 30
0.0
 11
911.1949547333134
 21
5028.569773931406
 31
0.0
  0
LINE
  5
21D
330
1EA
100
AcDbEntity
  8
0
100
AcDbLine
 10
1704.710446131423
 20
5599.473421628317
 30
0.0
 11
1424.92026174497
 21
5599.473421628317
 31
0.0
  0
LINE
  5
21E
330
1EA
100
AcDbEntity
  8
0
100
AcDbLine
 10
1704.710446131423
 20
5579.469645074554
 30
0.0
 11
1424.92026174497
 21
5579.469645074554
 31
0.0
  0
LINE
  5
21F
330
1EA
100
AcDbEntity
  8
0
100
AcDbLine
 10
1390.272704410577
 20
5599.473421628317
 30
0.0
 11
1139.257534532189
 21
5599.473421628317
 31
0.0
  0
LINE
  5
220
330
1EA
100
AcDbEntity
  8
0
100
AcDbLine
 10
1390.272704410577
 20
5579.469645074554
 30
0.0
 11
1142.57866961175
 21
5579.469645074554
 31
0.0
  0
LINE
  5
221
330
1EA
100
AcDbEntity
  8
0
100
AcDbLine
 10
1107.931112277357
 20
5599.473421628317
 30
0.0
 11
829.1861702693932
 21
5599.473421628317
 31
0.0
  0
LINE
  5
222
330
1EA
100
AcDbEntity
  8
0
100
AcDbLine
 10
829.1861702693932
 20
5579.469645074554
 30
0.0
 11
1107.931112277357
 21
5579.469645074554
 31
0.0
  0
LINE
  5
223
330
1EA
100
AcDbEntity
  8
0
100
AcDbLine
 10
1668.036855782855
 20
5407.437166712153
 30
0.0
 11
1405.294935017897
 21
5407.437166712153
 31
0.0
  0
LINE
  5
224
330
1EA
100
AcDbEntity
  8
0
100
AcDbLine
 10
1370.647377683511
 20
5407.437166712153
 30
0.0
 11
1161.915653613719
 21
5407.437166712153
 31
0.0
  0
LINE
  5
225
330
1EA
100
AcDbEntity
  8
0
100
AcDbLine
 10
1127.268096279338
 20
5407.437166712153
 30
0.0
 11
866.5265531697514
 21
5407.437166712153
 31
0.0
  0
LINE
  5
226
330
1EA
100
AcDbEntity
  8
0
100
AcDbLine
 10
866.5265531697514
 20
5387.433390158374
 30
0.0
 11
1127.268096279338
 21
5387.433390158374
 31
0.0
  0
LINE
  5
227
330
1EA
100
AcDbEntity
  8
0
100
AcDbLine
 10
1161.915653613719
 20
5387.433390158374
 30
0.0
 11
1370.647377683511
 21
5387.433390158374
 31
0.0
  0
LINE
  5
228
330
1EA
100
AcDbEntity
  8
0
100
AcDbLine
 10
1405.294935017897
 20
5387.433390158374
 30
0.0
 11
1668.036855782855
 21
5387.433390158374
 31
0.0
  0
LINE
  5
229
330
1EA
100
AcDbEntity
  8
0
100
AcDbLine
 10
1632.03005798607
 20
5216.067704347778
 30
0.0
 11
1385.957951015923
 21
5216.067704347778
 31
0.0
  0
LINE
  5
22A
330
1EA
100
AcDbEntity
  8
0
100
AcDbLine
 10
1385.957951015923
 20
5196.063927794006
 30
0.0
 11
1632.03005798607
 21
5196.063927794006
 31
0.0
  0
LINE
  5
22B
330
1EA
100
AcDbEntity
  8
0
100
AcDbLine
 10
1351.310393681531
 20
5216.067704347778
 30
0.0
 11
1285.272275695293
 21
5216.067704347778
 31
0.0
  0
LINE
  5
22C
330
1EA
100
AcDbEntity
  8
0
100
AcDbLine
 10
1351.310393681531
 20
5196.063927794006
 30
0.0
 11
1285.272275695293
 21
5196.063927794006
 31
0.0
  0
LINE
  5
22D
330
1EA
100
AcDbEntity
  8
0
100
AcDbLine
 10
1250.624718360901
 20
5216.067704347778
 30
0.0
 11
1181.2526376157
 21
5216.067704347778
 31
0.0
  0
LINE
  5
22E
330
1EA
100
AcDbEntity
  8
0
100
AcDbLine
 10
1250.624718360901
 20
5196.063927794006
 30
0.0
 11
1181.2526376157
 21
5196.063927794006
 31
0.0
  0
LINE
  5
22F
330
1EA
100
AcDbEntity
  8
0
100
AcDbLine
 10
1146.605080281311
 20
5216.067704347778
 30
0.0
 11
903.8669360701241
 21
5216.067704347778
 31
0.0
  0
LINE
  5
230
330
1EA
100
AcDbEntity
  8
0
100
AcDbLine
 10
903.8669360701241
 20
5196.063927794006
 30
0.0
 11
1146.605080281311
 21
5196.063927794006
 31
0.0
  0
ARC
  5
231
102
{ACAD_REACTORS
330
1EF
102
}
330
1EA
100
AcDbEntity
  8
0
100
AcDbCircle
 10
1661.737289004857
 20
4444.351563748511
 30
0.0
 40
327.0140425069816
100
AcDbArc
 50
305.0185601198916
 51
54.98143988010836
  0
ARC
  5
232
102
{ACAD_REACTORS
330
1EF
102
}
330
1EA
100
AcDbEntity
  8
0
100
AcDbCircle
 10
1667.437347763592
 20
4444.255325648242
 30
0.0
 40
250.6338872619529
100
AcDbArc
 50
316.5501226236148
 51
43.44987737638512
  0
ARC
  5
233
330
1EA
100
AcDbEntity
  8
0
100
AcDbCircle
 10
1267.281704476303
 20
4039.362908621013
 30
0.0
 40
268.9014565588423
100
AcDbArc
 50
220.7563149163707
 51
319.2436850836291
  0
ARC
  5
234
330
1EA
100
AcDbEntity
  8
0
100
AcDbCircle
 10
1267.281704476299
 20
4045.598910658249
 30
0.0
 40
309.1438787374797
100
AcDbArc
 50
216.0174788174061
 51
323.9825211825938
  0
LINE
  5
235
330
1EA
100
AcDbEntity
  8
0
100
AcDbLine
 10
1537.332687952166
 20
3863.812409313089
 30
0.0
 11
1537.332687952166
 21
2004.794774916285
 31
0.0
  0
LINE
  5
236
330
1EA
100
AcDbEntity
  8
0
100
AcDbLine
 10
1537.332687952166
 20
2004.794774916285
 30
0.0
 11
1517.995703950189
 21
2004.794774916285
 31
0.0
  0
LINE
  5
237
330
1EA
100
AcDbEntity
  8
0
100
AcDbLine
 10
1517.995703950189
 20
2004.794774916285
 30
0.0
 11
1517.995703950189
 21
3863.812409313089
 31
0.0
  0
LINE
  5
238
330
1EA
100
AcDbEntity
  8
0
100
AcDbLine
 10
1000.564683759403
 20
3863.812409313089
 30
0.0
 11
1000.564683759388
 21
2004.794774916285
 31
0.0
  0
LINE
  5
239
330
1EA
100
AcDbEntity
  8
0
100
AcDbLine
 10
1000.564683759388
 20
2004.794774916285
 30
0.0
 11
1019.901667761376
 21
2004.794774916292
 31
0.0
  0
LINE
  5
23A
330
1EA
100
AcDbEntity
  8
0
100
AcDbLine
 10
1019.901667761376
 20
2004.794774916292
 30
0.0
 11
1019.901667761376
 21
3863.812409313089
 31
0.0
  0
LINE
  5
23B
330
1EA
100
AcDbEntity
  8
0
100
AcDbLine
 10
1517.995703950189
 20
2088.810636442111
 30
0.0
 11
1505.326645466138
 21
2088.810636442111
 31
0.0
  0
LINE
  5
23C
330
1EA
100
AcDbEntity
  8
0
100
AcDbLine
 10
1505.326645466138
 20
2088.810636442111
 30
0.0
 11
1489.323624223121
 21
2091.47780664928
 31
0.0
  0
LINE
  5
23D
330
1EA
100
AcDbEntity
  8
0
100
AcDbLine
 10
1489.323624223121
 20
2091.47780664928
 30
0.0
 11
1475.32098063549
 21
2098.812524718996
 31
0.0
  0
LINE
  5
23E
330
1EA
100
AcDbEntity
  8
0
100
AcDbLine
 10
1475.32098063549
 20
2098.812524718996
 30
0.0
 11
1461.985129599641
 21
2112.815168306631
 31
0.0
  0
LINE
  5
23F
330
1EA
100
AcDbEntity
  8
0
100
AcDbLine
 10
1461.985129599641
 20
2112.815168306631
 30
0.0
 11
1446.648900908421
 21
2139.486870378321
 31
0.0
  0
LINE
  5
240
330
1EA
100
AcDbEntity
  8
0
100
AcDbLine
 10
1446.648900908421
 20
2139.486870378321
 30
0.0
 11
1425.97833180286
 21
2164.158194794639
 31
0.0
  0
LINE
  5
241
330
1EA
100
AcDbEntity
  8
0
100
AcDbLine
 10
1425.97833180286
 20
2164.158194794639
 30
0.0
 11
1398.639837179376
 21
2181.494801141234
 31
0.0
  0
LINE
  5
242
330
1EA
100
AcDbEntity
  8
0
100
AcDbLine
 10
1398.639837179376
 20
2181.494801141234
 30
0.0
 11
1360.63266172722
 21
2188.829519210951
 31
0.0
  0
LINE
  5
243
330
1EA
100
AcDbEntity
  8
0
100
AcDbLine
 10
1360.63266172722
 20
2188.829519210951
 30
0.0
 11
1268.615289579887
 21
2190.49650059043
 31
0.0
  0
LINE
  5
244
330
1EA
100
AcDbEntity
  8
0
100
AcDbLine
 10
1268.615289579887
 20
2190.49650059043
 30
0.0
 11
1177.264709984352
 21
2188.829519210951
 31
0.0
  0
LINE
  5
245
330
1EA
100
AcDbEntity
  8
0
100
AcDbLine
 10
1177.264709984352
 20
2188.829519210951
 30
0.0
 11
1145.258667498324
 21
2183.495178796613
 31
0.0
  0
LINE
  5
246
330
1EA
100
AcDbEntity
  8
0
100
AcDbLine
 10
1145.258667498324
 20
2183.495178796613
 30
0.0
 11
1117.253380323047
 21
2168.825742657179
 31
0.0
  0
LINE
  5
247
330
1EA
100
AcDbEntity
  8
0
100
AcDbLine
 10
1117.253380323047
 20
2168.825742657179
 30
0.0
 11
1091.248470803148
 21
2139.486870378321
 31
0.0
  0
LINE
  5
248
330
1EA
100
AcDbEntity
  8
0
100
AcDbLine
 10
1091.248470803148
 20
2139.486870378321
 30
0.0
 11
1075.245449560134
 21
2112.815168306631
 31
0.0
  0
LINE
  5
249
330
1EA
100
AcDbEntity
  8
0
100
AcDbLine
 10
1075.245449560134
 20
2112.815168306631
 30
0.0
 11
1065.243561283248
 21
2100.812902374368
 31
0.0
  0
LINE
  5
24A
330
1EA
100
AcDbEntity
  8
0
100
AcDbLine
 10
1065.243561283248
 20
2100.812902374368
 30
0.0
 11
1051.240917695613
 21
2092.14459920107
 31
0.0
  0
LINE
  5
24B
330
1EA
100
AcDbEntity
  8
0
100
AcDbLine
 10
1051.240917695613
 20
2092.14459920107
 30
0.0
 11
1032.57072624543
 21
2088.810636442111
 31
0.0
  0
LINE
  5
24C
330
1EA
100
AcDbEntity
  8
0
100
AcDbLine
 10
1032.57072624543
 20
2088.810636442111
 30
0.0
 11
1019.901667761376
 21
2088.810636442111
 31
0.0
  0
LINE
  5
24D
330
1EA
100
AcDbEntity
  8
0
100
AcDbLine
 10
1735.455142636237
 20
5604.304942966526
 30
0.0
 11
1776.711214045586
 21
5820.181756271558
 31
0.0
  0
LINE
  5
24E
330
1EA
100
AcDbEntity
  8
0
100
AcDbLine
 10
1708.90804160112
 20
5574.376686844146
 30
0.0
 11
1678.829432290382
 21
5416.342802724888
 31
0.0
  0
LINE
  5
24F
330
1EA
100
AcDbEntity
  8
0
100
AcDbLine
 10
1698.759100451156
 20
5412.288971081551
 30
0.0
 11
1729.039515165597
 21
5570.734484936933
 31
0.0
  0
LINE
  5
250
330
1EA
100
AcDbEntity
  8
0
100
AcDbLine
 10
1672.340352677558
 20
5382.248990574895
 30
0.0
 11
1642.37552715939
 21
5224.812929795968
 31
0.0
  0
LINE
  5
251
330
1EA
100
AcDbEntity
  8
0
100
AcDbLine
 10
1662.267517684449
 20
5221.342855006427
 30
0.0
 11
1692.33757581532
 21
5378.687655503309
 31
0.0
  0
LINE
  5
252
330
1EA
100
AcDbEntity
  8
0
100
AcDbLine
 10
1635.976635778803
 20
5191.192969229167
 30
0.0
 11
1605.47684090455
 21
5030.946163965571
 31
0.0
  0
HATCH
  5
253
330
1EA
100
AcDbEntity
  8
0
 62
    50
100
AcDbHatch
 10
0.0
 20
0.0
 30
0.0
210
0.0
220
0.0
230
1.0
  2
SOLID
 70
     1
 71
     0
 91
       15
 92
        7
 72
     1
 73
     1
 93
        5
 10
1776.711214045586
 20
5820.181756271558
 42
0.0
 10
1756.707437491815
 20
5825.516096685896
 42
0.0
 10
1715.370934432241
 20
5608.332912884929
 42
-0.0851023481420786
 10
1722.034224798619
 20
5609.475309905203
 42
-0.1859621584946757
 10
1735.455142636237
 20
5604.304942966526
 42
0.0
 97
        0
 92
        7
 72
     1
 73
     1
 93
        6
 10
1729.039515165597
 20
5570.734484936933
 42
-0.0896850285161526
 10
1722.034224798619
 20
5569.467756797669
 42
-0.1808726405839401
 10
1708.90804160112
 20
5574.376686844146
 42
0.0
 10
1678.829432290382
 20
5416.342802724888
 42
-0.0833413142280533
 10
1685.360634450044
 20
5417.439054989038
 42
-0.1855709679467075
 10
1698.759100451156
 20
5412.288971081551
 42
0.0
 97
        0
 92
        7
 72
     1
 73
     1
 93
        6
 10
1692.33757581532
 20
5378.687655503309
 42
-0.0893038586945105
 10
1685.360634450044
 20
5377.431501881495
 42
-0.1790673735504051
 10
1672.340352677558
 20
5382.248990574895
 42
0.0
 10
1642.37552715939
 20
5224.812929795968
 42
-0.0893222485011883
 10
1649.353836653267
 20
5226.069592624662
 42
-0.1772621847634118
 10
1662.267517684449
 20
5221.342855006427
 42
0.0
 97
        0
 92
        7
 72
     1
 73
     1
 93
        5
 10
1655.724047380746
 20
5187.103445657339
 42
-0.0812013531982661
 10
1649.353836653267
 20
5186.062039517121
 42
-0.1852009961545732
 10
1635.976635778803
 20
5191.192969229167
 42
0.0
 10
1605.834535162965
 20
5032.825499954823
 42
-0.2685811292006837
 10
1625.571256131148
 20
5029.325735253733
 42
0.0
 97
        0
 92
        7
 72
     1
 73
     1
 93
        5
 10
1419.31371153974
 20
5605.684418152828
 42
0.0
 10
1441.31456049408
 20
5821.515341375139
 42
0.0
 10
1421.310783940316
 20
5824.182511582308
 42
0.0
 10
1399.380265683226
 20
5607.710087245287
 42
-0.10621125263883
 10
1407.596483077774
 20
5609.475309905203
 42
-0.1577406454984231
 97
        0
 92
        7
 72
     1
 73
     1
 93
        6
 10
1399.791082894131
 20
5413.573444778478
 42
0.0
 10
1415.812700472328
 20
5571.232979457593
 42
-0.1062112526389573
 10
1407.596483077774
 20
5569.467756797669
 42
-0.1577406454982801
 10
1395.879254615818
 20
5573.258648550036
 42
0.0
 10
1379.870474561772
 20
5415.725440571441
 42
-0.1046122499629626
 10
1387.971156350704
 20
5417.439054989038
 42
-0.1593677876891822
 97
        0
 92
        7
 72
     1
 73
     1
 93
        6
 10
1380.351400810686
 20
5222.278700872288
 42
0.0
 10
1396.303003190172
 20
5379.249256202332
 42
-0.1078166695744589
 10
1387.971156350704
 20
5377.431501881495
 42
-0.1561202689644205
 10
1376.356719809497
 20
5381.148598594257
 42
0.0
 10
1360.417954954177
 20
5224.304369964738
 42
-0.106211252638881
 10
1368.634172348727
 20
5226.069592624662
 42
-0.1577406454983651
 97
        0
 92
        7
 72
     1
 73
     1
 93
        5
 10
1277.670198455372
 20
5031.745714094417
 42
0.0
 10
1277.317392212702
 20
5188.391685839582
 42
-0.1224641477092257
 10
1267.948497028097
 20
5186.062039517121
 42
-0.1206628716633466
 10
1258.705326416555
 20
5188.32561107041
 42
0.0
 10
1259.409906247005
 20
5031.908888710518
 42
-0.2415336677682219
 97
        0
 92
        7
 72
     1
 73
     1
 93
        6
 10
1152.211630486544
 20
5222.278700872288
 42
-0.1577406454983381
 10
1163.928858948504
 20
5226.069592624662
 42
-0.1062112526390083
 10
1172.145076343062
 20
5224.304369964731
 42
0.0
 10
1156.206311487738
 20
5381.148598594257
 42
-0.1561202689644513
 10
1144.591874946527
 20
5377.431501881495
 42
-0.1078166695745329
 10
1136.260028107055
 20
5379.249256202332
 42
0.0
 97
        0
 92
        7
 72
     1
 73
     1
 93
        6
 10
1144.591874946527
 20
5417.439054989038
 42
-0.104612249963011
 10
1152.692556735462
 20
5415.725440571441
 42
0.0
 10
1136.703186905004
 20
5573.067643690286
 42
-0.1535182735215436
 10
1125.254890944554
 20
5569.467756797669
 42
-0.1104223275205014
 10
1116.736173642842
 20
5571.372292153348
 42
0.0
 10
1132.771948403096
 20
5413.573444778478
 42
-0.1593677876892712
 97
        0
 92
        7
 72
     1
 73
     1
 93
        5
 10
1125.254890944554
 20
5609.475309905203
 42
-0.102044031375449
 10
1133.169249921975
 20
5607.843087406269
 42
0.0
 10
1111.252247356918
 20
5823.515719030518
 42
0.0
 10
1091.248470803148
 20
5821.515341375139
 42
0.0
 10
1113.269371471095
 20
5605.487100758328
 42
-0.1620092734141219
 97
        0
 92
        7
 72
     1
 73
     1
 93
        5
 10
811.862391602197
 20
5609.475309905203
 42
-0.079198403321382
 10
818.0814503454566
 20
5608.484013062437
 42
0.0
 10
775.8555938054159
 20
5825.516096685896
 42
0.0
 10
755.8363680306284
 20
5821.594201577966
 42
0.0
 10
798.4102735563974
 20
5604.276653968817
 42
-0.1865067590877368
 97
        0
 92
        7
 72
     1
 73
     1
 93
        6
 10
835.989564388794
 20
5412.454005242238
 42
-0.1823652781536637
 10
849.2027745025625
 20
5417.439054989038
 42
-0.0827944421143663
 10
855.6928847310336
 20
5416.356947115258
 42
0.0
 10
824.7915216265319
 20
5574.207566854253
 42
-0.1775230658767542
 10
811.862391602197
 20
5569.467756797669
 42
-0.0878853185701973
 10
804.9911088051594
 20
5570.684927773625
 42
0.0
 97
        0
 92
        7
 72
     1
 73
     1
 93
        6
 10
873.4581632324479
 20
5221.19638129403
 42
-0.1801690726475175
 10
886.543157402928
 20
5226.069592624662
 42
-0.0845485779383144
 10
893.1649506803223
 20
5224.941804262358
 42
0.0
 10
862.3487049848263
 20
5382.357626490462
 42
-0.181210605973591
 10
849.2027745025625
 20
5377.431501881495
 42
-0.0838505500870652
 10
842.6333394500252
 20
5378.541004183426
 42
0.0
 97
        0
 92
        7
 72
     1
 73
     1
 93
        5
 10
911.1362964167055
 20
5028.869193995291
 42
-0.2684352454930941
 10
930.7293314507187
 20
5033.055098013589
 42
0.0
 10
899.7938253933243
 20
5191.080127090347
 42
-0.1830103166745941
 10
886.543157402928
 20
5186.062039517121
 42
-0.0817096404766589
 10
880.134660484131
 20
5187.116350546639
 42
0.0
 97
        0
 75
     0
 76
     1
 47
3.667923569414485
 98
       15
 10
1745.746862594165
 20
5730.257632334418
 10
1705.399738184173
 20
5495.41169986112
 10
1668.720475679594
 20
5315.607807691929
 10
1632.041277520064
 20
5121.126064647709
 10
1411.96583118266
 20
5664.207183969477
 10
1393.626199930364
 20
5488.072814232691
 10
1378.95449492853
 20
5333.955180999364
 10
1265.248909854443
 20
5146.812323583574
 10
1151.543260435279
 20
5304.599399631108
 10
1133.203629182982
 20
5499.081222293512
 10
1114.863997930686
 20
5700.901930584347
 10
799.4225977714923
 20
5686.224000091133
 10
828.7659434300985
 20
5513.759073168556
 10
865.4452059346914
 20
5311.938364877722
 10
902.1244684392696
 20
5121.126064647709
  0
LINE
  5
254
330
1EA
100
AcDbEntity
  8
0
100
AcDbLine
 10
1537.332687952166
 20
2934.303592114687
 30
0.0
 11
1517.995703950189
 21
2934.303592114687
 31
0.0
  0
LINE
  5
255
330
1EA
100
AcDbEntity
  8
0
100
AcDbLine
 10
1000.564683759396
 20
2934.303592114687
 30
0.0
 11
1019.901667761376
 21
2934.303592114694
 31
0.0
  0
HATCH
  5
256
330
1EA
100
AcDbEntity
  8
0
 62
   250
100
AcDbHatch
 10
0.0
 20
0.0
 30
0.0
210
0.0
220
0.0
230
1.0
  2
SOLID
 70
     1
 71
     0
 91
       23
 92
        7
 72
     1
 73
     1
 93
        2
 10
1722.034224798619
 20
5609.475309905203
 42
1.0
 10
1722.034224798619
 20
5569.467756797661
 42
1.0
 97
        0
 92
        7
 72
     1
 73
     1
 93
        2
 10
1685.360634450044
 20
5377.431501881495
 42
1.0
 10
1685.360634450044
 20
5417.439054989038
 42
1.0
 97
        0
 92
        7
 72
     1
 73
     1
 93
        2
 10
1649.353836653267
 20
5226.069592624662
 42
1.0
 10
1649.353836653267
 20
5186.062039517121
 42
1.0
 97
        0
 92
        7
 72
     1
 73
     1
 93
        4
 10
1632.03005798607
 20
5196.063927794006
 42
-0.2679491924310617
 10
1632.03005798607
 20
5216.067704347778
 42
0.0
 10
1385.957951015923
 20
5216.067704347778
 42
-0.2679491924310617
 10
1385.957951015923
 20
5196.063927794006
 42
0.0
 97
        0
 92
        7
 72
     1
 73
     1
 93
        4
 10
1668.036855782855
 20
5387.433390158374
 42
-0.2679491924311883
 10
1668.036855782855
 20
5407.437166712153
 42
0.0
 10
1405.294935017897
 20
5407.437166712153
 42
-0.2679491924311883
 10
1405.294935017897
 20
5387.433390158374
 42
0.0
 97
        0
 92
        7
 72
     1
 73
     1
 93
        4
 10
1704.710446131426
 20
5579.469645074554
 42
-0.2679491924310617
 10
1704.710446131426
 20
5599.473421628317
 42
0.0
 10
1424.92026174497
 20
5599.473421628317
 42
-0.2679491924310617
 10
1424.92026174497
 20
5579.469645074554
 42
0.0
 97
        0
 92
        7
 72
     1
 73
     1
 93
        2
 10
1407.596483077774
 20
5569.467756797669
 42
1.0
 10
1407.596483077774
 20
5609.475309905203
 42
1.0
 97
        0
 92
        7
 72
     1
 73
     1
 93
        2
 10
1387.971156350704
 20
5377.431501881495
 42
1.0
 10
1387.971156350704
 20
5417.439054989038
 42
1.0
 97
        0
 92
        7
 72
     1
 73
     1
 93
        2
 10
1368.634172348727
 20
5226.069592624662
 42
1.0
 10
1368.634172348727
 20
5186.062039517121
 42
1.0
 97
        0
 92
        7
 72
     1
 73
     1
 93
        4
 10
1351.310393681531
 20
5196.063927794006
 42
-0.2679491924310617
 10
1351.310393681531
 20
5216.067704347778
 42
0.0
 10
1285.272275695293
 20
5216.067704347778
 42
-0.2679491924310617
 10
1285.272275695293
 20
5196.063927794006
 42
0.0
 97
        0
 92
        7
 72
     1
 73
     1
 93
        2
 10
1267.948497028097
 20
5226.069592624662
 42
1.0
 10
1267.948497028097
 20
5186.062039517121
 42
1.0
 97
        0
 92
        7
 72
     1
 73
     1
 93
        4
 10
1250.624718360904
 20
5196.063927794006
 42
-0.2679491924310617
 10
1250.624718360904
 20
5216.067704347778
 42
0.0
 10
1181.252637615696
 20
5216.067704347778
 42
-0.2679491924310617
 10
1181.252637615696
 20
5196.063927794006
 42
0.0
 97
        0
 92
        7
 72
     1
 73
     1
 93
        2
 10
1163.928858948504
 20
5186.062039517121
 42
1.0
 10
1163.928858948504
 20
5226.069592624662
 42
1.0
 97
        0
 92
        7
 72
     1
 73
     1
 93
        4
 10
1146.605080281311
 20
5196.063927794006
 42
-0.2679491924310617
 10
1146.605080281311
 20
5216.067704347778
 42
0.0
 10
903.8669360701241
 20
5216.067704347778
 42
-0.2679491924310617
 10
903.8669360701241
 20
5196.063927794006
 42
0.0
 97
        0
 92
        7
 72
     1
 73
     1
 93
        4
 10
1370.647377683511
 20
5387.433390158374
 42
-0.2679491924311883
 10
1370.647377683511
 20
5407.437166712153
 42
0.0
 10
1161.915653613719
 20
5407.437166712153
 42
-0.2679491924311883
 10
1161.915653613719
 20
5387.433390158374
 42
0.0
 97
        0
 92
        7
 72
     1
 73
     1
 93
        4
 10
1127.268096279338
 20
5387.433390158374
 42
-0.2679491924311883
 10
1127.268096279338
 20
5407.437166712153
 42
0.0
 10
866.5265531697514
 20
5407.437166712153
 42
-0.2679491924311883
 10
866.5265531697514
 20
5387.433390158374
 42
0.0
 97
        0
 92
        7
 72
     1
 73
     1
 93
        2
 10
1144.591874946527
 20
5377.431501881495
 42
1.0
 10
1144.591874946527
 20
5417.439054989038
 42
1.0
 97
        0
 92
        7
 72
     1
 73
     1
 93
        2
 10
886.543157402928
 20
5186.062039517121
 42
1.0
 10
886.543157402928
 20
5226.069592624662
 42
1.0
 97
        0
 92
        7
 72
     1
 73
     1
 93
        2
 10
849.2027745025625
 20
5417.439054989038
 42
1.0
 10
849.2027745025625
 20
5377.431501881495
 42
1.0
 97
        0
 92
        7
 72
     1
 73
     1
 93
        2
 10
811.862391602197
 20
5569.467756797669
 42
1.0
 10
811.862391602197
 20
5609.475309905203
 42
1.0
 97
        0
 92
        7
 72
     1
 73
     1
 93
        4
 10
1107.931112277357
 20
5579.469645074554
 42
-0.2679491924310617
 10
1107.931112277357
 20
5599.473421628317
 42
0.0
 10
829.1861702693932
 20
5599.473421628317
 42
-0.2679491924310617
 10
829.1861702693932
 20
5579.469645074554
 42
0.0
 97
        0
 92
        7
 72
     1
 73
     1
 93
        2
 10
1125.254890944554
 20
5569.467756797669
 42
1.0
 10
1125.254890944554
 20
5609.475309905203
 42
1.0
 97
        0
 92
        7
 72
     1
 73
     1
 93
        4
 10
1390.272704410577
 20
5579.469645074554
 42
-0.2679491924310617
 10
1390.272704410577
 20
5599.473421628317
 42
0.0
 10
1142.578669611746
 20
5599.473421628317
 42
-0.2679491924310617
 10
1142.578669611746
 20
5579.469645074554
 42
0.0
 97
        0
 75
     0
 76
     1
 47
2.764541729509131
 98
       23
 10
1725.063642454952
 20
5592.551855297075
 10
1683.595534425694
 20
5396.06464408541
 10
1650.421025153333
 20
5213.414529762907
 10
1573.013855891957
 20
5205.112271629412
 10
1539.839346619595
 20
5398.83206346324
 10
1545.368431498322
 20
5581.482141503613
 10
1404.376814692779
 20
5587.017016541409
 10
1382.260475177874
 20
5393.297224707573
 10
1371.202305420422
 20
5205.112271629412
 10
1310.382390795221
 20
5207.879691007241
 10
1268.914263725171
 20
5205.112271629412
 10
1210.858882018936
 20
5202.344815969445
 10
1158.33258519143
 20
5205.112271629412
 10
1111.335373242651
 20
5202.344815969445
 10
1304.853305916494
 20
5396.06464408541
 10
1033.928203981275
 20
5396.06464408541
 10
1138.980797636286
 20
5396.06464408541
 10
879.1138654585193
 20
5202.344815969445
 10
848.7039081459188
 20
5398.83206346324
 10
810.0003330356267
 20
5584.24959716358
 10
856.997544984406
 20
5589.784435919246
 10
1122.393543000107
 20
5587.017016541409
 10
1183.213457625304
 20
5592.551855297075
  0
HATCH
  5
257
330
1EA
100
AcDbEntity
  8
0
 62
   250
100
AcDbHatch
 10
0.0
 20
0.0
 30
0.0
210
0.0
220
0.0
230
1.0
  2
SOLID
 70
     1
 71
     1
 91
       13
 92
        7
 72
     1
 73
     1
 93
        2
 10
1669.357613207036
 20
5206.065816070892
 42
1.0
 10
1629.350060099496
 20
5206.065816070892
 42
1.0
 97
        1
330
1F9
 92
        7
 72
     1
 73
     1
 93
        2
 10
1705.364411003814
 20
5397.435278435267
 42
1.0
 10
1665.356857896273
 20
5397.435278435267
 42
1.0
 97
        1
330
1F8
 92
        7
 72
     1
 73
     1
 93
        2
 10
1742.038001352389
 20
5589.471533351432
 42
1.0
 10
1702.030448244848
 20
5589.471533351432
 42
1.0
 97
        1
330
1F7
 92
        7
 72
     1
 73
     1
 93
        2
 10
1427.600259631544
 20
5589.471533351432
 42
1.0
 10
1387.592706524003
 20
5589.471533351432
 42
1.0
 97
        1
330
1FC
 92
        7
 72
     1
 73
     1
 93
        2
 10
1407.974932904474
 20
5397.435278435267
 42
1.0
 10
1367.967379796934
 20
5397.435278435267
 42
1.0
 97
        1
330
1FB
 92
        7
 72
     1
 73
     1
 93
        2
 10
1388.637948902498
 20
5206.065816070892
 42
1.0
 10
1348.630395794957
 20
5206.065816070892
 42
1.0
 97
        1
330
1FA
 92
        7
 72
     1
 73
     1
 93
        2
 10
1287.952273581867
 20
5206.065816070892
 42
1.0
 10
1247.944720474327
 20
5206.065816070892
 42
1.0
 97
        1
330
1FD
 92
        7
 72
     1
 73
     1
 93
        2
 10
1183.932635502274
 20
5206.065816070892
 42
1.0
 10
1143.925082394733
 20
5206.065816070892
 42
1.0
 97
        1
330
1FE
 92
        7
 72
     1
 73
     1
 93
        2
 10
1164.595651500297
 20
5397.435278435267
 42
1.0
 10
1124.588098392756
 20
5397.435278435267
 42
1.0
 97
        1
330
1FF
 92
        7
 72
     1
 73
     1
 93
        2
 10
1145.258667498324
 20
5589.471533351432
 42
1.0
 10
1105.251114390783
 20
5589.471533351432
 42
1.0
 97
        1
330
200
 92
        7
 72
     1
 73
     1
 93
        2
 10
906.5469339566984
 20
5206.065816070892
 42
1.0
 10
866.5393808491577
 20
5206.065816070892
 42
1.0
 97
        1
330
201
 92
        7
 72
     1
 73
     1
 93
        2
 10
869.2065510563327
 20
5397.435278435267
 42
1.0
 10
829.1989979487922
 20
5397.435278435267
 42
1.0
 97
        1
330
202
 92
        7
 72
     1
 73
     1
 93
        2
 10
831.8661681559673
 20
5589.471533351432
 42
1.0
 10
791.8586150484267
 20
5589.471533351432
 42
1.0
 97
        1
330
203
 75
     0
 76
     1
 47
2.676158162350435
 98
       13
 10
1649.826324026136
 20
5209.684327813978
 10
1682.119663421617
 20
5388.952403495976
 10
1720.284517339842
 20
5591.731080978294
 10
1403.222599826178
 20
5588.792228541657
 10
1394.415318521667
 20
5388.952403495976
 10
1362.121979126186
 20
5206.745475377349
 10
1265.241941898948
 20
5209.684327813978
 10
1159.554642407991
 20
5206.745475377349
 10
1141.940079798969
 20
5397.768851959503
 10
1127.261283971715
 20
5591.731080978294
 10
880.6575597717564
 20
5212.623143968492
 10
848.3642203762755
 20
5400.70770439614
 10
816.0708809807948
 20
5582.914596232637
  0
HATCH
  5
258
330
1EA
100
AcDbEntity
  8
0
 62
   250
100
AcDbHatch
 10
0.0
 20
0.0
 30
0.0
210
0.0
220
0.0
230
1.0
  2
SOLID
 70
     1
 71
     0
 91
        4
 92
        7
 72
     1
 73
     1
 93
        4
 10
1632.03005798607
 20
5196.063927794006
 42
-0.2679491924310617
 10
1632.03005798607
 20
5216.067704347778
 42
0.0
 10
1385.957951015923
 20
5216.067704347778
 42
-0.2679491924310617
 10
1385.957951015923
 20
5196.063927794006
 42
0.0
 97
        0
 92
        7
 72
     1
 73
     1
 93
        4
 10
1351.310393681531
 20
5196.063927794006
 42
-0.2679491924310617
 10
1351.310393681531
 20
5216.067704347778
 42
0.0
 10
1285.272275695293
 20
5216.067704347778
 42
-0.2679491924310617
 10
1285.272275695293
 20
5196.063927794006
 42
0.0
 97
        0
 92
        7
 72
     1
 73
     1
 93
        4
 10
1250.624718360904
 20
5196.063927794006
 42
-0.2679491924310617
 10
1250.624718360904
 20
5216.067704347778
 42
0.0
 10
1181.252637615696
 20
5216.067704347778
 42
-0.2679491924310617
 10
1181.252637615696
 20
5196.063927794006
 42
0.0
 97
        0
 92
        7
 72
     1
 73
     1
 93
        4
 10
1146.605080281311
 20
5196.063927794006
 42
-0.2679491924310617
 10
1146.605080281311
 20
5216.067704347778
 42
0.0
 10
903.8669360701241
 20
5216.067704347778
 42
-0.2679491924310617
 10
903.8669360701241
 20
5196.063927794006
 42
0.0
 97
        0
 75
     0
 76
     1
 47
3.005531458579665
 98
        4
 10
1475.301164731619
 20
5206.651069278087
 10
1316.007993460065
 20
5206.651069278087
 10
1207.808870471595
 20
5209.659728530628
 10
1066.548873670922
 20
5203.642373743416
  0
HATCH
  5
259
330
1EA
100
AcDbEntity
  8
0
 62
   250
100
AcDbHatch
 10
0.0
 20
0.0
 30
0.0
210
0.0
220
0.0
230
1.0
  2
SOLID
 70
     1
 71
     0
 91
        3
 92
        7
 72
     1
 73
     1
 93
        4
 10
1668.036855782855
 20
5387.433390158374
 42
-0.2679491924311883
 10
1668.036855782855
 20
5407.437166712153
 42
0.0
 10
1405.294935017897
 20
5407.437166712153
 42
-0.2679491924311883
 10
1405.294935017897
 20
5387.433390158374
 42
0.0
 97
        0
 92
        7
 72
     1
 73
     1
 93
        4
 10
1370.647377683511
 20
5387.433390158374
 42
-0.2679491924311883
 10
1370.647377683511
 20
5407.437166712153
 42
0.0
 10
1161.915653613719
 20
5407.437166712153
 42
-0.2679491924311883
 10
1161.915653613719
 20
5387.433390158374
 42
0.0
 97
        0
 92
        7
 72
     1
 73
     1
 93
        4
 10
1127.268096279338
 20
5387.433390158374
 42
-0.2679491924311883
 10
1127.268096279338
 20
5407.437166712153
 42
0.0
 10
866.5265531697514
 20
5407.437166712153
 42
-0.2679491924311883
 10
866.5265531697514
 20
5387.433390158374
 42
0.0
 97
        0
 75
     0
 76
     1
 47
3.005531458579665
 98
        3
 10
1517.378616258866
 20
5393.188414603166
 10
1255.897367461937
 20
5402.21439236078
 10
943.3220894227197
 20
5399.20573310824
  0
HATCH
  5
25A
330
1EA
100
AcDbEntity
  8
0
 62
   250
100
AcDbHatch
 10
0.0
 20
0.0
 30
0.0
210
0.0
220
0.0
230
1.0
  2
SOLID
 70
     1
 71
     0
 91
        3
 92
        7
 72
     1
 73
     1
 93
        4
 10
1704.710446131426
 20
5579.469645074554
 42
-0.2679491924310617
 10
1704.710446131426
 20
5599.473421628317
 42
0.0
 10
1424.92026174497
 20
5599.473421628317
 42
-0.2679491924310617
 10
1424.92026174497
 20
5579.469645074554
 42
0.0
 97
        0
 92
        7
 72
     1
 73
     1
 93
        4
 10
1390.272704410577
 20
5579.469645074554
 42
-0.2679491924310617
 10
1390.272704410577
 20
5599.473421628317
 42
0.0
 10
1142.578669611746
 20
5599.473421628317
 42
-0.2679491924310617
 10
1142.578669611746
 20
5579.469645074554
 42
0.0
 97
        0
 92
        7
 72
     1
 73
     1
 93
        4
 10
1107.931112277357
 20
5579.469645074554
 42
-0.2679491924310617
 10
1107.931112277357
 20
5599.473421628317
 42
0.0
 10
829.1861702693932
 20
5599.473421628317
 42
-0.2679491924310617
 10
829.1861702693932
 20
5579.469645074554
 42
0.0
 97
        0
 75
     0
 76
     1
 47
3.005531458579665
 98
        3
 10
1538.417322981695
 20
5585.743078433319
 10
1322.019057963956
 20
5588.75173768586
 10
991.4105864130652
 20
5591.760396938401
  0
HATCH
  5
25B
330
1EA
100
AcDbEntity
  8
0
 62
    84
100
AcDbHatch
 10
0.0
 20
0.0
 30
0.0
210
0.0
220
0.0
230
1.0
  2
SOLID
 70
     1
 71
     1
 91
        1
 92
        1
 93
        4
 72
     1
 10
-2045.261443488511
 20
5024.698241983402
 11
-2045.261443488511
 21
3863.812409313089
 72
     1
 10
-2045.261443488511
 20
3863.812409313089
 11
-884.3756108182061
 21
3863.812409313089
 72
     1
 10
-884.3756108182061
 20
3863.812409313089
 11
-884.3756108182061
 21
5024.698241983402
 72
     1
 10
-884.3756108182061
 20
5024.698241983402
 11
-2045.261443488511
 21
5024.698241983402
 97
        1
330
25C
 75
     0
 76
     1
 98
        1
 10
-15637.03749451361
 20
-1988.150719077479
  0
LWPOLYLINE
  5
25C
102
{ACAD_REACTORS
330
25B
102
}
330
1EA
100
AcDbEntity
  8
0
100
AcDbPolyline
 90
        4
 70
     1
 43
0.0
 10
-2045.261443488511
 20
5024.698241983402
 10
-2045.261443488511
 20
3863.812409313089
 10
-884.3756108182061
 20
3863.812409313089
 10
-884.3756108182061
 20
5024.698241983402
  0
LWPOLYLINE
  5
25D
330
1EA
100
AcDbEntity
  8
0
100
AcDbPolyline
 90
        4
 70
     1
 43
0.0
 10
-1173.096785744248
 20
4735.977067057356
 10
-1173.096785744248
 20
4152.672699231953
 10
-1756.540268562468
 20
4152.672699231953
 10
-1756.540268562468
 20
4735.977067057356
  0
LINE
  5
25E
330
1EA
100
AcDbEntity
  8
0
100
AcDbLine
 10
-884.3756108182024
 20
5024.698241983394
 30
0.0
 11
-2045.261443488511
 21
3863.812409313089
 31
0.0
  0
LINE
  5
25F
330
1EA
100
AcDbEntity
  8
0
100
AcDbLine
 10
-884.3756108182024
 20
3863.812409313089
 30
0.0
 11
-2045.261443488511
 21
5024.698241983394
 31
0.0
  0
LINE
  5
260
330
1EA
100
AcDbEntity
  8
0
100
AcDbLine
 10
-884.3756108182061
 20
4713.39174656749
 30
0.0
 11
-497.9599525228986
 21
4713.39174656749
 31
0.0
  0
LWPOLYLINE
  5
261
102
{ACAD_REACTORS
330
1EE
102
}
330
1EA
100
AcDbEntity
  8
0
100
AcDbPolyline
 90
        4
 70
     1
 43
0.0
 10
-497.9599525228986
 20
4718.297879240497
 10
-417.3592014663554
 20
4718.297879240497
 10
-417.3592014663554
 20
4170.212772055995
 10
-497.9599525228986
 20
4170.212772055995
  0
LWPOLYLINE
  5
262
102
{ACAD_REACTORS
330
1EE
102
}
330
1EA
100
AcDbEntity
  8
0
100
AcDbPolyline
 90
        4
 70
     1
 43
0.0
 10
222.5406743129933
 20
4170.212772055987
 10
302.4405492733931
 20
4170.212772055987
 10
302.4405492733931
 20
4718.297879240497
 10
222.5406743129933
 20
4718.297879240497
  0
LINE
  5
263
330
1EA
100
AcDbEntity
  8
0
100
AcDbLine
 10
-884.3756108182061
 20
4636.996252087796
 30
0.0
 11
-497.9599525228986
 21
4636.996252087803
 31
0.0
  0
LINE
  5
264
330
1EA
100
AcDbEntity
  8
0
100
AcDbLine
 10
-884.3756108182061
 20
4520.650820127921
 30
0.0
 11
-497.9599525228986
 21
4520.650820127921
 31
0.0
  0
LINE
  5
265
330
1EA
100
AcDbEntity
  8
0
100
AcDbLine
 10
-884.3756108182024
 20
4175.118904728996
 30
0.0
 11
-497.9599525228986
 21
4175.118904728996
 31
0.0
  0
LINE
  5
266
330
1EA
100
AcDbEntity
  8
0
100
AcDbLine
 10
-884.3756108182061
 20
4251.514399208689
 30
0.0
 11
-497.9599525228986
 21
4251.514399208681
 31
0.0
  0
LINE
  5
267
330
1EA
100
AcDbEntity
  8
0
100
AcDbLine
 10
-884.3756108182061
 20
4367.859831168564
 30
0.0
 11
-497.9599525228986
 21
4367.859831168564
 31
0.0
  0
HATCH
  5
268
330
1EA
100
AcDbEntity
  8
0
 62
    84
100
AcDbHatch
 10
0.0
 20
0.0
 30
0.0
210
0.0
220
0.0
230
1.0
  2
SOLID
 70
     1
 71
     1
 91
        1
 92
        1
 93
        4
 72
     1
 10
688.5057695206305
 20
5024.698241983402
 11
688.5057695206305
 21
3863.812409313089
 72
     1
 10
688.5057695206305
 20
3863.812409313089
 11
1849.391602190935
 21
3863.812409313089
 72
     1
 10
1849.391602190935
 20
3863.812409313089
 11
1849.391602190935
 21
5024.698241983402
 72
     1
 10
1849.391602190935
 20
5024.698241983402
 11
688.5057695206305
 21
5024.698241983402
 97
        1
330
269
 75
     0
 76
     1
 98
        1
 10
-12903.27028150446
 20
-1988.150719077479
  0
LWPOLYLINE
  5
269
102
{ACAD_REACTORS
330
1EF
330
268
102
}
330
1EA
100
AcDbEntity
  8
0
100
AcDbPolyline
 90
        4
 70
     1
 43
0.0
 10
688.5057695206305
 20
5024.698241983402
 10
688.5057695206305
 20
3863.812409313089
 10
1849.391602190935
 20
3863.812409313089
 10
1849.391602190935
 20
5024.698241983402
  0
LWPOLYLINE
  5
26A
330
1EA
100
AcDbEntity
  8
0
100
AcDbPolyline
 90
        4
 70
     1
 43
0.0
 10
1560.670427264893
 20
4735.977067057356
 10
1560.670427264893
 20
4152.672699231953
 10
977.2269444466727
 20
4152.672699231953
 10
977.2269444466727
 20
4735.977067057356
  0
LINE
  5
26B
330
1EA
100
AcDbEntity
  8
0
100
AcDbLine
 10
1849.391602190939
 20
5024.698241983394
 30
0.0
 11
688.5057695206305
 21
3863.812409313089
 31
0.0
  0
LINE
  5
26C
330
1EA
100
AcDbEntity
  8
0
100
AcDbLine
 10
1849.391602190939
 20
3863.812409313089
 30
0.0
 11
688.5057695206305
 21
5024.698241983394
 31
0.0
  0
ARC
  5
26D
330
1EA
100
AcDbEntity
  8
0
100
AcDbCircle
 10
1268.381011115743
 20
5014.029561154726
 30
0.0
 40
20.00377655377027
100
AcDbArc
 50
32.23095263545475
 51
147.7690473645452
  0
ARC
  5
26E
330
1EA
100
AcDbEntity
  8
0
100
AcDbCircle
 10
1612.680246304691
 20
5014.029561154726
 30
0.0
 40
20.00377655376609
100
AcDbArc
 50
32.23095263545475
 51
147.7690473645452
  0
ARC
  5
26F
330
1EA
100
AcDbEntity
  8
0
100
AcDbCircle
 10
924.5503328550839
 20
5014.029561154726
 30
0.0
 40
20.00377655376609
100
AcDbArc
 50
32.23095263545475
 51
147.7690473645452
  0
LINE
  5
270
330
1EA
100
AcDbEntity
  8
0
100
AcDbLine
 10
1882.731229780555
 20
4685.390693636553
 30
0.0
 11
1882.731229780555
 21
4719.307253262551
 31
0.0
  0
LINE
  5
271
330
1EA
100
AcDbEntity
  8
0
100
AcDbLine
 10
1882.731229780555
 20
4719.307253262551
 30
0.0
 11
1857.393112812449
 21
4719.307253262551
 31
0.0
  0
LINE
  5
272
330
1EA
100
AcDbEntity
  8
0
100
AcDbLine
 10
1857.393112812449
 20
4719.307253262551
 30
0.0
 11
1857.393112812449
 21
4706.376338544578
 31
0.0
  0
LINE
  5
273
330
1EA
100
AcDbEntity
  8
0
100
AcDbLine
 10
1882.731229780555
 20
4203.312433860468
 30
0.0
 11
1882.731229780555
 21
4169.20339803394
 31
0.0
  0
LINE
  5
274
330
1EA
100
AcDbEntity
  8
0
100
AcDbLine
 10
1882.731229780555
 20
4169.20339803394
 30
0.0
 11
1857.393112812449
 21
4169.20339803394
 31
0.0
  0
LINE
  5
275
330
1EA
100
AcDbEntity
  8
0
100
AcDbLine
 10
1857.393112812449
 20
4169.20339803394
 30
0.0
 11
1857.393112812449
 21
4182.326788952443
 31
0.0
  0
LINE
  5
276
330
1EA
100
AcDbEntity
  8
0
100
AcDbLine
 10
-2045.261443488511
 20
4769.361269012558
 30
0.0
 11
-2852.99895023623
 21
4769.361269012558
 31
0.0
  0
LINE
  5
277
330
1EA
100
AcDbEntity
  8
0
100
AcDbLine
 10
-2852.99895023623
 20
4769.361269012558
 30
0.0
 11
-2852.99895023623
 21
4749.383340374232
 31
0.0
  0
LINE
  5
278
330
1EA
100
AcDbEntity
  8
0
100
AcDbLine
 10
-2852.99895023623
 20
4749.383340374232
 30
0.0
 11
-2045.261443488511
 21
4749.383340374232
 31
0.0
  0
LINE
  5
279
330
1EA
100
AcDbEntity
  8
0
100
AcDbLine
 10
-2045.261443488511
 20
4118.917080788131
 30
0.0
 11
-2852.99895023623
 21
4118.917080788131
 31
0.0
  0
LINE
  5
27A
330
1EA
100
AcDbEntity
  8
0
100
AcDbLine
 10
-2852.99895023623
 20
4118.917080788131
 30
0.0
 11
-2852.99895023623
 21
4138.895009426458
 31
0.0
  0
LINE
  5
27B
330
1EA
100
AcDbEntity
  8
0
100
AcDbLine
 10
-2852.99895023623
 20
4138.895009426458
 30
0.0
 11
-2045.261443488511
 21
4138.895009426458
 31
0.0
  0
LINE
  5
27C
330
1EA
100
AcDbEntity
  8
0
100
AcDbLine
 10
-2852.99895023623
 20
4138.895009426458
 30
0.0
 11
-2852.99895023623
 21
4159.337541056367
 31
0.0
  0
LINE
  5
27D
330
1EA
100
AcDbEntity
  8
0
100
AcDbLine
 10
-2852.99895023623
 20
4159.337541056367
 30
0.0
 11
-2045.261443488511
 21
4159.337541056367
 31
0.0
  0
LINE
  5
27E
330
1EA
100
AcDbEntity
  8
0
100
AcDbLine
 10
-2852.99895023623
 20
4749.383340374232
 30
0.0
 11
-2852.99895023623
 21
4729.405411735904
 31
0.0
  0
LINE
  5
27F
330
1EA
100
AcDbEntity
  8
0
100
AcDbLine
 10
-2852.99895023623
 20
4729.405411735904
 30
0.0
 11
-2045.261443488511
 21
4729.405411735904
 31
0.0
  0
LINE
  5
280
330
1EA
100
AcDbEntity
  8
0
100
AcDbLine
 10
-2045.261443488511
 20
4452.139174900344
 30
0.0
 11
-2880.875129731561
 21
4452.139174900344
 31
0.0
  0
LINE
  5
281
330
1EA
100
AcDbEntity
  8
0
100
AcDbLine
 10
-2045.261443488511
 20
4436.139174900345
 30
0.0
 11
-2880.875129731561
 21
4436.139174900345
 31
0.0
  0
ARC
  5
282
330
1EA
100
AcDbEntity
  8
0
100
AcDbCircle
 10
-2880.875129731561
 20
4444.139174900345
 30
0.0
 40
8.0
100
AcDbArc
 50
90.0
 51
270.0
  0
LINE
  5
283
330
1EA
100
AcDbEntity
  8
0
100
AcDbLine
 10
-2120.449991256639
 20
4159.33754105636
 30
0.0
 11
-2120.449991256639
 21
4436.139174900352
 31
0.0
  0
LINE
  5
284
330
1EA
100
AcDbEntity
  8
0
100
AcDbLine
 10
-2233.206873388757
 20
4159.33754105636
 30
0.0
 11
-2233.206873388757
 21
4436.139174900352
 31
0.0
  0
LINE
  5
285
330
1EA
100
AcDbEntity
  8
0
100
AcDbLine
 10
-2339.655335373187
 20
4159.33754105636
 30
0.0
 11
-2339.655335373187
 21
4436.139174900352
 31
0.0
  0
LINE
  5
286
330
1EA
100
AcDbEntity
  8
0
100
AcDbLine
 10
-2438.116621375215
 20
4159.33754105636
 30
0.0
 11
-2438.116621375215
 21
4436.139174900352
 31
0.0
  0
LINE
  5
287
330
1EA
100
AcDbEntity
  8
0
100
AcDbLine
 10
-2527.037938096647
 20
4159.33754105636
 30
0.0
 11
-2527.037938096647
 21
4436.139174900352
 31
0.0
  0
LINE
  5
288
330
1EA
100
AcDbEntity
  8
0
100
AcDbLine
 10
-2605.016943253751
 20
4159.33754105636
 30
0.0
 11
-2605.016943253751
 21
4436.139174900352
 31
0.0
  0
LINE
  5
289
330
1EA
100
AcDbEntity
  8
0
100
AcDbLine
 10
-2670.823861352837
 20
4159.33754105636
 30
0.0
 11
-2670.823861352837
 21
4436.139174900352
 31
0.0
  0
LINE
  5
28A
330
1EA
100
AcDbEntity
  8
0
100
AcDbLine
 10
-2723.420877984317
 20
4159.33754105636
 30
0.0
 11
-2723.420877984317
 21
4436.139174900352
 31
0.0
  0
LINE
  5
28B
330
1EA
100
AcDbEntity
  8
0
100
AcDbLine
 10
-2761.97850677598
 20
4159.33754105636
 30
0.0
 11
-2761.97850677598
 21
4436.139174900352
 31
0.0
  0
LINE
  5
28C
330
1EA
100
AcDbEntity
  8
0
100
AcDbLine
 10
-2785.888670888555
 20
4159.33754105636
 30
0.0
 11
-2785.888670888555
 21
4436.139174900352
 31
0.0
  0
LINE
  5
28D
330
1EA
100
AcDbEntity
  8
0
100
AcDbLine
 10
-2794.774292750764
 20
4159.33754105636
 30
0.0
 11
-2794.774292750779
 21
4436.139174900352
 31
0.0
  0
LINE
  5
28E
330
1EA
100
AcDbEntity
  8
0
100
AcDbLine
 10
-2794.774292750779
 20
4452.139174900344
 30
0.0
 11
-2794.774292750764
 21
4729.405411735904
 31
0.0
  0
LINE
  5
28F
330
1EA
100
AcDbEntity
  8
0
100
AcDbLine
 10
-2785.888670888555
 20
4452.139174900344
 30
0.0
 11
-2785.888670888555
 21
4729.405411735904
 31
0.0
  0
LINE
  5
290
330
1EA
100
AcDbEntity
  8
0
100
AcDbLine
 10
-2761.97850677598
 20
4452.139174900344
 30
0.0
 11
-2761.97850677598
 21
4729.405411735904
 31
0.0
  0
LINE
  5
291
330
1EA
100
AcDbEntity
  8
0
100
AcDbLine
 10
-2723.420877984317
 20
4452.139174900344
 30
0.0
 11
-2723.420877984317
 21
4729.405411735904
 31
0.0
  0
LINE
  5
292
330
1EA
100
AcDbEntity
  8
0
100
AcDbLine
 10
-2670.823861352837
 20
4452.139174900344
 30
0.0
 11
-2670.823861352837
 21
4729.405411735904
 31
0.0
  0
LINE
  5
293
330
1EA
100
AcDbEntity
  8
0
100
AcDbLine
 10
-2605.016943253751
 20
4452.139174900344
 30
0.0
 11
-2605.016943253751
 21
4729.405411735904
 31
0.0
  0
LINE
  5
294
330
1EA
100
AcDbEntity
  8
0
100
AcDbLine
 10
-2527.037938096647
 20
4452.139174900344
 30
0.0
 11
-2527.037938096647
 21
4729.405411735904
 31
0.0
  0
LINE
  5
295
330
1EA
100
AcDbEntity
  8
0
100
AcDbLine
 10
-2339.655335373187
 20
4452.139174900344
 30
0.0
 11
-2339.655335373187
 21
4729.405411735904
 31
0.0
  0
LINE
  5
296
330
1EA
100
AcDbEntity
  8
0
100
AcDbLine
 10
-2438.116621375215
 20
4452.139174900344
 30
0.0
 11
-2438.116621375215
 21
4729.405411735904
 31
0.0
  0
LINE
  5
297
330
1EA
100
AcDbEntity
  8
0
100
AcDbLine
 10
-2233.206873388757
 20
4452.139174900344
 30
0.0
 11
-2233.206873388757
 21
4729.405411735904
 31
0.0
  0
LINE
  5
298
330
1EA
100
AcDbEntity
  8
0
100
AcDbLine
 10
-2120.449991256639
 20
4452.139174900344
 30
0.0
 11
-2120.449991256639
 21
4729.405411735904
 31
0.0
  0
LINE
  5
299
330
1EA
100
AcDbEntity
  8
0
100
AcDbLine
 10
-417.3592014663554
 20
4713.39174656749
 30
0.0
 11
222.5406743129933
 21
4713.39174656749
 31
0.0
  0
LINE
  5
29A
330
1EA
100
AcDbEntity
  8
0
100
AcDbLine
 10
-417.3592014663554
 20
4636.996252087803
 30
0.0
 11
222.5406743129933
 21
4636.99625208781
 31
0.0
  0
LINE
  5
29B
330
1EA
100
AcDbEntity
  8
0
100
AcDbLine
 10
-417.3592014663554
 20
4520.650820127921
 30
0.0
 11
222.5406743129933
 21
4520.650820127914
 31
0.0
  0
LINE
  5
29C
330
1EA
100
AcDbEntity
  8
0
100
AcDbLine
 10
-417.3592014663554
 20
4367.859831168564
 30
0.0
 11
222.5406743129933
 21
4367.859831168564
 31
0.0
  0
LINE
  5
29D
330
1EA
100
AcDbEntity
  8
0
100
AcDbLine
 10
-417.3592014663554
 20
4251.514399208681
 30
0.0
 11
222.5406743129933
 21
4251.514399208667
 31
0.0
  0
LINE
  5
29E
330
1EA
100
AcDbEntity
  8
0
100
AcDbLine
 10
-417.3592014663554
 20
4175.118904728996
 30
0.0
 11
222.5406743129933
 21
4175.118904728996
 31
0.0
  0
LINE
  5
29F
330
1EA
100
AcDbEntity
  8
0
100
AcDbLine
 10
302.4405492733931
 20
4175.118904728996
 30
0.0
 11
688.5057695206305
 21
4175.118904728996
 31
0.0
  0
LINE
  5
2A0
330
1EA
100
AcDbEntity
  8
0
100
AcDbLine
 10
302.4405492733931
 20
4251.514399208667
 30
0.0
 11
688.5057695206305
 21
4251.51439920866
 31
0.0
  0
LINE
  5
2A1
330
1EA
100
AcDbEntity
  8
0
100
AcDbLine
 10
302.4405492733931
 20
4367.859831168564
 30
0.0
 11
688.5057695206305
 21
4367.859831168564
 31
0.0
  0
LINE
  5
2A2
330
1EA
100
AcDbEntity
  8
0
100
AcDbLine
 10
302.4405492733931
 20
4520.650820127914
 30
0.0
 11
688.5057695206305
 21
4520.650820127914
 31
0.0
  0
LINE
  5
2A3
330
1EA
100
AcDbEntity
  8
0
100
AcDbLine
 10
302.4405492733931
 20
4636.99625208781
 30
0.0
 11
688.5057695206305
 21
4636.996252087818
 31
0.0
  0
LINE
  5
2A4
330
1EA
100
AcDbEntity
  8
0
100
AcDbLine
 10
302.4405492733931
 20
4713.39174656749
 30
0.0
 11
688.5057695206305
 21
4713.39174656749
 31
0.0
  0
HATCH
  5
2A5
330
1EA
100
AcDbEntity
  8
0
 62
    70
100
AcDbHatch
 10
0.0
 20
0.0
 30
0.0
210
0.0
220
0.0
230
1.0
  2
SOLID
 70
     1
 71
     0
 91
        2
 92
        7
 72
     0
 73
     1
 93
        4
 10
-2045.261443488507
 20
4749.383340374232
 10
-2852.998950236233
 20
4749.383340374225
 10
-2852.99895023623
 20
4729.405411735897
 10
-2045.261443488507
 20
4729.405411735904
 97
        0
 92
        7
 72
     0
 73
     1
 93
        4
 10
-2045.261443488511
 20
4159.337541056367
 10
-2852.99895023623
 20
4159.337541056367
 10
-2852.99895023623
 20
4138.895009426465
 10
-2045.261443488507
 20
4138.895009426451
 97
        0
 75
     0
 76
     1
 47
2.940118953855537
 98
        2
 10
-2226.167065356901
 20
4734.019732446585
 10
-2270.314846537934
 20
4154.81625581492
  0
HATCH
  5
2A6
330
1EA
100
AcDbEntity
  8
0
 62
    30
100
AcDbHatch
 10
0.0
 20
0.0
 30
0.0
210
0.0
220
0.0
230
1.0
  2
SOLID
 70
     1
 71
     0
 91
        2
 92
        7
 72
     0
 73
     1
 93
        4
 10
-2045.261443488511
 20
4769.361269012566
 10
-2852.998950236233
 20
4769.361269012551
 10
-2852.998950236226
 20
4749.383340374232
 10
-2045.261443488511
 20
4749.383340374232
 97
        0
 92
        7
 72
     0
 73
     1
 93
        4
 10
-2045.261443488507
 20
4138.895009426465
 10
-2852.998950236233
 20
4138.895009426451
 10
-2852.99895023623
 20
4118.917080788131
 10
-2045.261443488507
 20
4118.917080788131
 97
        0
 75
     0
 76
     1
 47
2.940118953855537
 98
        2
 10
-2099.609953901687
 20
4754.600526089663
 10
-2305.633106166802
 20
4125.415061973414
  0
HATCH
  5
2A7
330
1EA
100
AcDbEntity
  8
0
 62
    10
100
AcDbHatch
 10
0.0
 20
0.0
 30
0.0
210
0.0
220
0.0
230
1.0
  2
SOLID
 70
     1
 71
     0
 91
        1
 92
        7
 72
     1
 73
     1
 93
        4
 10
-2045.261443488511
 20
4452.139174900344
 42
0.0
 10
-2880.875129731561
 20
4452.139174900344
 42
1.0
 10
-2880.875129731561
 20
4436.139174900345
 42
0.0
 10
-2045.261443488507
 20
4436.139174900338
 42
0.0
 97
        0
 75
     0
 76
     1
 47
2.940118953855537
 98
        1
 10
-2502.826563459457
 20
4448.828194229951
  0
HATCH
  5
2A8
330
1EA
100
AcDbEntity
  8
0
 62
   250
100
AcDbHatch
 10
0.0
 20
0.0
 30
0.0
210
0.0
220
0.0
230
1.0
  2
SOLID
 70
     1
 71
     0
 91
       22
 92
        7
 72
     0
 73
     1
 93
        4
 10
-2045.261443488507
 20
4729.405411735904
 10
-2120.449991256642
 20
4729.405411735911
 10
-2120.449991256642
 20
4452.139174900344
 10
-2045.261443488511
 20
4452.139174900352
 97
        0
 92
        7
 72
     0
 73
     1
 93
        4
 10
-2120.449991256642
 20
4729.405411735904
 10
-2233.206873388753
 20
4729.405411735897
 10
-2233.206873388757
 20
4452.139174900344
 10
-2120.449991256642
 20
4452.139174900344
 97
        0
 92
        7
 72
     0
 73
     1
 93
        4
 10
-2233.20687338876
 20
4729.405411735904
 10
-2339.65533537319
 20
4729.405411735911
 10
-2339.65533537319
 20
4452.139174900344
 10
-2233.206873388757
 20
4452.139174900344
 97
        0
 92
        7
 72
     0
 73
     1
 93
        4
 10
-2339.655335373187
 20
4729.405411735897
 10
-2438.116621375218
 20
4729.405411735904
 10
-2438.116621375215
 20
4452.139174900344
 10
-2339.655335373187
 20
4452.139174900344
 97
        0
 92
        7
 72
     0
 73
     1
 93
        4
 10
-2438.116621375211
 20
4729.405411735897
 10
-2527.037938096647
 20
4729.405411735897
 10
-2527.037938096647
 20
4452.139174900344
 10
-2438.116621375218
 20
4452.139174900352
 97
        0
 92
        7
 72
     0
 73
     1
 93
        4
 10
-2527.037938096647
 20
4729.405411735897
 10
-2605.016943253747
 20
4729.40541173589
 10
-2605.016943253747
 20
4452.139174900344
 10
-2527.037938096651
 20
4452.139174900344
 97
        0
 92
        7
 72
     0
 73
     1
 93
        4
 10
-2605.016943253747
 20
4729.405411735897
 10
-2670.823861352833
 20
4729.405411735897
 10
-2670.823861352837
 20
4452.139174900344
 10
-2605.016943253751
 20
4452.139174900352
 97
        0
 92
        7
 72
     0
 73
     1
 93
        4
 10
-2670.823861352837
 20
4729.405411735904
 10
-2723.420877984317
 20
4729.405411735904
 10
-2723.420877984317
 20
4452.139174900344
 10
-2670.823861352841
 20
4452.139174900352
 97
        0
 92
        7
 72
     0
 73
     1
 93
        4
 10
-2723.420877984317
 20
4729.405411735897
 10
-2761.978506775976
 20
4729.405411735897
 10
-2761.97850677598
 20
4452.139174900344
 10
-2723.420877984317
 20
4452.139174900344
 97
        0
 92
        7
 72
     0
 73
     1
 93
        4
 10
-2761.97850677598
 20
4729.405411735904
 10
-2785.888670888555
 20
4729.405411735904
 10
-2785.888670888555
 20
4452.139174900344
 10
-2761.97850677598
 20
4452.139174900344
 97
        0
 92
        7
 72
     0
 73
     1
 93
        4
 10
-2785.888670888558
 20
4729.405411735897
 10
-2794.774292750767
 20
4729.405411735904
 10
-2794.774292750775
 20
4452.139174900344
 10
-2785.888670888555
 20
4452.139174900344
 97
        0
 92
        7
 72
     0
 73
     1
 93
        4
 10
-2785.888670888551
 20
4436.139174900338
 10
-2794.774292750786
 20
4436.139174900338
 10
-2794.77429275076
 20
4159.33754105636
 10
-2785.888670888555
 20
4159.337541056367
 97
        0
 92
        7
 72
     0
 73
     1
 93
        4
 10
-2761.978506775983
 20
4436.139174900345
 10
-2785.888670888555
 20
4436.139174900345
 10
-2785.888670888555
 20
4159.33754105636
 10
-2761.978506775976
 20
4159.33754105636
 97
        0
 92
        7
 72
     0
 73
     1
 93
        4
 10
-2723.420877984317
 20
4436.139174900345
 10
-2761.97850677598
 20
4436.139174900345
 10
-2761.97850677598
 20
4159.33754105636
 10
-2723.420877984314
 20
4159.33754105636
 97
        0
 92
        7
 72
     0
 73
     1
 93
        4
 10
-2670.823861352833
 20
4436.139174900345
 10
-2723.420877984321
 20
4436.139174900345
 10
-2723.420877984314
 20
4159.33754105636
 10
-2670.823861352837
 20
4159.337541056367
 97
        0
 92
        7
 72
     0
 73
     1
 93
        4
 10
-2605.016943253751
 20
4436.139174900345
 10
-2670.823861352833
 20
4436.139174900338
 10
-2670.823861352841
 20
4159.33754105636
 10
-2605.016943253751
 20
4159.33754105636
 97
        0
 92
        7
 72
     0
 73
     1
 93
        4
 10
-2527.037938096651
 20
4436.139174900345
 10
-2605.016943253755
 20
4436.139174900345
 10
-2605.016943253747
 20
4159.33754105636
 10
-2527.037938096647
 20
4159.337541056353
 97
        0
 92
        7
 72
     0
 73
     1
 93
        4
 10
-2438.116621375215
 20
4436.139174900338
 10
-2527.037938096651
 20
4436.139174900345
 10
-2527.037938096647
 20
4159.33754105636
 10
-2438.116621375211
 20
4159.33754105636
 97
        0
 92
        7
 72
     0
 73
     1
 93
        4
 10
-2339.655335373183
 20
4436.139174900345
 10
-2438.116621375215
 20
4436.139174900352
 10
-2438.116621375215
 20
4159.33754105636
 10
-2339.655335373187
 20
4159.337541056367
 97
        0
 92
        7
 72
     0
 73
     1
 93
        4
 10
-2233.206873388757
 20
4436.139174900345
 10
-2339.655335373187
 20
4436.139174900352
 10
-2339.655335373187
 20
4159.33754105636
 10
-2233.206873388757
 20
4159.33754105636
 97
        0
 92
        7
 72
     0
 73
     1
 93
        4
 10
-2120.449991256639
 20
4436.139174900345
 10
-2233.206873388757
 20
4436.139174900338
 10
-2233.206873388757
 20
4159.33754105636
 10
-2120.449991256642
 20
4159.337541056375
 97
        0
 92
        7
 72
     0
 73
     1
 93
        4
 10
-2045.261443488507
 20
4436.139174900345
 10
-2120.449991256639
 20
4436.139174900345
 10
-2120.449991256639
 20
4159.33754105636
 10
-2045.261443488511
 20
4159.337541056375
 97
        0
 75
     0
 76
     1
 47
2.940118953855537
 98
       22
 10
-2099.609953901687
 20
4587.013763239054
 10
-2170.246473159481
 20
4584.073629839578
 10
-2255.59891947759
 20
4578.193363040656
 10
-2382.15585751245
 20
4572.313096241705
 10
-2476.337825382725
 20
4572.313096241705
 10
-2564.633387744761
 20
4572.313096241705
 10
-2629.383501494347
 20
4581.133496440132
 10
-2688.247209735724
 20
4584.073629839578
 10
-2747.110917977072
 20
4581.133496440132
 10
-2773.599656053833
 20
4578.193363040656
 10
-2788.315583114148
 20
4513.510708558722
 10
-2791.258872578401
 20
4278.301157826674
 10
-2770.656540009877
 20
4287.121558025072
 10
-2744.167801933144
 20
4284.181424625625
 10
-2685.304093691768
 20
4284.181424625625
 10
-2652.929123527123
 20
4287.121558025072
 10
-2567.576677209014
 20
4287.121558025072
 10
-2488.110636399113
 20
4281.24129122615
 10
-2361.553524943927
 20
4275.361164580391
 10
-2261.485324985769
 20
4272.421031180914
 10
-2173.189589203408
 20
4272.421031180914
 10
-2087.837316305623
 20
4263.600630982517
  0
LWPOLYLINE
  5
2A9
330
1EA
100
AcDbEntity
  8
0
100
AcDbPolyline
 90
       17
 70
     1
 43
0.0
 10
3012.53412999423
 20
1724.949241582661
 42
-0.1651880072814057
 10
2540.0
 20
883.7873670419575
 10
2540.0
 20
0.0
 10
0.0
 20
0.0
 10
0.0
 20
883.7873670419575
 10
-1659.887898472916
 20
1233.498116901195
 42
-0.1657713423214463
 10
-2527.491355309634
 20
1662.846046575868
 10
-3914.482744230976
 20
3057.317107700066
 42
-0.1982135842029597
 10
-4350.974180635684
 20
4115.121217712629
 10
-4350.974180635684
 20
4765.527496222057
 42
-0.3691928799788075
 10
-3084.199773031578
 20
6247.285176496254
 10
216.6142559524451
 20
7221.169949845236
 42
-0.0943036252528471
 10
767.5611498514772
 20
7326.014933331666
 10
1767.560803059707
 20
7326.014933331666
 42
-0.3679807938422369
 10
3248.309476320544
 20
6065.563188671308
 10
3463.411041240266
 20
4735.929806789201
 42
-0.0864131757539229
 10
3455.786660891535
 20
4101.257689822253
  0
ENDBLK
  5
1EC
330
1EA
100
AcDbEntity
  8
0
100
AcDbBlockEnd
  0
ENDSEC
  0
SECTION
  2
ENTITIES
  0
INSERT
  5
2AA
330
1F
100
AcDbEntity
  8
0
100
AcDbBlockReference
  2
ADKS
 10
4350.974240927826
 20
-0.0000567670213059
 30
0.0
  0
MTEXT
  5
2AB
330
1F
100
AcDbEntity
  8
0
100
AcDbMText
 10
1780.791466691356
 20
3178.362060529354
 30
0.0
 40
250.0
 41
18308.81
 71
     1
 72
     5
  1
{\Fisocp.shx;Hoogte:315 cm\PVrije Valhoogte: 90cm}
1001
ACAD
1000
MTEXTBEGIN
1070
    73
1070
     1
1070
    44
1040
1.0
1070
    74
1070
     0
1000
MTEXTEND
  0
ENDSEC
  0
SECTION
  2
OBJECTS
  0
DICTIONARY
  5
C
330
0
100
AcDbDictionary
  3
ACAD_GROUP
350
D
  3
ACAD_LAYOUT
350
1A
  3
ACAD_MLINESTYLE
350
17
  3
ACAD_PLOTSETTINGS
350
19
  3
ACAD_PLOTSTYLENAME
350
E
  3
ACDBHEADERROUNDTRIPXREC
350
2AE
  3
ACDBVARIABLEDICTIONARY
350
1DD
  0
DICTIONARY
  5
5D
330
2
100
AcDbDictionary
280
     1
  3
ACAD_LAYERSTATES
360
5E
  0
DICTIONARY
  5
1DF
330
1F
100
AcDbDictionary
280
     1
  3
ACAD_LAYOUTSELFREF
360
2CF
  3
ACAD_SORTENTS
360
1E0
  0
DICTIONARY
  5
2D0
330
50
100
AcDbDictionary
280
     1
  3
ACAD_LAYOUTSELFREF
360
2D1
  0
DICTIONARY
  5
D
102
{ACAD_REACTORS
330
C
102
}
330
C
100
AcDbDictionary
  0
DICTIONARY
  5
1A
102
{ACAD_REACTORS
330
C
102
}
330
C
100
AcDbDictionary
  0
DICTIONARY
  5
17
102
{ACAD_REACTORS
330
C
102
}
330
C
100
AcDbDictionary
  3
STANDARD
350
18
  0
DICTIONARY
  5
19
102
{ACAD_REACTORS
330
C
102
}
330
C
100
AcDbDictionary
  0
ACDBDICTIONARYWDFLT
  5
E
102
{ACAD_REACTORS
330
C
102
}
330
C
100
AcDbDictionary
281
     1
  3
Normal
350
F
100
AcDbDictionaryWithDefault
340
F
  0
DICTIONARY
  5
2AE
102
{ACAD_REACTORS
330
C
102
}
330
C
100
AcDbDictionary
  3
CEPSNTYPE
350
2B8
  3
DIMSTYLEDATA
350
2BC
  3
FINGERPRINTGUID
350
2B9
  3
HYPERLINKBASE
350
2B1
  3
INSUNITS
350
2B7
  3
LAYOUTDICT
350
2B3
  3
LWETCUNION
350
2B6
  3
PLOTSETDICT
350
2B4
  3
PLOTSTYLNAMDICT
350
2B5
  3
PSVPSCALE
350
2BB
  3
PUCSBASE
350
2BF
  3
PUCSORGBACK
350
2C5
  3
PUCSORGBOTTOM
350
2C1
  3
PUCSORGFRONT
350
2C4
  3
PUCSORGLEFT
350
2C2
  3
PUCSORGRIGHT
350
2C3
  3
PUCSORGTOP
350
2C0
  3
PUCSORTHOREF
350
2BD
  3
PUCSORTHOVIEW
350
2BE
  3
STYLESHEET
350
2B2
  3
TSTACKALIGN
350
2AF
  3
TSTACKSIZE
350
2B0
  3
UCSBASE
350
2C8
  3
UCSORGBACK
350
2CE
  3
UCSORGBOTTOM
350
2CA
  3
UCSORGFRONT
350
2CD
  3
UCSORGLEFT
350
2CB
  3
UCSORGRIGHT
350
2CC
  3
UCSORGTOP
350
2C9
  3
UCSORTHOREF
350
2C6
  3
UCSORTHOVIEW
350
2C7
  3
VERSIONGUID
350
2BA
  0
DICTIONARY
  5
1DD
102
{ACAD_REACTORS
330
C
102
}
330
C
100
AcDbDictionary
  3
SORTENTS
350
1DE
  0
DICTIONARY
  5
5E
102
{ACAD_REACTORS
330
5D
102
}
330
5D
100
AcDbDictionary
  0
XRECORD
  5
2CF
102
{ACAD_REACTORS
330
1DF
102
}
330
1DF
100
AcDbXrecord
340
1F
  0
SORTENTSTABLE
  5
1E0
102
{ACAD_REACTORS
330
1DF
102
}
330
1DF
100
AcDbSortentsTable
330
1F
331
1C9
  5
1CB
331
16F
  5
171
331
195
  5
197
331
1BB
  5
1BD
331
130
  5
132
331
156
  5
158
331
122
  5
124
331
1C2
  5
1C4
331
168
  5
16A
331
18E
  5
190
331
1B4
  5
1B6
331
129
  5
12B
331
14F
  5
151
331
141
  5
143
331
161
  5
163
331
1D9
  5
1DB
331
187
  5
189
331
1AD
  5
1AF
331
1D3
  5
1D5
331
179
  5
17B
331
148
  5
14A
331
19F
  5
1A1
331
13A
  5
13C
331
180
  5
182
331
1A6
  5
1A8
331
1CC
  5
1CE
331
172
  5
174
331
198
  5
19A
331
1BE
  5
1C0
331
133
  5
135
331
159
  5
15B
331
125
  5
127
331
1C5
  5
1C7
331
16B
  5
16D
331
191
  5
193
331
1B7
  5
1B9
331
12C
  5
12E
331
152
  5
154
331
144
  5
146
331
164
  5
166
331
18A
  5
18C
331
1DC
  5
1DC
331
1B0
  5
1B2
331
1D6
  5
1D8
331
17C
  5
17E
331
14B
  5
14D
331
13D
  5
13F
331
183
  5
185
331
1A9
  5
1AB
331
1CF
  5
1D1
331
175
  5
177
331
19B
  5
19D
331
136
  5
138
331
15C
  5
15E
331
1A2
  5
1A4
331
1C8
  5
1CA
331
16E
  5
170
331
194
  5
196
331
12F
  5
131
331
1BA
  5
1BC
331
155
  5
157
331
121
  5
123
331
147
  5
149
331
1C1
  5
1C3
331
167
  5
169
331
18D
  5
18F
331
1B3
  5
1B5
331
128
  5
12A
331
17F
  5
181
331
14E
  5
150
331
140
  5
142
331
160
  5
162
331
186
  5
188
331
1D8
  5
1DA
331
1AC
  5
1AE
331
1D2
  5
1D4
331
178
  5
17A
331
19E
  5
1A0
331
139
  5
13B
331
15F
  5
161
331
1A5
  5
1A7
331
171
  5
173
331
1CB
  5
1CD
331
197
  5
199
331
1BD
  5
1BF
331
132
  5
134
331
158
  5
15A
331
124
  5
126
331
1C4
  5
1C6
331
16A
  5
16C
331
190
  5
192
331
1B6
  5
1B8
331
12B
  5
12D
331
151
  5
153
331
143
  5
145
331
163
  5
165
331
1DB
  5
120
331
189
  5
18B
331
1AF
  5
1B1
331
1D5
  5
1D7
331
17B
  5
17D
331
14A
  5
14C
331
13C
  5
13E
331
182
  5
184
331
1A8
  5
1AA
331
1CE
  5
1D0
331
174
  5
176
331
19A
  5
19C
331
135
  5
137
331
15B
  5
15D
331
127
  5
129
331
1A1
  5
1A3
331
1C7
  5
1C9
331
16D
  5
16F
331
193
  5
195
331
1B9
  5
1BB
331
12E
  5
130
331
154
  5
156
331
120
  5
122
331
146
  5
148
331
1C0
  5
1C2
331
166
  5
168
331
18C
  5
18E
331
1B2
  5
1B4
331
17E
  5
180
331
14D
  5
14F
331
13F
  5
141
331
185
  5
187
331
1AB
  5
1AD
331
1D1
  5
1D3
331
177
  5
179
331
19D
  5
19F
331
138
  5
13A
331
15E
  5
160
331
1A4
  5
1A6
331
1CA
  5
1CC
331
170
  5
172
331
196
  5
198
331
131
  5
133
331
1BC
  5
1BE
331
157
  5
159
331
123
  5
125
331
1C3
  5
1C5
331
169
  5
16B
331
18F
  5
191
331
1B5
  5
1B7
331
12A
  5
12C
331
150
  5
152
331
142
  5
144
331
162
  5
164
331
188
  5
18A
331
1DA
  5
121
331
1AE
  5
1B0
331
1D4
  5
1D6
331
17A
  5
17C
331
149
  5
14B
331
13B
  5
13D
331
181
  5
183
331
1A7
  5
1A9
331
173
  5
175
331
1CD
  5
1CF
331
199
  5
19B
331
1BF
  5
1C1
331
134
  5
136
331
15A
  5
15C
331
126
  5
128
331
1A0
  5
1A2
331
1C6
  5
1C8
331
16C
  5
16E
331
192
  5
194
331
12D
  5
12F
331
1B8
  5
1BA
331
153
  5
155
331
145
  5
147
331
165
  5
167
331
18B
  5
18D
331
1B1
  5
1B3
331
1D7
  5
1D9
331
17D
  5
17F
331
14C
  5
14E
331
13E
  5
140
331
184
  5
186
331
1AA
  5
1AC
331
1D0
  5
1D2
331
176
  5
178
331
19C
  5
19E
331
137
  5
139
331
15D
  5
15F
331
1A3
  5
1A5
  0
XRECORD
  5
2D1
102
{ACAD_REACTORS
330
2D0
102
}
330
2D0
100
AcDbXrecord
340
50
  0
MLINESTYLE
  5
18
102
{ACAD_REACTORS
330
17
102
}
330
17
100
AcDbMlineStyle
  2
STANDARD
 70
     0
  3

 62
   256
 51
90.0
 52
90.0
 71
     2
 49
0.5
 62
   256
  6
BYLAYER
 49
-0.5
 62
   256
  6
BYLAYER
  0
ACDBPLACEHOLDER
  5
F
102
{ACAD_REACTORS
330
E
102
}
330
E
100
AcDbPlaceHolder
280
     0
  0
XRECORD
  5
2B8
102
{ACAD_REACTORS
330
2AE
102
}
330
2AE
100
AcDbXrecord
 90
        0
  0
XRECORD
  5
2BC
102
{ACAD_REACTORS
330
2AE
102
}
330
2AE
100
AcDbXrecord
1000
DSTYLE
1002
{
1070
   278
 70
    44
1002
}
  0
XRECORD
  5
2B9
102
{ACAD_REACTORS
330
2AE
102
}
330
2AE
100
AcDbXrecord
  1
{FDEAD578-A652-11D2-9A35-0060089B3A3F}
  0
XRECORD
  5
2B1
102
{ACAD_REACTORS
330
2AE
102
}
330
2AE
100
AcDbXrecord
  1

  0
XRECORD
  5
2B7
102
{ACAD_REACTORS
330
2AE
102
}
330
2AE
100
AcDbXrecord
 90
        4
  0
XRECORD
  5
2B3
102
{ACAD_REACTORS
330
2AE
102
}
330
2AE
100
AcDbXrecord
340
1A
  0
XRECORD
  5
2B6
102
{ACAD_REACTORS
330
2AE
102
}
330
2AE
100
AcDbXrecord
 90
    10781
  0
XRECORD
  5
2B4
102
{ACAD_REACTORS
330
2AE
102
}
330
2AE
100
AcDbXrecord
340
19
  0
XRECORD
  5
2B5
102
{ACAD_REACTORS
330
2AE
102
}
330
2AE
100
AcDbXrecord
340
E
  0
XRECORD
  5
2BB
102
{ACAD_REACTORS
330
2AE
102
}
330
2AE
100
AcDbXrecord
 40
0.0
  0
XRECORD
  5
2BF
102
{ACAD_REACTORS
330
2AE
102
}
330
2AE
100
AcDbXrecord
340
0
  0
XRECORD
  5
2C5
102
{ACAD_REACTORS
330
2AE
102
}
330
2AE
100
AcDbXrecord
 10
0.0
 20
0.0
 30
0.0
  0
XRECORD
  5
2C1
102
{ACAD_REACTORS
330
2AE
102
}
330
2AE
100
AcDbXrecord
 10
0.0
 20
0.0
 30
0.0
  0
XRECORD
  5
2C4
102
{ACAD_REACTORS
330
2AE
102
}
330
2AE
100
AcDbXrecord
 10
0.0
 20
0.0
 30
0.0
  0
XRECORD
  5
2C2
102
{ACAD_REACTORS
330
2AE
102
}
330
2AE
100
AcDbXrecord
 10
0.0
 20
0.0
 30
0.0
  0
XRECORD
  5
2C3
102
{ACAD_REACTORS
330
2AE
102
}
330
2AE
100
AcDbXrecord
 10
0.0
 20
0.0
 30
0.0
  0
XRECORD
  5
2C0
102
{ACAD_REACTORS
330
2AE
102
}
330
2AE
100
AcDbXrecord
 10
0.0
 20
0.0
 30
0.0
  0
XRECORD
  5
2BD
102
{ACAD_REACTORS
330
2AE
102
}
330
2AE
100
AcDbXrecord
340
0
  0
XRECORD
  5
2BE
102
{ACAD_REACTORS
330
2AE
102
}
330
2AE
100
AcDbXrecord
 70
     0
  0
XRECORD
  5
2B2
102
{ACAD_REACTORS
330
2AE
102
}
330
2AE
100
AcDbXrecord
  1

  0
XRECORD
  5
2AF
102
{ACAD_REACTORS
330
2AE
102
}
330
2AE
100
AcDbXrecord
 90
        1
  0
XRECORD
  5
2B0
102
{ACAD_REACTORS
330
2AE
102
}
330
2AE
100
AcDbXrecord
 90
       70
  0
XRECORD
  5
2C8
102
{ACAD_REACTORS
330
2AE
102
}
330
2AE
100
AcDbXrecord
340
0
  0
XRECORD
  5
2CE
102
{ACAD_REACTORS
330
2AE
102
}
330
2AE
100
AcDbXrecord
 10
0.0
 20
0.0
 30
0.0
  0
XRECORD
  5
2CA
102
{ACAD_REACTORS
330
2AE
102
}
330
2AE
100
AcDbXrecord
 10
0.0
 20
0.0
 30
0.0
  0
XRECORD
  5
2CD
102
{ACAD_REACTORS
330
2AE
102
}
330
2AE
100
AcDbXrecord
 10
0.0
 20
0.0
 30
0.0
  0
XRECORD
  5
2CB
102
{ACAD_REACTORS
330
2AE
102
}
330
2AE
100
AcDbXrecord
 10
0.0
 20
0.0
 30
0.0
  0
XRECORD
  5
2CC
102
{ACAD_REACTORS
330
2AE
102
}
330
2AE
100
AcDbXrecord
 10
0.0
 20
0.0
 30
0.0
  0
XRECORD
  5
2C9
102
{ACAD_REACTORS
330
2AE
102
}
330
2AE
100
AcDbXrecord
 10
0.0
 20
0.0
 30
0.0
  0
XRECORD
  5
2C6
102
{ACAD_REACTORS
330
2AE
102
}
330
2AE
100
AcDbXrecord
340
0
  0
XRECORD
  5
2C7
102
{ACAD_REACTORS
330
2AE
102
}
330
2AE
100
AcDbXrecord
 70
     0
  0
XRECORD
  5
2BA
102
{ACAD_REACTORS
330
2AE
102
}
330
2AE
100
AcDbXrecord
  1
{90270417-68F5-404C-867A-4C372DD764E3}
  0
DICTIONARYVAR
  5
1DE
102
{ACAD_REACTORS
330
1DD
102
}
330
1DD
100
DictionaryVariables
280
     0
  1
127
  0
ENDSEC
  0
EOF
