  0
SECTION
  2
HEADER
  9
$ACADVER
  1
AC1014
  9
$ACADMAINTVER
 70
     9
  9
$DWGCODEPAGE
  3
ANSI_1252
  9
$INSBASE
 10
0.0
 20
0.0
 30
0.0
  9
$EXTMIN
 10
-355.2175481025479
 20
-327.5726417687874
 30
-0.0015258207003583
  9
$EXTMAX
 10
6619.347902690027
 20
5351.011433458129
 30
0.0000000349246037
  9
$LIMMIN
 10
0.0
 20
0.0
  9
$LIMMAX
 10
420.0
 20
297.0
  9
$ORTHOMODE
 70
     0
  9
$REGENMODE
 70
     1
  9
$FILLMODE
 70
     1
  9
$QTEXTMODE
 70
     0
  9
$MIRRTEXT
 70
     1
  9
$DRAGMODE
 70
     2
  9
$LTSCALE
 40
1.0
  9
$OSMODE
 70
   511
  9
$ATTMODE
 70
     1
  9
$TEXTSIZE
 40
2.5
  9
$TRACEWID
 40
1.0
  9
$TEXTSTYLE
  7
STANDARD
  9
$CLAYER
  8
0
  9
$CELTYPE
  6
BYLAYER
  9
$CECOLOR
 62
   256
  9
$CELTSCALE
 40
1.0
  9
$DELOBJ
 70
     1
  9
$DISPSILH
 70
     0
  9
$DIMSCALE
 40
1.0
  9
$DIMASZ
 40
2.5
  9
$DIMEXO
 40
0.625
  9
$DIMDLI
 40
3.75
  9
$DIMRND
 40
0.0
  9
$DIMDLE
 40
0.0
  9
$DIMEXE
 40
1.25
  9
$DIMTP
 40
0.0
  9
$DIMTM
 40
0.0
  9
$DIMTXT
 40
2.5
  9
$DIMCEN
 40
2.5
  9
$DIMTSZ
 40
0.0
  9
$DIMTOL
 70
     0
  9
$DIMLIM
 70
     0
  9
$DIMTIH
 70
     0
  9
$DIMTOH
 70
     0
  9
$DIMSE1
 70
     0
  9
$DIMSE2
 70
     0
  9
$DIMTAD
 70
     1
  9
$DIMZIN
 70
     8
  9
$DIMBLK
  1

  9
$DIMASO
 70
     1
  9
$DIMSHO
 70
     1
  9
$DIMPOST
  1

  9
$DIMAPOST
  1

  9
$DIMALT
 70
     0
  9
$DIMALTD
 70
     3
  9
$DIMALTF
 40
0.03937007874016
  9
$DIMLFAC
 40
1.0
  9
$DIMTOFL
 70
     1
  9
$DIMTVP
 40
0.0
  9
$DIMTIX
 70
     0
  9
$DIMSOXD
 70
     0
  9
$DIMSAH
 70
     0
  9
$DIMBLK1
  1

  9
$DIMBLK2
  1

  9
$DIMSTYLE
  2
ISO-25
  9
$DIMCLRD
 70
     0
  9
$DIMCLRE
 70
     0
  9
$DIMCLRT
 70
     0
  9
$DIMTFAC
 40
1.0
  9
$DIMGAP
 40
0.625
  9
$DIMJUST
 70
     0
  9
$DIMSD1
 70
     0
  9
$DIMSD2
 70
     0
  9
$DIMTOLJ
 70
     0
  9
$DIMTZIN
 70
     8
  9
$DIMALTZ
 70
     0
  9
$DIMALTTZ
 70
     0
  9
$DIMFIT
 70
     3
  9
$DIMUPT
 70
     0
  9
$DIMUNIT
 70
     2
  9
$DIMDEC
 70
     2
  9
$DIMTDEC
 70
     2
  9
$DIMALTU
 70
     2
  9
$DIMALTTD
 70
     3
  9
$DIMTXSTY
  7
STANDARD
  9
$DIMAUNIT
 70
     0
  9
$LUNITS
 70
     2
  9
$LUPREC
 70
     4
  9
$SKETCHINC
 40
1.0
  9
$FILLETRAD
 40
10.0
  9
$AUNITS
 70
     0
  9
$AUPREC
 70
     0
  9
$MENU
  1
.
  9
$ELEVATION
 40
0.0
  9
$PELEVATION
 40
0.0
  9
$THICKNESS
 40
0.0
  9
$LIMCHECK
 70
     0
  9
$BLIPMODE
 70
     0
  9
$CHAMFERA
 40
10.0
  9
$CHAMFERB
 40
10.0
  9
$CHAMFERC
 40
20.0
  9
$CHAMFERD
 40
0.0
  9
$SKPOLY
 70
     0
  9
$TDCREATE
 40
2453124.580717580
  9
$TDUPDATE
 40
2453186.697866551
  9
$TDINDWG
 40
0.0018684954
  9
$TDUSRTIMER
 40
0.0018684954
  9
$USRTIMER
 70
     1
  9
$ANGBASE
 50
0.0
  9
$ANGDIR
 70
     0
  9
$PDMODE
 70
     0
  9
$PDSIZE
 40
0.0
  9
$PLINEWID
 40
0.0
  9
$COORDS
 70
     2
  9
$SPLFRAME
 70
     0
  9
$SPLINETYPE
 70
     6
  9
$SPLINESEGS
 70
     8
  9
$ATTDIA
 70
     0
  9
$ATTREQ
 70
     1
  9
$HANDLING
 70
-16383
  9
$HANDSEED
  5
2D0
  9
$SURFTAB1
 70
     6
  9
$SURFTAB2
 70
     6
  9
$SURFTYPE
 70
     6
  9
$SURFU
 70
     6
  9
$SURFV
 70
     6
  9
$UCSNAME
  2

  9
$UCSORG
 10
0.0
 20
0.0
 30
0.0
  9
$UCSXDIR
 10
1.0
 20
0.0
 30
0.0
  9
$UCSYDIR
 10
0.0
 20
1.0
 30
0.0
  9
$PUCSNAME
  2

  9
$PUCSORG
 10
0.0
 20
0.0
 30
0.0
  9
$PUCSXDIR
 10
1.0
 20
0.0
 30
0.0
  9
$PUCSYDIR
 10
0.0
 20
1.0
 30
0.0
  9
$USERI1
 70
     0
  9
$USERI2
 70
     0
  9
$USERI3
 70
     0
  9
$USERI4
 70
     0
  9
$USERI5
 70
     0
  9
$USERR1
 40
0.0
  9
$USERR2
 40
0.0
  9
$USERR3
 40
0.0
  9
$USERR4
 40
0.0
  9
$USERR5
 40
0.0
  9
$WORLDVIEW
 70
     1
  9
$SHADEDGE
 70
     3
  9
$SHADEDIF
 70
    70
  9
$TILEMODE
 70
     1
  9
$MAXACTVP
 70
    64
  9
$PINSBASE
 10
0.0
 20
0.0
 30
0.0
  9
$PLIMCHECK
 70
     0
  9
$PEXTMIN
 10
0.0
 20
0.0
 30
0.0
  9
$PEXTMAX
 10
0.0
 20
0.0
 30
0.0
  9
$PLIMMIN
 10
0.0
 20
0.0
  9
$PLIMMAX
 10
12.0
 20
9.0
  9
$UNITMODE
 70
     0
  9
$VISRETAIN
 70
     1
  9
$PLINEGEN
 70
     0
  9
$PSLTSCALE
 70
     1
  9
$TREEDEPTH
 70
  3020
  9
$PICKSTYLE
 70
     0
  9
$CMLSTYLE
  2
STANDARD
  9
$CMLJUST
 70
     0
  9
$CMLSCALE
 40
20.0
  9
$PROXYGRAPHICS
 70
     1
  9
$MEASUREMENT
 70
     1
  0
ENDSEC
  0
SECTION
  2
CLASSES
  0
CLASS
  1
ACDBDICTIONARYWDFLT
  2
AcDbDictionaryWithDefault
  3
AutoCAD 2000
 90
        0
280
     0
281
     0
  0
CLASS
  1
ACDBPLACEHOLDER
  2
AcDbPlaceHolder
  3
AutoCAD 2000
 90
        0
280
     0
281
     0
  0
CLASS
  1
LAYOUT
  2
AcDbLayout
  3
AutoCAD 2000
 90
        0
280
     0
281
     0
  0
CLASS
  1
LONG_TRANSACTION
  2
AcDbLongTransaction
  3
AutoCAD 2000
 90
        0
280
     0
281
     0
  0
CLASS
  1
LWPOLYLINE
  2
AcDbPolyline
  3
AutoCAD 2000
 90
        0
280
     0
281
     1
  0
CLASS
  1
HATCH
  2
AcDbHatch
  3
AutoCAD 2000
 90
        0
280
     0
281
     1
  0
CLASS
  1
XRECORD
  2
AcDbXrecord
  3
AutoCAD 2000
 90
        0
280
     0
281
     0
  0
ENDSEC
  0
SECTION
  2
TABLES
  0
TABLE
  2
VPORT
  5
8
330
0
100
AcDbSymbolTable
 70
     2
  0
VPORT
  5
2A7
330
8
100
AcDbSymbolTableRecord
100
AcDbViewportTableRecord
  2
*ACTIVE
 70
     0
 10
0.0
 20
0.0
 11
1.0
 21
1.0
 12
3132.065177293741
 22
2511.719395844671
 13
0.0
 23
0.0
 14
10.0
 24
10.0
 15
10.0
 25
10.0
 16
0.0
 26
0.0
 36
1.0
 17
0.0
 27
0.0
 37
0.0
 40
5746.052400873177
 41
1.720238095238095
 42
50.0
 43
0.0
 44
0.0
 50
0.0
 51
0.0
 71
     0
 72
   100
 73
     1
 74
     3
 75
     0
 76
     0
 77
     0
 78
     0
  0
ENDTAB
  0
TABLE
  2
LTYPE
  5
5
330
0
100
AcDbSymbolTable
 70
     1
  0
LTYPE
  5
14
330
5
100
AcDbSymbolTableRecord
100
AcDbLinetypeTableRecord
  2
BYBLOCK
 70
     0
  3

 72
    65
 73
     0
 40
0.0
  0
LTYPE
  5
15
330
5
100
AcDbSymbolTableRecord
100
AcDbLinetypeTableRecord
  2
BYLAYER
 70
     0
  3

 72
    65
 73
     0
 40
0.0
  0
LTYPE
  5
16
330
5
100
AcDbSymbolTableRecord
100
AcDbLinetypeTableRecord
  2
CONTINUOUS
 70
     0
  3
Solid line
 72
    65
 73
     0
 40
0.0
  0
ENDTAB
  0
TABLE
  2
LAYER
  5
2
102
{ACAD_XDICTIONARY
360
5D
102
}
330
0
100
AcDbSymbolTable
 70
     1
  0
LAYER
  5
10
330
2
100
AcDbSymbolTableRecord
100
AcDbLayerTableRecord
  2
0
 70
     0
 62
     7
  6
CONTINUOUS
  0
ENDTAB
  0
TABLE
  2
STYLE
  5
3
330
0
100
AcDbSymbolTable
 70
     1
  0
STYLE
  5
11
330
3
100
AcDbSymbolTableRecord
100
AcDbTextStyleTableRecord
  2
STANDARD
 70
     0
 40
0.0
 41
1.0
 50
0.0
 71
     0
 42
2.5
  3
txt
  4

  0
ENDTAB
  0
TABLE
  2
VIEW
  5
6
330
0
100
AcDbSymbolTable
 70
     0
  0
ENDTAB
  0
TABLE
  2
UCS
  5
7
330
0
100
AcDbSymbolTable
 70
     0
  0
ENDTAB
  0
TABLE
  2
APPID
  5
9
330
0
100
AcDbSymbolTable
 70
     2
  0
APPID
  5
12
330
9
100
AcDbSymbolTableRecord
100
AcDbRegAppTableRecord
  2
ACAD
 70
     0
  0
APPID
  5
2CF
330
9
100
AcDbSymbolTableRecord
100
AcDbRegAppTableRecord
  2
CONTENTBLOCKICON
 70
     0
  0
ENDTAB
  0
TABLE
  2
DIMSTYLE
  5
A
330
0
100
AcDbSymbolTable
 70
     1
  0
DIMSTYLE
105
27
330
A
100
AcDbSymbolTableRecord
100
AcDbDimStyleTableRecord
  2
ISO-25
 70
     0
  3

  4

  5

  6

  7

 40
1.0
 41
2.5
 42
0.625
 43
3.75
 44
1.25
 45
0.0
 46
0.0
 47
0.0
 48
0.0
140
2.5
141
2.5
142
0.0
143
0.03937007874016
144
1.0
145
0.0
146
1.0
147
0.625
 71
     0
 72
     0
 73
     0
 74
     0
 75
     0
 76
     0
 77
     1
 78
     8
170
     0
171
     3
172
     1
173
     0
174
     0
175
     0
176
     0
177
     0
178
     0
270
     2
271
     2
272
     2
273
     2
274
     3
340
11
275
     0
280
     0
281
     0
282
     0
283
     0
284
     8
285
     0
286
     0
287
     3
288
     0
  0
ENDTAB
  0
TABLE
  2
BLOCK_RECORD
  5
1
330
0
100
AcDbSymbolTable
 70
     2
  0
BLOCK_RECORD
  5
1F
102
{ACAD_XDICTIONARY
360
2C9
102
}
330
1
100
AcDbSymbolTableRecord
100
AcDbBlockTableRecord
  2
*MODEL_SPACE
  0
BLOCK_RECORD
  5
50
102
{ACAD_XDICTIONARY
360
2CB
102
}
330
1
100
AcDbSymbolTableRecord
100
AcDbBlockTableRecord
  2
*PAPER_SPACE
  0
BLOCK_RECORD
  5
1E3
330
1
100
AcDbSymbolTableRecord
100
AcDbBlockTableRecord
  2
ADKR
1001
ACAD
1000
DesignCenter Data
1002
{
1070
     1
1070
     4
1002
}
1001
CONTENTBLOCKICON
1071
        0
1004
2800000020000000200000000100080000000000000400000000000000000000000000000000000000000000000080000080000000808000800000008000800080800000C0C0C000C0DCC000F0CAA6000020400000206000002080000020A0000020C0000020E00000400000004020000040400000406000004080000040A0
1004
000040C0000040E00000600000006020000060400000606000006080000060A0000060C0000060E00000800000008020000080400000806000008080000080A0000080C0000080E00000A0000000A0200000A0400000A0600000A0800000A0A00000A0C00000A0E00000C0000000C0200000C0400000C0600000C0800000C0
1004
A00000C0C00000C0E00000E0000000E0200000E0400000E0600000E0800000E0A00000E0C00000E0E00040000000400020004000400040006000400080004000A0004000C0004000E00040200000402020004020400040206000402080004020A0004020C0004020E000404000004040200040404000404060004040800040
1004
40A0004040C0004040E00040600000406020004060400040606000406080004060A0004060C0004060E00040800000408020004080400040806000408080004080A0004080C0004080E00040A0000040A0200040A0400040A0600040A0800040A0A00040A0C00040A0E00040C0000040C0200040C0400040C0600040C08000
1004
40C0A00040C0C00040C0E00040E0000040E0200040E0400040E0600040E0800040E0A00040E0C00040E0E00080000000800020008000400080006000800080008000A0008000C0008000E00080200000802020008020400080206000802080008020A0008020C0008020E00080400000804020008040400080406000804080
1004
008040A0008040C0008040E00080600000806020008060400080606000806080008060A0008060C0008060E00080800000808020008080400080806000808080008080A0008080C0008080E00080A0000080A0200080A0400080A0600080A0800080A0A00080A0C00080A0E00080C0000080C0200080C0400080C0600080C0
1004
800080C0A00080C0C00080C0E00080E0000080E0200080E0400080E0600080E0800080E0A00080E0C00080E0E000C0000000C0002000C0004000C0006000C0008000C000A000C000C000C000E000C0200000C0202000C0204000C0206000C0208000C020A000C020C000C020E000C0400000C0402000C0404000C0406000C0
1004
408000C040A000C040C000C040E000C0600000C0602000C0604000C0606000C0608000C060A000C060C000C060E000C0800000C0802000C0804000C0806000C0808000C080A000C080C000C080E000C0A00000C0A02000C0A04000C0A06000C0A08000C0A0A000C0A0C000C0A0E000C0C00000C0C02000C0C04000C0C06000
1004
C0C08000C0C0A000F0FBFF00A4A0A000808080000000FF0000FF000000FFFF00FF000000FF00FF00FFFF0000FFFFFF00FFFFFFFFFFFFFFFFFFFFFFFFFFFFFFFFFFFFFFFFFFFFFFFFFFFFFFFFFFFFFFFFFFFFFFFFFFFFFFFFFFFFFFFFFFFFFFFFFFFFFFFFFFFFFFFFFFFFFFFFFFFFFFFFFFFFFFFFFFFFFFFFFFFFFFFFFFFFFF
1004
FFFFFFFFFFFFFFFFFFFFFFFFFFFFFFFFFFFFFFFFFFFFFFFFFFFFFFFFFFFFFFFFFFFFFFFFFFFFFFFFFFFFFFFFFFFFFFFFFFFFFFFFFFFFFFFFFFFFFFFFFFFFFFFFFFFFFFFFFFFFFFFFFFFFFFFFFFFFFFFFFFFFFFFFFFFFFF00000000000000000000FFFFFFFFFFFFFFFFFFFFFFFFFFFFFFFFFFFFFFFF0000FFFFFFFFFFFFFFFF
1004
FFFF0000FFFFFFFFFFFFFFFFFFFFFFFFFFFFFFFFFFFF00FFFFFFFFFFFFFFFFFFFFFFFFFF0000FFFFFFFFFFFFFFFFFFFFFFFFFFFFFF00FFFFFFFFFFFFFFFFFFFFFFFFFFFFFFFF0000FFFFFFFFFFFFFFFFFFFFFFFF00FFFFFFFFFFFFFFFFFFFFFFFFFFFFFFFFFFFFFF00FFFFFFFFFFFFFFFFFFFF00FFFFFFFFFFFFFFFFFFFFFF
1004
FFFFFFFFFFFFFFFFFFFF0000FFFFFFFFFFFFFFFF00FFFFFFFFFFFF00000000000000FFFFFFFFFFFFFFFFFFFF00FFFFFFFFFFFFFF00FFFFFFFFFFFF00000000000000FFFFFFFFFFFFFFFFFFFFFF0000000000FFFF00FFFFFFFFFFFF3C00000000FF3CFFFFFFFFFFFFFFFFFFFFFFFFFFFFFF00FFFF00FFFFFFFFFFFFFF000000
1004
003CFFFFFFFFFFFFFFFFFFFFFFFFFFFFFFFF00FFFF00FFFFFFFFFFFFFF000000003CFFFFFFFFFFFFFFFFFFFFFFFFFFFFFFFF00FFFFFF00FFFFFFFFFFFF000000000027272700E0E0E000FFFFFFFFFFFFFFFF00FFFFFF00FFFFFFFFFFFF00FFFF00FBFBFFFFFFFFFF0000FFFFFFFFFFFFFFFF00FFFFFF00FFFFFFFFFFFF00FF
1004
FF00FBFBFFFFFFFFFF0000FFFFFFFFFFFFFFFF00FFFFFF00FFFFFFFFFFFF0000E0000027272700E0E0E000FFFFFFFFFFFFFFFF00FFFFFF00FFFFFFFFFFFFFFFFFFFFFFFFFFFFFFFFFFFFFFFFFFFFFFFFFFFFFF00FFFFFF00FFFFFFFFFFFFFFFFFFFFFFFFFFFFFFFFFFFFFFFFFFFFFFFFFFFFFF00FFFFFFFF00FFFFFFFFFFFF
1004
FFFFFFFFFFFFFFFFFFFFFFFFFFFFFFFFFFFFFFFF00FFFFFFFF00FFFFFFFFFFFFFFFFFFFFFFFFFFFFFFFFFFFFFFFFFFFF0000000000FFFFFFFFFF00FFFFFFFFFFFFFFFFFFFFFFFFFFFFFFFFFFFFFF0000FFFFFFFFFFFFFFFFFFFFFF00FFFFFFFFFFFFFFFFFFFFFF00000000000000FFFFFFFFFFFFFFFFFFFFFFFFFFFF000000
1004
0000000000000000FFFFFFFFFFFFFFFFFFFFFFFFFFFFFFFFFFFFFFFFFFFFFFFFFFFFFFFFFFFFFFFFFFFFFFFFFFFFFFFFFFFFFFFFFFFFFFFFFFFFFFFFFFFFFFFFFFFFFFFFFFFFFFFFFFFFFFFFFFFFFFFFFFFFFFFFFFFFFFFFFFFFFFFFFFFFFFFFFFFFFFFFFFFFFFFFFFFFFFFFFFFFFFFFFFFFFFFFFFFFFFFFFFFFFFFFFFFFFF
1004
FFFFFFFFFFFFFFFFFFFFFFFFFFFFFFFFFFFFFFFFFFFFFFFFFFFFFFFFFFFFFFFFFFFFFFFFFFFFFFFFFFFFFFFFFFFFFFFFFFFFFFFFFFFFFFFF
  0
ENDTAB
  0
ENDSEC
  0
SECTION
  2
BLOCKS
  0
BLOCK
  5
20
330
1F
100
AcDbEntity
  8
0
100
AcDbBlockBegin
  2
*MODEL_SPACE
 70
     0
 10
0.0
 20
0.0
 30
0.0
  3
*MODEL_SPACE
  1

  0
ENDBLK
  5
21
330
1F
100
AcDbEntity
  8
0
100
AcDbBlockEnd
  0
BLOCK
  5
52
330
50
100
AcDbEntity
 67
     1
  8
0
100
AcDbBlockBegin
  2
*PAPER_SPACE
 70
     0
 10
0.0
 20
0.0
 30
0.0
  3
*PAPER_SPACE
  1

  0
ENDBLK
  5
53
330
50
100
AcDbEntity
 67
     1
  8
0
100
AcDbBlockEnd
  0
BLOCK
  5
1E4
330
1E3
100
AcDbEntity
  8
0
100
AcDbBlockBegin
  2
ADKR
 70
     0
 10
0.0
 20
0.0
 30
0.0
  3
ADKR
  1

  0
LWPOLYLINE
  5
1E6
330
1E3
100
AcDbEntity
  8
0
100
AcDbPolyline
 90
       12
 70
     1
 43
0.0
 10
-3752.94352255862
 20
-1699.748818296913
 10
-5123.994996992806
 20
-1699.748818296913
 42
-0.4379719353741748
 10
-6619.145917833987
 20
-79.23440460391794
 10
-6470.273691263341
 20
1767.735097415974
 42
-0.4162611394053927
 10
-4681.55584201566
 20
3278.869053283928
 10
-1869.043785161469
 20
3032.38394464393
 42
-0.1902370052126697
 10
-883.6581116633533
 20
2540.0
 10
0.0
 20
2540.0
 10
0.0
 20
0.0
 10
-883.6581116633533
 20
0.0
 42
-0.05968378098672
 10
-1151.890374560898
 20
-235.3300696959631
 10
-2904.833897119519
 20
-1436.967498740086
 42
-0.1513719909765482
  0
LINE
  5
1E7
330
1E3
100
AcDbEntity
  8
0
100
AcDbLine
 10
-1996.721061652446
 20
1518.949763647913
 30
0.0
 11
-3855.738696049248
 21
1518.949763647913
 31
0.0
  0
LINE
  5
1E8
330
1E3
100
AcDbEntity
  8
0
100
AcDbLine
 10
-3855.738696049248
 20
1538.286747649886
 30
0.0
 11
-1996.721061652442
 21
1538.286747649901
 31
0.0
  0
LINE
  5
1E9
330
1E3
100
AcDbEntity
  8
0
100
AcDbLine
 10
-1996.721061652439
 20
1020.855727459093
 30
0.0
 11
-3855.738696049248
 21
1020.855727459093
 31
0.0
  0
LINE
  5
1EA
330
1E3
100
AcDbEntity
  8
0
100
AcDbLine
 10
-3855.738696049248
 20
1001.518743457119
 30
0.0
 11
-1996.721061652442
 21
1001.518743457119
 31
0.0
  0
HATCH
  5
1EB
330
1E3
100
AcDbEntity
  8
0
 62
    50
100
AcDbHatch
 10
0.0
 20
0.0
 30
0.0
210
0.0
220
0.0
230
1.0
  2
SOLID
 70
     1
 71
     0
 91
        3
 92
        7
 72
     1
 73
     1
 93
       22
 10
-2182.422787326581
 20
1270.236141829329
 42
0.0
 10
-2180.755805947105
 20
1178.218769682069
 42
0.0
 10
-2173.421087877388
 20
1140.21159422992
 42
0.0
 10
-2156.084481530797
 20
1112.873099606433
 42
0.0
 10
-2131.413157114479
 20
1092.202530500872
 42
0.0
 10
-2104.741455042785
 20
1076.866301809648
 42
0.0
 10
-2090.738811455154
 20
1063.530450773803
 42
0.0
 10
-2083.40409338543
 20
1049.527807186161
 42
0.0
 10
-2080.736923178265
 20
1033.524785943147
 42
0.0
 10
-2080.736923178265
 20
1020.855727459093
 42
0.0
 10
-3855.738696049248
 20
1020.855727459107
 42
0.0
 10
-3855.738696049248
 20
1021.52252001089
 42
0.5047677450341376
 10
-3852.125480038154
 20
1518.949763647913
 42
0.0
 10
-2080.736923178265
 20
1518.949763647913
 42
0.0
 10
-2080.736923178265
 20
1506.280705163859
 42
0.0
 10
-2084.070885937228
 20
1487.610513713676
 42
0.0
 10
-2092.739189110529
 20
1473.607870126048
 42
0.0
 10
-2104.741455042792
 20
1463.605981849156
 42
0.0
 10
-2131.413157114479
 20
1447.602960606142
 42
0.0
 10
-2160.752029393337
 20
1421.59805108625
 42
0.0
 10
-2175.421465532767
 20
1393.592763910965
 42
0.0
 10
-2180.755805947108
 20
1361.586721424937
 42
0.0
 97
        0
 92
       22
 72
     1
 73
     1
 93
        2
 10
-3855.738696049248
 20
1067.878746444883
 42
0.0
 10
-3855.738696049248
 20
1475.26070742109
 42
-0.4582969605586812
 97
        0
 92
        7
 72
     1
 73
     1
 93
        5
 10
-3855.738696049248
 20
1021.52252001089
 42
0.0
 10
-3855.738696049248
 20
1067.878746444883
 42
0.4582969605586812
 10
-3855.738696049248
 20
1475.26070742109
 42
0.0
 10
-3855.738696049248
 20
1518.949763647913
 42
0.0
 10
-3852.125480038154
 20
1518.949763647913
 42
-0.5047677450341411
 97
        0
 75
     0
 76
     1
 47
4.472321723810398
 98
        3
 10
-2533.028477968262
 20
1294.864898826279
 10
-3817.125102158174
 20
1236.724754515795
 10
-3772.383027323293
 20
1174.112241915987
  0
HATCH
  5
1EC
330
1E3
100
AcDbEntity
  8
0
 62
    30
100
AcDbHatch
 10
0.0
 20
0.0
 30
0.0
210
0.0
220
0.0
230
1.0
  2
SOLID
 70
     1
 71
     0
 91
        2
 92
        7
 72
     0
 73
     1
 93
        4
 10
-2926.229878850849
 20
1001.518743457119
 10
-3855.738696049248
 20
1001.518743457119
 10
-3855.738696049248
 20
1020.855727459093
 10
-2926.229878850842
 20
1020.855727459093
 97
        0
 92
        7
 72
     1
 73
     1
 93
        5
 10
-2926.229878850849
 20
1518.949763647913
 42
0.0
 10
-3852.125480038154
 20
1518.949763647913
 42
0.003631856113254
 10
-3855.738696049248
 20
1521.616933855082
 42
0.0
 10
-3855.738696049248
 20
1538.286747649886
 42
0.0
 10
-2926.229878850842
 20
1538.286747649894
 42
0.0
 97
        0
 75
     0
 76
     1
 47
3.387716884985549
 98
        2
 10
-3641.132771259701
 20
1012.206731655511
 10
-3549.568994652192
 20
1530.527423101441
  0
LINE
  5
1ED
102
{ACAD_REACTORS
330
1EF
102
}
330
1E3
100
AcDbEntity
  8
0
100
AcDbLine
 10
-3780.164750299744
 20
-39.33064603644197
 30
0.0
 11
-4106.835406825979
 21
896.4446721376789
 31
0.0
  0
LINE
  5
1EE
102
{ACAD_REACTORS
330
1EF
102
}
330
1E3
100
AcDbEntity
  8
0
100
AcDbLine
 10
-4763.564527411475
 20
896.4446721376772
 30
0.0
 11
-5090.802320494178
 21
-39.33064603644197
 31
0.0
  0
HATCH
  5
1EF
330
1E3
100
AcDbEntity
  8
0
 62
    70
100
AcDbHatch
 10
0.0
 20
0.0
 30
0.0
210
0.0
220
0.0
230
1.0
  2
SOLID
 70
     1
 71
     1
 91
       13
 92
        7
 72
     0
 73
     1
 93
        6
 10
-4763.564527411475
 20
896.4446721376772
 10
-5090.802320494178
 20
-39.33064603644016
 10
-5121.319616859
 20
-187.0986073818949
 10
-3749.647453934922
 20
-187.0986073818949
 10
-3780.164750299741
 20
-39.33064603643937
 10
-4106.835406825981
 20
896.4446721376788
 97
        6
330
261
330
1EE
330
1F8
330
1F2
330
240
330
1ED
 92
       22
 72
     0
 73
     1
 93
        8
 10
-4260.946015836752
 20
682.029253392261
 10
-4238.994978100653
 20
665.9675184634046
 10
-4238.459586936357
 20
623.1362253197971
 10
-4259.33984234387
 20
606.5390992266493
 10
-4362.13494588853
 20
606.5390992266493
 10
-4383.015201296038
 20
623.1362253197963
 10
-4382.479810131743
 20
665.9675184634054
 10
-4360.528772395643
 20
682.0292533922602
 97
        8
330
258
330
259
330
25A
330
1F1
330
234
330
235
330
233
330
1F0
 92
       22
 72
     0
 73
     1
 93
        9
 10
-4417.280235810926
 20
557.6305021526073
 10
-4415.138671153749
 20
524.703945548459
 10
-4463.323875940306
 20
481.0695656584083
 10
-4539.349421270213
 20
481.0695656584083
 10
-4588.070017221066
 20
525.5070322949014
 10
-4585.228325656731
 20
559.6073310669293
 10
-4568.795935306443
 20
565.6613696170351
 10
-4501.336648605263
 20
543.710331880935
 10
-4431.735797246896
 20
564.0551961241491
 97
       10
330
232
330
230
330
22A
330
22B
330
22F
330
22D
330
22E
330
22C
330
229
330
231
 92
       22
 72
     0
 73
     1
 93
        8
 10
-4163.504823935039
 20
500.8790387373282
 10
-4063.922067376148
 20
500.8790387373283
 10
-4041.971029640051
 20
484.817303808473
 10
-4041.435638475755
 20
441.9860106648657
 10
-4062.315893883267
 20
425.3888845717174
 10
-4165.110997427928
 20
425.3888845717173
 10
-4185.991252835437
 20
441.9860106648644
 10
-4185.455861671139
 20
484.8173038084736
 97
        8
330
253
330
25B
330
25C
330
25D
330
254
330
256
330
257
330
255
 92
       22
 72
     0
 73
     1
 93
        9
 10
-4279.149315422786
 20
348.8279480775144
 10
-4211.690028721604
 20
326.8769103414143
 10
-4142.089177363239
 20
347.2217745846281
 10
-4127.633615927268
 20
340.7970806130871
 10
-4125.492051270092
 20
307.8705240089387
 10
-4173.67725605665
 20
264.2361441188877
 10
-4249.702801386557
 20
264.2361441188877
 10
-4298.42339733741
 20
308.6736107553805
 10
-4295.581705773074
 20
342.7739095274086
 97
       10
330
249
330
250
330
251
330
252
330
24F
330
24A
330
24B
330
24E
330
24D
330
24C
 92
       22
 72
     0
 73
     1
 93
        8
 10
-4649.104609950712
 20
556.5597198240189
 10
-4648.569218786415
 20
513.728426680411
 10
-4669.449474193927
 20
497.1313005872635
 10
-4772.244577738587
 20
497.1313005872635
 10
-4793.124833146095
 20
513.7284266804108
 10
-4792.5894419818
 20
556.5597198240196
 10
-4770.638404245698
 20
572.6214547528743
 10
-4671.055647686809
 20
572.6214547528743
 97
        8
330
228
330
226
330
222
330
223
330
225
330
224
330
221
330
227
 92
       22
 72
     0
 73
     1
 93
        8
 10
-4515.256818876929
 20
361.6773360205972
 10
-4493.305781140832
 20
345.6156010917424
 10
-4492.770389976537
 20
302.7843079481332
 10
-4513.650645384048
 20
286.1871818549861
 10
-4616.445748928709
 20
286.1871818549861
 10
-4637.326004336215
 20
302.7843079481333
 10
-4636.790613171921
 20
345.6156010917422
 10
-4614.839575435819
 20
361.677336020597
 97
        8
330
220
330
21E
330
21F
330
208
330
212
330
211
330
213
330
207
 92
       22
 72
     0
 73
     1
 93
        9
 10
-4439.766664711322
 20
174.8258196816024
 10
-4425.311103275351
 20
168.4011257100608
 10
-4423.169538618174
 20
135.4745691059128
 10
-4471.354743404732
 20
91.84018921586174
 10
-4547.38028873464
 20
91.84018921586176
 10
-4596.100884685493
 20
136.2776558523543
 10
-4593.259193121156
 20
170.377954624383
 10
-4576.826802770869
 20
176.4319931744885
 10
-4509.367516069687
 20
154.4809554383881
 97
       10
330
21C
330
21D
330
21B
330
215
330
216
330
21A
330
218
330
219
330
217
330
214
 92
       22
 72
     0
 73
     1
 93
        8
 10
-4242.207325086419
 20
134.6714823594702
 10
-4142.624568527528
 20
134.6714823594702
 10
-4120.673530791431
 20
118.609747430615
 10
-4120.138139627135
 20
75.77845428700658
 10
-4141.018395034646
 20
59.18132819385937
 10
-4243.813498579307
 20
59.18132819385936
 10
-4264.693753986816
 20
75.77845428700637
 10
-4264.158362822519
 20
118.609747430615
 97
        8
330
241
330
248
330
246
330
247
330
242
330
244
330
243
330
245
 92
       22
 72
     0
 73
     1
 93
        8
 10
-4736.908760895107
 20
233.7188477540647
 10
-4736.373369730813
 20
190.8875546104554
 10
-4757.253625138324
 20
174.2904285173081
 10
-4860.048728682984
 20
174.290428517308
 10
-4880.928984090493
 20
190.887554610456
 10
-4880.393592926196
 20
233.7188477540643
 10
-4858.442555190098
 20
249.7805826829189
 10
-4758.859798631205
 20
249.7805826829189
 97
        8
330
209
330
20D
330
20C
330
205
330
206
330
204
330
20F
330
210
 92
       22
 72
     0
 73
     1
 93
        8
 10
-4381.944418967447
 20
-31.29977857201637
 10
-4359.99338123135
 20
-47.36151350087212
 10
-4359.457990067054
 20
-90.19280664447951
 10
-4380.338245474565
 20
-106.7899327376271
 10
-4483.133349019226
 20
-106.7899327376271
 10
-4504.013604426734
 20
-90.19280664447943
 10
-4503.478213262439
 20
-47.36151350087109
 10
-4481.527175526338
 20
-31.29977857201629
 97
        8
330
203
330
201
330
202
330
1FD
330
1FF
330
1FE
330
200
330
1FC
 92
       22
 72
     0
 73
     1
 93
        9
 10
-4160.827868113563
 20
-60.210901443952
 10
-4093.368581412381
 20
-82.16193918005224
 10
-4023.767730054017
 20
-61.81707493683834
 10
-4009.312168618045
 20
-68.24176890837986
 10
-4007.170603960868
 20
-101.1683255125272
 10
-4055.355808747426
 20
-144.8027054025788
 10
-4131.381354077334
 20
-144.8027054025788
 10
-4180.101950028188
 20
-100.365238766085
 10
-4177.26025846385
 20
-66.2649399940578
 97
       10
330
23A
330
236
330
23F
330
23D
330
23E
330
237
330
239
330
238
330
23B
330
23C
 92
       22
 72
     0
 73
     1
 93
        9
 10
-4668.37869186533
 20
14.20847039307011
 10
-4666.237127208153
 20
-18.7180862110796
 10
-4714.422331994712
 20
-62.35246610113062
 10
-4790.447877324619
 20
-62.35246610113064
 10
-4839.168473275474
 20
-17.91499946463758
 10
-4836.326781711136
 20
16.18529930739054
 10
-4819.89439136085
 20
22.23933785749609
 10
-4752.435104659666
 20
0.2883001213957511
 10
-4682.834253301302
 20
20.63316436460989
 97
       10
330
1F6
330
1FB
330
1F9
330
1FA
330
1F7
330
20A
330
20B
330
1F4
330
1F5
330
20E
 75
     0
 76
     1
 47
2.721598632278727
 98
       13
 10
-4264.716003391142
 20
762.0834221872065
 10
-4264.716003391142
 20
762.0834221872065
 10
-4264.716003391142
 20
762.0834221872065
 10
-4264.716003391142
 20
762.0834221872065
 10
-4264.716003391142
 20
762.0834221872065
 10
-4264.716003391142
 20
762.0834221872065
 10
-4264.716003391142
 20
762.0834221872065
 10
-4264.716003391142
 20
762.0834221872065
 10
-4264.716003391142
 20
762.0834221872065
 10
-4264.716003391142
 20
762.0834221872065
 10
-4264.716003391142
 20
762.0834221872065
 10
-4264.716003391142
 20
762.0834221872065
 10
-4264.716003391142
 20
762.0834221872065
  0
LINE
  5
1F0
102
{ACAD_REACTORS
330
1F3
330
1EF
102
}
330
1E3
100
AcDbEntity
  8
0
100
AcDbLine
 10
-4260.946015836751
 20
682.0292533922602
 30
0.0
 11
-4360.528772395642
 21
682.0292533922602
 31
0.0
  0
LINE
  5
1F1
102
{ACAD_REACTORS
330
1F3
330
1EF
102
}
330
1E3
100
AcDbEntity
  8
0
100
AcDbLine
 10
-4362.13494588853
 20
606.5390992266493
 30
0.0
 11
-4259.33984234387
 21
606.5390992266493
 31
0.0
  0
LINE
  5
1F2
102
{ACAD_REACTORS
330
1EF
102
}
330
1E3
100
AcDbEntity
  8
0
100
AcDbLine
 10
-5121.319616859
 20
-187.0986073818949
 30
0.0
 11
-3749.647453934922
 21
-187.0986073818949
 31
0.0
  0
HATCH
  5
1F3
330
1E3
100
AcDbEntity
  8
0
 62
    30
100
AcDbHatch
 10
0.0
 20
0.0
 30
0.0
210
0.0
220
0.0
230
1.0
  2
SOLID
 70
     1
 71
     1
 91
       12
 92
        7
 72
     0
 73
     1
 93
        8
 10
-4259.339842343871
 20
606.5390992266493
 10
-4238.459586936357
 20
623.1362253197975
 10
-4238.994978100654
 20
665.9675184634056
 10
-4260.946015836752
 20
682.0292533922602
 10
-4360.528772395643
 20
682.0292533922602
 10
-4382.479810131743
 20
665.9675184634051
 10
-4383.015201296038
 20
623.1362253197969
 10
-4362.13494588853
 20
606.5390992266493
 97
        8
330
258
330
1F0
330
233
330
235
330
234
330
1F1
330
25A
330
259
 92
        7
 72
     0
 73
     1
 93
        8
 10
-4062.315893883267
 20
425.3888845717174
 10
-4041.435638475755
 20
441.9860106648655
 10
-4041.971029640051
 20
484.8173038084728
 10
-4063.922067376148
 20
500.8790387373283
 10
-4163.504823935039
 20
500.8790387373283
 10
-4185.455861671139
 20
484.817303808473
 10
-4185.991252835437
 20
441.986010664865
 10
-4165.110997427928
 20
425.3888845717174
 97
        8
330
25B
330
253
330
255
330
257
330
256
330
254
330
25D
330
25C
 92
        7
 72
     0
 73
     1
 93
       10
 10
-4211.690028721604
 20
326.8769103414141
 10
-4279.149315422786
 20
348.8279480775144
 10
-4289.321747544397
 20
345.0802099274473
 10
-4295.746441515933
 20
340.7970806130868
 10
-4298.42339733741
 20
308.6736107553809
 10
-4249.702801386557
 20
264.2361441188877
 10
-4173.67725605665
 20
264.2361441188877
 10
-4125.492051270092
 20
307.8705240089381
 10
-4127.633615927268
 20
340.7970806130869
 10
-4142.089177363239
 20
347.2217745846282
 97
       10
330
252
330
251
330
250
330
249
330
24C
330
24D
330
24E
330
24B
330
24A
330
24F
 92
        7
 72
     0
 73
     1
 93
        8
 10
-4142.624568527528
 20
134.6714823594702
 10
-4242.207325086419
 20
134.6714823594702
 10
-4264.158362822519
 20
118.6097474306146
 10
-4264.693753986814
 20
75.77845428700581
 10
-4243.813498579307
 20
59.18132819385937
 10
-4141.018395034647
 20
59.18132819385937
 10
-4120.138139627135
 20
75.77845428700671
 10
-4120.673530791431
 20
118.6097474306154
 97
        8
330
248
330
241
330
245
330
243
330
244
330
242
330
247
330
246
 92
        7
 72
     0
 73
     1
 93
       10
 10
-4160.827868113563
 20
-60.21090144395195
 10
-4171.000300235173
 20
-63.95863959401926
 10
-4177.424994206711
 20
-68.24176890837984
 10
-4180.101950028188
 20
-100.3652387660861
 10
-4131.381354077332
 20
-144.8027054025788
 10
-4055.355808747426
 20
-144.8027054025788
 10
-4007.170603960868
 20
-101.1683255125283
 10
-4009.312168618047
 20
-68.2417689083793
 10
-4023.767730054017
 20
-61.8170749368383
 10
-4093.368581412381
 20
-82.1619391800522
 97
       10
330
23D
330
23F
330
236
330
23A
330
23C
330
23B
330
238
330
239
330
237
330
23E
 92
        7
 72
     0
 73
     1
 93
        8
 10
-4381.944418967447
 20
-31.29977857201629
 10
-4481.527175526339
 20
-31.29977857201629
 10
-4503.478213262438
 20
-47.36151350087069
 10
-4504.013604426734
 20
-90.19280664448023
 10
-4483.133349019226
 20
-106.7899327376271
 10
-4380.338245474566
 20
-106.7899327376271
 10
-4359.457990067054
 20
-90.19280664447933
 10
-4359.99338123135
 20
-47.36151350087164
 97
        8
330
203
330
1FC
330
200
330
1FE
330
1FF
330
1FD
330
202
330
201
 92
        7
 72
     0
 73
     1
 93
       10
 10
-4425.311103275351
 20
168.4011257100608
 10
-4439.766664711322
 20
174.8258196816022
 10
-4509.367516069687
 20
154.4809554383883
 10
-4576.826802770869
 20
176.4319931744884
 10
-4586.999234892478
 20
172.6842550244223
 10
-4593.423928864016
 20
168.4011257100608
 10
-4596.100884685493
 20
136.2776558523548
 10
-4547.38028873464
 20
91.84018921586174
 10
-4471.354743404734
 20
91.84018921586176
 10
-4423.169538618174
 20
135.4745691059124
 97
       10
330
21D
330
21C
330
214
330
217
330
219
330
218
330
21A
330
216
330
215
330
21B
 92
        7
 72
     0
 73
     1
 93
       10
 10
-4668.37869186533
 20
14.20847039306878
 10
-4682.834253301302
 20
20.63316436460991
 10
-4752.435104659668
 20
0.2883001213959114
 10
-4819.89439136085
 20
22.23933785749609
 10
-4830.066823482461
 20
18.49159970742885
 10
-4836.491517453997
 20
14.20847039306779
 10
-4839.168473275473
 20
-17.91499946463845
 10
-4790.447877324619
 20
-62.35246610113062
 10
-4714.422331994712
 20
-62.35246610113062
 10
-4666.237127208153
 20
-18.71808621107984
 97
       10
330
20E
330
1F5
330
1F4
330
20B
330
20A
330
1F7
330
1FA
330
1F9
330
1FB
330
1F6
 92
        7
 72
     0
 73
     1
 93
        8
 10
-4736.908760895107
 20
233.7188477540641
 10
-4758.859798631204
 20
249.7805826829189
 10
-4858.442555190095
 20
249.7805826829189
 10
-4880.393592926198
 20
233.7188477540636
 10
-4880.928984090493
 20
190.8875546104557
 10
-4860.048728682984
 20
174.290428517308
 10
-4757.253625138325
 20
174.2904285173081
 10
-4736.373369730812
 20
190.8875546104556
 97
        8
330
210
330
20F
330
204
330
206
330
205
330
20C
330
20D
330
209
 92
        7
 72
     0
 73
     1
 93
        8
 10
-4493.305781140832
 20
345.6156010917423
 10
-4515.256818876929
 20
361.677336020597
 10
-4614.839575435822
 20
361.6773360205971
 10
-4636.79061317192
 20
345.6156010917414
 10
-4637.326004336217
 20
302.784307948133
 10
-4616.445748928708
 20
286.1871818549861
 10
-4513.650645384047
 20
286.1871818549861
 10
-4492.770389976537
 20
302.7843079481337
 97
        8
330
220
330
207
330
213
330
211
330
212
330
208
330
21F
330
21E
 92
        7
 72
     0
 73
     1
 93
        8
 10
-4648.569218786415
 20
513.7284266804109
 10
-4649.104609950712
 20
556.5597198240196
 10
-4671.055647686808
 20
572.6214547528743
 10
-4770.638404245699
 20
572.6214547528743
 10
-4792.5894419818
 20
556.5597198240196
 10
-4793.124833146094
 20
513.7284266804102
 10
-4772.244577738587
 20
497.1313005872635
 10
-4669.449474193927
 20
497.1313005872635
 97
        8
330
227
330
221
330
224
330
225
330
223
330
222
330
226
330
228
 92
        7
 72
     0
 73
     1
 93
       10
 10
-4415.138671153749
 20
524.7039455484591
 10
-4417.280235810926
 20
557.6305021526076
 10
-4431.735797246896
 20
564.0551961241491
 10
-4501.336648605263
 20
543.710331880935
 10
-4568.795935306442
 20
565.6613696170349
 10
-4578.968367428055
 20
561.9136314669685
 10
-4585.393061399591
 20
557.6305021526085
 10
-4588.070017221066
 20
525.5070322949008
 10
-4539.349421270214
 20
481.0695656584084
 10
-4463.323875940305
 20
481.0695656584084
 97
       10
330
232
330
231
330
229
330
22C
330
22E
330
22D
330
22F
330
22B
330
22A
330
230
 75
     0
 76
     1
 47
2.204275466911288
 98
       27
 10
-4303.0623240942
 20
642.4007724807033
 10
-4141.982361938666
 20
461.6501546222662
 10
-4219.212461601601
 20
342.6192725848177
 10
-4219.212461601601
 20
342.6192725848177
 10
-4219.212461601601
 20
342.6192725848177
 10
-4219.212461601601
 20
342.6192725848177
 10
-4219.212461601601
 20
342.6192725848177
 10
-4219.212461601601
 20
342.6192725848177
 10
-4219.212461601601
 20
342.6192725848177
 10
-4219.212461601601
 20
342.6192725848177
 10
-4219.212461601601
 20
342.6192725848177
 10
-4219.212461601601
 20
342.6192725848177
 10
-4219.212461601601
 20
342.6192725848177
 10
-4219.212461601601
 20
342.6192725848177
 10
-4219.212461601601
 20
342.6192725848177
 10
-4307.475526765927
 20
651.2178652493621
 10
-4150.808684926269
 20
452.8330618536074
 10
-4221.41910411539
 20
294.1252191370094
 10
-4205.973018298122
 20
84.71904978043495
 10
-4119.916595647584
 20
-109.2572072309831
 10
-4402.358190048217
 20
-62.96742697534319
 10
-4503.860698516022
 20
111.1703713066035
 10
-4728.931317031012
 20
3.160855229974913
 10
-4784.095732758702
 20
210.3627513943811
 10
-4585.503918494833
 20
320.5765406631781
 10
-4695.83266759439
 20
547.6168955570629
 10
-4506.06725867396
 20
496.9185689170863
  0
LINE
  5
1F4
102
{ACAD_REACTORS
330
1F3
330
1EF
102
}
330
1E3
100
AcDbEntity
  8
0
100
AcDbLine
 10
-4752.435104659667
 20
0.2883001213958778
 30
0.0
 11
-4819.89439136085
 21
22.23933785749613
 31
0.0
  0
LINE
  5
1F5
102
{ACAD_REACTORS
330
1F3
330
1EF
102
}
330
1E3
100
AcDbEntity
  8
0
100
AcDbLine
 10
-4682.834253301302
 20
20.63316436460991
 30
0.0
 11
-4752.435104659667
 21
0.2883001213958778
 31
0.0
  0
LINE
  5
1F6
102
{ACAD_REACTORS
330
1F3
330
1EF
102
}
330
1E3
100
AcDbEntity
  8
0
100
AcDbLine
 10
-4666.237127208154
 20
-18.71808621107993
 30
0.0
 11
-4668.37869186533
 21
14.20847039306863
 31
0.0
  0
LINE
  5
1F7
102
{ACAD_REACTORS
330
1F3
330
1EF
102
}
330
1E3
100
AcDbEntity
  8
0
100
AcDbLine
 10
-4836.491517453996
 20
14.20847039306863
 30
0.0
 11
-4839.168473275473
 21
-17.91499946463773
 31
0.0
  0
LINE
  5
1F8
102
{ACAD_REACTORS
330
1EF
102
}
330
1E3
100
AcDbEntity
  8
0
100
AcDbLine
 10
-5090.802320494178
 20
-39.33064603644197
 30
0.0
 11
-5121.319616859
 21
-187.0986073818949
 31
0.0
  0
LINE
  5
1F9
102
{ACAD_REACTORS
330
1F3
330
1EF
102
}
330
1E3
100
AcDbEntity
  8
0
100
AcDbLine
 10
-4790.447877324619
 20
-62.35246610113063
 30
0.0
 11
-4714.422331994712
 21
-62.35246610113063
 31
0.0
  0
LINE
  5
1FA
102
{ACAD_REACTORS
330
1F3
330
1EF
102
}
330
1E3
100
AcDbEntity
  8
0
100
AcDbLine
 10
-4839.168473275473
 20
-17.91499946463773
 30
0.0
 11
-4790.447877324619
 21
-62.35246610113063
 31
0.0
  0
LINE
  5
1FB
102
{ACAD_REACTORS
330
1F3
330
1EF
102
}
330
1E3
100
AcDbEntity
  8
0
100
AcDbLine
 10
-4714.422331994712
 20
-62.35246610113063
 30
0.0
 11
-4666.237127208154
 21
-18.71808621107993
 31
0.0
  0
LINE
  5
1FC
102
{ACAD_REACTORS
330
1F3
330
1EF
102
}
330
1E3
100
AcDbEntity
  8
0
100
AcDbLine
 10
-4381.944418967447
 20
-31.29977857201629
 30
0.0
 11
-4481.527175526338
 21
-31.29977857201629
 31
0.0
  0
LINE
  5
1FD
102
{ACAD_REACTORS
330
1F3
330
1EF
102
}
330
1E3
100
AcDbEntity
  8
0
100
AcDbLine
 10
-4483.133349019226
 20
-106.7899327376271
 30
0.0
 11
-4380.338245474566
 21
-106.7899327376271
 31
0.0
  0
LINE
  5
1FE
102
{ACAD_REACTORS
330
1F3
330
1EF
102
}
330
1E3
100
AcDbEntity
  8
0
100
AcDbLine
 10
-4503.478213262439
 20
-47.36151350087129
 30
0.0
 11
-4504.013604426734
 21
-90.19280664447979
 31
0.0
  0
LINE
  5
1FF
102
{ACAD_REACTORS
330
1F3
330
1EF
102
}
330
1E3
100
AcDbEntity
  8
0
100
AcDbLine
 10
-4504.013604426734
 20
-90.19280664447979
 30
0.0
 11
-4483.133349019226
 21
-106.7899327376271
 31
0.0
  0
LINE
  5
200
102
{ACAD_REACTORS
330
1F3
330
1EF
102
}
330
1E3
100
AcDbEntity
  8
0
100
AcDbLine
 10
-4481.527175526338
 20
-31.29977857201629
 30
0.0
 11
-4503.478213262439
 21
-47.36151350087129
 31
0.0
  0
LINE
  5
201
102
{ACAD_REACTORS
330
1F3
330
1EF
102
}
330
1E3
100
AcDbEntity
  8
0
100
AcDbLine
 10
-4359.457990067054
 20
-90.19280664447979
 30
0.0
 11
-4359.99338123135
 21
-47.36151350087129
 31
0.0
  0
LINE
  5
202
102
{ACAD_REACTORS
330
1F3
330
1EF
102
}
330
1E3
100
AcDbEntity
  8
0
100
AcDbLine
 10
-4380.338245474566
 20
-106.7899327376271
 30
0.0
 11
-4359.457990067054
 21
-90.19280664447979
 31
0.0
  0
LINE
  5
203
102
{ACAD_REACTORS
330
1F3
330
1EF
102
}
330
1E3
100
AcDbEntity
  8
0
100
AcDbLine
 10
-4359.99338123135
 20
-47.36151350087129
 30
0.0
 11
-4381.944418967447
 21
-31.29977857201629
 31
0.0
  0
LINE
  5
204
102
{ACAD_REACTORS
330
1F3
330
1EF
102
}
330
1E3
100
AcDbEntity
  8
0
100
AcDbLine
 10
-4858.442555190097
 20
249.7805826829189
 30
0.0
 11
-4880.393592926196
 21
233.7188477540639
 31
0.0
  0
LINE
  5
205
102
{ACAD_REACTORS
330
1F3
330
1EF
102
}
330
1E3
100
AcDbEntity
  8
0
100
AcDbLine
 10
-4880.928984090493
 20
190.8875546104554
 30
0.0
 11
-4860.048728682984
 21
174.290428517308
 31
0.0
  0
LINE
  5
206
102
{ACAD_REACTORS
330
1F3
330
1EF
102
}
330
1E3
100
AcDbEntity
  8
0
100
AcDbLine
 10
-4880.393592926196
 20
233.7188477540639
 30
0.0
 11
-4880.928984090493
 21
190.8875546104554
 31
0.0
  0
LINE
  5
207
102
{ACAD_REACTORS
330
1F3
330
1EF
102
}
330
1E3
100
AcDbEntity
  8
0
100
AcDbLine
 10
-4515.256818876929
 20
361.677336020597
 30
0.0
 11
-4614.83957543582
 21
361.677336020597
 31
0.0
  0
LINE
  5
208
102
{ACAD_REACTORS
330
1F3
330
1EF
102
}
330
1E3
100
AcDbEntity
  8
0
100
AcDbLine
 10
-4616.445748928708
 20
286.1871818549861
 30
0.0
 11
-4513.650645384048
 21
286.1871818549861
 31
0.0
  0
LINE
  5
209
102
{ACAD_REACTORS
330
1F3
330
1EF
102
}
330
1E3
100
AcDbEntity
  8
0
100
AcDbLine
 10
-4736.373369730812
 20
190.8875546104554
 30
0.0
 11
-4736.908760895108
 21
233.7188477540639
 31
0.0
  0
LINE
  5
20A
102
{ACAD_REACTORS
330
1F3
330
1EF
102
}
330
1E3
100
AcDbEntity
  8
0
100
AcDbLine
 10
-4830.066823482459
 20
18.49159970742948
 30
0.0
 11
-4836.491517453996
 21
14.20847039306863
 31
0.0
  0
LINE
  5
20B
102
{ACAD_REACTORS
330
1F3
330
1EF
102
}
330
1E3
100
AcDbEntity
  8
0
100
AcDbLine
 10
-4819.89439136085
 20
22.23933785749613
 30
0.0
 11
-4830.066823482459
 21
18.49159970742948
 31
0.0
  0
LINE
  5
20C
102
{ACAD_REACTORS
330
1F3
330
1EF
102
}
330
1E3
100
AcDbEntity
  8
0
100
AcDbLine
 10
-4860.048728682984
 20
174.290428517308
 30
0.0
 11
-4757.253625138324
 21
174.290428517308
 31
0.0
  0
LINE
  5
20D
102
{ACAD_REACTORS
330
1F3
330
1EF
102
}
330
1E3
100
AcDbEntity
  8
0
100
AcDbLine
 10
-4757.253625138324
 20
174.290428517308
 30
0.0
 11
-4736.373369730812
 21
190.8875546104554
 31
0.0
  0
LINE
  5
20E
102
{ACAD_REACTORS
330
1F3
330
1EF
102
}
330
1E3
100
AcDbEntity
  8
0
100
AcDbLine
 10
-4668.37869186533
 20
14.20847039306863
 30
0.0
 11
-4682.834253301302
 21
20.63316436460991
 31
0.0
  0
LINE
  5
20F
102
{ACAD_REACTORS
330
1F3
330
1EF
102
}
330
1E3
100
AcDbEntity
  8
0
100
AcDbLine
 10
-4758.859798631205
 20
249.7805826829189
 30
0.0
 11
-4858.442555190097
 21
249.7805826829189
 31
0.0
  0
LINE
  5
210
102
{ACAD_REACTORS
330
1F3
330
1EF
102
}
330
1E3
100
AcDbEntity
  8
0
100
AcDbLine
 10
-4736.908760895108
 20
233.7188477540639
 30
0.0
 11
-4758.859798631205
 21
249.7805826829189
 31
0.0
  0
LINE
  5
211
102
{ACAD_REACTORS
330
1F3
330
1EF
102
}
330
1E3
100
AcDbEntity
  8
0
100
AcDbLine
 10
-4636.79061317192
 20
345.615601091742
 30
0.0
 11
-4637.326004336217
 21
302.7843079481336
 31
0.0
  0
LINE
  5
212
102
{ACAD_REACTORS
330
1F3
330
1EF
102
}
330
1E3
100
AcDbEntity
  8
0
100
AcDbLine
 10
-4637.326004336217
 20
302.7843079481336
 30
0.0
 11
-4616.445748928708
 21
286.1871818549861
 31
0.0
  0
LINE
  5
213
102
{ACAD_REACTORS
330
1F3
330
1EF
102
}
330
1E3
100
AcDbEntity
  8
0
100
AcDbLine
 10
-4614.83957543582
 20
361.677336020597
 30
0.0
 11
-4636.79061317192
 21
345.615601091742
 31
0.0
  0
LINE
  5
214
102
{ACAD_REACTORS
330
1F3
330
1EF
102
}
330
1E3
100
AcDbEntity
  8
0
100
AcDbLine
 10
-4439.766664711322
 20
174.8258196816022
 30
0.0
 11
-4509.367516069687
 21
154.4809554383882
 31
0.0
  0
LINE
  5
215
102
{ACAD_REACTORS
330
1F3
330
1EF
102
}
330
1E3
100
AcDbEntity
  8
0
100
AcDbLine
 10
-4547.380288734639
 20
91.84018921586176
 30
0.0
 11
-4471.354743404732
 21
91.84018921586176
 31
0.0
  0
LINE
  5
216
102
{ACAD_REACTORS
330
1F3
330
1EF
102
}
330
1E3
100
AcDbEntity
  8
0
100
AcDbLine
 10
-4596.100884685493
 20
136.2776558523546
 30
0.0
 11
-4547.380288734639
 21
91.84018921586176
 31
0.0
  0
LINE
  5
217
102
{ACAD_REACTORS
330
1F3
330
1EF
102
}
330
1E3
100
AcDbEntity
  8
0
100
AcDbLine
 10
-4509.367516069687
 20
154.4809554383882
 30
0.0
 11
-4576.826802770869
 21
176.4319931744885
 31
0.0
  0
LINE
  5
218
102
{ACAD_REACTORS
330
1F3
330
1EF
102
}
330
1E3
100
AcDbEntity
  8
0
100
AcDbLine
 10
-4586.999234892479
 20
172.6842550244218
 30
0.0
 11
-4593.423928864016
 21
168.401125710061
 31
0.0
  0
LINE
  5
219
102
{ACAD_REACTORS
330
1F3
330
1EF
102
}
330
1E3
100
AcDbEntity
  8
0
100
AcDbLine
 10
-4576.826802770869
 20
176.4319931744885
 30
0.0
 11
-4586.999234892479
 21
172.6842550244218
 31
0.0
  0
LINE
  5
21A
102
{ACAD_REACTORS
330
1F3
330
1EF
102
}
330
1E3
100
AcDbEntity
  8
0
100
AcDbLine
 10
-4593.423928864016
 20
168.401125710061
 30
0.0
 11
-4596.100884685493
 21
136.2776558523546
 31
0.0
  0
LINE
  5
21B
102
{ACAD_REACTORS
330
1F3
330
1EF
102
}
330
1E3
100
AcDbEntity
  8
0
100
AcDbLine
 10
-4471.354743404732
 20
91.84018921586176
 30
0.0
 11
-4423.169538618174
 21
135.4745691059124
 31
0.0
  0
LINE
  5
21C
102
{ACAD_REACTORS
330
1F3
330
1EF
102
}
330
1E3
100
AcDbEntity
  8
0
100
AcDbLine
 10
-4425.311103275351
 20
168.401125710061
 30
0.0
 11
-4439.766664711322
 21
174.8258196816022
 31
0.0
  0
LINE
  5
21D
102
{ACAD_REACTORS
330
1F3
330
1EF
102
}
330
1E3
100
AcDbEntity
  8
0
100
AcDbLine
 10
-4423.169538618174
 20
135.4745691059124
 30
0.0
 11
-4425.311103275351
 21
168.401125710061
 31
0.0
  0
LINE
  5
21E
102
{ACAD_REACTORS
330
1F3
330
1EF
102
}
330
1E3
100
AcDbEntity
  8
0
100
AcDbLine
 10
-4492.770389976537
 20
302.7843079481336
 30
0.0
 11
-4493.305781140832
 21
345.615601091742
 31
0.0
  0
LINE
  5
21F
102
{ACAD_REACTORS
330
1F3
330
1EF
102
}
330
1E3
100
AcDbEntity
  8
0
100
AcDbLine
 10
-4513.650645384048
 20
286.1871818549861
 30
0.0
 11
-4492.770389976537
 21
302.7843079481336
 31
0.0
  0
LINE
  5
220
102
{ACAD_REACTORS
330
1F3
330
1EF
102
}
330
1E3
100
AcDbEntity
  8
0
100
AcDbLine
 10
-4493.305781140832
 20
345.615601091742
 30
0.0
 11
-4515.256818876929
 21
361.677336020597
 31
0.0
  0
LINE
  5
221
102
{ACAD_REACTORS
330
1F3
330
1EF
102
}
330
1E3
100
AcDbEntity
  8
0
100
AcDbLine
 10
-4671.055647686808
 20
572.6214547528743
 30
0.0
 11
-4770.638404245699
 21
572.6214547528743
 31
0.0
  0
LINE
  5
222
102
{ACAD_REACTORS
330
1F3
330
1EF
102
}
330
1E3
100
AcDbEntity
  8
0
100
AcDbLine
 10
-4772.244577738587
 20
497.1313005872635
 30
0.0
 11
-4669.449474193927
 21
497.1313005872635
 31
0.0
  0
LINE
  5
223
102
{ACAD_REACTORS
330
1F3
330
1EF
102
}
330
1E3
100
AcDbEntity
  8
0
100
AcDbLine
 10
-4793.124833146095
 20
513.7284266804108
 30
0.0
 11
-4772.244577738587
 21
497.1313005872635
 31
0.0
  0
LINE
  5
224
102
{ACAD_REACTORS
330
1F3
330
1EF
102
}
330
1E3
100
AcDbEntity
  8
0
100
AcDbLine
 10
-4770.638404245699
 20
572.6214547528743
 30
0.0
 11
-4792.5894419818
 21
556.5597198240193
 31
0.0
  0
LINE
  5
225
102
{ACAD_REACTORS
330
1F3
330
1EF
102
}
330
1E3
100
AcDbEntity
  8
0
100
AcDbLine
 10
-4792.5894419818
 20
556.5597198240193
 30
0.0
 11
-4793.124833146095
 21
513.7284266804108
 31
0.0
  0
LINE
  5
226
102
{ACAD_REACTORS
330
1F3
330
1EF
102
}
330
1E3
100
AcDbEntity
  8
0
100
AcDbLine
 10
-4669.449474193927
 20
497.1313005872635
 30
0.0
 11
-4648.569218786415
 21
513.7284266804108
 31
0.0
  0
LINE
  5
227
102
{ACAD_REACTORS
330
1F3
330
1EF
102
}
330
1E3
100
AcDbEntity
  8
0
100
AcDbLine
 10
-4649.10460995071
 20
556.5597198240193
 30
0.0
 11
-4671.055647686808
 21
572.6214547528743
 31
0.0
  0
LINE
  5
228
102
{ACAD_REACTORS
330
1F3
330
1EF
102
}
330
1E3
100
AcDbEntity
  8
0
100
AcDbLine
 10
-4648.569218786415
 20
513.7284266804108
 30
0.0
 11
-4649.10460995071
 21
556.5597198240193
 31
0.0
  0
LINE
  5
229
102
{ACAD_REACTORS
330
1F3
330
1EF
102
}
330
1E3
100
AcDbEntity
  8
0
100
AcDbLine
 10
-4431.735797246896
 20
564.055196124149
 30
0.0
 11
-4501.336648605262
 21
543.710331880935
 31
0.0
  0
LINE
  5
22A
102
{ACAD_REACTORS
330
1F3
330
1EF
102
}
330
1E3
100
AcDbEntity
  8
0
100
AcDbLine
 10
-4539.349421270213
 20
481.0695656584084
 30
0.0
 11
-4463.323875940306
 21
481.0695656584084
 31
0.0
  0
LINE
  5
22B
102
{ACAD_REACTORS
330
1F3
330
1EF
102
}
330
1E3
100
AcDbEntity
  8
0
100
AcDbLine
 10
-4588.070017221067
 20
525.5070322949014
 30
0.0
 11
-4539.349421270213
 21
481.0695656584084
 31
0.0
  0
LINE
  5
22C
102
{ACAD_REACTORS
330
1F3
330
1EF
102
}
330
1E3
100
AcDbEntity
  8
0
100
AcDbLine
 10
-4501.336648605262
 20
543.710331880935
 30
0.0
 11
-4568.795935306443
 21
565.6613696170352
 31
0.0
  0
LINE
  5
22D
102
{ACAD_REACTORS
330
1F3
330
1EF
102
}
330
1E3
100
AcDbEntity
  8
0
100
AcDbLine
 10
-4578.968367428053
 20
561.9136314669685
 30
0.0
 11
-4585.393061399591
 21
557.6305021526077
 31
0.0
  0
LINE
  5
22E
102
{ACAD_REACTORS
330
1F3
330
1EF
102
}
330
1E3
100
AcDbEntity
  8
0
100
AcDbLine
 10
-4568.795935306443
 20
565.6613696170352
 30
0.0
 11
-4578.968367428053
 21
561.9136314669685
 31
0.0
  0
LINE
  5
22F
102
{ACAD_REACTORS
330
1F3
330
1EF
102
}
330
1E3
100
AcDbEntity
  8
0
100
AcDbLine
 10
-4585.393061399591
 20
557.6305021526077
 30
0.0
 11
-4588.070017221067
 21
525.5070322949014
 31
0.0
  0
LINE
  5
230
102
{ACAD_REACTORS
330
1F3
330
1EF
102
}
330
1E3
100
AcDbEntity
  8
0
100
AcDbLine
 10
-4463.323875940306
 20
481.0695656584084
 30
0.0
 11
-4415.138671153749
 21
524.7039455484591
 31
0.0
  0
LINE
  5
231
102
{ACAD_REACTORS
330
1F3
330
1EF
102
}
330
1E3
100
AcDbEntity
  8
0
100
AcDbLine
 10
-4417.280235810926
 20
557.6305021526077
 30
0.0
 11
-4431.735797246896
 21
564.055196124149
 31
0.0
  0
LINE
  5
232
102
{ACAD_REACTORS
330
1F3
330
1EF
102
}
330
1E3
100
AcDbEntity
  8
0
100
AcDbLine
 10
-4415.138671153749
 20
524.7039455484591
 30
0.0
 11
-4417.280235810926
 21
557.6305021526077
 31
0.0
  0
LINE
  5
233
102
{ACAD_REACTORS
330
1F3
330
1EF
102
}
330
1E3
100
AcDbEntity
  8
0
100
AcDbLine
 10
-4360.528772395642
 20
682.0292533922602
 30
0.0
 11
-4382.479810131743
 21
665.9675184634052
 31
0.0
  0
LINE
  5
234
102
{ACAD_REACTORS
330
1F3
330
1EF
102
}
330
1E3
100
AcDbEntity
  8
0
100
AcDbLine
 10
-4383.015201296038
 20
623.1362253197967
 30
0.0
 11
-4362.13494588853
 21
606.5390992266493
 31
0.0
  0
LINE
  5
235
102
{ACAD_REACTORS
330
1F3
330
1EF
102
}
330
1E3
100
AcDbEntity
  8
0
100
AcDbLine
 10
-4382.479810131743
 20
665.9675184634052
 30
0.0
 11
-4383.015201296038
 21
623.1362253197967
 31
0.0
  0
LINE
  5
236
102
{ACAD_REACTORS
330
1F3
330
1EF
102
}
330
1E3
100
AcDbEntity
  8
0
100
AcDbLine
 10
-4023.767730054016
 20
-61.81707493683825
 30
0.0
 11
-4093.368581412382
 21
-82.16193918005229
 31
0.0
  0
LINE
  5
237
102
{ACAD_REACTORS
330
1F3
330
1EF
102
}
330
1E3
100
AcDbEntity
  8
0
100
AcDbLine
 10
-4131.381354077333
 20
-144.8027054025788
 30
0.0
 11
-4055.355808747426
 21
-144.8027054025788
 31
0.0
  0
LINE
  5
238
102
{ACAD_REACTORS
330
1F3
330
1EF
102
}
330
1E3
100
AcDbEntity
  8
0
100
AcDbLine
 10
-4177.42499420671
 20
-68.24176890837953
 30
0.0
 11
-4180.101950028187
 21
-100.3652387660858
 31
0.0
  0
LINE
  5
239
102
{ACAD_REACTORS
330
1F3
330
1EF
102
}
330
1E3
100
AcDbEntity
  8
0
100
AcDbLine
 10
-4180.101950028187
 20
-100.3652387660858
 30
0.0
 11
-4131.381354077333
 21
-144.8027054025788
 31
0.0
  0
LINE
  5
23A
102
{ACAD_REACTORS
330
1F3
330
1EF
102
}
330
1E3
100
AcDbEntity
  8
0
100
AcDbLine
 10
-4093.368581412382
 20
-82.16193918005229
 30
0.0
 11
-4160.827868113563
 21
-60.21090144395202
 31
0.0
  0
LINE
  5
23B
102
{ACAD_REACTORS
330
1F3
330
1EF
102
}
330
1E3
100
AcDbEntity
  8
0
100
AcDbLine
 10
-4171.000300235173
 20
-63.95863959401868
 30
0.0
 11
-4177.42499420671
 21
-68.24176890837953
 31
0.0
  0
LINE
  5
23C
102
{ACAD_REACTORS
330
1F3
330
1EF
102
}
330
1E3
100
AcDbEntity
  8
0
100
AcDbLine
 10
-4160.827868113563
 20
-60.21090144395202
 30
0.0
 11
-4171.000300235173
 21
-63.95863959401868
 31
0.0
  0
LINE
  5
23D
102
{ACAD_REACTORS
330
1F3
330
1EF
102
}
330
1E3
100
AcDbEntity
  8
0
100
AcDbLine
 10
-4007.170603960869
 20
-101.1683255125281
 30
0.0
 11
-4009.312168618046
 21
-68.24176890837953
 31
0.0
  0
LINE
  5
23E
102
{ACAD_REACTORS
330
1F3
330
1EF
102
}
330
1E3
100
AcDbEntity
  8
0
100
AcDbLine
 10
-4055.355808747426
 20
-144.8027054025788
 30
0.0
 11
-4007.170603960869
 21
-101.1683255125281
 31
0.0
  0
LINE
  5
23F
102
{ACAD_REACTORS
330
1F3
330
1EF
102
}
330
1E3
100
AcDbEntity
  8
0
100
AcDbLine
 10
-4009.312168618046
 20
-68.24176890837953
 30
0.0
 11
-4023.767730054016
 21
-61.81707493683825
 31
0.0
  0
LINE
  5
240
102
{ACAD_REACTORS
330
1EF
102
}
330
1E3
100
AcDbEntity
  8
0
100
AcDbLine
 10
-3780.164750299744
 20
-39.33064603644197
 30
0.0
 11
-3749.647453934922
 21
-187.0986073818949
 31
0.0
  0
LINE
  5
241
102
{ACAD_REACTORS
330
1F3
330
1EF
102
}
330
1E3
100
AcDbEntity
  8
0
100
AcDbLine
 10
-4142.624568527528
 20
134.6714823594702
 30
0.0
 11
-4242.207325086419
 21
134.6714823594702
 31
0.0
  0
LINE
  5
242
102
{ACAD_REACTORS
330
1F3
330
1EF
102
}
330
1E3
100
AcDbEntity
  8
0
100
AcDbLine
 10
-4243.813498579307
 20
59.18132819385937
 30
0.0
 11
-4141.018395034647
 21
59.18132819385937
 31
0.0
  0
LINE
  5
243
102
{ACAD_REACTORS
330
1F3
330
1EF
102
}
330
1E3
100
AcDbEntity
  8
0
100
AcDbLine
 10
-4264.158362822519
 20
118.6097474306152
 30
0.0
 11
-4264.693753986816
 21
75.77845428700675
 31
0.0
  0
LINE
  5
244
102
{ACAD_REACTORS
330
1F3
330
1EF
102
}
330
1E3
100
AcDbEntity
  8
0
100
AcDbLine
 10
-4264.693753986816
 20
75.77845428700675
 30
0.0
 11
-4243.813498579307
 21
59.18132819385937
 31
0.0
  0
LINE
  5
245
102
{ACAD_REACTORS
330
1F3
330
1EF
102
}
330
1E3
100
AcDbEntity
  8
0
100
AcDbLine
 10
-4242.207325086419
 20
134.6714823594702
 30
0.0
 11
-4264.158362822519
 21
118.6097474306152
 31
0.0
  0
LINE
  5
246
102
{ACAD_REACTORS
330
1F3
330
1EF
102
}
330
1E3
100
AcDbEntity
  8
0
100
AcDbLine
 10
-4120.138139627135
 20
75.77845428700675
 30
0.0
 11
-4120.673530791431
 21
118.6097474306152
 31
0.0
  0
LINE
  5
247
102
{ACAD_REACTORS
330
1F3
330
1EF
102
}
330
1E3
100
AcDbEntity
  8
0
100
AcDbLine
 10
-4141.018395034647
 20
59.18132819385937
 30
0.0
 11
-4120.138139627135
 21
75.77845428700675
 31
0.0
  0
LINE
  5
248
102
{ACAD_REACTORS
330
1F3
330
1EF
102
}
330
1E3
100
AcDbEntity
  8
0
100
AcDbLine
 10
-4120.673530791431
 20
118.6097474306152
 30
0.0
 11
-4142.624568527528
 21
134.6714823594702
 31
0.0
  0
LINE
  5
249
102
{ACAD_REACTORS
330
1F3
330
1EF
102
}
330
1E3
100
AcDbEntity
  8
0
100
AcDbLine
 10
-4211.690028721604
 20
326.8769103414142
 30
0.0
 11
-4279.149315422786
 21
348.8279480775145
 31
0.0
  0
LINE
  5
24A
102
{ACAD_REACTORS
330
1F3
330
1EF
102
}
330
1E3
100
AcDbEntity
  8
0
100
AcDbLine
 10
-4249.702801386557
 20
264.2361441188877
 30
0.0
 11
-4173.67725605665
 21
264.2361441188877
 31
0.0
  0
LINE
  5
24B
102
{ACAD_REACTORS
330
1F3
330
1EF
102
}
330
1E3
100
AcDbEntity
  8
0
100
AcDbLine
 10
-4298.42339733741
 20
308.6736107553806
 30
0.0
 11
-4249.702801386557
 21
264.2361441188877
 31
0.0
  0
LINE
  5
24C
102
{ACAD_REACTORS
330
1F3
330
1EF
102
}
330
1E3
100
AcDbEntity
  8
0
100
AcDbLine
 10
-4279.149315422786
 20
348.8279480775145
 30
0.0
 11
-4289.321747544396
 21
345.0802099274478
 31
0.0
  0
LINE
  5
24D
102
{ACAD_REACTORS
330
1F3
330
1EF
102
}
330
1E3
100
AcDbEntity
  8
0
100
AcDbLine
 10
-4289.321747544396
 20
345.0802099274478
 30
0.0
 11
-4295.746441515933
 21
340.797080613087
 31
0.0
  0
LINE
  5
24E
102
{ACAD_REACTORS
330
1F3
330
1EF
102
}
330
1E3
100
AcDbEntity
  8
0
100
AcDbLine
 10
-4295.746441515933
 20
340.797080613087
 30
0.0
 11
-4298.42339733741
 21
308.6736107553806
 31
0.0
  0
LINE
  5
24F
102
{ACAD_REACTORS
330
1F3
330
1EF
102
}
330
1E3
100
AcDbEntity
  8
0
100
AcDbLine
 10
-4173.67725605665
 20
264.2361441188877
 30
0.0
 11
-4125.492051270092
 21
307.8705240089384
 31
0.0
  0
LINE
  5
250
102
{ACAD_REACTORS
330
1F3
330
1EF
102
}
330
1E3
100
AcDbEntity
  8
0
100
AcDbLine
 10
-4142.089177363239
 20
347.2217745846283
 30
0.0
 11
-4211.690028721604
 21
326.8769103414142
 31
0.0
  0
LINE
  5
251
102
{ACAD_REACTORS
330
1F3
330
1EF
102
}
330
1E3
100
AcDbEntity
  8
0
100
AcDbLine
 10
-4127.633615927268
 20
340.797080613087
 30
0.0
 11
-4142.089177363239
 21
347.2217745846283
 31
0.0
  0
LINE
  5
252
102
{ACAD_REACTORS
330
1F3
330
1EF
102
}
330
1E3
100
AcDbEntity
  8
0
100
AcDbLine
 10
-4125.492051270092
 20
307.8705240089384
 30
0.0
 11
-4127.633615927268
 21
340.797080613087
 31
0.0
  0
LINE
  5
253
102
{ACAD_REACTORS
330
1F3
330
1EF
102
}
330
1E3
100
AcDbEntity
  8
0
100
AcDbLine
 10
-4063.922067376148
 20
500.8790387373283
 30
0.0
 11
-4163.504823935039
 21
500.8790387373283
 31
0.0
  0
LINE
  5
254
102
{ACAD_REACTORS
330
1F3
330
1EF
102
}
330
1E3
100
AcDbEntity
  8
0
100
AcDbLine
 10
-4165.110997427928
 20
425.3888845717174
 30
0.0
 11
-4062.315893883267
 21
425.3888845717174
 31
0.0
  0
LINE
  5
255
102
{ACAD_REACTORS
330
1F3
330
1EF
102
}
330
1E3
100
AcDbEntity
  8
0
100
AcDbLine
 10
-4163.504823935039
 20
500.8790387373283
 30
0.0
 11
-4185.455861671139
 21
484.8173038084732
 31
0.0
  0
LINE
  5
256
102
{ACAD_REACTORS
330
1F3
330
1EF
102
}
330
1E3
100
AcDbEntity
  8
0
100
AcDbLine
 10
-4185.991252835436
 20
441.9860106648648
 30
0.0
 11
-4165.110997427928
 21
425.3888845717174
 31
0.0
  0
LINE
  5
257
102
{ACAD_REACTORS
330
1F3
330
1EF
102
}
330
1E3
100
AcDbEntity
  8
0
100
AcDbLine
 10
-4185.455861671139
 20
484.8173038084732
 30
0.0
 11
-4185.991252835436
 21
441.9860106648648
 31
0.0
  0
LINE
  5
258
102
{ACAD_REACTORS
330
1F3
330
1EF
102
}
330
1E3
100
AcDbEntity
  8
0
100
AcDbLine
 10
-4238.994978100654
 20
665.9675184634052
 30
0.0
 11
-4260.946015836751
 21
682.0292533922602
 31
0.0
  0
LINE
  5
259
102
{ACAD_REACTORS
330
1F3
330
1EF
102
}
330
1E3
100
AcDbEntity
  8
0
100
AcDbLine
 10
-4238.459586936358
 20
623.1362253197967
 30
0.0
 11
-4238.994978100654
 21
665.9675184634052
 31
0.0
  0
LINE
  5
25A
102
{ACAD_REACTORS
330
1F3
330
1EF
102
}
330
1E3
100
AcDbEntity
  8
0
100
AcDbLine
 10
-4259.33984234387
 20
606.5390992266493
 30
0.0
 11
-4238.459586936358
 21
623.1362253197967
 31
0.0
  0
LINE
  5
25B
102
{ACAD_REACTORS
330
1F3
330
1EF
102
}
330
1E3
100
AcDbEntity
  8
0
100
AcDbLine
 10
-4041.971029640051
 20
484.8173038084732
 30
0.0
 11
-4063.922067376148
 21
500.8790387373283
 31
0.0
  0
LINE
  5
25C
102
{ACAD_REACTORS
330
1F3
330
1EF
102
}
330
1E3
100
AcDbEntity
  8
0
100
AcDbLine
 10
-4041.435638475756
 20
441.9860106648648
 30
0.0
 11
-4041.971029640051
 21
484.8173038084732
 31
0.0
  0
LINE
  5
25D
102
{ACAD_REACTORS
330
1F3
330
1EF
102
}
330
1E3
100
AcDbEntity
  8
0
100
AcDbLine
 10
-4062.315893883267
 20
425.3888845717174
 30
0.0
 11
-4041.435638475756
 21
441.9860106648648
 31
0.0
  0
HATCH
  5
25E
330
1E3
100
AcDbEntity
  8
0
 62
   250
100
AcDbHatch
 10
0.0
 20
0.0
 30
0.0
210
0.0
220
0.0
230
1.0
  2
SOLID
 70
     1
 71
     1
 91
        1
 92
        7
 72
     1
 73
     1
 93
       22
 10
-4162.23588502688
 20
1519.129630018345
 42
0.0
 10
-4162.23588502688
 20
1533.555327862319
 42
0.0
 10
-4172.368937440631
 20
1533.555327862319
 42
0.0
 10
-4172.368937440631
 20
1577.610760544714
 42
0.0
 10
-4698.771167677071
 20
1577.610760544714
 42
0.0
 10
-4698.771167677071
 20
1533.555327862321
 42
0.0
 10
-4803.77116767707
 20
1533.555327862319
 42
0.0
 10
-4803.771167677069
 20
1006.444672137679
 42
0.0
 10
-4698.771167677071
 20
1006.444672137678
 42
0.0
 10
-4698.771167677071
 20
961.3626289725322
 42
0.0
 10
-4627.907572606193
 20
961.3626289725344
 42
-1.0
 10
-4627.907572606193
 20
941.5267153028235
 42
0.0
 10
-4698.771167677071
 20
941.5267153028253
 42
0.0
 10
-4698.771167677069
 20
896.4446721376772
 42
0.0
 10
-4172.368937440634
 20
896.4446721376786
 42
0.0
 10
-4172.368937440634
 20
941.5267153028251
 42
0.0
 10
-4242.492361631266
 20
941.5267153028235
 42
-1.0
 10
-4242.492361631266
 20
961.3626289725344
 42
0.0
 10
-4172.368937440634
 20
961.3626289725326
 42
0.0
 10
-4172.368937440634
 20
1006.444672137678
 42
0.0
 10
-4162.23588502688
 20
1006.444672137678
 42
0.0
 10
-4162.23588502688
 20
1020.855727459093
 42
0.0
 97
       16
330
28A
330
27D
330
25F
330
266
330
26B
330
272
330
275
330
276
330
274
330
261
330
282
330
283
330
285
330
284
330
286
330
280
 75
     0
 76
     1
 47
2.235148153636928
 98
        1
 10
-4312.692211287539
 20
1413.861578838244
  0
LINE
  5
25F
102
{ACAD_REACTORS
330
262
330
25E
102
}
330
1E3
100
AcDbEntity
  8
0
100
AcDbLine
 10
-4172.368937440631
 20
1577.610760544714
 30
0.0
 11
-4698.771167677071
 21
1577.610760544714
 31
0.0
  0
LINE
  5
260
102
{ACAD_REACTORS
330
262
102
}
330
1E3
100
AcDbEntity
  8
0
100
AcDbLine
 10
-4172.368937440631
 20
1597.610760544714
 30
0.0
 11
-4698.771167677071
 21
1597.610760544714
 31
0.0
  0
LINE
  5
261
102
{ACAD_REACTORS
330
1EF
330
25E
102
}
330
1E3
100
AcDbEntity
  8
0
100
AcDbLine
 10
-4763.564527411475
 20
896.4446721376772
 30
0.0
 11
-4106.835406825979
 21
896.4446721376789
 31
0.0
  0
HATCH
  5
262
330
1E3
100
AcDbEntity
  8
0
 62
   150
100
AcDbHatch
 10
0.0
 20
0.0
 30
0.0
210
0.0
220
0.0
230
1.0
  2
SOLID
 70
     1
 71
     1
 91
        1
 92
        7
 72
     0
 73
     1
 93
        4
 10
-4698.771167677071
 20
1597.610760544714
 10
-4698.771167677069
 20
1577.610760544714
 10
-4172.368937440631
 20
1577.610760544714
 10
-4172.368937440632
 20
1597.610760544714
 97
        4
330
260
330
266
330
25F
330
27D
 75
     0
 76
     1
 47
4.694293360222218
 98
        1
 10
-4408.353801224068
 20
1588.295525273148
  0
HATCH
  5
263
330
1E3
100
AcDbEntity
  8
0
 62
    30
100
AcDbHatch
 10
0.0
 20
0.0
 30
0.0
210
0.0
220
0.0
230
1.0
  2
SOLID
 70
     1
 71
     0
 91
        6
 92
        7
 72
     1
 73
     1
 93
        6
 10
-3929.542671867661
 20
1538.286747649885
 42
0.0
 10
-4062.37615618471
 20
1538.286747649886
 42
-0.3985590994708884
 10
-4067.368937440635
 20
1533.555327862321
 42
0.0
 10
-4162.235885026883
 20
1533.555327862321
 42
0.0
 10
-4162.23588502688
 20
1518.949763647924
 42
0.0
 10
-3896.164693136656
 20
1518.949763647915
 42
0.0320247909552486
 97
        0
 92
        7
 72
     1
 73
     1
 93
        6
 10
-3891.527551543902
 20
1020.855727459091
 42
0.0
 10
-4162.23588502688
 20
1020.855727459093
 42
0.0
 10
-4162.23588502688
 20
1006.444672137677
 42
0.0
 10
-4067.368937440635
 20
1006.444672137678
 42
-0.40988103303925
 10
-4062.369486126775
 20
1001.518743457119
 42
0.0
 10
-3923.357968704542
 20
1001.518743457117
 42
0.0309176435392331
 97
        0
 92
        7
 72
     1
 73
     1
 93
        8
 10
-4062.368937440631
 20
1638.555327862321
 42
0.4142135623730951
 10
-4067.368937440631
 20
1643.555327862321
 42
0.0
 10
-4167.368937440631
 20
1643.555327862321
 42
0.4142135623730951
 10
-4172.368937440631
 20
1638.555327862321
 42
0.0
 10
-4172.368937440631
 20
1538.555327862319
 42
0.4142135623730951
 10
-4167.368937440631
 20
1533.555327862319
 42
0.0
 10
-4067.368937440631
 20
1533.555327862321
 42
0.4142135623730951
 10
-4062.368937440631
 20
1538.555327862321
 42
0.0
 97
        0
 92
        7
 72
     1
 73
     1
 93
        8
 10
-4698.771167677071
 20
1638.555327862321
 42
0.4142135623730951
 10
-4703.771167677071
 20
1643.555327862321
 42
0.0
 10
-4803.77116767707
 20
1643.555327862321
 42
0.4142135623730951
 10
-4808.771167677071
 20
1638.555327862321
 42
0.0
 10
-4808.771167677071
 20
1538.555327862319
 42
0.4142135623730951
 10
-4803.77116767707
 20
1533.555327862319
 42
0.0
 10
-4703.771167677071
 20
1533.555327862321
 42
0.4142135623730951
 10
-4698.771167677071
 20
1538.555327862321
 42
0.0
 97
        0
 92
        7
 72
     1
 73
     1
 93
        8
 10
-4698.771167677071
 20
1001.444672137678
 42
0.4142135623730951
 10
-4703.771167677071
 20
1006.444672137678
 42
0.0
 10
-4803.77116767707
 20
1006.444672137678
 42
0.4142135623730951
 10
-4808.771167677071
 20
1001.444672137678
 42
0.0
 10
-4808.771167677071
 20
901.4446721376771
 42
0.4142135623730951
 10
-4803.77116767707
 20
896.4446721376772
 42
0.0
 10
-4703.771167677071
 20
896.4446721376789
 42
0.4142135623730951
 10
-4698.771167677071
 20
901.4446721376788
 42
0.0
 97
        0
 92
        7
 72
     1
 73
     1
 93
        9
 10
-4062.368937440634
 20
1001.444672137678
 42
0.4142135623730951
 10
-4067.368937440635
 20
1006.444672137678
 42
0.0
 10
-4167.368937440635
 20
1006.444672137678
 42
0.4142135623730951
 10
-4172.368937440634
 20
1001.444672137678
 42
0.0
 10
-4172.368937440634
 20
901.4446721376771
 42
0.4142135623729886
 10
-4167.368937440635
 20
896.4446721376789
 42
0.0
 10
-4106.835406825979
 20
896.4446721376789
 42
0.0
 10
-4067.368937440635
 20
896.4446721376789
 42
0.4142135623730951
 10
-4062.368937440634
 20
901.4446721376788
 42
0.0
 97
        0
 75
     0
 76
     1
 47
2.596708625795336
 98
        6
 10
-3974.862861690264
 20
1523.940268618505
 10
-4024.2517514141
 20
1012.388591576396
 10
-4110.032545892528
 20
1586.261201872766
 10
-4757.287599971408
 20
1568.084315564381
 10
-4736.492250600284
 20
929.2938737508812
 10
-4117.830736874085
 20
939.6807660365011
  0
HATCH
  5
264
330
1E3
100
AcDbEntity
  8
0
 62
    50
100
AcDbHatch
 10
0.0
 20
0.0
 30
0.0
210
0.0
220
0.0
230
1.0
  2
SOLID
 70
     1
 71
     1
 91
        2
 92
        7
 72
     1
 73
     1
 93
        4
 10
-4627.907572606193
 20
961.3626289725344
 42
0.0
 10
-4698.771167677071
 20
961.3626289725322
 42
0.0
 10
-4698.771167677071
 20
941.5267153028255
 42
0.0
 10
-4627.907572606193
 20
941.5267153028235
 42
1.0
 97
        4
330
275
330
272
330
274
330
276
 92
        7
 72
     1
 73
     1
 93
        4
 10
-4172.368937440634
 20
941.5267153028253
 42
0.0
 10
-4172.368937440634
 20
961.3626289725326
 42
0.0
 10
-4242.492361631266
 20
961.3626289725344
 42
1.0
 10
-4242.492361631266
 20
941.5267153028235
 42
0.0
 97
        4
330
284
330
285
330
283
330
282
 75
     0
 76
     1
 47
1.596534658900724
 98
        2
 10
-4664.302405645408
 20
948.2594020002871
 10
-4221.600940143172
 20
949.8560270211019
  0
LINE
  5
265
102
{ACAD_REACTORS
330
26E
330
270
102
}
330
1E3
100
AcDbEntity
  8
0
100
AcDbLine
 10
-4821.90618045424
 20
1635.823106305877
 30
0.0
 11
-4821.90618045424
 21
905.7237392374663
 31
0.0
  0
LWPOLYLINE
  5
266
102
{ACAD_REACTORS
330
262
330
25E
102
}
330
1E3
100
AcDbEntity
  8
0
100
AcDbPolyline
 90
        8
 70
     1
 43
0.0
 10
-4803.77116767707
 20
1533.555327862319
 10
-4703.771167677071
 20
1533.555327862321
 42
0.4142135623730951
 10
-4698.771167677071
 20
1538.555327862321
 10
-4698.771167677071
 20
1638.555327862321
 42
0.4142135623730951
 10
-4703.771167677071
 20
1643.555327862321
 10
-4803.77116767707
 20
1643.555327862321
 42
0.4142135623730951
 10
-4808.771167677071
 20
1638.555327862321
 10
-4808.771167677071
 20
1538.555327862319
 42
0.4142135623730951
  0
HATCH
  5
267
330
1E3
100
AcDbEntity
  8
0
 62
    70
100
AcDbHatch
 10
0.0
 20
0.0
 30
0.0
210
0.0
220
0.0
230
1.0
  2
SOLID
 70
     1
 71
     0
 91
        1
 92
        7
 72
     1
 73
     1
 93
        8
 10
-4803.77116767707
 20
1533.430121293946
 42
-0.3166446299927638
 10
-4807.084084862807
 20
1538.136898490483
 42
0.0
 10
-4807.084084862807
 20
1635.823106305877
 42
0.0
 10
-4821.90618045424
 20
1635.823106305877
 42
0.0
 10
-4821.90618045424
 20
905.723739237459
 42
0.0
 10
-4807.084084862807
 20
905.7237392374808
 42
0.0
 10
-4807.084084862807
 20
1001.863101509516
 42
-0.3166446299927638
 10
-4803.77116767707
 20
1006.569878706053
 42
0.0
 97
        0
 75
     0
 76
     1
 47
2.561669988629067
 98
        1
 10
-4815.996255632555
 20
1209.579068230472
  0
ARC
  5
268
330
1E3
100
AcDbEntity
  8
0
100
AcDbCircle
 10
-4821.90618045425
 20
1485.8085099292
 30
0.0
 40
38.67231804610492
100
AcDbArc
 50
90.0
 51
194.3150032685395
  0
ARC
  5
269
102
{ACAD_REACTORS
330
270
102
}
330
1E3
100
AcDbEntity
  8
0
100
AcDbCircle
 10
-4821.90618045424
 20
1466.684836170126
 30
0.0
 40
38.67231804611583
100
AcDbArc
 50
90.0
 51
200.2522467423302
  0
ARC
  5
26A
330
1E3
100
AcDbEntity
  8
0
100
AcDbCircle
 10
-4821.90618045424
 20
1075.286979901204
 30
0.0
 40
38.67231804611583
100
AcDbArc
 50
140.4045620463371
 51
270.0
  0
LINE
  5
26B
102
{ACAD_REACTORS
330
25E
102
}
330
1E3
100
AcDbEntity
  8
0
100
AcDbLine
 10
-4803.77116767707
 20
1533.555327862319
 30
0.0
 11
-4803.77116767707
 21
1006.444672137678
 31
0.0
  0
LINE
  5
26C
330
1E3
100
AcDbEntity
  8
0
100
AcDbLine
 10
-4803.77116767707
 20
1533.430121293946
 30
0.0
 11
-4803.77116767707
 21
1006.569878706053
 31
0.0
  0
LINE
  5
26D
330
1E3
100
AcDbEntity
  8
0
100
AcDbLine
 10
-4803.77116767707
 20
1006.569878706053
 30
0.0
 11
-4803.77116767707
 21
1533.430121293946
 31
0.0
  0
HATCH
  5
26E
330
1E3
100
AcDbEntity
  8
0
 62
    10
100
AcDbHatch
 10
0.0
 20
0.0
 30
0.0
210
0.0
220
0.0
230
1.0
  2
SOLID
 70
     1
 71
     1
 91
        2
 92
        7
 72
     1
 73
     1
 93
        2
 10
-4821.90618045424
 20
1478.584010953545
 42
1.0
 10
-4821.90618045424
 20
1401.239374861314
 42
0.0
 97
        2
330
279
330
265
 92
        7
 72
     1
 73
     1
 93
        2
 10
-4821.90618045424
 20
1163.255879192915
 42
1.0
 10
-4821.90618045424
 20
1085.911243100683
 42
0.0
 97
        2
330
277
330
265
 75
     0
 76
     1
 47
2.054966041547646
 98
        2
 10
-4831.681093455234
 20
1438.896393984534
 10
-4835.795315777188
 20
1120.376647932942
  0
HATCH
  5
26F
330
1E3
100
AcDbEntity
  8
0
 62
     4
100
AcDbHatch
 10
0.0
 20
0.0
 30
0.0
210
0.0
220
0.0
230
1.0
  2
SOLID
 70
     1
 71
     0
 91
        3
 92
        7
 72
     1
 73
     1
 93
        3
 10
-4821.90618045424
 20
1505.357154216242
 42
0.0
 10
-4821.90618045424
 20
1524.480827975305
 42
0.4894351530563746
 10
-4859.377762467135
 20
1476.24667304967
 42
-0.3427909203673256
 97
        0
 92
        7
 72
     1
 73
     1
 93
        2
 10
-4821.906180454236
 20
1347.693088335927
 42
1.0
 10
-4821.90618045424
 20
1270.348452243695
 42
0.0
 97
        0
 92
        7
 72
     1
 73
     1
 93
        3
 10
-4821.90618045424
 20
1036.614661855088
 42
0.0
 10
-4821.90618045424
 20
1085.911243100683
 42
-0.2235473832411466
 10
-4851.705676296184
 20
1099.935270524001
 42
0.6345913753679515
 97
        0
 75
     0
 76
     1
 47
2.054966041547646
 98
        3
 10
-4837.852426938167
 20
1508.76523174037
 10
-4837.852426938167
 20
1313.543460888642
 10
-4839.909538099146
 20
1062.837603982741
  0
HATCH
  5
270
330
1E3
100
AcDbEntity
  8
0
 62
     6
100
AcDbHatch
 10
0.0
 20
0.0
 30
0.0
210
0.0
220
0.0
230
1.0
  2
SOLID
 70
     1
 71
     1
 91
        2
 92
        7
 72
     1
 73
     1
 93
        3
 10
-4821.90618045424
 20
1505.357154216242
 42
0.5219667480029225
 10
-4858.187689284754
 20
1453.298264538778
 42
-0.3140891564315255
 10
-4821.90618045424
 20
1478.584010953545
 42
0.0
 97
        3
330
269
330
279
330
265
 92
        7
 72
     1
 73
     1
 93
        2
 10
-4821.90618045424
 20
952.4704973151855
 42
0.0
 10
-4821.90618045424
 20
1029.815133407417
 42
1.0
 97
        2
330
271
330
265
 75
     0
 76
     1
 47
2.054966041547646
 98
        2
 10
-4831.681093455234
 20
1490.270545674866
 10
-4844.023760421103
 20
1007.353517928568
  0
ARC
  5
271
102
{ACAD_REACTORS
330
270
102
}
330
1E3
100
AcDbEntity
  8
0
100
AcDbCircle
 10
-4821.90618045424
 20
991.1428153613014
 30
0.0
 40
38.67231804611583
100
AcDbArc
 50
90.0
 51
270.0
  0
LWPOLYLINE
  5
272
102
{ACAD_REACTORS
330
264
330
25E
102
}
330
1E3
100
AcDbEntity
  8
0
100
AcDbPolyline
 90
        8
 70
     1
 43
0.0
 10
-4803.77116767707
 20
896.4446721376772
 10
-4703.771167677071
 20
896.4446721376789
 42
0.4142135623730951
 10
-4698.771167677071
 20
901.4446721376788
 10
-4698.771167677071
 20
1001.444672137678
 42
0.4142135623730951
 10
-4703.771167677071
 20
1006.444672137678
 10
-4803.77116767707
 20
1006.444672137678
 42
0.4142135623730951
 10
-4808.771167677071
 20
1001.444672137678
 10
-4808.771167677071
 20
901.4446721376771
 42
0.4142135623730951
  0
LINE
  5
273
330
1E3
100
AcDbEntity
  8
0
100
AcDbLine
 10
-4821.90618045424
 20
905.7237392374663
 30
0.0
 11
-4807.084084862807
 21
905.7237392374663
 31
0.0
  0
LINE
  5
274
102
{ACAD_REACTORS
330
264
330
25E
102
}
330
1E3
100
AcDbEntity
  8
0
100
AcDbLine
 10
-4627.907572606193
 20
941.5267153028235
 30
0.0
 11
-4698.771167677071
 21
941.5267153028253
 31
0.0
  0
LINE
  5
275
102
{ACAD_REACTORS
330
264
330
25E
102
}
330
1E3
100
AcDbEntity
  8
0
100
AcDbLine
 10
-4698.771167677071
 20
961.3626289725326
 30
0.0
 11
-4627.907572606193
 21
961.3626289725344
 31
0.0
  0
ARC
  5
276
102
{ACAD_REACTORS
330
264
330
25E
102
}
330
1E3
100
AcDbEntity
  8
0
100
AcDbCircle
 10
-4627.907572606193
 20
951.4446721376788
 30
0.0
 40
9.917956834853612
100
AcDbArc
 50
270.0
 51
90.0
  0
ARC
  5
277
102
{ACAD_REACTORS
330
26E
102
}
330
1E3
100
AcDbEntity
  8
0
100
AcDbCircle
 10
-4821.90618045424
 20
1124.583561146799
 30
0.0
 40
38.67231804611583
100
AcDbArc
 50
90.0
 51
270.0
  0
ARC
  5
278
330
1E3
100
AcDbEntity
  8
0
100
AcDbCircle
 10
-4821.90618045424
 20
1309.020770289811
 30
0.0
 40
38.67231804611583
100
AcDbArc
 50
90.0
 51
270.0
  0
ARC
  5
279
102
{ACAD_REACTORS
330
26E
330
270
102
}
330
1E3
100
AcDbEntity
  8
0
100
AcDbCircle
 10
-4821.90618045424
 20
1439.911692907429
 30
0.0
 40
38.67231804611583
100
AcDbArc
 50
90.0
 51
270.0
  0
LINE
  5
27A
330
1E3
100
AcDbEntity
  8
0
100
AcDbLine
 10
-4807.032211974962
 20
1635.823106305877
 30
0.0
 11
-4821.90618045424
 21
1635.823106305877
 31
0.0
  0
ARC
  5
27B
102
{ACAD_REACTORS
330
27E
102
}
330
1E3
100
AcDbEntity
  8
0
100
AcDbCircle
 10
-4063.913513765906
 20
1268.580149121835
 30
0.0
 40
335.2341085902283
100
AcDbArc
 50
270.2639887034412
 51
89.73601129655873
  0
ARC
  5
27C
102
{ACAD_REACTORS
330
27E
330
27F
102
}
330
1E3
100
AcDbEntity
  8
0
100
AcDbCircle
 10
-4063.652108204558
 20
1268.321890649527
 30
0.0
 40
301.4404832298143
100
AcDbArc
 50
270.2438972046113
 51
89.70721767757959
  0
LWPOLYLINE
  5
27D
102
{ACAD_REACTORS
330
27E
330
262
330
25E
102
}
330
1E3
100
AcDbEntity
  8
0
100
AcDbPolyline
 90
        8
 70
     1
 43
0.0
 10
-4167.368937440631
 20
1533.555327862319
 10
-4067.368937440631
 20
1533.555327862321
 42
0.4142135623730951
 10
-4062.368937440631
 20
1538.555327862321
 10
-4062.368937440631
 20
1638.555327862321
 42
0.4142135623730951
 10
-4067.368937440631
 20
1643.555327862321
 10
-4167.368937440631
 20
1643.555327862321
 42
0.4142135623730951
 10
-4172.368937440631
 20
1638.555327862321
 10
-4172.368937440631
 20
1538.555327862319
 42
0.4142135623730951
  0
HATCH
  5
27E
330
1E3
100
AcDbEntity
  8
0
 62
    50
100
AcDbHatch
 10
0.0
 20
0.0
 30
0.0
210
0.0
220
0.0
230
1.0
  2
SOLID
 70
     1
 71
     1
 91
        1
 92
        7
 72
     1
 73
     1
 93
        4
 10
-4062.368937440634
 20
966.8841385304299
 42
0.0
 10
-4062.368937440634
 20
933.3495988340365
 42
0.9954031098254535
 10
-4062.368937440631
 20
1603.810699409634
 42
0.0
 10
-4062.368937440631
 20
1569.759642768625
 42
-0.9957522253127944
 97
        4
330
27D
330
27C
330
282
330
27B
 75
     0
 76
     1
 47
3.550999638198877
 98
        1
 10
-3926.053369214823
 20
1554.214897074635
  0
HATCH
  5
27F
330
1E3
100
AcDbEntity
  8
0
 62
    50
100
AcDbHatch
 10
0.0
 20
0.0
 30
0.0
210
0.0
220
0.0
230
1.0
  2
SOLID
 70
     1
 71
     1
 91
        1
 92
        7
 72
     1
 73
     1
 93
        4
 10
-4162.23588502688
 20
1020.855727459092
 42
0.0
 10
-3891.5275515439
 20
1020.855727459091
 42
0.5285003451181638
 10
-3896.164693136656
 20
1518.949763647915
 42
0.0
 10
-4162.23588502688
 20
1518.949763647924
 42
0.0
 97
        4
330
289
330
280
330
281
330
27C
 75
     0
 76
     1
 47
2.596708625795336
 98
        1
 10
-4055.444688760654
 20
1339.57394665906
  0
LINE
  5
280
102
{ACAD_REACTORS
330
27F
330
25E
102
}
330
1E3
100
AcDbEntity
  8
0
100
AcDbLine
 10
-4162.23588502688
 20
1519.129630018345
 30
0.0
 11
-4162.23588502688
 21
1020.855727459093
 31
0.0
  0
LINE
  5
281
102
{ACAD_REACTORS
330
27F
102
}
330
1E3
100
AcDbEntity
  8
0
100
AcDbLine
 10
-3891.527551543899
 20
1020.855727459091
 30
0.0
 11
-4162.23588502688
 21
1020.855727459093
 31
0.0
  0
LWPOLYLINE
  5
282
102
{ACAD_REACTORS
330
27E
330
264
330
25E
102
}
330
1E3
100
AcDbEntity
  8
0
100
AcDbPolyline
 90
        8
 70
     1
 43
0.0
 10
-4167.368937440635
 20
896.4446721376772
 10
-4067.368937440635
 20
896.4446721376789
 42
0.4142135623730951
 10
-4062.368937440634
 20
901.4446721376788
 10
-4062.368937440634
 20
1001.444672137678
 42
0.4142135623730951
 10
-4067.368937440635
 20
1006.444672137678
 10
-4167.368937440635
 20
1006.444672137678
 42
0.4142135623730951
 10
-4172.368937440634
 20
1001.444672137678
 10
-4172.368937440634
 20
901.4446721376771
 42
0.4142135623730951
  0
LINE
  5
283
102
{ACAD_REACTORS
330
264
330
25E
102
}
330
1E3
100
AcDbEntity
  8
0
100
AcDbLine
 10
-4242.492361631266
 20
941.5267153028235
 30
0.0
 11
-4171.628766560388
 21
941.5267153028253
 31
0.0
  0
LINE
  5
284
102
{ACAD_REACTORS
330
264
330
25E
102
}
330
1E3
100
AcDbEntity
  8
0
100
AcDbLine
 10
-4171.628766560388
 20
961.3626289725326
 30
0.0
 11
-4242.492361631266
 21
961.3626289725344
 31
0.0
  0
ARC
  5
285
102
{ACAD_REACTORS
330
264
330
25E
102
}
330
1E3
100
AcDbEntity
  8
0
100
AcDbCircle
 10
-4242.492361631266
 20
951.4446721376788
 30
0.0
 40
9.917956834853612
100
AcDbArc
 50
90.0
 51
270.0
  0
LINE
  5
286
102
{ACAD_REACTORS
330
25E
102
}
330
1E3
100
AcDbEntity
  8
0
100
AcDbLine
 10
-4162.23588502688
 20
1020.855727459093
 30
0.0
 11
-4162.23588502688
 21
1006.444672137678
 31
0.0
  0
LINE
  5
287
330
1E3
100
AcDbEntity
  8
0
100
AcDbLine
 10
-3923.357968704542
 20
1001.518743457117
 30
0.0
 11
-4062.369486126775
 21
1001.518743457119
 31
0.0
  0
LINE
  5
288
330
1E3
100
AcDbEntity
  8
0
100
AcDbLine
 10
-3855.738696049248
 20
1001.518743457119
 30
0.0
 11
-3861.280561937554
 21
1001.518743457119
 31
0.0
  0
LINE
  5
289
102
{ACAD_REACTORS
330
27F
102
}
330
1E3
100
AcDbEntity
  8
0
100
AcDbLine
 10
-3896.164693136656
 20
1518.949763647915
 30
0.0
 11
-4162.23588502688
 21
1518.949763647924
 31
0.0
  0
LINE
  5
28A
102
{ACAD_REACTORS
330
25E
102
}
330
1E3
100
AcDbEntity
  8
0
100
AcDbLine
 10
-4162.23588502688
 20
1518.949763647924
 30
0.0
 11
-4162.23588502688
 21
1533.555327862319
 31
0.0
  0
LINE
  5
28B
330
1E3
100
AcDbEntity
  8
0
100
AcDbLine
 10
-3929.542671867661
 20
1538.286747649885
 30
0.0
 11
-4063.382829930612
 21
1538.286747649886
 31
0.0
  0
LINE
  5
28C
330
1E3
100
AcDbEntity
  8
0
100
AcDbLine
 10
-3855.738696049248
 20
1538.286747649886
 30
0.0
 11
-3864.81489932393
 21
1538.286747649885
 31
0.0
  0
HATCH
  5
28D
330
1E3
100
AcDbEntity
  8
0
 62
   150
100
AcDbHatch
 10
0.0
 20
0.0
 30
0.0
210
0.0
220
0.0
230
1.0
  2
SOLID
 70
     1
 71
     0
 91
        2
 92
        7
 72
     0
 73
     1
 93
        4
 10
-1996.721061652442
 20
1001.518743457119
 10
-2926.229878850842
 20
1001.518743457119
 10
-2926.229878850842
 20
1020.855727459093
 10
-1996.721061652439
 20
1020.855727459093
 97
        0
 92
        7
 72
     0
 73
     1
 93
        4
 10
-1996.721061652446
 20
1518.949763647913
 10
-2926.229878850849
 20
1518.949763647913
 10
-2926.229878850842
 20
1538.286747649894
 10
-1996.721061652442
 20
1538.286747649901
 97
        0
 75
     0
 76
     1
 47
2.231880503813954
 98
        2
 10
-2369.680629171351
 20
1010.325539250443
 10
-2472.454247842448
 20
1534.817501813398
  0
LINE
  5
28E
330
1E3
100
AcDbEntity
  8
0
100
AcDbLine
 10
-2926.229878850845
 20
1001.518743457119
 30
0.0
 11
-2926.229878850845
 21
1020.855727459093
 31
0.0
  0
LINE
  5
28F
330
1E3
100
AcDbEntity
  8
0
100
AcDbLine
 10
-2926.229878850845
 20
1538.286747649894
 30
0.0
 11
-2926.229878850845
 21
1518.949763647913
 31
0.0
  0
LINE
  5
290
330
1E3
100
AcDbEntity
  8
0
100
AcDbLine
 10
-2180.755805947105
 20
1178.218769682069
 30
0.0
 11
-2182.422787326584
 21
1270.236141829402
 31
0.0
  0
LINE
  5
291
330
1E3
100
AcDbEntity
  8
0
100
AcDbLine
 10
-2131.413157114475
 20
1092.202530500864
 30
0.0
 11
-2156.084481530793
 21
1112.873099606433
 31
0.0
  0
LINE
  5
292
330
1E3
100
AcDbEntity
  8
0
100
AcDbLine
 10
-2173.421087877388
 20
1140.211594229913
 30
0.0
 11
-2180.755805947105
 21
1178.218769682069
 31
0.0
  0
LINE
  5
293
330
1E3
100
AcDbEntity
  8
0
100
AcDbLine
 10
-2156.084481530793
 20
1112.873099606433
 30
0.0
 11
-2173.421087877388
 21
1140.211594229913
 31
0.0
  0
LINE
  5
294
330
1E3
100
AcDbEntity
  8
0
100
AcDbLine
 10
-2104.741455042789
 20
1076.866301809648
 30
0.0
 11
-2131.413157114475
 21
1092.202530500864
 31
0.0
  0
LINE
  5
295
330
1E3
100
AcDbEntity
  8
0
100
AcDbLine
 10
-2080.736923178265
 20
1033.524785943147
 30
0.0
 11
-2083.404093385433
 21
1049.527807186168
 31
0.0
  0
LINE
  5
296
330
1E3
100
AcDbEntity
  8
0
100
AcDbLine
 10
-2090.738811455154
 20
1063.530450773796
 30
0.0
 11
-2104.741455042789
 21
1076.866301809648
 31
0.0
  0
LINE
  5
297
330
1E3
100
AcDbEntity
  8
0
100
AcDbLine
 10
-2083.404093385433
 20
1049.527807186168
 30
0.0
 11
-2090.738811455154
 21
1063.530450773796
 31
0.0
  0
LINE
  5
298
330
1E3
100
AcDbEntity
  8
0
100
AcDbLine
 10
-2080.736923178265
 20
1020.855727459093
 30
0.0
 11
-2080.736923178265
 21
1033.524785943147
 31
0.0
  0
LINE
  5
299
330
1E3
100
AcDbEntity
  8
0
100
AcDbLine
 10
-1996.721061652442
 20
1001.518743457119
 30
0.0
 11
-1996.721061652439
 21
1020.855727459093
 31
0.0
  0
LINE
  5
29A
330
1E3
100
AcDbEntity
  8
0
100
AcDbLine
 10
-2180.755805947105
 20
1361.586721424937
 30
0.0
 11
-2175.421465532767
 21
1393.592763910965
 31
0.0
  0
LINE
  5
29B
330
1E3
100
AcDbEntity
  8
0
100
AcDbLine
 10
-2182.422787326584
 20
1270.236141829402
 30
0.0
 11
-2180.755805947105
 21
1361.586721424937
 31
0.0
  0
LINE
  5
29C
330
1E3
100
AcDbEntity
  8
0
100
AcDbLine
 10
-2160.752029393333
 20
1421.598051086242
 30
0.0
 11
-2131.413157114475
 21
1447.602960606142
 31
0.0
  0
LINE
  5
29D
330
1E3
100
AcDbEntity
  8
0
100
AcDbLine
 10
-2175.421465532767
 20
1393.592763910965
 30
0.0
 11
-2160.752029393333
 21
1421.598051086242
 31
0.0
  0
LINE
  5
29E
330
1E3
100
AcDbEntity
  8
0
100
AcDbLine
 10
-2104.741455042789
 20
1463.605981849156
 30
0.0
 11
-2092.739189110525
 21
1473.607870126041
 31
0.0
  0
LINE
  5
29F
330
1E3
100
AcDbEntity
  8
0
100
AcDbLine
 10
-2131.413157114475
 20
1447.602960606142
 30
0.0
 11
-2104.741455042789
 21
1463.605981849156
 31
0.0
  0
LINE
  5
2A0
330
1E3
100
AcDbEntity
  8
0
100
AcDbLine
 10
-2084.070885937228
 20
1487.610513713676
 30
0.0
 11
-2080.736923178265
 21
1506.280705163859
 31
0.0
  0
LINE
  5
2A1
330
1E3
100
AcDbEntity
  8
0
100
AcDbLine
 10
-2092.739189110525
 20
1473.607870126041
 30
0.0
 11
-2084.070885937228
 21
1487.610513713676
 31
0.0
  0
LINE
  5
2A2
330
1E3
100
AcDbEntity
  8
0
100
AcDbLine
 10
-2080.736923178265
 20
1506.280705163859
 30
0.0
 11
-2080.736923178265
 21
1518.949763647913
 31
0.0
  0
LINE
  5
2A3
330
1E3
100
AcDbEntity
  8
0
100
AcDbLine
 10
-1996.721061652442
 20
1538.286747649901
 30
0.0
 11
-1996.721061652446
 21
1518.949763647913
 31
0.0
  0
ENDBLK
  5
1E5
330
1E3
100
AcDbEntity
  8
0
100
AcDbBlockEnd
  0
ENDSEC
  0
SECTION
  2
ENTITIES
  0
INSERT
  5
2A4
330
1F
100
AcDbEntity
  8
0
100
AcDbBlockReference
  2
ADKR
 10
6619.145886975727
 20
1699.748801155379
 30
0.0
  0
MTEXT
  5
2A5
330
1F
100
AcDbEntity
  8
0
100
AcDbMText
 10
1859.838176993489
 20
4360.96891098775
 30
0.0
 40
250.0
 41
40306.52
 71
     1
 72
     5
  1
{\Fisocp.shx;Hoogte: 175cm\PMaximale Valhoogte: 148cm}
1001
ACAD
1000
MTEXTBEGIN
1070
    73
1070
     1
1070
    44
1040
1.0
1070
    74
1070
     0
1000
MTEXTEND
  0
ENDSEC
  0
SECTION
  2
OBJECTS
  0
DICTIONARY
  5
C
330
0
100
AcDbDictionary
  3
ACAD_GROUP
350
D
  3
ACAD_LAYOUT
350
1A
  3
ACAD_MLINESTYLE
350
17
  3
ACAD_PLOTSETTINGS
350
19
  3
ACAD_PLOTSTYLENAME
350
E
  3
ACDBHEADERROUNDTRIPXREC
350
2A8
  0
DICTIONARY
  5
5D
330
2
100
AcDbDictionary
280
     1
  3
ACAD_LAYERSTATES
360
5E
  0
DICTIONARY
  5
2C9
330
1F
100
AcDbDictionary
280
     1
  3
ACAD_LAYOUTSELFREF
360
2CA
  0
DICTIONARY
  5
2CB
330
50
100
AcDbDictionary
280
     1
  3
ACAD_LAYOUTSELFREF
360
2CC
  0
DICTIONARY
  5
D
102
{ACAD_REACTORS
330
C
102
}
330
C
100
AcDbDictionary
  0
DICTIONARY
  5
1A
102
{ACAD_REACTORS
330
C
102
}
330
C
100
AcDbDictionary
  0
DICTIONARY
  5
17
102
{ACAD_REACTORS
330
C
102
}
330
C
100
AcDbDictionary
  3
STANDARD
350
18
  0
DICTIONARY
  5
19
102
{ACAD_REACTORS
330
C
102
}
330
C
100
AcDbDictionary
  0
ACDBDICTIONARYWDFLT
  5
E
102
{ACAD_REACTORS
330
C
102
}
330
C
100
AcDbDictionary
281
     1
  3
Normal
350
F
100
AcDbDictionaryWithDefault
340
F
  0
DICTIONARY
  5
2A8
102
{ACAD_REACTORS
330
C
102
}
330
C
100
AcDbDictionary
  3
CEPSNTYPE
350
2B2
  3
DIMSTYLEDATA
350
2B6
  3
FINGERPRINTGUID
350
2B3
  3
HYPERLINKBASE
350
2AB
  3
INSUNITS
350
2B1
  3
LAYOUTDICT
350
2AD
  3
LWETCUNION
350
2B0
  3
PLOTSETDICT
350
2AE
  3
PLOTSTYLNAMDICT
350
2AF
  3
PSVPSCALE
350
2B5
  3
PUCSBASE
350
2B9
  3
PUCSORGBACK
350
2BF
  3
PUCSORGBOTTOM
350
2BB
  3
PUCSORGFRONT
350
2BE
  3
PUCSORGLEFT
350
2BC
  3
PUCSORGRIGHT
350
2BD
  3
PUCSORGTOP
350
2BA
  3
PUCSORTHOREF
350
2B7
  3
PUCSORTHOVIEW
350
2B8
  3
STYLESHEET
350
2AC
  3
TSTACKALIGN
350
2A9
  3
TSTACKSIZE
350
2AA
  3
UCSBASE
350
2C2
  3
UCSORGBACK
350
2C8
  3
UCSORGBOTTOM
350
2C4
  3
UCSORGFRONT
350
2C7
  3
UCSORGLEFT
350
2C5
  3
UCSORGRIGHT
350
2C6
  3
UCSORGTOP
350
2C3
  3
UCSORTHOREF
350
2C0
  3
UCSORTHOVIEW
350
2C1
  3
VERSIONGUID
350
2B4
  0
DICTIONARY
  5
5E
102
{ACAD_REACTORS
330
5D
102
}
330
5D
100
AcDbDictionary
  0
XRECORD
  5
2CA
102
{ACAD_REACTORS
330
2C9
102
}
330
2C9
100
AcDbXrecord
340
1F
  0
XRECORD
  5
2CC
102
{ACAD_REACTORS
330
2CB
102
}
330
2CB
100
AcDbXrecord
340
50
  0
MLINESTYLE
  5
18
102
{ACAD_REACTORS
330
17
102
}
330
17
100
AcDbMlineStyle
  2
STANDARD
 70
     0
  3

 62
   256
 51
90.0
 52
90.0
 71
     2
 49
0.5
 62
   256
  6
BYLAYER
 49
-0.5
 62
   256
  6
BYLAYER
  0
ACDBPLACEHOLDER
  5
F
102
{ACAD_REACTORS
330
E
102
}
330
E
100
AcDbPlaceHolder
280
     0
  0
XRECORD
  5
2B2
102
{ACAD_REACTORS
330
2A8
102
}
330
2A8
100
AcDbXrecord
 90
        0
  0
XRECORD
  5
2B6
102
{ACAD_REACTORS
330
2A8
102
}
330
2A8
100
AcDbXrecord
1000
DSTYLE
1002
{
1070
   278
 70
    44
1002
}
  0
XRECORD
  5
2B3
102
{ACAD_REACTORS
330
2A8
102
}
330
2A8
100
AcDbXrecord
  1
{FDEAD578-A652-11D2-9A35-0060089B3A3F}
  0
XRECORD
  5
2AB
102
{ACAD_REACTORS
330
2A8
102
}
330
2A8
100
AcDbXrecord
  1

  0
XRECORD
  5
2B1
102
{ACAD_REACTORS
330
2A8
102
}
330
2A8
100
AcDbXrecord
 90
        4
  0
XRECORD
  5
2AD
102
{ACAD_REACTORS
330
2A8
102
}
330
2A8
100
AcDbXrecord
340
1A
  0
XRECORD
  5
2B0
102
{ACAD_REACTORS
330
2A8
102
}
330
2A8
100
AcDbXrecord
 90
    10781
  0
XRECORD
  5
2AE
102
{ACAD_REACTORS
330
2A8
102
}
330
2A8
100
AcDbXrecord
340
19
  0
XRECORD
  5
2AF
102
{ACAD_REACTORS
330
2A8
102
}
330
2A8
100
AcDbXrecord
340
E
  0
XRECORD
  5
2B5
102
{ACAD_REACTORS
330
2A8
102
}
330
2A8
100
AcDbXrecord
 40
0.0
  0
XRECORD
  5
2B9
102
{ACAD_REACTORS
330
2A8
102
}
330
2A8
100
AcDbXrecord
340
0
  0
XRECORD
  5
2BF
102
{ACAD_REACTORS
330
2A8
102
}
330
2A8
100
AcDbXrecord
 10
0.0
 20
0.0
 30
0.0
  0
XRECORD
  5
2BB
102
{ACAD_REACTORS
330
2A8
102
}
330
2A8
100
AcDbXrecord
 10
0.0
 20
0.0
 30
0.0
  0
XRECORD
  5
2BE
102
{ACAD_REACTORS
330
2A8
102
}
330
2A8
100
AcDbXrecord
 10
0.0
 20
0.0
 30
0.0
  0
XRECORD
  5
2BC
102
{ACAD_REACTORS
330
2A8
102
}
330
2A8
100
AcDbXrecord
 10
0.0
 20
0.0
 30
0.0
  0
XRECORD
  5
2BD
102
{ACAD_REACTORS
330
2A8
102
}
330
2A8
100
AcDbXrecord
 10
0.0
 20
0.0
 30
0.0
  0
XRECORD
  5
2BA
102
{ACAD_REACTORS
330
2A8
102
}
330
2A8
100
AcDbXrecord
 10
0.0
 20
0.0
 30
0.0
  0
XRECORD
  5
2B7
102
{ACAD_REACTORS
330
2A8
102
}
330
2A8
100
AcDbXrecord
340
0
  0
XRECORD
  5
2B8
102
{ACAD_REACTORS
330
2A8
102
}
330
2A8
100
AcDbXrecord
 70
     0
  0
XRECORD
  5
2AC
102
{ACAD_REACTORS
330
2A8
102
}
330
2A8
100
AcDbXrecord
  1

  0
XRECORD
  5
2A9
102
{ACAD_REACTORS
330
2A8
102
}
330
2A8
100
AcDbXrecord
 90
        1
  0
XRECORD
  5
2AA
102
{ACAD_REACTORS
330
2A8
102
}
330
2A8
100
AcDbXrecord
 90
       70
  0
XRECORD
  5
2C2
102
{ACAD_REACTORS
330
2A8
102
}
330
2A8
100
AcDbXrecord
340
0
  0
XRECORD
  5
2C8
102
{ACAD_REACTORS
330
2A8
102
}
330
2A8
100
AcDbXrecord
 10
0.0
 20
0.0
 30
0.0
  0
XRECORD
  5
2C4
102
{ACAD_REACTORS
330
2A8
102
}
330
2A8
100
AcDbXrecord
 10
0.0
 20
0.0
 30
0.0
  0
XRECORD
  5
2C7
102
{ACAD_REACTORS
330
2A8
102
}
330
2A8
100
AcDbXrecord
 10
0.0
 20
0.0
 30
0.0
  0
XRECORD
  5
2C5
102
{ACAD_REACTORS
330
2A8
102
}
330
2A8
100
AcDbXrecord
 10
0.0
 20
0.0
 30
0.0
  0
XRECORD
  5
2C6
102
{ACAD_REACTORS
330
2A8
102
}
330
2A8
100
AcDbXrecord
 10
0.0
 20
0.0
 30
0.0
  0
XRECORD
  5
2C3
102
{ACAD_REACTORS
330
2A8
102
}
330
2A8
100
AcDbXrecord
 10
0.0
 20
0.0
 30
0.0
  0
XRECORD
  5
2C0
102
{ACAD_REACTORS
330
2A8
102
}
330
2A8
100
AcDbXrecord
340
0
  0
XRECORD
  5
2C1
102
{ACAD_REACTORS
330
2A8
102
}
330
2A8
100
AcDbXrecord
 70
     0
  0
XRECORD
  5
2B4
102
{ACAD_REACTORS
330
2A8
102
}
330
2A8
100
AcDbXrecord
  1
{90CAE5FF-71D4-45DD-8CA8-08BB6A4BBAE1}
  0
ENDSEC
  0
EOF
