  0
SECTION
  2
HEADER
  9
$ACADVER
  1
AC1014
  9
$ACADMAINTVER
 70
     9
  9
$DWGCODEPAGE
  3
ANSI_1252
  9
$INSBASE
 10
0.0
 20
0.0
 30
0.0
  9
$EXTMIN
 10
-0.2131218434606126
 20
-0.1450767163605633
 30
-0.0015258207003583
  9
$EXTMAX
 10
6983.705708411358
 20
4754.182262342663
 30
0.0000000349246037
  9
$LIMMIN
 10
0.0
 20
0.0
  9
$LIMMAX
 10
420.0
 20
297.0
  9
$ORTHOMODE
 70
     0
  9
$REGENMODE
 70
     1
  9
$FILLMODE
 70
     1
  9
$QTEXTMODE
 70
     0
  9
$MIRRTEXT
 70
     1
  9
$DRAGMODE
 70
     2
  9
$LTSCALE
 40
1.0
  9
$OSMODE
 70
   511
  9
$ATTMODE
 70
     1
  9
$TEXTSIZE
 40
2.5
  9
$TRACEWID
 40
1.0
  9
$TEXTSTYLE
  7
STANDARD
  9
$CLAYER
  8
0
  9
$CELTYPE
  6
BYLAYER
  9
$CECOLOR
 62
   256
  9
$CELTSCALE
 40
1.0
  9
$DELOBJ
 70
     1
  9
$DISPSILH
 70
     0
  9
$DIMSCALE
 40
1.0
  9
$DIMASZ
 40
2.5
  9
$DIMEXO
 40
0.625
  9
$DIMDLI
 40
3.75
  9
$DIMRND
 40
0.0
  9
$DIMDLE
 40
0.0
  9
$DIMEXE
 40
1.25
  9
$DIMTP
 40
0.0
  9
$DIMTM
 40
0.0
  9
$DIMTXT
 40
2.5
  9
$DIMCEN
 40
2.5
  9
$DIMTSZ
 40
0.0
  9
$DIMTOL
 70
     0
  9
$DIMLIM
 70
     0
  9
$DIMTIH
 70
     0
  9
$DIMTOH
 70
     0
  9
$DIMSE1
 70
     0
  9
$DIMSE2
 70
     0
  9
$DIMTAD
 70
     1
  9
$DIMZIN
 70
     8
  9
$DIMBLK
  1

  9
$DIMASO
 70
     1
  9
$DIMSHO
 70
     1
  9
$DIMPOST
  1

  9
$DIMAPOST
  1

  9
$DIMALT
 70
     0
  9
$DIMALTD
 70
     3
  9
$DIMALTF
 40
0.03937007874016
  9
$DIMLFAC
 40
1.0
  9
$DIMTOFL
 70
     1
  9
$DIMTVP
 40
0.0
  9
$DIMTIX
 70
     0
  9
$DIMSOXD
 70
     0
  9
$DIMSAH
 70
     0
  9
$DIMBLK1
  1

  9
$DIMBLK2
  1

  9
$DIMSTYLE
  2
ISO-25
  9
$DIMCLRD
 70
     0
  9
$DIMCLRE
 70
     0
  9
$DIMCLRT
 70
     0
  9
$DIMTFAC
 40
1.0
  9
$DIMGAP
 40
0.625
  9
$DIMJUST
 70
     0
  9
$DIMSD1
 70
     0
  9
$DIMSD2
 70
     0
  9
$DIMTOLJ
 70
     0
  9
$DIMTZIN
 70
     8
  9
$DIMALTZ
 70
     0
  9
$DIMALTTZ
 70
     0
  9
$DIMFIT
 70
     3
  9
$DIMUPT
 70
     0
  9
$DIMUNIT
 70
     2
  9
$DIMDEC
 70
     2
  9
$DIMTDEC
 70
     2
  9
$DIMALTU
 70
     2
  9
$DIMALTTD
 70
     3
  9
$DIMTXSTY
  7
STANDARD
  9
$DIMAUNIT
 70
     0
  9
$LUNITS
 70
     2
  9
$LUPREC
 70
     4
  9
$SKETCHINC
 40
1.0
  9
$FILLETRAD
 40
10.0
  9
$AUNITS
 70
     0
  9
$AUPREC
 70
     0
  9
$MENU
  1
.
  9
$ELEVATION
 40
0.0
  9
$PELEVATION
 40
0.0
  9
$THICKNESS
 40
0.0
  9
$LIMCHECK
 70
     0
  9
$BLIPMODE
 70
     0
  9
$CHAMFERA
 40
10.0
  9
$CHAMFERB
 40
10.0
  9
$CHAMFERC
 40
20.0
  9
$CHAMFERD
 40
0.0
  9
$SKPOLY
 70
     0
  9
$TDCREATE
 40
2453124.564150741
  9
$TDUPDATE
 40
2453186.697014595
  9
$TDINDWG
 40
0.0008680671
  9
$TDUSRTIMER
 40
0.0008680671
  9
$USRTIMER
 70
     1
  9
$ANGBASE
 50
0.0
  9
$ANGDIR
 70
     0
  9
$PDMODE
 70
     0
  9
$PDSIZE
 40
0.0
  9
$PLINEWID
 40
0.0
  9
$COORDS
 70
     2
  9
$SPLFRAME
 70
     0
  9
$SPLINETYPE
 70
     6
  9
$SPLINESEGS
 70
     8
  9
$ATTDIA
 70
     0
  9
$ATTREQ
 70
     1
  9
$HANDLING
 70
-16383
  9
$HANDSEED
  5
212
  9
$SURFTAB1
 70
     6
  9
$SURFTAB2
 70
     6
  9
$SURFTYPE
 70
     6
  9
$SURFU
 70
     6
  9
$SURFV
 70
     6
  9
$UCSNAME
  2

  9
$UCSORG
 10
0.0
 20
0.0
 30
0.0
  9
$UCSXDIR
 10
1.0
 20
0.0
 30
0.0
  9
$UCSYDIR
 10
0.0
 20
1.0
 30
0.0
  9
$PUCSNAME
  2

  9
$PUCSORG
 10
0.0
 20
0.0
 30
0.0
  9
$PUCSXDIR
 10
1.0
 20
0.0
 30
0.0
  9
$PUCSYDIR
 10
0.0
 20
1.0
 30
0.0
  9
$USERI1
 70
     0
  9
$USERI2
 70
     0
  9
$USERI3
 70
     0
  9
$USERI4
 70
     0
  9
$USERI5
 70
     0
  9
$USERR1
 40
0.0
  9
$USERR2
 40
0.0
  9
$USERR3
 40
0.0
  9
$USERR4
 40
0.0
  9
$USERR5
 40
0.0
  9
$WORLDVIEW
 70
     1
  9
$SHADEDGE
 70
     3
  9
$SHADEDIF
 70
    70
  9
$TILEMODE
 70
     1
  9
$MAXACTVP
 70
    64
  9
$PINSBASE
 10
0.0
 20
0.0
 30
0.0
  9
$PLIMCHECK
 70
     0
  9
$PEXTMIN
 10
0.0
 20
0.0
 30
0.0
  9
$PEXTMAX
 10
0.0
 20
0.0
 30
0.0
  9
$PLIMMIN
 10
0.0
 20
0.0
  9
$PLIMMAX
 10
12.0
 20
9.0
  9
$UNITMODE
 70
     0
  9
$VISRETAIN
 70
     1
  9
$PLINEGEN
 70
     0
  9
$PSLTSCALE
 70
     1
  9
$TREEDEPTH
 70
  3020
  9
$PICKSTYLE
 70
     0
  9
$CMLSTYLE
  2
STANDARD
  9
$CMLJUST
 70
     0
  9
$CMLSCALE
 40
20.0
  9
$PROXYGRAPHICS
 70
     1
  9
$MEASUREMENT
 70
     1
  0
ENDSEC
  0
SECTION
  2
CLASSES
  0
CLASS
  1
ACDBDICTIONARYWDFLT
  2
AcDbDictionaryWithDefault
  3
AutoCAD 2000
 90
        0
280
     0
281
     0
  0
CLASS
  1
ACDBPLACEHOLDER
  2
AcDbPlaceHolder
  3
AutoCAD 2000
 90
        0
280
     0
281
     0
  0
CLASS
  1
LAYOUT
  2
AcDbLayout
  3
AutoCAD 2000
 90
        0
280
     0
281
     0
  0
CLASS
  1
LONG_TRANSACTION
  2
AcDbLongTransaction
  3
AutoCAD 2000
 90
        0
280
     0
281
     0
  0
CLASS
  1
LWPOLYLINE
  2
AcDbPolyline
  3
AutoCAD 2000
 90
        0
280
     0
281
     1
  0
CLASS
  1
HATCH
  2
AcDbHatch
  3
AutoCAD 2000
 90
        0
280
     0
281
     1
  0
CLASS
  1
XRECORD
  2
AcDbXrecord
  3
AutoCAD 2000
 90
        0
280
     0
281
     0
  0
ENDSEC
  0
SECTION
  2
TABLES
  0
TABLE
  2
VPORT
  5
8
330
0
100
AcDbSymbolTable
 70
     2
  0
VPORT
  5
1E9
330
8
100
AcDbSymbolTableRecord
100
AcDbViewportTableRecord
  2
*ACTIVE
 70
     0
 10
0.0
 20
0.0
 11
1.0
 21
1.0
 12
3491.746293283948
 22
2377.018592813151
 13
0.0
 23
0.0
 14
10.0
 24
10.0
 15
10.0
 25
10.0
 16
0.0
 26
0.0
 36
1.0
 17
0.0
 27
0.0
 37
0.0
 40
4810.814396552794
 41
1.720238095238095
 42
50.0
 43
0.0
 44
0.0
 50
0.0
 51
0.0
 71
     0
 72
   100
 73
     1
 74
     3
 75
     0
 76
     0
 77
     0
 78
     0
  0
ENDTAB
  0
TABLE
  2
LTYPE
  5
5
330
0
100
AcDbSymbolTable
 70
     1
  0
LTYPE
  5
14
330
5
100
AcDbSymbolTableRecord
100
AcDbLinetypeTableRecord
  2
BYBLOCK
 70
     0
  3

 72
    65
 73
     0
 40
0.0
  0
LTYPE
  5
15
330
5
100
AcDbSymbolTableRecord
100
AcDbLinetypeTableRecord
  2
BYLAYER
 70
     0
  3

 72
    65
 73
     0
 40
0.0
  0
LTYPE
  5
16
330
5
100
AcDbSymbolTableRecord
100
AcDbLinetypeTableRecord
  2
CONTINUOUS
 70
     0
  3
Solid line
 72
    65
 73
     0
 40
0.0
  0
ENDTAB
  0
TABLE
  2
LAYER
  5
2
330
0
100
AcDbSymbolTable
 70
     1
  0
LAYER
  5
10
330
2
100
AcDbSymbolTableRecord
100
AcDbLayerTableRecord
  2
0
 70
     0
 62
     7
  6
CONTINUOUS
  0
ENDTAB
  0
TABLE
  2
STYLE
  5
3
330
0
100
AcDbSymbolTable
 70
     1
  0
STYLE
  5
11
330
3
100
AcDbSymbolTableRecord
100
AcDbTextStyleTableRecord
  2
STANDARD
 70
     0
 40
0.0
 41
1.0
 50
0.0
 71
     0
 42
2.5
  3
txt
  4

  0
ENDTAB
  0
TABLE
  2
VIEW
  5
6
330
0
100
AcDbSymbolTable
 70
     0
  0
ENDTAB
  0
TABLE
  2
UCS
  5
7
330
0
100
AcDbSymbolTable
 70
     0
  0
ENDTAB
  0
TABLE
  2
APPID
  5
9
330
0
100
AcDbSymbolTable
 70
     2
  0
APPID
  5
12
330
9
100
AcDbSymbolTableRecord
100
AcDbRegAppTableRecord
  2
ACAD
 70
     0
  0
APPID
  5
211
330
9
100
AcDbSymbolTableRecord
100
AcDbRegAppTableRecord
  2
CONTENTBLOCKICON
 70
     0
  0
ENDTAB
  0
TABLE
  2
DIMSTYLE
  5
A
330
0
100
AcDbSymbolTable
 70
     1
  0
DIMSTYLE
105
27
330
A
100
AcDbSymbolTableRecord
100
AcDbDimStyleTableRecord
  2
ISO-25
 70
     0
  3

  4

  5

  6

  7

 40
1.0
 41
2.5
 42
0.625
 43
3.75
 44
1.25
 45
0.0
 46
0.0
 47
0.0
 48
0.0
140
2.5
141
2.5
142
0.0
143
0.03937007874016
144
1.0
145
0.0
146
1.0
147
0.625
 71
     0
 72
     0
 73
     0
 74
     0
 75
     0
 76
     0
 77
     1
 78
     8
170
     0
171
     3
172
     1
173
     0
174
     0
175
     0
176
     0
177
     0
178
     0
270
     2
271
     2
272
     2
273
     2
274
     3
340
11
275
     0
280
     0
281
     0
282
     0
283
     0
284
     8
285
     0
286
     0
287
     3
288
     0
  0
ENDTAB
  0
TABLE
  2
BLOCK_RECORD
  5
1
330
0
100
AcDbSymbolTable
 70
     2
  0
BLOCK_RECORD
  5
1F
102
{ACAD_XDICTIONARY
360
20B
102
}
330
1
100
AcDbSymbolTableRecord
100
AcDbBlockTableRecord
  2
*MODEL_SPACE
  0
BLOCK_RECORD
  5
50
102
{ACAD_XDICTIONARY
360
20D
102
}
330
1
100
AcDbSymbolTableRecord
100
AcDbBlockTableRecord
  2
*PAPER_SPACE
  0
BLOCK_RECORD
  5
164
330
1
100
AcDbSymbolTableRecord
100
AcDbBlockTableRecord
  2
ADKQ
1001
ACAD
1000
DesignCenter Data
1002
{
1070
     1
1070
     4
1002
}
1001
CONTENTBLOCKICON
1071
        0
1004
2800000020000000200000000100080000000000000400000000000000000000000000000000000000000000000080000080000000808000800000008000800080800000C0C0C000C0DCC000F0CAA6000020400000206000002080000020A0000020C0000020E00000400000004020000040400000406000004080000040A0
1004
000040C0000040E00000600000006020000060400000606000006080000060A0000060C0000060E00000800000008020000080400000806000008080000080A0000080C0000080E00000A0000000A0200000A0400000A0600000A0800000A0A00000A0C00000A0E00000C0000000C0200000C0400000C0600000C0800000C0
1004
A00000C0C00000C0E00000E0000000E0200000E0400000E0600000E0800000E0A00000E0C00000E0E00040000000400020004000400040006000400080004000A0004000C0004000E00040200000402020004020400040206000402080004020A0004020C0004020E000404000004040200040404000404060004040800040
1004
40A0004040C0004040E00040600000406020004060400040606000406080004060A0004060C0004060E00040800000408020004080400040806000408080004080A0004080C0004080E00040A0000040A0200040A0400040A0600040A0800040A0A00040A0C00040A0E00040C0000040C0200040C0400040C0600040C08000
1004
40C0A00040C0C00040C0E00040E0000040E0200040E0400040E0600040E0800040E0A00040E0C00040E0E00080000000800020008000400080006000800080008000A0008000C0008000E00080200000802020008020400080206000802080008020A0008020C0008020E00080400000804020008040400080406000804080
1004
008040A0008040C0008040E00080600000806020008060400080606000806080008060A0008060C0008060E00080800000808020008080400080806000808080008080A0008080C0008080E00080A0000080A0200080A0400080A0600080A0800080A0A00080A0C00080A0E00080C0000080C0200080C0400080C0600080C0
1004
800080C0A00080C0C00080C0E00080E0000080E0200080E0400080E0600080E0800080E0A00080E0C00080E0E000C0000000C0002000C0004000C0006000C0008000C000A000C000C000C000E000C0200000C0202000C0204000C0206000C0208000C020A000C020C000C020E000C0400000C0402000C0404000C0406000C0
1004
408000C040A000C040C000C040E000C0600000C0602000C0604000C0606000C0608000C060A000C060C000C060E000C0800000C0802000C0804000C0806000C0808000C080A000C080C000C080E000C0A00000C0A02000C0A04000C0A06000C0A08000C0A0A000C0A0C000C0A0E000C0C00000C0C02000C0C04000C0C06000
1004
C0C08000C0C0A000F0FBFF00A4A0A000808080000000FF0000FF000000FFFF00FF000000FF00FF00FFFF0000FFFFFF00FFFFFFFFFFFFFFFFFFFFFFFFFFFFFFFFFFFFFFFFFFFFFFFFFFFFFFFFFFFFFFFFFFFFFFFFFFFFFFFFFFFFFFFFFFFFFFFFFFFFFFFFFFFFFFFFFFFFFFFFFFFFFFFFFFFFFFFFFFFFFFFFFFFFFFFFFFFFFF
1004
FFFFFFFFFFFFFFFFFFFFFFFFFFFFFFFFFFFFFFFFFFFFFFFFFFFFFFFFFFFFFFFFFFFFFFFFFFFFFFFFFFFFFFFFFFFFFFFFFFFFFFFFFFFFFFFFFFFFFFFFFFFFFFFFFFFFFFFFFFFFFFFFFFFFFFFFFFFFFFFFFFFFFFFFFFFFFFFFFFFFFFFFFFFFFFFFFFFFFFFFFFFFFFFFFFFFFFFFFFFFFFFFFFFFFFFFFFFFFF0000000000000000
1004
00000000000000000000FFFFFFFFFFFFFFFFFFFFFFFFFF00FFFFFFFFFFFFFFFFFFFFFFFFFFFFFFFFFFFF0000FFFFFFFFFFFFFFFFFFFF00FFFFFFFFFFFFFFFFFFFFFFFFFFFFFFFFFFFFFFFFFF0000000000FFFFFFFF00FFFFFFFFFFFFFFFFFFFFFFFFFFFFFFFFFFFFFFFFFFFFFFFFFFFF00FFFFFF00FFFFFFFFFFFFFFFFFFFF
1004
FFFFFFFFFFFFFFFFFFFFFFFFFFFFFFFFFF00FFFFFF00FFFFFFFFFFFF212121212121FFFFFFFFFFFFFFFFFFFFFFFFFFFFFF00FFFF0000FFFFFFFF000000210000000027272700E0E00000FFFFFFFFFFFFFF00FFFF00FFFFFFFFFFFF0000FF0021000000FFFFFFFFFF00FFFFFFFFFFFFFFFF00FFFF00FFFFFFFFFF000000FF00
1004
00000027272700E0E00000FFFFFFFFFFFFFF00FFFFFF00FFFFFFFF000000210000002127272700E0E0E000FFFFFFFFFFFFFF00FFFFFF00FFFFFFFFFFFF210000000021FFFFFFFFFFFFFFFFFFFFFFFFFFFFFF00FFFFFF00FFFFFFFFFFFFFF00000000FFFFFFFFFFFFFFFFFFFFFFFFFFFFFFFF00FFFFFF00FFFFFFFFFFFFFF00
1004
00000000FFFFFFFFFFFFFFFFFFFFFFFFFFFFFF00FFFFFFFF00FFFFFFFFFFFF000000FF00FFFFFFFFFFFFFFFFFFFFFF0000000000FFFFFFFF00FFFFFFFFFFFFFFFFFFFFFFFFFFFFFFFFFFFFFFFFFF00FFFFFFFFFFFFFFFFFFFF00FFFFFFFFFFFFFFFFFFFFFFFFFFFFFFFFFFFF0000FFFFFFFFFFFFFFFFFFFFFF00FFFFFFFFFF
1004
FFFFFFFFFFFFFFFFFFFFFF0000FFFFFFFFFFFFFFFFFFFFFFFFFFFF00FFFFFFFFFFFFFFFFFFFFFFFFFF0000FFFFFFFFFFFFFFFFFFFFFFFFFFFFFFFFFF0000FFFFFFFFFFFFFFFFFF0000FFFFFFFFFFFFFFFFFFFFFFFFFFFFFFFFFFFFFFFFFF000000000000000000FFFFFFFFFFFFFFFFFFFFFFFFFFFFFFFFFFFFFFFFFFFFFFFF
1004
FFFFFFFFFFFFFFFFFFFFFFFFFFFFFFFFFFFFFFFFFFFFFFFFFFFFFFFFFFFFFFFFFFFFFFFFFFFFFFFFFFFFFFFFFFFFFFFFFFFFFFFFFFFFFFFFFFFFFFFFFFFFFFFFFFFFFFFFFFFFFFFFFFFFFFFFFFFFFFFFFFFFFFFFFFFFFFFFFFFFFFFFFFFFFFFFFFFFFFFFFFFFFFFFFFFFFFFFFFFFFFFFFFFFFFFFFFFFFFFFFFFFFFFFFFFFFF
1004
FFFFFFFFFFFFFFFFFFFFFFFFFFFFFFFFFFFFFFFFFFFFFFFFFFFFFFFFFFFFFFFFFFFFFFFFFFFFFFFFFFFFFFFFFFFFFFFFFFFFFFFFFFFFFFFF
  0
ENDTAB
  0
ENDSEC
  0
SECTION
  2
BLOCKS
  0
BLOCK
  5
20
330
1F
100
AcDbEntity
  8
0
100
AcDbBlockBegin
  2
*MODEL_SPACE
 70
     0
 10
0.0
 20
0.0
 30
0.0
  3
*MODEL_SPACE
  1

  0
ENDBLK
  5
21
330
1F
100
AcDbEntity
  8
0
100
AcDbBlockEnd
  0
BLOCK
  5
52
330
50
100
AcDbEntity
 67
     1
  8
0
100
AcDbBlockBegin
  2
*PAPER_SPACE
 70
     0
 10
0.0
 20
0.0
 30
0.0
  3
*PAPER_SPACE
  1

  0
ENDBLK
  5
53
330
50
100
AcDbEntity
 67
     1
  8
0
100
AcDbBlockEnd
  0
BLOCK
  5
165
330
164
100
AcDbEntity
  8
0
100
AcDbBlockBegin
  2
ADKQ
 70
     0
 10
0.0
 20
0.0
 30
0.0
  3
ADKQ
  1

  0
LINE
  5
167
330
164
100
AcDbEntity
  8
0
100
AcDbLine
 10
-1997.330358152154
 20
1520.36049815252
 30
0.0
 11
-3856.347992548955
 21
1520.36049815252
 31
0.0
  0
LINE
  5
168
330
164
100
AcDbEntity
  8
0
100
AcDbLine
 10
-3856.347992548955
 20
1539.697482154493
 30
0.0
 11
-1997.33035815215
 21
1539.697482154508
 31
0.0
  0
LINE
  5
169
330
164
100
AcDbEntity
  8
0
100
AcDbLine
 10
-1997.330358152146
 20
1022.2664619637
 30
0.0
 11
-3856.347992548955
 21
1022.2664619637
 31
0.0
  0
LINE
  5
16A
330
164
100
AcDbEntity
  8
0
100
AcDbLine
 10
-3856.347992548955
 20
1002.929477961726
 30
0.0
 11
-1997.33035815215
 21
1002.929477961726
 31
0.0
  0
HATCH
  5
16B
330
164
100
AcDbEntity
  8
0
 62
    50
100
AcDbHatch
 10
0.0
 20
0.0
 30
0.0
210
0.0
220
0.0
230
1.0
  2
SOLID
 70
     1
 71
     0
 91
        3
 92
        7
 72
     1
 73
     1
 93
       22
 10
-2183.032083826288
 20
1271.646876333936
 42
0.0
 10
-2181.365102446812
 20
1179.629504186676
 42
0.0
 10
-2174.030384377096
 20
1141.622328734527
 42
0.0
 10
-2156.693778030505
 20
1114.28383411104
 42
0.0
 10
-2132.022453614186
 20
1093.613265005478
 42
0.0
 10
-2105.350751542493
 20
1078.277036314255
 42
0.0
 10
-2091.348107954862
 20
1064.94118527841
 42
0.0
 10
-2084.013389885138
 20
1050.938541690767
 42
0.0
 10
-2081.346219677973
 20
1034.935520447754
 42
0.0
 10
-2081.346219677973
 20
1022.2664619637
 42
0.0
 10
-3856.347992548955
 20
1022.266461963714
 42
0.0
 10
-3856.347992548955
 20
1022.933254515497
 42
0.5047677450341376
 10
-3852.734776537862
 20
1520.36049815252
 42
0.0
 10
-2081.346219677973
 20
1520.36049815252
 42
0.0
 10
-2081.346219677973
 20
1507.691439668466
 42
0.0
 10
-2084.680182436935
 20
1489.021248218283
 42
0.0
 10
-2093.348485610236
 20
1475.018604630655
 42
0.0
 10
-2105.3507515425
 20
1465.016716353762
 42
0.0
 10
-2132.022453614186
 20
1449.013695110748
 42
0.0
 10
-2161.361325893045
 20
1423.008785590856
 42
0.0
 10
-2176.030762032474
 20
1395.003498415571
 42
0.0
 10
-2181.365102446816
 20
1362.997455929544
 42
0.0
 97
        0
 92
       22
 72
     1
 73
     1
 93
        2
 10
-3856.347992548955
 20
1069.28948094949
 42
0.0
 10
-3856.347992548955
 20
1476.671441925696
 42
-0.4582969605586812
 97
        0
 92
        7
 72
     1
 73
     1
 93
        5
 10
-3856.347992548955
 20
1022.933254515497
 42
0.0
 10
-3856.347992548955
 20
1069.28948094949
 42
0.4582969605586812
 10
-3856.347992548955
 20
1476.671441925696
 42
0.0
 10
-3856.347992548955
 20
1520.36049815252
 42
0.0
 10
-3852.734776537862
 20
1520.36049815252
 42
-0.5047677450341411
 97
        0
 75
     0
 76
     1
 47
4.472321723810398
 98
        3
 10
-2533.637774467968
 20
1296.275633330886
 10
-3817.734398657881
 20
1238.135489020402
 10
-3772.992323823
 20
1175.522976420594
  0
HATCH
  5
16C
330
164
100
AcDbEntity
  8
0
 62
    30
100
AcDbHatch
 10
0.0
 20
0.0
 30
0.0
210
0.0
220
0.0
230
1.0
  2
SOLID
 70
     1
 71
     0
 91
        2
 92
        7
 72
     0
 73
     1
 93
        4
 10
-2926.839175350554
 20
1002.929477961726
 10
-3856.347992548955
 20
1002.929477961726
 10
-3856.347992548955
 20
1022.2664619637
 10
-2926.839175350551
 20
1022.2664619637
 97
        0
 92
        7
 72
     1
 73
     1
 93
        5
 10
-2926.839175350558
 20
1520.36049815252
 42
0.0
 10
-3852.734776537862
 20
1520.36049815252
 42
0.003631856113254
 10
-3856.347992548955
 20
1523.027668359689
 42
0.0
 10
-3856.347992548955
 20
1539.697482154493
 42
0.0
 10
-2926.839175350551
 20
1539.697482154501
 42
0.0
 97
        0
 75
     0
 76
     1
 47
3.387716884985549
 98
        2
 10
-3641.742067759409
 20
1013.617466160118
 10
-3550.1782911519
 20
1531.938157606047
  0
LINE
  5
16D
330
164
100
AcDbEntity
  8
0
100
AcDbLine
 10
-3856.347992548955
 20
690.8705637229505
 30
0.0
 11
-5017.23382521926
 21
1851.756396393269
 31
0.0
  0
LINE
  5
16E
330
164
100
AcDbEntity
  8
0
100
AcDbLine
 10
-5017.23382521926
 20
690.8705637229505
 30
0.0
 11
-3856.347992548955
 21
1851.756396393269
 31
0.0
  0
LWPOLYLINE
  5
16F
102
{ACAD_REACTORS
330
170
102
}
330
164
100
AcDbEntity
  8
0
100
AcDbPolyline
 90
        4
 70
     1
 43
0.0
 10
-5017.233825219268
 20
1851.756396393269
 10
-3856.347992548955
 20
1851.756396393269
 10
-3856.347992548955
 20
690.870563722965
 10
-5017.233825219268
 20
690.870563722965
  0
HATCH
  5
170
330
164
100
AcDbEntity
  8
0
 62
    84
100
AcDbHatch
 10
0.0
 20
0.0
 30
0.0
210
0.0
220
0.0
230
1.0
  2
SOLID
 70
     1
 71
     1
 91
        1
 92
        1
 93
        4
 72
     1
 10
-5017.233825219268
 20
1851.756396393269
 11
-3856.347992548955
 21
1851.756396393269
 72
     1
 10
-3856.347992548955
 20
1851.756396393269
 11
-3856.347992548955
 21
690.870563722965
 72
     1
 10
-3856.347992548955
 20
690.870563722965
 11
-5017.233825219268
 21
690.870563722965
 72
     1
 10
-5017.233825219268
 20
690.870563722965
 11
-5017.233825219268
 21
1851.756396393269
 97
        1
330
16F
 75
     0
 76
     1
 98
        1
 10
1995.615135841617
 20
15443.53244741836
  0
LWPOLYLINE
  5
171
330
164
100
AcDbEntity
  8
0
100
AcDbPolyline
 90
        4
 70
     1
 43
0.0
 10
-4728.512650293221
 20
979.5917386489964
 10
-4145.208282467819
 20
979.5917386489964
 10
-4145.208282467819
 20
1563.035221467224
 10
-4728.512650293221
 20
1563.035221467224
  0
HATCH
  5
172
330
164
100
AcDbEntity
  8
0
 62
   250
100
AcDbHatch
 10
0.0
 20
0.0
 30
0.0
210
0.0
220
0.0
230
1.0
  2
SOLID
 70
     1
 71
     0
 91
        2
 92
        7
 72
     0
 73
     1
 93
        4
 10
-5017.187288063233
 20
1522.552445192501
 10
-5100.629415454012
 20
1522.552445192497
 10
-5100.629415454015
 20
1020.087837501534
 10
-5017.187288063229
 20
1020.087837501534
 97
        0
 92
        7
 72
     0
 73
     1
 93
        4
 10
-5100.629415454019
 20
1522.552445192497
 10
-5372.072735751634
 20
1522.552445192497
 10
-5372.072735751637
 20
1020.087837501538
 10
-5100.629415454012
 20
1020.087837501538
 97
        0
 75
     0
 76
     1
 47
2.277875573870468
 98
        2
 10
-5048.476847067043
 20
1089.362777814083
 10
-5166.926374254439
 20
1150.929536940359
  0
LINE
  5
173
330
164
100
AcDbEntity
  8
0
100
AcDbLine
 10
-5372.072735751637
 20
1522.552445192497
 30
0.0
 11
-5372.072735751637
 21
1020.087837501538
 31
0.0
  0
LINE
  5
174
330
164
100
AcDbEntity
  8
0
100
AcDbLine
 10
-5100.629415454015
 20
1522.552445192497
 30
0.0
 11
-5100.629415454015
 21
1020.087837501534
 31
0.0
  0
HATCH
  5
175
330
164
100
AcDbEntity
  8
0
 62
    50
100
AcDbHatch
 10
0.0
 20
0.0
 30
0.0
210
0.0
220
0.0
230
1.0
  2
SOLID
 70
     1
 71
     0
 91
        2
 92
        7
 72
     0
 73
     1
 93
        4
 10
-5017.187288063229
 20
1000.265041844802
 10
-5017.187288063233
 20
1020.087837501538
 10
-5477.009403953478
 20
1020.087837501541
 10
-5477.00940395347
 20
1000.81375558691
 97
        0
 92
        7
 72
     0
 73
     1
 93
        4
 10
-5477.009403953482
 20
1542.361918271388
 10
-5477.009403953474
 20
1522.552445192494
 10
-5017.187288063229
 20
1522.552445192494
 10
-5017.187288063229
 20
1542.361918271421
 97
        0
 75
     0
 76
     1
 47
2.277875573870468
 98
        2
 10
-5185.149391735631
 20
1004.993414650543
 10
-5223.873260662982
 20
1534.011868245597
  0
LINE
  5
176
330
164
100
AcDbEntity
  8
0
100
AcDbLine
 10
-5477.00940395347
 20
1000.813755586914
 30
0.0
 11
-5017.187288063229
 21
1000.265041844799
 31
0.0
  0
LINE
  5
177
330
164
100
AcDbEntity
  8
0
100
AcDbLine
 10
-5017.187288063229
 20
1020.087837501534
 30
0.0
 11
-5477.009403953478
 21
1020.087837501538
 31
0.0
  0
LINE
  5
178
330
164
100
AcDbEntity
  8
0
100
AcDbLine
 10
-5477.009403953478
 20
1020.087837501538
 30
0.0
 11
-5477.00940395347
 21
1000.813755586914
 31
0.0
  0
LINE
  5
179
330
164
100
AcDbEntity
  8
0
100
AcDbLine
 10
-5477.009403953474
 20
1522.552445192497
 30
0.0
 11
-5017.108393823975
 21
1522.552445192497
 31
0.0
  0
LINE
  5
17A
330
164
100
AcDbEntity
  8
0
100
AcDbLine
 10
-5017.108393823975
 20
1542.361918271421
 30
0.0
 11
-5477.009403953482
 21
1542.361918271391
 31
0.0
  0
LINE
  5
17B
330
164
100
AcDbEntity
  8
0
100
AcDbLine
 10
-5477.009403953482
 20
1542.361918271391
 30
0.0
 11
-5477.009403953474
 21
1522.552445192497
 31
0.0
  0
ARC
  5
17C
330
164
100
AcDbEntity
  8
0
100
AcDbCircle
 10
-4038.134493894115
 20
1272.980461437597
 30
0.0
 40
309.1438787374797
100
AcDbArc
 50
306.017478817424
 51
53.98252118257589
  0
ARC
  5
17D
330
164
100
AcDbEntity
  8
0
100
AcDbCircle
 10
-4031.898491856878
 20
1272.980461437597
 30
0.0
 40
268.9014565588423
100
AcDbArc
 50
310.7563149162356
 51
49.24368508376437
  0
HATCH
  5
17E
330
164
100
AcDbEntity
  8
0
 62
   250
100
AcDbHatch
 10
0.0
 20
0.0
 30
0.0
210
0.0
220
0.0
230
1.0
  2
SOLID
 70
     1
 71
     0
 91
        3
 92
        7
 72
     1
 73
     1
 93
        4
 10
-4872.552669159752
 20
2406.527799484422
 42
0.2679491924310617
 10
-4872.552669159752
 20
2426.531576038185
 42
0.0
 10
-4592.762484773291
 20
2426.531576038185
 42
0.2679491924310617
 10
-4592.762484773291
 20
2406.527799484422
 42
0.0
 97
        0
 92
        7
 72
     1
 73
     1
 93
        4
 10
-4558.114927438899
 20
2406.527799484422
 42
0.2679491924310617
 10
-4558.114927438899
 20
2426.531576038185
 42
0.0
 10
-4310.420892640071
 20
2426.531576038185
 42
0.2679491924310617
 10
-4310.420892640071
 20
2406.527799484422
 42
0.0
 97
        0
 92
        7
 72
     1
 73
     1
 93
        4
 10
-4275.773335305679
 20
2406.527799484422
 42
0.2679491924310617
 10
-4275.773335305679
 20
2426.531576038185
 42
0.0
 10
-3997.028393297714
 20
2426.531576038185
 42
0.2679491924310617
 10
-3997.028393297714
 20
2406.527799484422
 42
0.0
 97
        0
 75
     0
 76
     1
 47
3.005531458579665
 98
        3
 10
-4706.259546010016
 20
2412.801232843186
 10
-4489.861280992282
 20
2415.809892095727
 10
-4159.252809441389
 20
2418.818551348267
  0
HATCH
  5
17F
330
164
100
AcDbEntity
  8
0
 62
   250
100
AcDbHatch
 10
0.0
 20
0.0
 30
0.0
210
0.0
220
0.0
230
1.0
  2
SOLID
 70
     1
 71
     0
 91
        3
 92
        7
 72
     1
 73
     1
 93
        4
 10
-4835.879078811177
 20
2214.491544568241
 42
0.2679491924311883
 10
-4835.879078811177
 20
2234.495321122019
 42
0.0
 10
-4573.137158046217
 20
2234.495321122019
 42
0.2679491924311883
 10
-4573.137158046217
 20
2214.491544568241
 42
0.0
 97
        0
 92
        7
 72
     1
 73
     1
 93
        4
 10
-4538.489600711833
 20
2214.491544568241
 42
0.2679491924311883
 10
-4538.489600711833
 20
2234.495321122019
 42
0.0
 10
-4329.757876642045
 20
2234.495321122019
 42
0.2679491924311883
 10
-4329.757876642045
 20
2214.491544568241
 42
0.0
 97
        0
 92
        7
 72
     1
 73
     1
 93
        4
 10
-4295.110319307659
 20
2214.491544568241
 42
0.2679491924311883
 10
-4295.110319307659
 20
2234.495321122019
 42
0.0
 10
-4034.368776198072
 20
2234.495321122019
 42
0.2679491924311883
 10
-4034.368776198072
 20
2214.491544568241
 42
0.0
 97
        0
 75
     0
 76
     1
 47
3.005531458579665
 98
        3
 10
-4685.220839287187
 20
2220.246569013033
 10
-4423.739590490263
 20
2229.272546770647
 10
-4111.16431245104
 20
2226.263887518107
  0
HATCH
  5
180
330
164
100
AcDbEntity
  8
0
 62
   250
100
AcDbHatch
 10
0.0
 20
0.0
 30
0.0
210
0.0
220
0.0
230
1.0
  2
SOLID
 70
     1
 71
     0
 91
        4
 92
        7
 72
     1
 73
     1
 93
        4
 10
-4799.872281014391
 20
2023.122082203874
 42
0.2679491924310617
 10
-4799.872281014391
 20
2043.125858757637
 42
0.0
 10
-4553.800174044245
 20
2043.125858757637
 42
0.2679491924310617
 10
-4553.800174044245
 20
2023.122082203874
 42
0.0
 97
        0
 92
        7
 72
     1
 73
     1
 93
        4
 10
-4519.152616709853
 20
2023.122082203874
 42
0.2679491924310617
 10
-4519.152616709853
 20
2043.125858757637
 42
0.0
 10
-4453.114498723614
 20
2043.125858757637
 42
0.2679491924310617
 10
-4453.114498723614
 20
2023.122082203874
 42
0.0
 97
        0
 92
        7
 72
     1
 73
     1
 93
        4
 10
-4418.46694138923
 20
2023.122082203874
 42
0.2679491924310617
 10
-4418.46694138923
 20
2043.125858757637
 42
0.0
 10
-4349.094860644018
 20
2043.125858757637
 42
0.2679491924310617
 10
-4349.094860644018
 20
2023.122082203874
 42
0.0
 97
        0
 92
        7
 72
     1
 73
     1
 93
        4
 10
-4314.447303309633
 20
2023.122082203874
 42
0.2679491924310617
 10
-4314.447303309633
 20
2043.125858757637
 42
0.0
 10
-4071.709159098445
 20
2043.125858757637
 42
0.2679491924310617
 10
-4071.709159098445
 20
2023.122082203874
 42
0.0
 97
        0
 75
     0
 76
     1
 47
3.005531458579665
 98
        4
 10
-4643.143387759944
 20
2033.709223687954
 10
-4483.850216488387
 20
2033.709223687954
 10
-4375.651093499921
 20
2036.717882940494
 10
-4234.391096699244
 20
2030.700528153283
  0
HATCH
  5
181
330
164
100
AcDbEntity
  8
0
 62
   250
100
AcDbHatch
 10
0.0
 20
0.0
 30
0.0
210
0.0
220
0.0
230
1.0
  2
SOLID
 70
     1
 71
     0
 91
       13
 92
        7
 72
     1
 73
     1
 93
        2
 10
-4797.192283127817
 20
2033.123970480759
 42
-1.0
 10
-4837.199836235359
 20
2033.123970480759
 42
-1.0
 97
        0
 92
        7
 72
     1
 73
     1
 93
        2
 10
-4873.206634032136
 20
2224.493432845134
 42
-1.0
 10
-4833.199080924594
 20
2224.493432845134
 42
-1.0
 97
        0
 92
        7
 72
     1
 73
     1
 93
        2
 10
-4869.87267127317
 20
2416.529687761307
 42
-1.0
 10
-4909.880224380711
 20
2416.529687761307
 42
-1.0
 97
        0
 92
        7
 72
     1
 73
     1
 93
        2
 10
-4595.442482659866
 20
2416.529687761307
 42
-1.0
 10
-4555.434929552324
 20
2416.529687761307
 42
-1.0
 97
        0
 92
        7
 72
     1
 73
     1
 93
        2
 10
-4575.8171559328
 20
2224.493432845134
 42
-1.0
 10
-4535.809602825258
 20
2224.493432845134
 42
-1.0
 97
        0
 92
        7
 72
     1
 73
     1
 93
        2
 10
-4516.472618823278
 20
2033.123970480759
 42
-1.0
 10
-4556.48017193082
 20
2033.123970480759
 42
-1.0
 97
        0
 92
        7
 72
     1
 73
     1
 93
        2
 10
-4415.786943502648
 20
2033.123970480759
 42
-1.0
 10
-4455.794496610189
 20
2033.123970480759
 42
-1.0
 97
        0
 92
        7
 72
     1
 73
     1
 93
        2
 10
-4311.767305423058
 20
2033.123970480759
 42
-1.0
 10
-4351.7748585306
 20
2033.123970480759
 42
-1.0
 97
        0
 92
        7
 72
     1
 73
     1
 93
        2
 10
-4292.430321421078
 20
2224.493432845134
 42
-1.0
 10
-4332.437874528619
 20
2224.493432845134
 42
-1.0
 97
        0
 92
        7
 72
     1
 73
     1
 93
        2
 10
-4273.093337419104
 20
2416.529687761307
 42
-1.0
 10
-4313.100890526646
 20
2416.529687761307
 42
-1.0
 97
        0
 92
        7
 72
     1
 73
     1
 93
        2
 10
-4034.381603877478
 20
2033.123970480759
 42
-1.0
 10
-4074.38915698502
 20
2033.123970480759
 42
-1.0
 97
        0
 92
        7
 72
     1
 73
     1
 93
        2
 10
-3997.041220977113
 20
2224.493432845134
 42
-1.0
 10
-4037.048774084655
 20
2224.493432845134
 42
-1.0
 97
        0
 92
        7
 72
     1
 73
     1
 93
        2
 10
-3999.708391184289
 20
2416.529687761307
 42
-1.0
 10
-3959.700838076747
 20
2416.529687761307
 42
-1.0
 97
        0
 75
     0
 76
     1
 47
2.676158162350435
 98
       13
 10
-4817.668547054458
 20
2036.742482223846
 10
-4849.961886449939
 20
2216.010557905843
 10
-4888.126740368167
 20
2418.789235388161
 10
-4571.064822854499
 20
2415.850382951524
 10
-4562.257541549992
 20
2216.010557905843
 10
-4529.964202154512
 20
2033.803629787216
 10
-4433.084164927273
 20
2036.742482223846
 10
-4327.396865436315
 20
2033.803629787216
 10
-4309.782302827294
 20
2224.827006369371
 10
-4295.10350700004
 20
2418.789235388161
 10
-4048.499782800081
 20
2039.68129837836
 10
-4016.206443404601
 20
2227.765858806007
 10
-3983.913104009119
 20
2409.972750642504
  0
HATCH
  5
182
330
164
100
AcDbEntity
  8
0
 62
   250
100
AcDbHatch
 10
0.0
 20
0.0
 30
0.0
210
0.0
220
0.0
230
1.0
  2
SOLID
 70
     1
 71
     0
 91
       23
 92
        7
 72
     1
 73
     1
 93
        2
 10
-4889.87644782694
 20
2436.533464315071
 42
-1.0
 10
-4889.87644782694
 20
2396.525911207529
 42
-1.0
 97
        0
 92
        7
 72
     1
 73
     1
 93
        2
 10
-4853.202857478365
 20
2204.489656291363
 42
-1.0
 10
-4853.202857478365
 20
2244.497209398905
 42
-1.0
 97
        0
 92
        7
 72
     1
 73
     1
 93
        2
 10
-4817.196059681588
 20
2053.12774703453
 42
-1.0
 10
-4817.196059681588
 20
2013.120193926988
 42
-1.0
 97
        0
 92
        7
 72
     1
 73
     1
 93
        4
 10
-4799.872281014391
 20
2023.122082203874
 42
0.2679491924310617
 10
-4799.872281014391
 20
2043.125858757637
 42
0.0
 10
-4553.800174044245
 20
2043.125858757637
 42
0.2679491924310617
 10
-4553.800174044245
 20
2023.122082203874
 42
0.0
 97
        0
 92
        7
 72
     1
 73
     1
 93
        4
 10
-4835.879078811177
 20
2214.491544568241
 42
0.2679491924311883
 10
-4835.879078811177
 20
2234.495321122019
 42
0.0
 10
-4573.137158046217
 20
2234.495321122019
 42
0.2679491924311883
 10
-4573.137158046217
 20
2214.491544568241
 42
0.0
 97
        0
 92
        7
 72
     1
 73
     1
 93
        4
 10
-4872.552669159752
 20
2406.527799484422
 42
0.2679491924310617
 10
-4872.552669159752
 20
2426.531576038185
 42
0.0
 10
-4592.762484773291
 20
2426.531576038185
 42
0.2679491924310617
 10
-4592.762484773291
 20
2406.527799484422
 42
0.0
 97
        0
 92
        7
 72
     1
 73
     1
 93
        2
 10
-4575.438706106095
 20
2396.525911207536
 42
-1.0
 10
-4575.438706106095
 20
2436.533464315071
 42
-1.0
 97
        0
 92
        7
 72
     1
 73
     1
 93
        2
 10
-4555.81337937903
 20
2204.489656291363
 42
-1.0
 10
-4555.81337937903
 20
2244.497209398905
 42
-1.0
 97
        0
 92
        7
 72
     1
 73
     1
 93
        2
 10
-4536.476395377049
 20
2053.12774703453
 42
-1.0
 10
-4536.476395377049
 20
2013.120193926988
 42
-1.0
 97
        0
 92
        7
 72
     1
 73
     1
 93
        4
 10
-4519.152616709853
 20
2023.122082203874
 42
0.2679491924310617
 10
-4519.152616709853
 20
2043.125858757637
 42
0.0
 10
-4453.114498723614
 20
2043.125858757637
 42
0.2679491924310617
 10
-4453.114498723614
 20
2023.122082203874
 42
0.0
 97
        0
 92
        7
 72
     1
 73
     1
 93
        2
 10
-4435.790720056418
 20
2053.12774703453
 42
-1.0
 10
-4435.790720056418
 20
2013.120193926988
 42
-1.0
 97
        0
 92
        7
 72
     1
 73
     1
 93
        4
 10
-4418.46694138923
 20
2023.122082203874
 42
0.2679491924310617
 10
-4418.46694138923
 20
2043.125858757637
 42
0.0
 10
-4349.094860644018
 20
2043.125858757637
 42
0.2679491924310617
 10
-4349.094860644018
 20
2023.122082203874
 42
0.0
 97
        0
 92
        7
 72
     1
 73
     1
 93
        2
 10
-4331.771081976829
 20
2013.120193926988
 42
-1.0
 10
-4331.771081976829
 20
2053.12774703453
 42
-1.0
 97
        0
 92
        7
 72
     1
 73
     1
 93
        4
 10
-4314.447303309633
 20
2023.122082203874
 42
0.2679491924310617
 10
-4314.447303309633
 20
2043.125858757637
 42
0.0
 10
-4071.709159098445
 20
2043.125858757637
 42
0.2679491924310617
 10
-4071.709159098445
 20
2023.122082203874
 42
0.0
 97
        0
 92
        7
 72
     1
 73
     1
 93
        4
 10
-4538.489600711833
 20
2214.491544568241
 42
0.2679491924311883
 10
-4538.489600711833
 20
2234.495321122019
 42
0.0
 10
-4329.757876642045
 20
2234.495321122019
 42
0.2679491924311883
 10
-4329.757876642045
 20
2214.491544568241
 42
0.0
 97
        0
 92
        7
 72
     1
 73
     1
 93
        4
 10
-4295.110319307659
 20
2214.491544568241
 42
0.2679491924311883
 10
-4295.110319307659
 20
2234.495321122019
 42
0.0
 10
-4034.368776198072
 20
2234.495321122019
 42
0.2679491924311883
 10
-4034.368776198072
 20
2214.491544568241
 42
0.0
 97
        0
 92
        7
 72
     1
 73
     1
 93
        2
 10
-4312.434097974849
 20
2204.489656291363
 42
-1.0
 10
-4312.434097974849
 20
2244.497209398905
 42
-1.0
 97
        0
 92
        7
 72
     1
 73
     1
 93
        2
 10
-4054.385380431249
 20
2013.120193926988
 42
-1.0
 10
-4054.385380431249
 20
2053.12774703453
 42
-1.0
 97
        0
 92
        7
 72
     1
 73
     1
 93
        2
 10
-4017.044997530883
 20
2244.497209398905
 42
-1.0
 10
-4017.044997530883
 20
2204.489656291363
 42
-1.0
 97
        0
 92
        7
 72
     1
 73
     1
 93
        2
 10
-3979.704614630518
 20
2396.525911207536
 42
-1.0
 10
-3979.704614630518
 20
2436.533464315071
 42
-1.0
 97
        0
 92
        7
 72
     1
 73
     1
 93
        4
 10
-4275.773335305679
 20
2406.527799484422
 42
0.2679491924310617
 10
-4275.773335305679
 20
2426.531576038185
 42
0.0
 10
-3997.028393297714
 20
2426.531576038185
 42
0.2679491924310617
 10
-3997.028393297714
 20
2406.527799484422
 42
0.0
 97
        0
 92
        7
 72
     1
 73
     1
 93
        2
 10
-4293.097113972875
 20
2396.525911207536
 42
-1.0
 10
-4293.097113972875
 20
2436.533464315071
 42
-1.0
 97
        0
 92
        7
 72
     1
 73
     1
 93
        4
 10
-4558.114927438899
 20
2406.527799484422
 42
0.2679491924310617
 10
-4558.114927438899
 20
2426.531576038185
 42
0.0
 10
-4310.420892640071
 20
2426.531576038185
 42
0.2679491924310617
 10
-4310.420892640071
 20
2406.527799484422
 42
0.0
 97
        0
 75
     0
 76
     1
 47
2.764541729509131
 98
       23
 10
-4892.905865483274
 20
2419.610009706943
 10
-4851.437757454016
 20
2223.122798495278
 10
-4818.263248181658
 20
2040.472684172775
 10
-4740.856078920279
 20
2032.17042603928
 10
-4707.68156964792
 20
2225.890217873107
 10
-4713.210654526647
 20
2408.54029591348
 10
-4572.219037721104
 20
2414.075170951277
 10
-4550.102698206199
 20
2220.355379117441
 10
-4539.044528448747
 20
2032.17042603928
 10
-4478.224613823545
 20
2034.937845417109
 10
-4436.756486753493
 20
2032.17042603928
 10
-4378.701105047261
 20
2029.402970379313
 10
-4326.174808219755
 20
2032.17042603928
 10
-4279.177596270976
 20
2029.402970379313
 10
-4472.69552894482
 20
2223.122798495278
 10
-4201.770427009597
 20
2223.122798495278
 10
-4306.823020664608
 20
2223.122798495278
 10
-4046.956088486844
 20
2029.402970379313
 10
-4016.546131174243
 20
2225.890217873107
 10
-3977.842556063948
 20
2411.307751573447
 10
-4024.839768012728
 20
2416.842590329113
 10
-4290.235766028429
 20
2414.075170951277
 10
-4351.05568065363
 20
2419.610009706943
  0
HATCH
  5
183
330
164
100
AcDbEntity
  8
0
 62
    50
100
AcDbHatch
 10
0.0
 20
0.0
 30
0.0
210
0.0
220
0.0
230
1.0
  2
SOLID
 70
     1
 71
     0
 91
       15
 92
        7
 72
     1
 73
     1
 93
        5
 10
-4944.553437073908
 20
2647.239910681426
 42
0.0
 10
-4924.549660520137
 20
2652.574251095764
 42
0.0
 10
-4883.213157460563
 20
2435.391067294796
 42
0.0851023481420786
 10
-4889.87644782694
 20
2436.533464315071
 42
0.1859621584946757
 10
-4903.29736566456
 20
2431.363097376394
 42
0.0
 97
        0
 92
        7
 72
     1
 73
     1
 93
        6
 10
-4896.881738193918
 20
2397.7926393468
 42
0.0896850285161526
 10
-4889.87644782694
 20
2396.525911207536
 42
0.1808726405839401
 10
-4876.750264629442
 20
2401.434841254006
 42
0.0
 10
-4846.671655318703
 20
2243.400957134756
 42
0.0833413142280533
 10
-4853.202857478365
 20
2244.497209398905
 42
0.1855709679467075
 10
-4866.601323479478
 20
2239.347125491418
 42
0.0
 97
        0
 92
        7
 72
     1
 73
     1
 93
        6
 10
-4860.179798843641
 20
2205.745809913176
 42
0.0893038586945105
 10
-4853.202857478365
 20
2204.489656291363
 42
0.1790673735504051
 10
-4840.182575705879
 20
2209.307144984755
 42
0.0
 10
-4810.217750187712
 20
2051.871084205827
 42
0.0893222485011883
 10
-4817.196059681588
 20
2053.12774703453
 42
0.1772621847634118
 10
-4830.109740712771
 20
2048.401009416294
 42
0.0
 97
        0
 92
        7
 72
     1
 73
     1
 93
        5
 10
-4823.566270409068
 20
2014.161600067207
 42
0.0812013531982661
 10
-4817.196059681588
 20
2013.120193926988
 42
0.1852009961545732
 10
-4803.818858807124
 20
2018.251123639034
 42
0.0
 10
-4773.67675819129
 20
1859.88365436469
 42
0.2685811292006837
 10
-4793.413479159474
 20
1856.3838896636
 42
0.0
 97
        0
 92
        7
 72
     1
 73
     1
 93
        5
 10
-4587.155934568062
 20
2432.742572562696
 42
0.0
 10
-4609.156783522401
 20
2648.573495785007
 42
0.0
 10
-4589.153006968637
 20
2651.240665992176
 42
0.0
 10
-4567.222488711548
 20
2434.768241655147
 42
0.10621125263883
 10
-4575.438706106095
 20
2436.533464315071
 42
0.1577406454984231
 97
        0
 92
        7
 72
     1
 73
     1
 93
        6
 10
-4567.633305922452
 20
2240.631599188345
 42
0.0
 10
-4583.654923500649
 20
2398.29113386746
 42
0.1062112526389573
 10
-4575.438706106095
 20
2396.525911207536
 42
0.1577406454982801
 10
-4563.721477644143
 20
2400.316802959904
 42
0.0
 10
-4547.712697590093
 20
2242.783594981309
 42
0.1046122499629626
 10
-4555.81337937903
 20
2244.497209398905
 42
0.1593677876891822
 97
        0
 92
        7
 72
     1
 73
     1
 93
        6
 10
-4548.193623839008
 20
2049.336855282156
 42
0.0
 10
-4564.145226218494
 20
2206.3074106122
 42
0.1078166695744589
 10
-4555.81337937903
 20
2204.489656291363
 42
0.1561202689644205
 10
-4544.198942837819
 20
2208.206753004124
 42
0.0
 10
-4528.260177982502
 20
2051.362524374599
 42
0.106211252638881
 10
-4536.476395377049
 20
2053.12774703453
 42
0.1577406454983651
 97
        0
 92
        7
 72
     1
 73
     1
 93
        5
 10
-4445.512421483694
 20
1858.803868504284
 42
0.0
 10
-4445.159615241023
 20
2015.44984024945
 42
0.1224641477092257
 10
-4435.790720056418
 20
2013.120193926988
 42
0.1206628716633466
 10
-4426.54754944488
 20
2015.383765480277
 42
0.0
 10
-4427.252129275326
 20
1858.967043120378
 42
0.2415336677682219
 97
        0
 92
        7
 72
     1
 73
     1
 93
        6
 10
-4320.05385351487
 20
2049.336855282156
 42
0.1577406454983381
 10
-4331.771081976829
 20
2053.12774703453
 42
0.1062112526390083
 10
-4339.987299371383
 20
2051.362524374599
 42
0.0
 10
-4324.04853451606
 20
2208.206753004124
 42
0.1561202689644513
 10
-4312.434097974849
 20
2204.489656291363
 42
0.1078166695745329
 10
-4304.102251135376
 20
2206.3074106122
 42
0.0
 97
        0
 92
        7
 72
     1
 73
     1
 93
        6
 10
-4312.434097974849
 20
2244.497209398905
 42
0.104612249963011
 10
-4320.534779763784
 20
2242.783594981309
 42
0.0
 10
-4304.545409933325
 20
2400.125798100154
 42
0.1535182735215436
 10
-4293.097113972875
 20
2396.525911207536
 42
0.1104223275205014
 10
-4284.578396671164
 20
2398.430446563208
 42
0.0
 10
-4300.614171431418
 20
2240.631599188338
 42
0.1593677876892712
 97
        0
 92
        7
 72
     1
 73
     1
 93
        5
 10
-4293.097113972875
 20
2436.533464315071
 42
0.102044031375449
 10
-4301.0114729503
 20
2434.901241816136
 42
0.0
 10
-4279.09447038524
 20
2650.573873440386
 42
0.0
 10
-4259.09069383147
 20
2648.573495785007
 42
0.0
 10
-4281.11159449942
 20
2432.545255168188
 42
0.1620092734141219
 97
        0
 92
        7
 72
     1
 73
     1
 93
        5
 10
-3979.704614630518
 20
2436.533464315071
 42
0.079198403321382
 10
-3985.923673373781
 20
2435.542167472296
 42
0.0
 10
-3943.697816833741
 20
2652.574251095757
 42
0.0
 10
-3923.67859105895
 20
2648.652355987833
 42
0.0
 10
-3966.252496584722
 20
2431.334808378676
 42
0.1865067590877368
 97
        0
 92
        7
 72
     1
 73
     1
 93
        6
 10
-4003.831787417115
 20
2239.512159652105
 42
0.1823652781536637
 10
-4017.044997530883
 20
2244.497209398905
 42
0.0827944421143663
 10
-4023.535107759355
 20
2243.415101525126
 42
0.0
 10
-3992.633744654852
 20
2401.26572126412
 42
0.1775230658767542
 10
-3979.704614630518
 20
2396.525911207536
 42
0.0878853185701973
 10
-3972.833331833481
 20
2397.743082183493
 42
0.0
 97
        0
 92
        7
 72
     1
 73
     1
 93
        6
 10
-4041.300386260769
 20
2048.254535703898
 42
0.1801690726475175
 10
-4054.385380431249
 20
2053.12774703453
 42
0.0845485779383144
 10
-4061.007173708643
 20
2051.999958672225
 42
0.0
 10
-4030.190928013147
 20
2209.41578090033
 42
0.181210605973591
 10
-4017.044997530883
 20
2204.489656291363
 42
0.0838505500870652
 10
-4010.475562478347
 20
2205.599158593293
 42
0.0
 97
        0
 92
        7
 72
     1
 73
     1
 93
        5
 10
-4078.978519445026
 20
1855.927348405159
 42
0.2684352454930941
 10
-4098.57155447904
 20
1860.113252423456
 42
0.0
 10
-4067.636048421646
 20
2018.138281500214
 42
0.1830103166745941
 10
-4054.385380431249
 20
2013.120193926988
 42
0.0817096404766589
 10
-4047.976883512452
 20
2014.174504956499
 42
0.0
 97
        0
 75
     0
 76
     1
 47
3.667923569414485
 98
       15
 10
-4913.58908562249
 20
2557.315786744286
 10
-4873.241961212498
 20
2322.469854270988
 10
-4836.562698707919
 20
2142.665962101797
 10
-4799.883500548388
 20
1948.184219057577
 10
-4579.808054210985
 20
2491.265338379344
 10
-4561.468422958689
 20
2315.130968642559
 10
-4546.796717956855
 20
2161.013335409232
 10
-4433.091132882768
 20
1973.870477993441
 10
-4319.385483463604
 20
2131.657554040975
 10
-4301.045852211307
 20
2326.13937670338
 10
-4282.706220959011
 20
2527.960084994214
 10
-3967.264820799817
 20
2513.282154501001
 10
-3996.608166458424
 20
2340.817227578423
 10
-4033.287428963016
 20
2138.996519287589
 10
-4069.966691467594
 20
1948.184219057577
  0
LINE
  5
184
330
164
100
AcDbEntity
  8
0
100
AcDbLine
 10
-4553.800174044245
 20
2023.122082203874
 30
0.0
 11
-4799.872281014391
 21
2023.122082203874
 31
0.0
  0
LINE
  5
185
330
164
100
AcDbEntity
  8
0
100
AcDbLine
 10
-4799.872281014391
 20
2043.125858757637
 30
0.0
 11
-4553.800174044245
 21
2043.125858757637
 31
0.0
  0
LINE
  5
186
330
164
100
AcDbEntity
  8
0
100
AcDbLine
 10
-4573.137158046217
 20
2214.491544568241
 30
0.0
 11
-4835.879078811177
 21
2214.491544568241
 31
0.0
  0
LINE
  5
187
330
164
100
AcDbEntity
  8
0
100
AcDbLine
 10
-4835.879078811177
 20
2234.495321122019
 30
0.0
 11
-4573.137158046217
 21
2234.495321122019
 31
0.0
  0
LINE
  5
188
330
164
100
AcDbEntity
  8
0
100
AcDbLine
 10
-4567.222488711548
 20
2434.768241655147
 30
0.0
 11
-4589.153006968637
 21
2651.240665992176
 31
0.0
  0
LINE
  5
189
330
164
100
AcDbEntity
  8
0
100
AcDbLine
 10
-4583.654923500649
 20
2398.29113386746
 30
0.0
 11
-4567.633305922452
 21
2240.631599188345
 31
0.0
  0
CIRCLE
  5
18A
330
164
100
AcDbEntity
  8
0
100
AcDbCircle
 10
-4575.438706106095
 20
2416.529687761307
 30
0.0
 40
20.00377655377027
  0
LINE
  5
18B
330
164
100
AcDbEntity
  8
0
100
AcDbLine
 10
-4903.29736566456
 20
2431.363097376394
 30
0.0
 11
-4944.553437073908
 21
2647.239910681426
 31
0.0
  0
LINE
  5
18C
330
164
100
AcDbEntity
  8
0
100
AcDbLine
 10
-4609.156783522401
 20
2648.573495785007
 30
0.0
 11
-4587.155934568062
 21
2432.742572562696
 31
0.0
  0
LINE
  5
18D
330
164
100
AcDbEntity
  8
0
100
AcDbLine
 10
-4924.549660520137
 20
2652.574251095764
 30
0.0
 11
-4883.213157460563
 21
2435.391067294796
 31
0.0
  0
LINE
  5
18E
330
164
100
AcDbEntity
  8
0
100
AcDbLine
 10
-4830.109740712771
 20
2048.401009416294
 30
0.0
 11
-4860.179798843641
 21
2205.745809913176
 31
0.0
  0
LINE
  5
18F
330
164
100
AcDbEntity
  8
0
100
AcDbLine
 10
-4840.182575705879
 20
2209.307144984755
 30
0.0
 11
-4810.217750187712
 21
2051.871084205827
 31
0.0
  0
LINE
  5
190
330
164
100
AcDbEntity
  8
0
100
AcDbLine
 10
-4803.818858807124
 20
2018.251123639034
 30
0.0
 11
-4773.319063932871
 21
1858.004318375438
 31
0.0
  0
LINE
  5
191
330
164
100
AcDbEntity
  8
0
100
AcDbLine
 10
-4792.529122058378
 20
1851.756396393262
 30
0.0
 11
-4823.566270409068
 21
2014.161600067207
 31
0.0
  0
ARC
  5
192
330
164
100
AcDbEntity
  8
0
100
AcDbCircle
 10
-4780.522469333013
 20
1841.087715564594
 30
0.0
 40
20.00377655376609
100
AcDbArc
 50
32.23095263545586
 51
147.7690473645441
  0
CIRCLE
  5
193
330
164
100
AcDbEntity
  8
0
100
AcDbCircle
 10
-4817.196059681588
 20
2033.123970480759
 30
0.0
 40
20.00377655377027
  0
LINE
  5
194
330
164
100
AcDbEntity
  8
0
100
AcDbLine
 10
-4876.750264629442
 20
2401.434841254006
 30
0.0
 11
-4846.671655318703
 21
2243.400957134756
 31
0.0
  0
LINE
  5
195
330
164
100
AcDbEntity
  8
0
100
AcDbLine
 10
-4872.552669159745
 20
2406.527799484422
 30
0.0
 11
-4592.762484773291
 21
2406.527799484422
 31
0.0
  0
LINE
  5
196
330
164
100
AcDbEntity
  8
0
100
AcDbLine
 10
-4872.552669159745
 20
2426.531576038185
 30
0.0
 11
-4592.762484773291
 21
2426.531576038185
 31
0.0
  0
CIRCLE
  5
197
330
164
100
AcDbEntity
  8
0
100
AcDbCircle
 10
-4853.202857478365
 20
2224.493432845134
 30
0.0
 40
20.00377655377027
  0
LINE
  5
198
330
164
100
AcDbEntity
  8
0
100
AcDbLine
 10
-4866.601323479478
 20
2239.347125491418
 30
0.0
 11
-4896.881738193918
 21
2397.7926393468
 31
0.0
  0
CIRCLE
  5
199
330
164
100
AcDbEntity
  8
0
100
AcDbCircle
 10
-4889.87644782694
 20
2416.529687761307
 30
0.0
 40
20.00377655377027
  0
LINE
  5
19A
330
164
100
AcDbEntity
  8
0
100
AcDbLine
 10
-4944.553437073908
 20
2647.239910681426
 30
0.0
 11
-4924.549660520137
 21
2652.574251095764
 31
0.0
  0
LINE
  5
19B
330
164
100
AcDbEntity
  8
0
100
AcDbLine
 10
-4589.153006968637
 20
2651.240665992176
 30
0.0
 11
-4609.156783522401
 21
2648.573495785007
 31
0.0
  0
LINE
  5
19C
330
164
100
AcDbEntity
  8
0
100
AcDbLine
 10
-3923.67859105895
 20
2648.652355987833
 30
0.0
 11
-3966.252496584722
 21
2431.334808378676
 31
0.0
  0
LINE
  5
19D
330
164
100
AcDbEntity
  8
0
100
AcDbLine
 10
-3985.923673373781
 20
2435.542167472296
 30
0.0
 11
-3943.697816833741
 21
2652.574251095764
 31
0.0
  0
LINE
  5
19E
330
164
100
AcDbEntity
  8
0
100
AcDbLine
 10
-4259.09069383147
 20
2648.573495785007
 30
0.0
 11
-4281.11159449942
 21
2432.545255168188
 31
0.0
  0
LINE
  5
19F
330
164
100
AcDbEntity
  8
0
100
AcDbLine
 10
-4301.0114729503
 20
2434.901241816136
 30
0.0
 11
-4279.09447038524
 21
2650.573873440386
 31
0.0
  0
LINE
  5
1A0
330
164
100
AcDbEntity
  8
0
100
AcDbLine
 10
-4034.368776198072
 20
2214.491544568241
 30
0.0
 11
-4295.110319307659
 21
2214.491544568241
 31
0.0
  0
LINE
  5
1A1
330
164
100
AcDbEntity
  8
0
100
AcDbLine
 10
-4295.110319307659
 20
2234.495321122019
 30
0.0
 11
-4034.368776198072
 21
2234.495321122019
 31
0.0
  0
LINE
  5
1A2
330
164
100
AcDbEntity
  8
0
100
AcDbLine
 10
-3997.028393297714
 20
2406.527799484422
 30
0.0
 11
-4275.773335305679
 21
2406.527799484422
 31
0.0
  0
LINE
  5
1A3
330
164
100
AcDbEntity
  8
0
100
AcDbLine
 10
-4275.773335305679
 20
2426.531576038185
 30
0.0
 11
-3997.028393297714
 21
2426.531576038185
 31
0.0
  0
LINE
  5
1A4
330
164
100
AcDbEntity
  8
0
100
AcDbLine
 10
-4010.475562478347
 20
2205.599158593293
 30
0.0
 11
-4041.300386260769
 21
2048.254535703898
 31
0.0
  0
LINE
  5
1A5
330
164
100
AcDbEntity
  8
0
100
AcDbLine
 10
-4061.007173708643
 20
2051.999958672233
 30
0.0
 11
-4030.190928013147
 21
2209.41578090033
 31
0.0
  0
CIRCLE
  5
1A6
330
164
100
AcDbEntity
  8
0
100
AcDbCircle
 10
-4054.385380431249
 20
2033.123970480759
 30
0.0
 40
20.00377655377027
  0
LINE
  5
1A7
330
164
100
AcDbEntity
  8
0
100
AcDbLine
 10
-4320.05385351487
 20
2049.336855282156
 30
0.0
 11
-4304.102251135376
 21
2206.3074106122
 31
0.0
  0
LINE
  5
1A8
330
164
100
AcDbEntity
  8
0
100
AcDbLine
 10
-4324.04853451606
 20
2208.206753004124
 30
0.0
 11
-4339.987299371383
 21
2051.362524374592
 31
0.0
  0
LINE
  5
1A9
330
164
100
AcDbEntity
  8
0
100
AcDbLine
 10
-4528.260177982502
 20
2051.362524374599
 30
0.0
 11
-4544.198942837819
 21
2208.206753004124
 31
0.0
  0
LINE
  5
1AA
330
164
100
AcDbEntity
  8
0
100
AcDbLine
 10
-4564.145226218494
 20
2206.3074106122
 30
0.0
 11
-4548.193623839008
 21
2049.336855282156
 31
0.0
  0
LINE
  5
1AB
330
164
100
AcDbEntity
  8
0
100
AcDbLine
 10
-4071.709159098445
 20
2023.122082203874
 30
0.0
 11
-4314.447303309633
 21
2023.122082203874
 31
0.0
  0
LINE
  5
1AC
330
164
100
AcDbEntity
  8
0
100
AcDbLine
 10
-4314.447303309633
 20
2043.125858757637
 30
0.0
 11
-4071.709159098445
 21
2043.125858757637
 31
0.0
  0
LINE
  5
1AD
330
164
100
AcDbEntity
  8
0
100
AcDbLine
 10
-4427.252129275326
 20
1858.967043120378
 30
0.0
 11
-4426.54754944488
 21
2015.383765480277
 31
0.0
  0
LINE
  5
1AE
330
164
100
AcDbEntity
  8
0
100
AcDbLine
 10
-4445.159615241023
 20
2015.44984024945
 30
0.0
 11
-4445.512421483694
 21
1858.803868504277
 31
0.0
  0
ARC
  5
1AF
330
164
100
AcDbEntity
  8
0
100
AcDbCircle
 10
-4436.223234144065
 20
1841.087715564594
 30
0.0
 40
20.00377655377027
100
AcDbArc
 50
32.23095263545586
 51
147.7690473645441
  0
CIRCLE
  5
1B0
330
164
100
AcDbEntity
  8
0
100
AcDbCircle
 10
-4435.790720056418
 20
2033.123970480759
 30
0.0
 40
20.00377655377027
  0
LINE
  5
1B1
330
164
100
AcDbEntity
  8
0
100
AcDbLine
 10
-4519.152616709853
 20
2023.122082203874
 30
0.0
 11
-4453.114498723614
 21
2023.122082203874
 31
0.0
  0
LINE
  5
1B2
330
164
100
AcDbEntity
  8
0
100
AcDbLine
 10
-4519.152616709853
 20
2043.125858757637
 30
0.0
 11
-4453.114498723614
 21
2043.125858757637
 31
0.0
  0
CIRCLE
  5
1B3
330
164
100
AcDbEntity
  8
0
100
AcDbCircle
 10
-4536.476395377049
 20
2033.123970480759
 30
0.0
 40
20.00377655377027
  0
LINE
  5
1B4
330
164
100
AcDbEntity
  8
0
100
AcDbLine
 10
-4418.466941389222
 20
2023.122082203874
 30
0.0
 11
-4349.094860644025
 21
2023.122082203874
 31
0.0
  0
LINE
  5
1B5
330
164
100
AcDbEntity
  8
0
100
AcDbLine
 10
-4418.466941389222
 20
2043.125858757637
 30
0.0
 11
-4349.094860644025
 21
2043.125858757637
 31
0.0
  0
CIRCLE
  5
1B6
330
164
100
AcDbEntity
  8
0
100
AcDbCircle
 10
-4331.771081976829
 20
2033.123970480759
 30
0.0
 40
20.00377655377027
  0
LINE
  5
1B7
330
164
100
AcDbEntity
  8
0
100
AcDbLine
 10
-4047.976883512452
 20
2014.174504956499
 30
0.0
 11
-4079.037177761635
 21
1855.627928341266
 31
0.0
  0
LINE
  5
1B8
330
164
100
AcDbEntity
  8
0
100
AcDbLine
 10
-4098.928398903601
 20
1858.290416538271
 30
0.0
 11
-4067.636048421646
 21
2018.138281500214
 31
0.0
  0
ARC
  5
1B9
330
164
100
AcDbEntity
  8
0
100
AcDbCircle
 10
-4092.392555883406
 20
1841.087715564594
 30
0.0
 40
20.00377655376609
100
AcDbArc
 50
32.23095263545586
 51
147.7690473645441
  0
LINE
  5
1BA
330
164
100
AcDbEntity
  8
0
100
AcDbLine
 10
-4558.114927438899
 20
2426.531576038185
 30
0.0
 11
-4307.09975756051
 21
2426.531576038185
 31
0.0
  0
LINE
  5
1BB
330
164
100
AcDbEntity
  8
0
100
AcDbLine
 10
-4304.545409933325
 20
2400.125798100154
 30
0.0
 11
-4320.534779763784
 21
2242.783594981309
 31
0.0
  0
CIRCLE
  5
1BC
330
164
100
AcDbEntity
  8
0
100
AcDbCircle
 10
-4293.097113972875
 20
2416.529687761307
 30
0.0
 40
20.00377655377027
  0
CIRCLE
  5
1BD
330
164
100
AcDbEntity
  8
0
100
AcDbCircle
 10
-4312.434097974849
 20
2224.493432845134
 30
0.0
 40
20.00377655377027
  0
LINE
  5
1BE
330
164
100
AcDbEntity
  8
0
100
AcDbLine
 10
-4547.712697590093
 20
2242.783594981309
 30
0.0
 11
-4563.721477644143
 21
2400.316802959904
 31
0.0
  0
LINE
  5
1BF
330
164
100
AcDbEntity
  8
0
100
AcDbLine
 10
-4329.757876642045
 20
2214.491544568241
 30
0.0
 11
-4538.489600711833
 21
2214.491544568241
 31
0.0
  0
LINE
  5
1C0
330
164
100
AcDbEntity
  8
0
100
AcDbLine
 10
-4538.489600711833
 20
2234.495321122019
 30
0.0
 11
-4329.757876642045
 21
2234.495321122019
 31
0.0
  0
CIRCLE
  5
1C1
330
164
100
AcDbEntity
  8
0
100
AcDbCircle
 10
-4555.81337937903
 20
2224.493432845134
 30
0.0
 40
20.00377655377027
  0
LINE
  5
1C2
330
164
100
AcDbEntity
  8
0
100
AcDbLine
 10
-4558.114927438899
 20
2406.527799484422
 30
0.0
 11
-4310.420892640071
 21
2406.527799484422
 31
0.0
  0
LINE
  5
1C3
330
164
100
AcDbEntity
  8
0
100
AcDbLine
 10
-4300.614171431418
 20
2240.631599188338
 30
0.0
 11
-4284.578396671164
 21
2398.430446563208
 31
0.0
  0
LINE
  5
1C4
330
164
100
AcDbEntity
  8
0
100
AcDbLine
 10
-3972.833331833481
 20
2397.743082183493
 30
0.0
 11
-4003.831787417115
 21
2239.512159652105
 31
0.0
  0
LINE
  5
1C5
330
164
100
AcDbEntity
  8
0
100
AcDbLine
 10
-4023.535107759355
 20
2243.415101525126
 30
0.0
 11
-3992.633744654852
 21
2401.265721264127
 31
0.0
  0
CIRCLE
  5
1C6
330
164
100
AcDbEntity
  8
0
100
AcDbCircle
 10
-4017.044997530883
 20
2224.493432845134
 30
0.0
 40
20.00377655377027
  0
CIRCLE
  5
1C7
330
164
100
AcDbEntity
  8
0
100
AcDbCircle
 10
-3979.704614630518
 20
2416.529687761307
 30
0.0
 40
20.00377655377027
  0
LINE
  5
1C8
330
164
100
AcDbEntity
  8
0
100
AcDbLine
 10
-4279.09447038524
 20
2650.573873440386
 30
0.0
 11
-4259.09069383147
 21
2648.573495785007
 31
0.0
  0
LINE
  5
1C9
330
164
100
AcDbEntity
  8
0
100
AcDbLine
 10
-3943.697816833741
 20
2652.574251095764
 30
0.0
 11
-3923.67859105895
 21
2648.652355987833
 31
0.0
  0
HATCH
  5
1CA
330
164
100
AcDbEntity
  8
0
 62
   150
100
AcDbHatch
 10
0.0
 20
0.0
 30
0.0
210
0.0
220
0.0
230
1.0
  2
SOLID
 70
     1
 71
     0
 91
        2
 92
        7
 72
     0
 73
     1
 93
        4
 10
-1997.33035815215
 20
1002.929477961726
 10
-2926.839175350551
 20
1002.929477961726
 10
-2926.839175350547
 20
1022.2664619637
 10
-1997.330358152146
 20
1022.2664619637
 97
        0
 92
        7
 72
     0
 73
     1
 93
        4
 10
-1997.330358152154
 20
1520.36049815252
 10
-2926.839175350558
 20
1520.36049815252
 10
-2926.839175350551
 20
1539.697482154501
 10
-1997.33035815215
 20
1539.697482154508
 97
        0
 75
     0
 76
     1
 47
2.231880503813954
 98
        2
 10
-2370.289925671057
 20
1011.73627375505
 10
-2473.063544342154
 20
1536.228236318005
  0
LINE
  5
1CB
330
164
100
AcDbEntity
  8
0
100
AcDbLine
 10
-2926.839175350552
 20
1002.929477961726
 30
0.0
 11
-2926.839175350552
 21
1022.2664619637
 31
0.0
  0
LINE
  5
1CC
330
164
100
AcDbEntity
  8
0
100
AcDbLine
 10
-2926.839175350552
 20
1539.697482154501
 30
0.0
 11
-2926.839175350552
 21
1520.36049815252
 31
0.0
  0
LINE
  5
1CD
330
164
100
AcDbEntity
  8
0
100
AcDbLine
 10
-2081.346219677973
 20
1034.935520447754
 30
0.0
 11
-2084.013389885142
 21
1050.938541690775
 31
0.0
  0
LINE
  5
1CE
330
164
100
AcDbEntity
  8
0
100
AcDbLine
 10
-2081.346219677973
 20
1022.2664619637
 30
0.0
 11
-2081.346219677973
 21
1034.935520447754
 31
0.0
  0
LINE
  5
1CF
330
164
100
AcDbEntity
  8
0
100
AcDbLine
 10
-1997.33035815215
 20
1002.929477961726
 30
0.0
 11
-1997.330358152146
 21
1022.2664619637
 31
0.0
  0
LINE
  5
1D0
330
164
100
AcDbEntity
  8
0
100
AcDbLine
 10
-2176.030762032474
 20
1395.003498415571
 30
0.0
 11
-2161.361325893041
 21
1423.008785590849
 31
0.0
  0
LINE
  5
1D1
330
164
100
AcDbEntity
  8
0
100
AcDbLine
 10
-2105.350751542497
 20
1078.277036314255
 30
0.0
 11
-2132.022453614183
 21
1093.613265005471
 31
0.0
  0
LINE
  5
1D2
330
164
100
AcDbEntity
  8
0
100
AcDbLine
 10
-2181.365102446812
 20
1179.629504186676
 30
0.0
 11
-2183.032083826292
 21
1271.646876334009
 31
0.0
  0
LINE
  5
1D3
330
164
100
AcDbEntity
  8
0
100
AcDbLine
 10
-2156.693778030501
 20
1114.28383411104
 30
0.0
 11
-2174.030384377096
 21
1141.62232873452
 31
0.0
  0
LINE
  5
1D4
330
164
100
AcDbEntity
  8
0
100
AcDbLine
 10
-2132.022453614183
 20
1093.613265005471
 30
0.0
 11
-2156.693778030501
 21
1114.28383411104
 31
0.0
  0
LINE
  5
1D5
330
164
100
AcDbEntity
  8
0
100
AcDbLine
 10
-2174.030384377096
 20
1141.62232873452
 30
0.0
 11
-2181.365102446812
 21
1179.629504186676
 31
0.0
  0
LINE
  5
1D6
330
164
100
AcDbEntity
  8
0
100
AcDbLine
 10
-2183.032083826292
 20
1271.646876334009
 30
0.0
 11
-2181.365102446812
 21
1362.997455929544
 31
0.0
  0
LINE
  5
1D7
330
164
100
AcDbEntity
  8
0
100
AcDbLine
 10
-2181.365102446812
 20
1362.997455929544
 30
0.0
 11
-2176.030762032474
 21
1395.003498415571
 31
0.0
  0
LINE
  5
1D8
330
164
100
AcDbEntity
  8
0
100
AcDbLine
 10
-2091.348107954862
 20
1064.941185278403
 30
0.0
 11
-2105.350751542497
 21
1078.277036314255
 31
0.0
  0
LINE
  5
1D9
330
164
100
AcDbEntity
  8
0
100
AcDbLine
 10
-2084.013389885142
 20
1050.938541690775
 30
0.0
 11
-2091.348107954862
 21
1064.941185278403
 31
0.0
  0
LINE
  5
1DA
330
164
100
AcDbEntity
  8
0
100
AcDbLine
 10
-2132.022453614183
 20
1449.013695110748
 30
0.0
 11
-2105.350751542497
 21
1465.016716353762
 31
0.0
  0
LINE
  5
1DB
330
164
100
AcDbEntity
  8
0
100
AcDbLine
 10
-2161.361325893041
 20
1423.008785590849
 30
0.0
 11
-2132.022453614183
 21
1449.013695110748
 31
0.0
  0
LINE
  5
1DC
330
164
100
AcDbEntity
  8
0
100
AcDbLine
 10
-2084.680182436935
 20
1489.021248218283
 30
0.0
 11
-2081.346219677973
 21
1507.691439668466
 31
0.0
  0
LINE
  5
1DD
330
164
100
AcDbEntity
  8
0
100
AcDbLine
 10
-2093.348485610233
 20
1475.018604630648
 30
0.0
 11
-2084.680182436935
 21
1489.021248218283
 31
0.0
  0
LINE
  5
1DE
330
164
100
AcDbEntity
  8
0
100
AcDbLine
 10
-2105.350751542497
 20
1465.016716353762
 30
0.0
 11
-2093.348485610233
 21
1475.018604630648
 31
0.0
  0
LINE
  5
1DF
330
164
100
AcDbEntity
  8
0
100
AcDbLine
 10
-2081.346219677973
 20
1507.691439668466
 30
0.0
 11
-2081.346219677973
 21
1520.36049815252
 31
0.0
  0
LINE
  5
1E0
330
164
100
AcDbEntity
  8
0
100
AcDbLine
 10
-1997.33035815215
 20
1539.697482154508
 30
0.0
 11
-1997.330358152154
 21
1520.36049815252
 31
0.0
  0
LWPOLYLINE
  5
1E1
330
164
100
AcDbEntity
  8
0
 62
     7
100
AcDbPolyline
 90
       39
 70
     1
 43
0.0
 10
-883.0506177876122
 20
2542.044856874432
 10
-1251.521969837422
 20
2840.663819910056
 10
-3192.254177948103
 20
3958.88414737875
 10
-3553.158187854709
 20
4108.484680517456
 10
-3940.256843641633
 20
4159.127662552739
 10
-4939.728109786218
 20
4159.127662552739
 10
-5274.437473812504
 20
4121.290951836723
 10
-5592.265843827034
 20
4009.527129414033
 10
-5877.496432301606
 20
3829.657227702511
 10
-6114.994554949826
 20
3590.994898570726
 10
-6293.118146935991
 20
3304.600103612581
 10
-6829.817335861618
 20
2179.394537242471
 10
-6939.252745317168
 20
1864.476683436867
 10
-6976.5073527914
 20
1532.677835619506
 10
-6983.492591692819
 20
1009.94912449671
 10
-6982.910488451034
 20
1050.114248179867
 10
-6952.641119878219
 20
707.8375420103766
 10
-6846.116226631591
 20
381.859726610859
 10
-6668.574737887215
 20
87.89758950951364
 10
-6429.330305513642
 20
-158.3320817654785
 10
-6140.607097588359
 20
-344.0230158948434
 10
-5817.539798397767
 20
-459.2794577682434
 10
-5476.42729871185
 20
-498.2803749678278
 10
-5332.065694749206
 20
-498.2803749678278
 10
-5071.283442429594
 20
-571.0432801909337
 10
-4802.351744724994
 20
-594.909513104114
 10
-4072.976382768579
 20
-594.909513104114
 10
-3803.462581822194
 20
-571.0432801909337
 10
-3543.262432744366
 20
-498.2803749678278
 10
-1999.524635530951
 20
-498.2803749678278
 10
-1686.935194692489
 20
-465.6825934278749
 10
-1388.316231656861
 20
-367.8892488080236
 10
-1116.474017743335
 20
-210.7213735261138
 10
-883.0506177876122
 20
0.0
 10
0.0
 20
0.0
 10
0.0
 20
0.0
 10
0.0
 20
2542.044856874432
 10
-883.0506177876122
 20
2542.044856874432
 10
-882.4685145458278
 20
2542.044856874432
  0
POLYLINE
  5
1E2
330
164
100
AcDbEntity
  8
0
 62
     7
100
AcDb2dPolyline
 66
     1
 10
0.0
 20
0.0
 30
0.0
  0
VERTEX
  5
1E3
330
1E2
100
AcDbEntity
  8
0
 62
     7
100
AcDbVertex
100
AcDb2dVertex
 10
-6979.999972242109
 20
1271.31348005811
 30
0.0
  0
VERTEX
  5
1E4
330
1E2
100
AcDbEntity
  8
0
 62
     7
100
AcDbVertex
100
AcDb2dVertex
 10
-6979.417869000325
 20
1271.31348005811
 30
0.0
  0
SEQEND
  5
1E5
330
1E2
100
AcDbEntity
  8
0
 62
     7
  0
ENDBLK
  5
166
330
164
100
AcDbEntity
  8
0
100
AcDbBlockEnd
  0
ENDSEC
  0
SECTION
  2
ENTITIES
  0
INSERT
  5
1E6
330
1F
100
AcDbEntity
  8
0
100
AcDbBlockReference
  2
ADKQ
 10
6983.492572870648
 20
594.9095070199837
 30
0.0
  0
MTEXT
  5
1E7
330
1F
100
AcDbEntity
  8
0
100
AcDbMText
 10
1596.054500734761
 20
4234.079617551667
 30
0.0
 40
250.0
 41
10348.58999999999
 71
     1
 72
     5
  1
{\Fisocp.shx;Hoogte: 315cm\PVrije Valhoogte:90cm}
1001
ACAD
1000
MTEXTBEGIN
1070
    73
1070
     1
1070
    44
1040
1.0
1070
    74
1070
     0
1000
MTEXTEND
  0
ENDSEC
  0
SECTION
  2
OBJECTS
  0
DICTIONARY
  5
C
330
0
100
AcDbDictionary
  3
ACAD_GROUP
350
D
  3
ACAD_LAYOUT
350
1A
  3
ACAD_MLINESTYLE
350
17
  3
ACAD_PLOTSETTINGS
350
19
  3
ACAD_PLOTSTYLENAME
350
E
  3
ACDBHEADERROUNDTRIPXREC
350
1EA
  0
DICTIONARY
  5
20B
330
1F
100
AcDbDictionary
280
     1
  3
ACAD_LAYOUTSELFREF
360
20C
  0
DICTIONARY
  5
20D
330
50
100
AcDbDictionary
280
     1
  3
ACAD_LAYOUTSELFREF
360
20E
  0
DICTIONARY
  5
D
102
{ACAD_REACTORS
330
C
102
}
330
C
100
AcDbDictionary
  0
DICTIONARY
  5
1A
102
{ACAD_REACTORS
330
C
102
}
330
C
100
AcDbDictionary
  0
DICTIONARY
  5
17
102
{ACAD_REACTORS
330
C
102
}
330
C
100
AcDbDictionary
  3
STANDARD
350
18
  0
DICTIONARY
  5
19
102
{ACAD_REACTORS
330
C
102
}
330
C
100
AcDbDictionary
  0
ACDBDICTIONARYWDFLT
  5
E
102
{ACAD_REACTORS
330
C
102
}
330
C
100
AcDbDictionary
281
     1
  3
Normal
350
F
100
AcDbDictionaryWithDefault
340
F
  0
DICTIONARY
  5
1EA
102
{ACAD_REACTORS
330
C
102
}
330
C
100
AcDbDictionary
  3
CEPSNTYPE
350
1F4
  3
DIMSTYLEDATA
350
1F8
  3
FINGERPRINTGUID
350
1F5
  3
HYPERLINKBASE
350
1ED
  3
INSUNITS
350
1F3
  3
LAYOUTDICT
350
1EF
  3
LWETCUNION
350
1F2
  3
PLOTSETDICT
350
1F0
  3
PLOTSTYLNAMDICT
350
1F1
  3
PSVPSCALE
350
1F7
  3
PUCSBASE
350
1FB
  3
PUCSORGBACK
350
201
  3
PUCSORGBOTTOM
350
1FD
  3
PUCSORGFRONT
350
200
  3
PUCSORGLEFT
350
1FE
  3
PUCSORGRIGHT
350
1FF
  3
PUCSORGTOP
350
1FC
  3
PUCSORTHOREF
350
1F9
  3
PUCSORTHOVIEW
350
1FA
  3
STYLESHEET
350
1EE
  3
TSTACKALIGN
350
1EB
  3
TSTACKSIZE
350
1EC
  3
UCSBASE
350
204
  3
UCSORGBACK
350
20A
  3
UCSORGBOTTOM
350
206
  3
UCSORGFRONT
350
209
  3
UCSORGLEFT
350
207
  3
UCSORGRIGHT
350
208
  3
UCSORGTOP
350
205
  3
UCSORTHOREF
350
202
  3
UCSORTHOVIEW
350
203
  3
VERSIONGUID
350
1F6
  0
XRECORD
  5
20C
102
{ACAD_REACTORS
330
20B
102
}
330
20B
100
AcDbXrecord
340
1F
  0
XRECORD
  5
20E
102
{ACAD_REACTORS
330
20D
102
}
330
20D
100
AcDbXrecord
340
50
  0
MLINESTYLE
  5
18
102
{ACAD_REACTORS
330
17
102
}
330
17
100
AcDbMlineStyle
  2
STANDARD
 70
     0
  3

 62
   256
 51
90.0
 52
90.0
 71
     2
 49
0.5
 62
   256
  6
BYLAYER
 49
-0.5
 62
   256
  6
BYLAYER
  0
ACDBPLACEHOLDER
  5
F
102
{ACAD_REACTORS
330
E
102
}
330
E
100
AcDbPlaceHolder
280
     0
  0
XRECORD
  5
1F4
102
{ACAD_REACTORS
330
1EA
102
}
330
1EA
100
AcDbXrecord
 90
        0
  0
XRECORD
  5
1F8
102
{ACAD_REACTORS
330
1EA
102
}
330
1EA
100
AcDbXrecord
1000
DSTYLE
1002
{
1070
   278
 70
    44
1002
}
  0
XRECORD
  5
1F5
102
{ACAD_REACTORS
330
1EA
102
}
330
1EA
100
AcDbXrecord
  1
{FDEAD578-A652-11D2-9A35-0060089B3A3F}
  0
XRECORD
  5
1ED
102
{ACAD_REACTORS
330
1EA
102
}
330
1EA
100
AcDbXrecord
  1

  0
XRECORD
  5
1F3
102
{ACAD_REACTORS
330
1EA
102
}
330
1EA
100
AcDbXrecord
 90
        4
  0
XRECORD
  5
1EF
102
{ACAD_REACTORS
330
1EA
102
}
330
1EA
100
AcDbXrecord
340
1A
  0
XRECORD
  5
1F2
102
{ACAD_REACTORS
330
1EA
102
}
330
1EA
100
AcDbXrecord
 90
    10781
  0
XRECORD
  5
1F0
102
{ACAD_REACTORS
330
1EA
102
}
330
1EA
100
AcDbXrecord
340
19
  0
XRECORD
  5
1F1
102
{ACAD_REACTORS
330
1EA
102
}
330
1EA
100
AcDbXrecord
340
E
  0
XRECORD
  5
1F7
102
{ACAD_REACTORS
330
1EA
102
}
330
1EA
100
AcDbXrecord
 40
0.0
  0
XRECORD
  5
1FB
102
{ACAD_REACTORS
330
1EA
102
}
330
1EA
100
AcDbXrecord
340
0
  0
XRECORD
  5
201
102
{ACAD_REACTORS
330
1EA
102
}
330
1EA
100
AcDbXrecord
 10
0.0
 20
0.0
 30
0.0
  0
XRECORD
  5
1FD
102
{ACAD_REACTORS
330
1EA
102
}
330
1EA
100
AcDbXrecord
 10
0.0
 20
0.0
 30
0.0
  0
XRECORD
  5
200
102
{ACAD_REACTORS
330
1EA
102
}
330
1EA
100
AcDbXrecord
 10
0.0
 20
0.0
 30
0.0
  0
XRECORD
  5
1FE
102
{ACAD_REACTORS
330
1EA
102
}
330
1EA
100
AcDbXrecord
 10
0.0
 20
0.0
 30
0.0
  0
XRECORD
  5
1FF
102
{ACAD_REACTORS
330
1EA
102
}
330
1EA
100
AcDbXrecord
 10
0.0
 20
0.0
 30
0.0
  0
XRECORD
  5
1FC
102
{ACAD_REACTORS
330
1EA
102
}
330
1EA
100
AcDbXrecord
 10
0.0
 20
0.0
 30
0.0
  0
XRECORD
  5
1F9
102
{ACAD_REACTORS
330
1EA
102
}
330
1EA
100
AcDbXrecord
340
0
  0
XRECORD
  5
1FA
102
{ACAD_REACTORS
330
1EA
102
}
330
1EA
100
AcDbXrecord
 70
     0
  0
XRECORD
  5
1EE
102
{ACAD_REACTORS
330
1EA
102
}
330
1EA
100
AcDbXrecord
  1

  0
XRECORD
  5
1EB
102
{ACAD_REACTORS
330
1EA
102
}
330
1EA
100
AcDbXrecord
 90
        1
  0
XRECORD
  5
1EC
102
{ACAD_REACTORS
330
1EA
102
}
330
1EA
100
AcDbXrecord
 90
       70
  0
XRECORD
  5
204
102
{ACAD_REACTORS
330
1EA
102
}
330
1EA
100
AcDbXrecord
340
0
  0
XRECORD
  5
20A
102
{ACAD_REACTORS
330
1EA
102
}
330
1EA
100
AcDbXrecord
 10
0.0
 20
0.0
 30
0.0
  0
XRECORD
  5
206
102
{ACAD_REACTORS
330
1EA
102
}
330
1EA
100
AcDbXrecord
 10
0.0
 20
0.0
 30
0.0
  0
XRECORD
  5
209
102
{ACAD_REACTORS
330
1EA
102
}
330
1EA
100
AcDbXrecord
 10
0.0
 20
0.0
 30
0.0
  0
XRECORD
  5
207
102
{ACAD_REACTORS
330
1EA
102
}
330
1EA
100
AcDbXrecord
 10
0.0
 20
0.0
 30
0.0
  0
XRECORD
  5
208
102
{ACAD_REACTORS
330
1EA
102
}
330
1EA
100
AcDbXrecord
 10
0.0
 20
0.0
 30
0.0
  0
XRECORD
  5
205
102
{ACAD_REACTORS
330
1EA
102
}
330
1EA
100
AcDbXrecord
 10
0.0
 20
0.0
 30
0.0
  0
XRECORD
  5
202
102
{ACAD_REACTORS
330
1EA
102
}
330
1EA
100
AcDbXrecord
340
0
  0
XRECORD
  5
203
102
{ACAD_REACTORS
330
1EA
102
}
330
1EA
100
AcDbXrecord
 70
     0
  0
XRECORD
  5
1F6
102
{ACAD_REACTORS
330
1EA
102
}
330
1EA
100
AcDbXrecord
  1
{448E613F-8DBA-476E-8BC1-01CF927C0974}
  0
ENDSEC
  0
EOF
