  0
SECTION
  2
HEADER
  9
$ACADVER
  1
AC1014
  9
$ACADMAINTVER
 70
     9
  9
$DWGCODEPAGE
  3
ANSI_1252
  9
$INSBASE
 10
0.0
 20
0.0
 30
0.0
  9
$EXTMIN
 10
-0.2340943954477552
 20
-0.2325230696151266
 30
-0.0015258207003583
  9
$EXTMAX
 10
7671.624551878213
 20
7620.129846947505
 30
0.0000000349246037
  9
$LIMMIN
 10
0.0
 20
0.0
  9
$LIMMAX
 10
420.0
 20
297.0
  9
$ORTHOMODE
 70
     0
  9
$REGENMODE
 70
     1
  9
$FILLMODE
 70
     1
  9
$QTEXTMODE
 70
     0
  9
$MIRRTEXT
 70
     1
  9
$DRAGMODE
 70
     2
  9
$LTSCALE
 40
1.0
  9
$OSMODE
 70
   511
  9
$ATTMODE
 70
     1
  9
$TEXTSIZE
 40
2.5
  9
$TRACEWID
 40
1.0
  9
$TEXTSTYLE
  7
STANDARD
  9
$CLAYER
  8
0
  9
$CELTYPE
  6
BYLAYER
  9
$CECOLOR
 62
   256
  9
$CELTSCALE
 40
1.0
  9
$DELOBJ
 70
     1
  9
$DISPSILH
 70
     0
  9
$DIMSCALE
 40
1.0
  9
$DIMASZ
 40
2.5
  9
$DIMEXO
 40
0.625
  9
$DIMDLI
 40
3.75
  9
$DIMRND
 40
0.0
  9
$DIMDLE
 40
0.0
  9
$DIMEXE
 40
1.25
  9
$DIMTP
 40
0.0
  9
$DIMTM
 40
0.0
  9
$DIMTXT
 40
2.5
  9
$DIMCEN
 40
2.5
  9
$DIMTSZ
 40
0.0
  9
$DIMTOL
 70
     0
  9
$DIMLIM
 70
     0
  9
$DIMTIH
 70
     0
  9
$DIMTOH
 70
     0
  9
$DIMSE1
 70
     0
  9
$DIMSE2
 70
     0
  9
$DIMTAD
 70
     1
  9
$DIMZIN
 70
     8
  9
$DIMBLK
  1

  9
$DIMASO
 70
     1
  9
$DIMSHO
 70
     1
  9
$DIMPOST
  1

  9
$DIMAPOST
  1

  9
$DIMALT
 70
     0
  9
$DIMALTD
 70
     3
  9
$DIMALTF
 40
0.03937007874016
  9
$DIMLFAC
 40
1.0
  9
$DIMTOFL
 70
     1
  9
$DIMTVP
 40
0.0
  9
$DIMTIX
 70
     0
  9
$DIMSOXD
 70
     0
  9
$DIMSAH
 70
     0
  9
$DIMBLK1
  1

  9
$DIMBLK2
  1

  9
$DIMSTYLE
  2
ISO-25
  9
$DIMCLRD
 70
     0
  9
$DIMCLRE
 70
     0
  9
$DIMCLRT
 70
     0
  9
$DIMTFAC
 40
1.0
  9
$DIMGAP
 40
0.625
  9
$DIMJUST
 70
     0
  9
$DIMSD1
 70
     0
  9
$DIMSD2
 70
     0
  9
$DIMTOLJ
 70
     0
  9
$DIMTZIN
 70
     8
  9
$DIMALTZ
 70
     0
  9
$DIMALTTZ
 70
     0
  9
$DIMFIT
 70
     3
  9
$DIMUPT
 70
     0
  9
$DIMUNIT
 70
     2
  9
$DIMDEC
 70
     2
  9
$DIMTDEC
 70
     2
  9
$DIMALTU
 70
     2
  9
$DIMALTTD
 70
     3
  9
$DIMTXSTY
  7
STANDARD
  9
$DIMAUNIT
 70
     0
  9
$LUNITS
 70
     2
  9
$LUPREC
 70
     4
  9
$SKETCHINC
 40
1.0
  9
$FILLETRAD
 40
10.0
  9
$AUNITS
 70
     0
  9
$AUPREC
 70
     0
  9
$MENU
  1
.
  9
$ELEVATION
 40
0.0
  9
$PELEVATION
 40
0.0
  9
$THICKNESS
 40
0.0
  9
$LIMCHECK
 70
     0
  9
$BLIPMODE
 70
     0
  9
$CHAMFERA
 40
10.0
  9
$CHAMFERB
 40
10.0
  9
$CHAMFERC
 40
20.0
  9
$CHAMFERD
 40
0.0
  9
$SKPOLY
 70
     0
  9
$TDCREATE
 40
2453124.515709259
  9
$TDUPDATE
 40
2453186.696204954
  9
$TDINDWG
 40
0.0010727778
  9
$TDUSRTIMER
 40
0.0010727778
  9
$USRTIMER
 70
     1
  9
$ANGBASE
 50
0.0
  9
$ANGDIR
 70
     0
  9
$PDMODE
 70
     0
  9
$PDSIZE
 40
0.0
  9
$PLINEWID
 40
0.0
  9
$COORDS
 70
     2
  9
$SPLFRAME
 70
     0
  9
$SPLINETYPE
 70
     6
  9
$SPLINESEGS
 70
     8
  9
$ATTDIA
 70
     0
  9
$ATTREQ
 70
     1
  9
$HANDLING
 70
-16383
  9
$HANDSEED
  5
193
  9
$SURFTAB1
 70
     6
  9
$SURFTAB2
 70
     6
  9
$SURFTYPE
 70
     6
  9
$SURFU
 70
     6
  9
$SURFV
 70
     6
  9
$UCSNAME
  2

  9
$UCSORG
 10
0.0
 20
0.0
 30
0.0
  9
$UCSXDIR
 10
1.0
 20
0.0
 30
0.0
  9
$UCSYDIR
 10
0.0
 20
1.0
 30
0.0
  9
$PUCSNAME
  2

  9
$PUCSORG
 10
0.0
 20
0.0
 30
0.0
  9
$PUCSXDIR
 10
1.0
 20
0.0
 30
0.0
  9
$PUCSYDIR
 10
0.0
 20
1.0
 30
0.0
  9
$USERI1
 70
     0
  9
$USERI2
 70
     0
  9
$USERI3
 70
     0
  9
$USERI4
 70
     0
  9
$USERI5
 70
     0
  9
$USERR1
 40
0.0
  9
$USERR2
 40
0.0
  9
$USERR3
 40
0.0
  9
$USERR4
 40
0.0
  9
$USERR5
 40
0.0
  9
$WORLDVIEW
 70
     1
  9
$SHADEDGE
 70
     3
  9
$SHADEDIF
 70
    70
  9
$TILEMODE
 70
     1
  9
$MAXACTVP
 70
    64
  9
$PINSBASE
 10
0.0
 20
0.0
 30
0.0
  9
$PLIMCHECK
 70
     0
  9
$PEXTMIN
 10
0.0
 20
0.0
 30
0.0
  9
$PEXTMAX
 10
0.0
 20
0.0
 30
0.0
  9
$PLIMMIN
 10
0.0
 20
0.0
  9
$PLIMMAX
 10
12.0
 20
9.0
  9
$UNITMODE
 70
     0
  9
$VISRETAIN
 70
     1
  9
$PLINEGEN
 70
     0
  9
$PSLTSCALE
 70
     1
  9
$TREEDEPTH
 70
  3020
  9
$PICKSTYLE
 70
     0
  9
$CMLSTYLE
  2
STANDARD
  9
$CMLJUST
 70
     0
  9
$CMLSCALE
 40
20.0
  9
$PROXYGRAPHICS
 70
     1
  9
$MEASUREMENT
 70
     1
  0
ENDSEC
  0
SECTION
  2
CLASSES
  0
CLASS
  1
ACDBDICTIONARYWDFLT
  2
AcDbDictionaryWithDefault
  3
AutoCAD 2000
 90
        0
280
     0
281
     0
  0
CLASS
  1
ACDBPLACEHOLDER
  2
AcDbPlaceHolder
  3
AutoCAD 2000
 90
        0
280
     0
281
     0
  0
CLASS
  1
LAYOUT
  2
AcDbLayout
  3
AutoCAD 2000
 90
        0
280
     0
281
     0
  0
CLASS
  1
LONG_TRANSACTION
  2
AcDbLongTransaction
  3
AutoCAD 2000
 90
        0
280
     0
281
     0
  0
CLASS
  1
LWPOLYLINE
  2
AcDbPolyline
  3
AutoCAD 2000
 90
        0
280
     0
281
     1
  0
CLASS
  1
HATCH
  2
AcDbHatch
  3
AutoCAD 2000
 90
        0
280
     0
281
     1
  0
CLASS
  1
XRECORD
  2
AcDbXrecord
  3
AutoCAD 2000
 90
        0
280
     0
281
     0
  0
ENDSEC
  0
SECTION
  2
TABLES
  0
TABLE
  2
VPORT
  5
8
330
0
100
AcDbSymbolTable
 70
     2
  0
VPORT
  5
16A
330
8
100
AcDbSymbolTableRecord
100
AcDbViewportTableRecord
  2
*ACTIVE
 70
     0
 10
0.0
 20
0.0
 11
1.0
 21
1.0
 12
3835.695228741382
 22
3809.948661938944
 13
0.0
 23
0.0
 14
10.0
 24
10.0
 15
10.0
 25
10.0
 16
0.0
 26
0.0
 36
1.0
 17
0.0
 27
0.0
 37
0.0
 40
7710.901328868807
 41
1.720238095238095
 42
50.0
 43
0.0
 44
0.0
 50
0.0
 51
0.0
 71
     0
 72
   100
 73
     1
 74
     3
 75
     0
 76
     0
 77
     0
 78
     0
  0
ENDTAB
  0
TABLE
  2
LTYPE
  5
5
330
0
100
AcDbSymbolTable
 70
     1
  0
LTYPE
  5
14
330
5
100
AcDbSymbolTableRecord
100
AcDbLinetypeTableRecord
  2
BYBLOCK
 70
     0
  3

 72
    65
 73
     0
 40
0.0
  0
LTYPE
  5
15
330
5
100
AcDbSymbolTableRecord
100
AcDbLinetypeTableRecord
  2
BYLAYER
 70
     0
  3

 72
    65
 73
     0
 40
0.0
  0
LTYPE
  5
16
330
5
100
AcDbSymbolTableRecord
100
AcDbLinetypeTableRecord
  2
CONTINUOUS
 70
     0
  3
Solid line
 72
    65
 73
     0
 40
0.0
  0
ENDTAB
  0
TABLE
  2
LAYER
  5
2
330
0
100
AcDbSymbolTable
 70
     1
  0
LAYER
  5
10
330
2
100
AcDbSymbolTableRecord
100
AcDbLayerTableRecord
  2
0
 70
     0
 62
     7
  6
CONTINUOUS
  0
ENDTAB
  0
TABLE
  2
STYLE
  5
3
330
0
100
AcDbSymbolTable
 70
     1
  0
STYLE
  5
11
330
3
100
AcDbSymbolTableRecord
100
AcDbTextStyleTableRecord
  2
STANDARD
 70
     0
 40
0.0
 41
1.0
 50
0.0
 71
     0
 42
2.5
  3
txt
  4

  0
ENDTAB
  0
TABLE
  2
VIEW
  5
6
330
0
100
AcDbSymbolTable
 70
     0
  0
ENDTAB
  0
TABLE
  2
UCS
  5
7
330
0
100
AcDbSymbolTable
 70
     0
  0
ENDTAB
  0
TABLE
  2
APPID
  5
9
330
0
100
AcDbSymbolTable
 70
     2
  0
APPID
  5
12
330
9
100
AcDbSymbolTableRecord
100
AcDbRegAppTableRecord
  2
ACAD
 70
     0
  0
APPID
  5
192
330
9
100
AcDbSymbolTableRecord
100
AcDbRegAppTableRecord
  2
CONTENTBLOCKICON
 70
     0
  0
ENDTAB
  0
TABLE
  2
DIMSTYLE
  5
A
330
0
100
AcDbSymbolTable
 70
     1
  0
DIMSTYLE
105
27
330
A
100
AcDbSymbolTableRecord
100
AcDbDimStyleTableRecord
  2
ISO-25
 70
     0
  3

  4

  5

  6

  7

 40
1.0
 41
2.5
 42
0.625
 43
3.75
 44
1.25
 45
0.0
 46
0.0
 47
0.0
 48
0.0
140
2.5
141
2.5
142
0.0
143
0.03937007874016
144
1.0
145
0.0
146
1.0
147
0.625
 71
     0
 72
     0
 73
     0
 74
     0
 75
     0
 76
     0
 77
     1
 78
     8
170
     0
171
     3
172
     1
173
     0
174
     0
175
     0
176
     0
177
     0
178
     0
270
     2
271
     2
272
     2
273
     2
274
     3
340
11
275
     0
280
     0
281
     0
282
     0
283
     0
284
     8
285
     0
286
     0
287
     3
288
     0
  0
ENDTAB
  0
TABLE
  2
BLOCK_RECORD
  5
1
330
0
100
AcDbSymbolTable
 70
     2
  0
BLOCK_RECORD
  5
1F
102
{ACAD_XDICTIONARY
360
18C
102
}
330
1
100
AcDbSymbolTableRecord
100
AcDbBlockTableRecord
  2
*MODEL_SPACE
  0
BLOCK_RECORD
  5
50
102
{ACAD_XDICTIONARY
360
18E
102
}
330
1
100
AcDbSymbolTableRecord
100
AcDbBlockTableRecord
  2
*PAPER_SPACE
  0
BLOCK_RECORD
  5
10F
330
1
100
AcDbSymbolTableRecord
100
AcDbBlockTableRecord
  2
ADKP
1001
ACAD
1000
DesignCenter Data
1002
{
1070
     1
1070
     4
1002
}
1001
CONTENTBLOCKICON
1071
        0
1004
2800000020000000200000000100080000000000000400000000000000000000000000000000000000000000000080000080000000808000800000008000800080800000C0C0C000C0DCC000F0CAA6000020400000206000002080000020A0000020C0000020E00000400000004020000040400000406000004080000040A0
1004
000040C0000040E00000600000006020000060400000606000006080000060A0000060C0000060E00000800000008020000080400000806000008080000080A0000080C0000080E00000A0000000A0200000A0400000A0600000A0800000A0A00000A0C00000A0E00000C0000000C0200000C0400000C0600000C0800000C0
1004
A00000C0C00000C0E00000E0000000E0200000E0400000E0600000E0800000E0A00000E0C00000E0E00040000000400020004000400040006000400080004000A0004000C0004000E00040200000402020004020400040206000402080004020A0004020C0004020E000404000004040200040404000404060004040800040
1004
40A0004040C0004040E00040600000406020004060400040606000406080004060A0004060C0004060E00040800000408020004080400040806000408080004080A0004080C0004080E00040A0000040A0200040A0400040A0600040A0800040A0A00040A0C00040A0E00040C0000040C0200040C0400040C0600040C08000
1004
40C0A00040C0C00040C0E00040E0000040E0200040E0400040E0600040E0800040E0A00040E0C00040E0E00080000000800020008000400080006000800080008000A0008000C0008000E00080200000802020008020400080206000802080008020A0008020C0008020E00080400000804020008040400080406000804080
1004
008040A0008040C0008040E00080600000806020008060400080606000806080008060A0008060C0008060E00080800000808020008080400080806000808080008080A0008080C0008080E00080A0000080A0200080A0400080A0600080A0800080A0A00080A0C00080A0E00080C0000080C0200080C0400080C0600080C0
1004
800080C0A00080C0C00080C0E00080E0000080E0200080E0400080E0600080E0800080E0A00080E0C00080E0E000C0000000C0002000C0004000C0006000C0008000C000A000C000C000C000E000C0200000C0202000C0204000C0206000C0208000C020A000C020C000C020E000C0400000C0402000C0404000C0406000C0
1004
408000C040A000C040C000C040E000C0600000C0602000C0604000C0606000C0608000C060A000C060C000C060E000C0800000C0802000C0804000C0806000C0808000C080A000C080C000C080E000C0A00000C0A02000C0A04000C0A06000C0A08000C0A0A000C0A0C000C0A0E000C0C00000C0C02000C0C04000C0C06000
1004
C0C08000C0C0A000F0FBFF00A4A0A000808080000000FF0000FF000000FFFF00FF000000FF00FF00FFFF0000FFFFFF00FFFFFFFFFFFFFFFFFFFFFFFFFFFFFFFFFFFFFFFFFFFFFFFFFFFFFFFFFFFFFFFFFFFFFFFFFFFFFFFFFFFFFFFFFFFFFFFFFFFFFFFFFFFFFFFFFFFFFFFFFFFFFFFFFFFFFFFFFF00000000000000000000
1004
000000000000FFFFFFFFFFFFFFFFFFFFFFFFFFFF0000FFFFFFFFFFFFFFFFFFFFFFFFFFFFFFFF00FFFFFFFFFFFFFFFFFFFFFFFF00FFFFFFFFFFFFFFFFFFFFFFFFFFFFFFFFFFFFFF00FFFFFFFFFFFFFFFFFFFFFF00FFFFFFFFFFFFFFFFFFFFFFFFFFFFFFFFFFFFFF00FFFFFFFFFFFFFFFFFFFFFF00FFFFFFFFFFFFFFFFFFFFFF
1004
FFFFFFFFFFFFFFFFFF00FFFFFFFFFFFFFFFFFF00FFFFFFFFFFFFFFFFFFFFFFFFFFFFFFFFFFFFFFFFFF00FFFFFFFFFFFFFFFFFFFF00FFFFFFFFFF00FFFFFFFFFFFFFF0000FFFFFFFFFF00FFFFFFFFFFFFFFFFFFFF00FFFFFFFFFF000000FFFFFF000000FFFFFFFFFFFF00FFFFFFFFFFFFFFFFFFFF00FFFFFFFFFFFFFF000000
1004
0000FFFFFFFFFFFFFFFF00FFFFFFFFFFFFFFFFFFFFFF00FFFFFFFFFFFFFFFF00FFFFFFFFFFFFFFFFFFFF00FFFFFFFFFFFFFFFFFFFFFF00FFFFFFFFFFFFFFFF00FFFFFFFFFFFFFFFFFFFF00FFFFFFFFFFFFFFFFFFFFFFFF00FFFFFFFFFFFFFF00FFFFFFFFFFFFFFFFFFFF00FFFFFFFFFFFFFFFFFFFFFFFF00FFFFFFFFFFFFFF
1004
00FFFFFFFFFFFFFFFFFFFF00FFFFFFFFFFFFFFFFFFFFFFFF00FFFFFFFFFFFFFF00FFFFFFFFFFFFFFFFFFFF0000FFFFFFFFFFFFFFFFFFFFFF00FFFFFFFFFFFFFF00FFFFFFFFFFFFFFFFFFFFFFFF00FFFFFFFFFFFFFFFFFFFF00FFFFFFFFFFFFFF00FFFFFFFFFFFFFFFFFFFFFFFFFF0000000000FFFFFFFFFF00FFFFFFFFFFFF
1004
FF00FFFFFFFFFFFFFFFFFFFFFFFFFFFFFFFFFF00FFFFFFFFFF00FFFFFFFFFFFF2100212121FFFFFFFFFFFFFFFFFFFFFFFFFFFF00FFFFFFFFFF00FFFFFFFF0000210000002127272700E0E000FFFFFFFFFFFFFF00FFFFFFFFFF00FFFFFFFFFF002100210021FBFFFFFFFFFF00FFFFFFFFFFFFFF00FFFFFFFFFF00FFFFFFFF00
1004
00210000002127272700E0E000FFFFFFFFFFFFFF00FFFFFFFFFF00FFFFFFFFFFFF21FBFBFB21FFFFFFFFFFFFFFFFFFFFFFFFFFFF00FFFFFFFFFF00FFFFFFFFFFFFFF00FB00FFFFFFFFFFFFFFFFFFFFFFFFFFFFFF00FFFFFFFFFFFF00FFFFFFFFFFFFFFFFFFFFFFFFFFFFFFFFFFFFFFFFFFFFFFFF00FFFFFFFFFFFFFF00FFFF
1004
FFFFFFFFFFFFFFFFFFFFFFFFFFFFFFFFFF0000000000FFFFFFFFFFFFFFFF00FFFFFFFFFFFFFFFFFFFFFFFFFFFFFFFF0000FFFFFFFFFFFFFFFFFFFFFFFFFFFF0000FFFFFFFFFFFFFFFFFFFF00000000FFFFFFFFFFFFFFFFFFFFFFFFFFFFFFFFFFFF00000000000000000000FFFFFFFFFFFFFFFFFFFFFFFFFFFFFFFFFFFFFFFF
1004
FFFFFFFFFFFFFFFFFFFFFFFFFFFFFFFFFFFFFFFFFFFFFFFFFFFFFFFFFFFFFFFFFFFFFFFFFFFFFFFFFFFFFFFFFFFFFFFFFFFFFFFFFFFFFFFF
  0
ENDTAB
  0
ENDSEC
  0
SECTION
  2
BLOCKS
  0
BLOCK
  5
20
330
1F
100
AcDbEntity
  8
0
100
AcDbBlockBegin
  2
*MODEL_SPACE
 70
     0
 10
0.0
 20
0.0
 30
0.0
  3
*MODEL_SPACE
  1

  0
ENDBLK
  5
21
330
1F
100
AcDbEntity
  8
0
100
AcDbBlockEnd
  0
BLOCK
  5
52
330
50
100
AcDbEntity
 67
     1
  8
0
100
AcDbBlockBegin
  2
*PAPER_SPACE
 70
     0
 10
0.0
 20
0.0
 30
0.0
  3
*PAPER_SPACE
  1

  0
ENDBLK
  5
53
330
50
100
AcDbEntity
 67
     1
  8
0
100
AcDbBlockEnd
  0
BLOCK
  5
110
330
10F
100
AcDbEntity
  8
0
100
AcDbBlockBegin
  2
ADKP
 70
     0
 10
0.0
 20
0.0
 30
0.0
  3
ADKP
  1

  0
HATCH
  5
112
330
10F
100
AcDbEntity
  8
0
 62
    50
100
AcDbHatch
 10
0.0
 20
0.0
 30
0.0
210
0.0
220
0.0
230
1.0
  2
SOLID
 70
     1
 71
     1
 91
        2
 92
        7
 72
     1
 73
     1
 93
       12
 10
-3674.272853684272
 20
-2315.349535387708
 42
0.0
 10
-3647.043435206153
 20
-2363.207301197739
 42
0.0
 10
-3617.68437695285
 20
-2345.75570880187
 42
0.0
 10
-3649.268827007684
 20
-2290.243645069129
 42
0.1247293581331905
 10
-3735.74107245688
 20
-2203.729314046089
 42
0.0
 10
-4506.963003618069
 20
-1757.917480421269
 42
0.1239769402989861
 10
-4624.907036915137
 20
-1726.374508643111
 42
0.0
 10
-4689.020411197168
 20
-1726.374508643111
 42
0.0
 10
-4689.020411197168
 20
-1760.52257584704
 42
0.0
 10
-4631.96180823088
 20
-1760.52257584704
 42
-0.1402113383333975
 10
-4517.326577642692
 20
-1791.36962171404
 42
0.0
 10
-3758.374954791474
 20
-2230.088492307359
 42
-0.1421794410071557
 97
        4
330
11D
330
12D
330
11E
330
14F
 92
        7
 72
     1
 73
     1
 93
       12
 10
-5864.548363120188
 20
-2363.207301197741
 42
0.0
 10
-5837.31894464205
 20
-2315.349535387681
 42
-0.1421794410070921
 10
-5753.216843534882
 20
-2230.08849230737
 42
0.0
 10
-4994.265220683649
 20
-1791.369621714042
 42
-0.1402113383334024
 10
-4879.629990095457
 20
-1760.52257584704
 42
0.0
 10
-4822.57138712917
 20
-1760.52257584704
 42
0.0
 10
-4822.607186242561
 20
-1726.374508643111
 42
0.0
 10
-4886.6847614112
 20
-1726.374508643111
 42
0.123976940298958
 10
-5004.628794708245
 20
-1757.917480421254
 42
0.0
 10
-5775.85072586946
 20
-2203.72931404609
 42
0.1247293581332047
 10
-5862.322971318661
 20
-2290.243645069144
 42
0.0
 10
-5894.228628067369
 20
-2346.320253900205
 42
0.0
 97
        4
330
123
330
12B
330
122
330
126
 75
     0
 76
     1
 47
6.578508944040135
 98
        2
 10
-3715.539180903425
 20
-2243.869344921255
 10
-5447.491907133552
 20
-2020.200009360476
  0
HATCH
  5
113
330
10F
100
AcDbEntity
  8
0
 62
    30
100
AcDbHatch
 10
0.0
 20
0.0
 30
0.0
210
0.0
220
0.0
230
1.0
  2
SOLID
 70
     1
 71
     1
 91
        4
 92
        7
 72
     0
 73
     1
 93
        4
 10
-4810.79589916317
 20
-68.77167660761188
 10
-4810.79589916317
 20
-93.77167660761188
 10
-4700.795899163169
 20
-93.77167660761188
 10
-4700.795899163169
 20
-68.77167660761188
 97
        1
330
140
 92
        7
 72
     0
 73
     1
 93
        4
 10
-4700.795899163169
 20
-1820.212675863727
 10
-4700.795899163169
 20
-1795.212675863727
 10
-4810.79589916317
 20
-1795.212675863727
 10
-4810.79589916317
 20
-1820.212675863727
 97
        1
330
128
 92
        7
 72
     1
 73
     1
 93
        8
 10
-5840.399476313425
 20
-2396.915571025739
 42
0.4142135623731144
 10
-5842.201624582262
 20
-2390.078008476328
 42
0.0
 10
-5928.59873276476
 20
-2339.723865670581
 42
0.4142135623730854
 10
-5935.436295314174
 20
-2341.526013939419
 42
0.0
 10
-5985.790438119921
 20
-2427.923122121914
 42
0.4142135623731216
 10
-5983.988289851084
 20
-2434.760684671326
 42
0.0
 10
-5897.591181668589
 20
-2485.114827477079
 42
0.4142135623730902
 10
-5890.753619119177
 20
-2483.312679208242
 42
0.0
 97
        1
330
124
 92
        7
 72
     1
 73
     1
 93
        8
 10
-3621.493478879146
 20
-2483.10703533438
 42
0.414213562373126
 10
-3614.664263206992
 20
-2484.940560164647
 42
0.0
 10
-3528.03685818278
 20
-2434.983651745773
 42
0.414213562373068
 10
-3526.203333352513
 20
-2428.154436073618
 42
0.0
 10
-3576.160241771376
 20
-2341.527031049414
 42
0.4142135623731124
 10
-3582.98945744353
 20
-2339.693506219147
 42
0.0
 10
-3669.616862467743
 20
-2389.650414638018
 42
0.4142135623731082
 10
-3671.450387298011
 20
-2396.479630310173
 42
0.0
 97
        1
330
14C
 75
     0
 76
     1
 47
6.578508944040135
 98
        4
 10
-4769.198636907638
 20
-79.53984277630297
 10
-4762.613256662551
 20
-1803.109217578228
 10
-5895.297194242527
 20
-2414.910586455841
 10
-3610.173178347313
 20
-2414.910586455841
  0
LWPOLYLINE
  5
114
330
10F
100
AcDbEntity
  8
0
 62
     7
100
AcDbPolyline
 90
       37
 70
     1
 43
0.0
 10
-5975.369727874946
 20
-4129.748000424457
 10
-6398.155321828363
 20
-4076.086751961134
 10
-6794.923340769262
 20
-3918.897236260505
 10
-7139.656209685121
 20
-3667.936043952257
 10
-7411.214648878277
 20
-3338.380093793697
 10
-7592.253608340381
 20
-2951.910698295258
 10
-7671.390399003456
 20
-2532.377301218403
 10
-7643.746725552656
 20
-2106.339510388425
 10
-7511.490719239024
 20
-1700.356933630595
 10
-7281.66880662845
 20
-1340.447145957426
 10
-6969.999939290994
 20
-1049.375525504889
 10
-6969.999939290994
 20
1542.083352304449
 10
-6910.376329887307
 20
1962.158782194062
 10
-6735.299731365575
 20
2348.628177692502
 10
-6459.40502967033
 20
2670.595668472415
 10
-6104.373537312014
 20
2902.585712334031
 10
-5218.691921260883
 20
3316.156748470516
 10
-4857.156035149436
 20
3441.36632821826
 10
-4478.275099029644
 20
3489.065215741204
 10
-4097.226031658808
 20
3458.169345413844
 10
-1728.000607081398
 20
3014.786504575517
 10
-1415.247674118421
 20
2920.472795155139
 10
-1130.680447419006
 20
2760.031082577945
 10
-887.3077144894123
 20
2542.133891848105
 10
0.0
 20
2542.133891848105
 10
0.0
 20
0.0
 10
-887.3077144894123
 20
0.0
 10
-1160.49225212085
 20
-238.4944376147468
 10
-1483.001775713521
 20
-404.8985111323053
 10
-1835.865136820795
 20
-488.9135971102295
 10
-1835.865136820795
 20
-2429.933099606612
 10
-1893.862647786199
 20
-2870.063743568374
 10
-2064.060950993087
 20
-3280.924615641059
 10
-2333.993291747961
 20
-3633.245943935573
 10
-2686.314620042474
 20
-3903.720317503204
 10
-3096.633459302391
 20
-4073.376587897335
 10
-3536.764103264153
 20
-4130.832066049974
  0
LINE
  5
115
330
10F
100
AcDbEntity
  8
0
100
AcDbLine
 10
-1997.891070934254
 20
1022.019927829646
 30
0.0
 11
-3856.908705331056
 21
1022.019927829646
 31
0.0
  0
LINE
  5
116
330
10F
100
AcDbEntity
  8
0
100
AcDbLine
 10
-3856.908705331056
 20
1002.682943827672
 30
0.0
 11
-1997.89107093425
 21
1002.682943827658
 31
0.0
  0
LINE
  5
117
330
10F
100
AcDbEntity
  8
0
100
AcDbLine
 10
-1997.891070934243
 20
1520.113964018459
 30
0.0
 11
-3856.908705331056
 21
1520.113964018459
 31
0.0
  0
LINE
  5
118
330
10F
100
AcDbEntity
  8
0
100
AcDbLine
 10
-3856.908705331056
 20
1539.450948020436
 30
0.0
 11
-1997.89107093425
 21
1539.450948020436
 31
0.0
  0
ARC
  5
119
330
10F
100
AcDbEntity
  8
0
100
AcDbCircle
 10
-4038.695206676215
 20
1269.399964544569
 30
0.0
 40
309.1438787374797
100
AcDbArc
 50
306.0174788174202
 51
53.98252118257972
  0
ARC
  5
11A
330
10F
100
AcDbEntity
  8
0
100
AcDbCircle
 10
-4032.459204638978
 20
1269.399964544573
 30
0.0
 40
268.9014565588423
100
AcDbArc
 50
310.7563149162229
 51
49.24368508377713
  0
HATCH
  5
11B
330
10F
100
AcDbEntity
  8
0
 62
    50
100
AcDbHatch
 10
0.0
 20
0.0
 30
0.0
210
0.0
220
0.0
230
1.0
  2
SOLID
 70
     1
 71
     0
 91
        3
 92
        7
 72
     1
 73
     1
 93
       22
 10
-2081.906932460069
 20
1022.019927829649
 42
0.0
 10
-2081.906932460073
 20
1034.688986313696
 42
0.0
 10
-2085.240895219036
 20
1053.359177763875
 42
0.0
 10
-2093.909198392326
 20
1067.361821351514
 42
0.0
 10
-2105.911464324627
 20
1077.363709628418
 42
0.0
 10
-2132.583166396272
 20
1093.366730871425
 42
0.0
 10
-2161.922038675142
 20
1119.37164039132
 42
0.0
 10
-2176.591474814574
 20
1147.376927566594
 42
0.0
 10
-2181.925815228916
 20
1179.382970052633
 42
0.0
 10
-2183.592796608396
 20
1270.733549648212
 42
0.0
 10
-2181.925815228909
 20
1362.750921795501
 42
0.0
 10
-2174.591097159196
 20
1400.758097247642
 42
0.0
 10
-2157.254490812598
 20
1428.096591871129
 42
0.0
 10
-2132.583166396283
 20
1448.767160976691
 42
0.0
 10
-2105.91146432459
 20
1464.103389667921
 42
0.0
 10
-2091.908820736962
 20
1477.439240703759
 42
0.0
 10
-2084.574102667238
 20
1491.441884291391
 42
0.0
 10
-2081.906932460076
 20
1507.444905534405
 42
0.0
 10
-2081.906932460069
 20
1520.113964018462
 42
0.0
 10
-3856.908705331056
 20
1520.113964018459
 42
0.0
 10
-3856.908705331056
 20
1519.447171466661
 42
-0.5047677450341408
 10
-3853.295489319966
 20
1022.019927829646
 42
0.0
 97
        0
 92
       23
 72
     1
 73
     1
 93
        2
 10
-3856.908705331052
 20
1065.708984056469
 42
0.4582969605586874
 10
-3856.908705331056
 20
1473.090945032679
 42
0.0
 97
        0
 92
        7
 72
     1
 73
     1
 93
        5
 10
-3856.908705331056
 20
1519.447171466661
 42
0.0
 10
-3856.908705331056
 20
1473.090945032679
 42
-0.4582969605586874
 10
-3856.908705331056
 20
1065.708984056469
 42
0.0
 10
-3856.908705331056
 20
1022.019927829646
 42
0.0
 10
-3853.295489319966
 20
1022.019927829646
 42
0.5047677450341408
 97
        0
 75
     0
 76
     1
 47
4.472321723810398
 98
        3
 10
-2534.198487250067
 20
1246.104792651284
 10
-3818.295111439982
 20
1304.244936961768
 10
-3773.5530366051
 20
1366.857449561575
  0
HATCH
  5
11C
330
10F
100
AcDbEntity
  8
0
 62
    30
100
AcDbHatch
 10
0.0
 20
0.0
 30
0.0
210
0.0
220
0.0
230
1.0
  2
SOLID
 70
     1
 71
     0
 91
        2
 92
        7
 72
     0
 73
     1
 93
        4
 10
-2927.399888132653
 20
1539.450948020436
 10
-3856.908705331052
 20
1539.450948020436
 10
-3856.908705331056
 20
1520.113964018459
 10
-2927.399888132649
 20
1520.113964018459
 97
        0
 92
        7
 72
     1
 73
     1
 93
        5
 10
-2927.399888132656
 20
1022.019927829646
 42
0.0
 10
-3853.295489319962
 20
1022.019927829646
 42
-0.003631856113254
 10
-3856.908705331056
 20
1019.352757622477
 42
0.0
 10
-3856.908705331056
 20
1002.682943827672
 42
0.0
 10
-2927.399888132649
 20
1002.682943827665
 42
0.0
 97
        0
 75
     0
 76
     1
 47
3.387716884985549
 98
        2
 10
-3642.302780541509
 20
1528.762959822052
 10
-3550.739003934001
 20
1010.442268376122
  0
LWPOLYLINE
  5
11D
102
{ACAD_REACTORS
330
112
102
}
330
10F
100
AcDbEntity
  8
0
100
AcDbPolyline
 90
        6
 70
     0
 43
0.0
 10
-3617.36317025897
 20
-2346.320253900205
 10
-3649.268827007679
 20
-2290.243645069138
 42
0.1247293581332155
 10
-3735.741072456892
 20
-2203.729314046082
 10
-4506.963003618079
 20
-1757.917480421263
 42
0.1239769402989771
 10
-4624.907036915139
 20
-1726.374508643111
 10
-4689.020411197168
 20
-1726.374508643111
  0
LWPOLYLINE
  5
11E
102
{ACAD_REACTORS
330
112
102
}
330
10F
100
AcDbEntity
  8
0
100
AcDbPolyline
 90
        6
 70
     0
 43
0.0
 10
-3647.043435206151
 20
-2363.207301197741
 10
-3678.77670020748
 20
-2307.433683922678
 42
0.1240875912408807
 10
-3753.035195555707
 20
-2233.175188574449
 10
-4523.80585530155
 20
-1787.624216485081
 42
0.1233823300365213
 10
-4625.165991287818
 20
-1760.52257584704
 10
-4689.020411197168
 20
-1760.52257584704
  0
HATCH
  5
11F
330
10F
100
AcDbEntity
  8
0
 62
   250
100
AcDbHatch
 10
0.0
 20
0.0
 30
0.0
210
0.0
220
0.0
230
1.0
  2
SOLID
 70
     1
 71
     1
 91
        1
 92
        7
 72
     0
 73
     1
 93
        4
 10
-4707.554978827459
 20
-93.77167660761188
 10
-4804.578852311641
 20
-93.77167660761189
 10
-4804.578852311643
 20
-1795.212675863727
 10
-4707.554978827459
 20
-1795.212675863727
 97
        4
330
140
330
121
330
128
330
120
 75
     0
 76
     1
 47
6.578508944040135
 98
        1
 10
-4742.857115927288
 20
-882.1179564230661
  0
LINE
  5
120
102
{ACAD_REACTORS
330
11F
102
}
330
10F
100
AcDbEntity
  8
0
100
AcDbLine
 10
-4707.554978827459
 20
-1795.212675863731
 30
0.0
 11
-4707.554978827459
 21
-93.77167660761188
 31
0.0
  0
LINE
  5
121
102
{ACAD_REACTORS
330
11F
102
}
330
10F
100
AcDbEntity
  8
0
100
AcDbLine
 10
-4804.578852311641
 20
-93.77167660761188
 30
0.0
 11
-4804.578852311642
 21
-1795.212675863731
 31
0.0
  0
LWPOLYLINE
  5
122
102
{ACAD_REACTORS
330
112
102
}
330
10F
100
AcDbEntity
  8
0
100
AcDbPolyline
 90
        6
 70
     0
 43
0.0
 10
-5894.228628067369
 20
-2346.320253900205
 10
-5862.322971318659
 20
-2290.243645069138
 42
-0.1247293581332155
 10
-5775.850725869446
 20
-2203.729314046082
 10
-5004.62879470826
 20
-1757.917480421263
 42
-0.1239769402989771
 10
-4886.684761411199
 20
-1726.374508643111
 10
-4822.57138712917
 20
-1726.374508643111
  0
LWPOLYLINE
  5
123
102
{ACAD_REACTORS
330
112
102
}
330
10F
100
AcDbEntity
  8
0
100
AcDbPolyline
 90
        6
 70
     0
 43
0.0
 10
-5864.548363120188
 20
-2363.207301197741
 10
-5832.815098118859
 20
-2307.433683922678
 42
-0.1240875912408807
 10
-5758.556602770632
 20
-2233.175188574449
 10
-4987.785943024788
 20
-1787.624216485081
 42
-0.1233823300365213
 10
-4886.42580703852
 20
-1760.52257584704
 10
-4822.57138712917
 20
-1760.52257584704
  0
LWPOLYLINE
  5
124
102
{ACAD_REACTORS
330
113
102
}
330
10F
100
AcDbEntity
  8
0
100
AcDbPolyline
 90
        8
 70
     1
 43
0.0
 10
-5842.201624582262
 20
-2390.078008476328
 10
-5928.59873276476
 20
-2339.723865670581
 42
0.4142135623730951
 10
-5935.436295314174
 20
-2341.526013939419
 10
-5985.79043811992
 20
-2427.923122121912
 42
0.4142135623731003
 10
-5983.988289851086
 20
-2434.760684671324
 10
-5897.591181668591
 20
-2485.114827477078
 42
0.4142135623731053
 10
-5890.753619119177
 20
-2483.312679208244
 10
-5840.399476313425
 20
-2396.915571025739
 42
0.4142135623730951
  0
ARC
  5
125
330
10F
100
AcDbEntity
  8
0
100
AcDbCircle
 10
-5888.644477833693
 20
-2370.30949020266
 30
0.0
 40
25.01742560929995
100
AcDbArc
 50
102.2903901742206
 51
135.1646039801408
  0
LINE
  5
126
102
{ACAD_REACTORS
330
112
102
}
330
10F
100
AcDbEntity
  8
0
100
AcDbLine
 10
-5894.228628067369
 20
-2346.320253900205
 30
0.0
 11
-5864.548363120188
 21
-2363.207301197741
 31
0.0
  0
ARC
  5
127
330
10F
100
AcDbEntity
  8
0
100
AcDbCircle
 10
-5888.644477833693
 20
-2370.30949020266
 30
0.0
 40
25.01742560929995
100
AcDbArc
 50
344.3662422396795
 51
16.66924803545471
  0
LWPOLYLINE
  5
128
102
{ACAD_REACTORS
330
113
330
11F
102
}
330
10F
100
AcDbEntity
  8
0
100
AcDbPolyline
 90
        4
 70
     1
 43
0.0
 10
-4810.79589916317
 20
-1820.212675863727
 10
-4700.795899163169
 20
-1820.212675863727
 10
-4700.795899163169
 20
-1795.212675863727
 10
-4810.79589916317
 20
-1795.212675863727
  0
ARC
  5
129
330
10F
100
AcDbEntity
  8
0
100
AcDbCircle
 10
-4804.578852311641
 20
-1743.719558651457
 30
0.0
 40
25.01742560929995
100
AcDbArc
 50
222.1947363040076
 51
270.0
  0
ARC
  5
12A
330
10F
100
AcDbEntity
  8
0
100
AcDbCircle
 10
-4804.578852311641
 20
-1743.719558651457
 30
0.0
 40
25.01742560929995
100
AcDbArc
 50
90.0
 51
136.1066065093843
  0
LINE
  5
12B
102
{ACAD_REACTORS
330
112
102
}
330
10F
100
AcDbEntity
  8
0
100
AcDbLine
 10
-4822.607186242561
 20
-1726.374508643108
 30
0.0
 11
-4822.57138712917
 21
-1760.52257584704
 31
0.0
  0
ARC
  5
12C
330
10F
100
AcDbEntity
  8
0
100
AcDbCircle
 10
-4707.554978827459
 20
-1743.719558651457
 30
0.0
 40
25.01742560929995
100
AcDbArc
 50
42.19473630400765
 51
90.0
  0
LINE
  5
12D
102
{ACAD_REACTORS
330
112
102
}
330
10F
100
AcDbEntity
  8
0
100
AcDbLine
 10
-4689.020411197168
 20
-1726.374508643111
 30
0.0
 11
-4689.020411197168
 21
-1760.52257584704
 31
0.0
  0
ARC
  5
12E
330
10F
100
AcDbEntity
  8
0
100
AcDbCircle
 10
-4707.554978827459
 20
-1743.719558651457
 30
0.0
 40
25.01742560929995
100
AcDbArc
 50
270.0
 51
317.8052636959923
  0
HATCH
  5
12F
330
10F
100
AcDbEntity
  8
0
 62
   250
100
AcDbHatch
 10
0.0
 20
0.0
 30
0.0
210
0.0
220
0.0
230
1.0
  2
SOLID
 70
     1
 71
     1
 91
        2
 92
        7
 72
     0
 73
     1
 93
        4
 10
-5017.794538001361
 20
1522.165401978458
 10
-5101.236665392146
 20
1522.165401978458
 10
-5101.236665392146
 20
1019.700794287495
 10
-5017.79453800136
 20
1019.700794287495
 97
        4
330
13B
330
132
330
136
330
131
 92
        7
 72
     0
 73
     1
 93
        4
 10
-5101.236665392147
 20
1522.165401978458
 10
-5372.679985689768
 20
1522.165401978458
 10
-5372.679985689768
 20
1019.700794287498
 10
-5101.236665392147
 20
1019.700794287496
 97
        4
330
136
330
132
330
135
330
131
 75
     0
 76
     1
 47
2.277875573870468
 98
        2
 10
-5049.084097005174
 20
1088.975734600044
 10
-5167.533624192571
 20
1150.542493726319
  0
LINE
  5
130
330
10F
100
AcDbEntity
  8
0
100
AcDbLine
 10
-5477.616653891602
 20
1000.426712372875
 30
0.0
 11
-5017.794538001361
 21
999.8779986307599
 31
0.0
  0
LINE
  5
131
102
{ACAD_REACTORS
330
12F
102
}
330
10F
100
AcDbEntity
  8
0
100
AcDbLine
 10
-5017.794538001361
 20
1019.700794287495
 30
0.0
 11
-5477.616653891609
 21
1019.700794287498
 31
0.0
  0
LINE
  5
132
102
{ACAD_REACTORS
330
12F
102
}
330
10F
100
AcDbEntity
  8
0
100
AcDbLine
 10
-5477.616653891606
 20
1522.165401978458
 30
0.0
 11
-5017.715643762107
 21
1522.165401978458
 31
0.0
  0
LINE
  5
133
330
10F
100
AcDbEntity
  8
0
100
AcDbLine
 10
-5017.715643762107
 20
1541.974875057381
 30
0.0
 11
-5477.616653891613
 21
1541.974875057352
 31
0.0
  0
HATCH
  5
134
330
10F
100
AcDbEntity
  8
0
 62
    50
100
AcDbHatch
 10
0.0
 20
0.0
 30
0.0
210
0.0
220
0.0
230
1.0
  2
SOLID
 70
     1
 71
     0
 91
        2
 92
        7
 72
     0
 73
     1
 93
        4
 10
-5017.794538001361
 20
999.8779986307637
 10
-5017.794538001362
 20
1019.700794287498
 10
-5477.616653891609
 20
1019.700794287502
 10
-5477.616653891602
 20
1000.426712372871
 97
        0
 92
        7
 72
     0
 73
     1
 93
        4
 10
-5477.616653891613
 20
1541.974875057348
 10
-5477.616653891606
 20
1522.165401978454
 10
-5017.794538001361
 20
1522.165401978454
 10
-5017.794538001361
 20
1541.974875057381
 97
        0
 75
     0
 76
     1
 47
2.277875573870468
 98
        2
 10
-5185.756641673762
 20
1004.606371436504
 10
-5224.480510601114
 20
1533.624825031558
  0
LINE
  5
135
102
{ACAD_REACTORS
330
12F
102
}
330
10F
100
AcDbEntity
  8
0
100
AcDbLine
 10
-5372.679985689768
 20
1522.165401978458
 30
0.0
 11
-5372.679985689768
 21
1019.700794287498
 31
0.0
  0
LINE
  5
136
102
{ACAD_REACTORS
330
12F
102
}
330
10F
100
AcDbEntity
  8
0
100
AcDbLine
 10
-5101.236665392147
 20
1522.165401978458
 30
0.0
 11
-5101.236665392147
 21
1019.700794287495
 31
0.0
  0
LINE
  5
137
330
10F
100
AcDbEntity
  8
0
100
AcDbLine
 10
-5477.616653891609
 20
1019.700794287498
 30
0.0
 11
-5477.616653891602
 21
1000.426712372875
 31
0.0
  0
LINE
  5
138
330
10F
100
AcDbEntity
  8
0
100
AcDbLine
 10
-5477.616653891613
 20
1541.974875057352
 30
0.0
 11
-5477.616653891606
 21
1522.165401978458
 31
0.0
  0
LINE
  5
139
330
10F
100
AcDbEntity
  8
0
100
AcDbLine
 10
-3856.908705331056
 20
690.6240295889038
 30
0.0
 11
-5017.794538001361
 21
1851.509862259208
 31
0.0
  0
LINE
  5
13A
330
10F
100
AcDbEntity
  8
0
100
AcDbLine
 10
-3856.908705331056
 20
1851.509862259208
 30
0.0
 11
-5017.794538001361
 21
690.6240295889038
 31
0.0
  0
LWPOLYLINE
  5
13B
102
{ACAD_REACTORS
330
12F
330
13C
330
13D
102
}
330
10F
100
AcDbEntity
  8
0
100
AcDbPolyline
 90
        4
 70
     1
 43
0.0
 10
-5017.794538001361
 20
1851.509862259212
 10
-5017.794538001361
 20
690.6240295889038
 10
-3856.908705331056
 20
690.6240295889038
 10
-3856.908705331056
 20
1851.509862259212
  0
HATCH
  5
13C
330
10F
100
AcDbEntity
  8
0
 62
    84
100
AcDbHatch
 10
0.0
 20
0.0
 30
0.0
210
0.0
220
0.0
230
1.0
  2
SOLID
 70
     1
 71
     1
 91
        1
 92
        1
 93
        4
 72
     1
 10
-5017.794538001361
 20
1851.509862259212
 11
-5017.794538001361
 21
690.6240295889038
 72
     1
 10
-5017.794538001361
 20
690.6240295889038
 11
-3856.908705331056
 21
690.6240295889038
 72
     1
 10
-3856.908705331056
 20
690.6240295889038
 11
-3856.908705331056
 21
1851.509862259212
 72
     1
 10
-3856.908705331056
 20
1851.509862259212
 11
-5017.794538001361
 21
1851.509862259212
 97
        1
330
13B
 75
     0
 76
     1
 98
        1
 10
-28164.81920501331
 20
-21644.07960849283
  0
HATCH
  5
13D
330
10F
100
AcDbEntity
  8
0
 62
    50
100
AcDbHatch
 10
0.0
 20
0.0
 30
0.0
210
0.0
220
0.0
230
1.0
  2
SOLID
 70
     1
 71
     1
 91
        1
 92
        7
 72
     0
 73
     1
 93
        4
 10
-4738.450849154824
 20
690.6240295889038
 10
-4773.140949171515
 20
690.6240295889038
 10
-4773.140949171514
 20
-68.77167660761188
 10
-4738.450849154824
 20
-68.77167660761189
 97
        4
330
13B
330
13F
330
140
330
13E
 75
     0
 76
     1
 47
3.20230476385773
 98
        1
 10
-4750.727579393575
 20
325.4701437585208
  0
LINE
  5
13E
102
{ACAD_REACTORS
330
13D
102
}
330
10F
100
AcDbEntity
  8
0
100
AcDbLine
 10
-4738.450849154824
 20
-68.83816722061602
 30
0.0
 11
-4738.450849154824
 21
690.5498034572483
 31
0.0
  0
LINE
  5
13F
102
{ACAD_REACTORS
330
13D
102
}
330
10F
100
AcDbEntity
  8
0
100
AcDbLine
 10
-4773.140949171515
 20
690.5498034572483
 30
0.0
 11
-4773.140949171515
 21
-68.83816722061602
 31
0.0
  0
LWPOLYLINE
  5
140
102
{ACAD_REACTORS
330
13D
330
113
330
11F
102
}
330
10F
100
AcDbEntity
  8
0
100
AcDbPolyline
 90
        4
 70
     1
 43
0.0
 10
-4810.79589916317
 20
-93.77167660761188
 10
-4700.795899163169
 20
-93.77167660761188
 10
-4700.795899163169
 20
-68.77167660761188
 10
-4810.79589916317
 20
-68.77167660761188
  0
ARC
  5
141
330
10F
100
AcDbEntity
  8
0
100
AcDbCircle
 10
-4437.351621666201
 20
1669.555607831862
 30
0.0
 40
250.6338872619529
100
AcDbArc
 50
46.5501226234675
 51
133.4498773765324
  0
ARC
  5
142
330
10F
100
AcDbEntity
  8
0
100
AcDbCircle
 10
-4437.447859766469
 20
1663.855549073123
 30
0.0
 40
327.0140425069816
100
AcDbArc
 50
35.01856012001979
 51
144.9814398799802
  0
HATCH
  5
143
330
10F
100
AcDbEntity
  8
0
 62
   250
100
AcDbHatch
 10
0.0
 20
0.0
 30
0.0
210
0.0
220
0.0
230
1.0
  2
SOLID
 70
     1
 71
     0
 91
        1
 92
        7
 72
     1
 73
     1
 93
        2
 10
-4264.9857470279
 20
1851.509862259204
 42
0.3984526112186023
 10
-4609.717496304502
 20
1851.509862259204
 42
0.0
 97
        0
 75
     0
 76
     1
 47
3.366206442624165
 98
        1
 10
-4411.152210817641
 20
1878.650868698038
  0
HATCH
  5
144
330
10F
100
AcDbEntity
  8
0
 62
    50
100
AcDbHatch
 10
0.0
 20
0.0
 30
0.0
210
0.0
220
0.0
230
1.0
  2
SOLID
 70
     1
 71
     0
 91
        1
 92
        7
 72
     1
 73
     1
 93
        4
 10
-4264.9857470279
 20
1851.509862259204
 42
0.0
 10
-4169.634412121623
 20
1851.509862259204
 42
0.5203612086937087
 10
-4705.261307411316
 20
1851.509862259204
 42
0.0
 10
-4609.717496304502
 20
1851.509862259204
 42
-0.3984526112186024
 97
        0
 75
     0
 76
     1
 47
5.50999374987631
 98
        1
 10
-4431.701379367417
 20
1949.600937747542
  0
LWPOLYLINE
  5
145
330
10F
100
AcDbEntity
  8
0
100
AcDbPolyline
 90
        4
 70
     1
 43
0.0
 10
-4145.629880257102
 20
1562.788687333166
 10
-4145.629880257102
 20
979.4843195077664
 10
-4729.073363075322
 20
979.4843195077664
 10
-4729.073363075322
 20
1562.788687333166
  0
LINE
  5
146
330
10F
100
AcDbEntity
  8
0
100
AcDbLine
 10
-4712.40354928051
 20
1859.511372880719
 30
0.0
 11
-4699.472634562536
 21
1859.511372880719
 31
0.0
  0
LINE
  5
147
330
10F
100
AcDbEntity
  8
0
100
AcDbLine
 10
-4712.40354928051
 20
1884.849489848821
 30
0.0
 11
-4712.40354928051
 21
1859.511372880719
 31
0.0
  0
LINE
  5
148
330
10F
100
AcDbEntity
  8
0
100
AcDbLine
 10
-4678.486989654515
 20
1884.849489848821
 30
0.0
 11
-4712.40354928051
 21
1884.849489848821
 31
0.0
  0
LINE
  5
149
330
10F
100
AcDbEntity
  8
0
100
AcDbLine
 10
-4162.299694051898
 20
1859.511372880719
 30
0.0
 11
-4175.423084970401
 21
1859.511372880719
 31
0.0
  0
LINE
  5
14A
330
10F
100
AcDbEntity
  8
0
100
AcDbLine
 10
-4162.299694051898
 20
1884.849489848821
 30
0.0
 11
-4162.299694051898
 21
1859.511372880719
 31
0.0
  0
LINE
  5
14B
330
10F
100
AcDbEntity
  8
0
100
AcDbLine
 10
-4196.408729878426
 20
1884.849489848821
 30
0.0
 11
-4162.299694051898
 21
1884.849489848821
 31
0.0
  0
LWPOLYLINE
  5
14C
102
{ACAD_REACTORS
330
113
102
}
330
10F
100
AcDbEntity
  8
0
100
AcDbPolyline
 90
        8
 70
     1
 43
0.0
 10
-3526.203333352512
 20
-2428.154436073619
 10
-3576.160241771376
 20
-2341.527031049412
 42
0.4142135623730902
 10
-3582.989457443531
 20
-2339.693506219147
 10
-3669.616862467743
 20
-2389.650414638017
 42
0.4142135623730912
 10
-3671.450387298011
 20
-2396.479630310172
 10
-3621.493478879145
 20
-2483.107035334382
 42
0.4142135623731039
 10
-3614.66426320699
 20
-2484.940560164647
 10
-3528.036858182781
 20
-2434.983651745773
 42
0.4142135623730974
  0
ARC
  5
14D
330
10F
100
AcDbEntity
  8
0
100
AcDbCircle
 10
-3623.022293256004
 20
-2370.1970310586
 30
0.0
 40
25.01742560929995
100
AcDbArc
 50
44.85358940876234
 51
77.68020508941195
  0
ARC
  5
14E
330
10F
100
AcDbEntity
  8
0
100
AcDbCircle
 10
-3623.022293256004
 20
-2370.1970310586
 30
0.0
 40
25.01742560929995
100
AcDbArc
 50
163.775933091721
 51
195.0894004553753
  0
LINE
  5
14F
102
{ACAD_REACTORS
330
112
102
}
330
10F
100
AcDbEntity
  8
0
100
AcDbLine
 10
-3617.684376952849
 20
-2345.755708801869
 30
0.0
 11
-3647.043435206149
 21
-2363.207301197737
 31
0.0
  0
HATCH
  5
150
330
10F
100
AcDbEntity
  8
0
 62
   150
100
AcDbHatch
 10
0.0
 20
0.0
 30
0.0
210
0.0
220
0.0
230
1.0
  2
SOLID
 70
     1
 71
     0
 91
        2
 92
        7
 72
     0
 73
     1
 93
        4
 10
-1997.89107093425
 20
1539.450948020439
 10
-2927.399888132649
 20
1539.450948020439
 10
-2927.399888132646
 20
1520.113964018459
 10
-1997.891070934243
 20
1520.113964018459
 97
        0
 92
        7
 72
     0
 73
     1
 93
        4
 10
-1997.891070934254
 20
1022.019927829646
 10
-2927.399888132656
 20
1022.019927829646
 10
-2927.399888132653
 20
1002.682943827665
 10
-1997.89107093425
 20
1002.682943827661
 97
        0
 75
     0
 76
     1
 47
2.231880503813954
 98
        2
 10
-2370.850638453155
 20
1530.644152227119
 10
-2473.624257124253
 20
1006.152189664164
  0
LINE
  5
151
330
10F
100
AcDbEntity
  8
0
100
AcDbLine
 10
-2927.399888132653
 20
1002.682943827665
 30
0.0
 11
-2927.399888132653
 21
1022.019927829646
 31
0.0
  0
LINE
  5
152
330
10F
100
AcDbEntity
  8
0
100
AcDbLine
 10
-2927.399888132653
 20
1539.450948020436
 30
0.0
 11
-2927.399888132649
 21
1520.113964018459
 31
0.0
  0
LINE
  5
153
330
10F
100
AcDbEntity
  8
0
100
AcDbLine
 10
-2091.908820736962
 20
1477.439240703759
 30
0.0
 11
-2105.911464324597
 21
1464.10338966791
 31
0.0
  0
LINE
  5
154
330
10F
100
AcDbEntity
  8
0
100
AcDbLine
 10
-2181.925815228912
 20
1179.382970052622
 30
0.0
 11
-2176.591474814574
 21
1147.376927566594
 31
0.0
  0
LINE
  5
155
330
10F
100
AcDbEntity
  8
0
100
AcDbLine
 10
-2132.583166396283
 20
1093.366730871417
 30
0.0
 11
-2105.911464324597
 21
1077.363709628403
 31
0.0
  0
LINE
  5
156
330
10F
100
AcDbEntity
  8
0
100
AcDbLine
 10
-2161.922038675142
 20
1119.371640391316
 30
0.0
 11
-2132.583166396283
 21
1093.366730871417
 31
0.0
  0
LINE
  5
157
330
10F
100
AcDbEntity
  8
0
100
AcDbLine
 10
-2176.591474814574
 20
1147.376927566594
 30
0.0
 11
-2161.922038675142
 21
1119.371640391316
 31
0.0
  0
LINE
  5
158
330
10F
100
AcDbEntity
  8
0
100
AcDbLine
 10
-2081.906932460073
 20
1034.6889863137
 30
0.0
 11
-2081.906932460073
 21
1022.019927829646
 31
0.0
  0
LINE
  5
159
330
10F
100
AcDbEntity
  8
0
100
AcDbLine
 10
-2085.240895219036
 20
1053.359177763883
 30
0.0
 11
-2081.906932460073
 21
1034.6889863137
 31
0.0
  0
LINE
  5
15A
330
10F
100
AcDbEntity
  8
0
100
AcDbLine
 10
-2093.909198392333
 20
1067.361821351518
 30
0.0
 11
-2085.240895219036
 21
1053.359177763883
 31
0.0
  0
LINE
  5
15B
330
10F
100
AcDbEntity
  8
0
100
AcDbLine
 10
-2105.911464324597
 20
1077.363709628403
 30
0.0
 11
-2093.909198392333
 21
1067.361821351518
 31
0.0
  0
LINE
  5
15C
330
10F
100
AcDbEntity
  8
0
100
AcDbLine
 10
-2181.925815228912
 20
1362.75092179549
 30
0.0
 11
-2183.592796608393
 21
1270.733549648157
 31
0.0
  0
LINE
  5
15D
330
10F
100
AcDbEntity
  8
0
100
AcDbLine
 10
-2183.592796608393
 20
1270.733549648157
 30
0.0
 11
-2181.925815228912
 21
1179.382970052622
 31
0.0
  0
LINE
  5
15E
330
10F
100
AcDbEntity
  8
0
100
AcDbLine
 10
-2105.911464324597
 20
1464.10338966791
 30
0.0
 11
-2132.583166396283
 21
1448.767160976691
 31
0.0
  0
LINE
  5
15F
330
10F
100
AcDbEntity
  8
0
100
AcDbLine
 10
-2174.591097159196
 20
1400.758097247646
 30
0.0
 11
-2181.925815228912
 21
1362.75092179549
 31
0.0
  0
LINE
  5
160
330
10F
100
AcDbEntity
  8
0
100
AcDbLine
 10
-2157.254490812598
 20
1428.096591871129
 30
0.0
 11
-2174.591097159196
 21
1400.758097247646
 31
0.0
  0
LINE
  5
161
330
10F
100
AcDbEntity
  8
0
100
AcDbLine
 10
-2132.583166396283
 20
1448.767160976691
 30
0.0
 11
-2157.254490812598
 21
1428.096591871129
 31
0.0
  0
LINE
  5
162
330
10F
100
AcDbEntity
  8
0
100
AcDbLine
 10
-2084.574102667238
 20
1491.441884291391
 30
0.0
 11
-2091.908820736962
 21
1477.439240703759
 31
0.0
  0
LINE
  5
163
330
10F
100
AcDbEntity
  8
0
100
AcDbLine
 10
-2081.906932460073
 20
1507.444905534408
 30
0.0
 11
-2084.574102667238
 21
1491.441884291391
 31
0.0
  0
LINE
  5
164
330
10F
100
AcDbEntity
  8
0
100
AcDbLine
 10
-2081.906932460073
 20
1520.113964018459
 30
0.0
 11
-2081.906932460073
 21
1507.444905534408
 31
0.0
  0
LINE
  5
165
330
10F
100
AcDbEntity
  8
0
100
AcDbLine
 10
-1997.89107093425
 20
1002.682943827658
 30
0.0
 11
-1997.891070934254
 21
1022.019927829646
 31
0.0
  0
LINE
  5
166
330
10F
100
AcDbEntity
  8
0
100
AcDbLine
 10
-1997.89107093425
 20
1539.450948020436
 30
0.0
 11
-1997.891070934243
 21
1520.113964018459
 31
0.0
  0
ENDBLK
  5
111
330
10F
100
AcDbEntity
  8
0
100
AcDbBlockEnd
  0
ENDSEC
  0
SECTION
  2
ENTITIES
  0
INSERT
  5
167
330
1F
100
AcDbEntity
  8
0
100
AcDbBlockReference
  2
ADKP
 10
7671.39042176007
 20
4130.832072653768
 30
0.0
  0
MTEXT
  5
168
330
1F
100
AcDbEntity
  8
0
100
AcDbMText
 10
3349.573835896852
 20
6855.196225392981
 30
0.0
 40
250.0
 41
21340.2
 71
     1
 72
     5
  1
{\Fisocp.shx;Hoogte:315cm\PVrije Valhoogte: 210cm}
1001
ACAD
1000
MTEXTBEGIN
1070
    73
1070
     1
1070
    44
1040
1.0
1070
    74
1070
     0
1000
MTEXTEND
  0
ENDSEC
  0
SECTION
  2
OBJECTS
  0
DICTIONARY
  5
C
330
0
100
AcDbDictionary
  3
ACAD_GROUP
350
D
  3
ACAD_LAYOUT
350
1A
  3
ACAD_MLINESTYLE
350
17
  3
ACAD_PLOTSETTINGS
350
19
  3
ACAD_PLOTSTYLENAME
350
E
  3
ACDBHEADERROUNDTRIPXREC
350
16B
  0
DICTIONARY
  5
18C
330
1F
100
AcDbDictionary
280
     1
  3
ACAD_LAYOUTSELFREF
360
18D
  0
DICTIONARY
  5
18E
330
50
100
AcDbDictionary
280
     1
  3
ACAD_LAYOUTSELFREF
360
18F
  0
DICTIONARY
  5
D
102
{ACAD_REACTORS
330
C
102
}
330
C
100
AcDbDictionary
  0
DICTIONARY
  5
1A
102
{ACAD_REACTORS
330
C
102
}
330
C
100
AcDbDictionary
  0
DICTIONARY
  5
17
102
{ACAD_REACTORS
330
C
102
}
330
C
100
AcDbDictionary
  3
STANDARD
350
18
  0
DICTIONARY
  5
19
102
{ACAD_REACTORS
330
C
102
}
330
C
100
AcDbDictionary
  0
ACDBDICTIONARYWDFLT
  5
E
102
{ACAD_REACTORS
330
C
102
}
330
C
100
AcDbDictionary
281
     1
  3
Normal
350
F
100
AcDbDictionaryWithDefault
340
F
  0
DICTIONARY
  5
16B
102
{ACAD_REACTORS
330
C
102
}
330
C
100
AcDbDictionary
  3
CEPSNTYPE
350
175
  3
DIMSTYLEDATA
350
179
  3
FINGERPRINTGUID
350
176
  3
HYPERLINKBASE
350
16E
  3
INSUNITS
350
174
  3
LAYOUTDICT
350
170
  3
LWETCUNION
350
173
  3
PLOTSETDICT
350
171
  3
PLOTSTYLNAMDICT
350
172
  3
PSVPSCALE
350
178
  3
PUCSBASE
350
17C
  3
PUCSORGBACK
350
182
  3
PUCSORGBOTTOM
350
17E
  3
PUCSORGFRONT
350
181
  3
PUCSORGLEFT
350
17F
  3
PUCSORGRIGHT
350
180
  3
PUCSORGTOP
350
17D
  3
PUCSORTHOREF
350
17A
  3
PUCSORTHOVIEW
350
17B
  3
STYLESHEET
350
16F
  3
TSTACKALIGN
350
16C
  3
TSTACKSIZE
350
16D
  3
UCSBASE
350
185
  3
UCSORGBACK
350
18B
  3
UCSORGBOTTOM
350
187
  3
UCSORGFRONT
350
18A
  3
UCSORGLEFT
350
188
  3
UCSORGRIGHT
350
189
  3
UCSORGTOP
350
186
  3
UCSORTHOREF
350
183
  3
UCSORTHOVIEW
350
184
  3
VERSIONGUID
350
177
  0
XRECORD
  5
18D
102
{ACAD_REACTORS
330
18C
102
}
330
18C
100
AcDbXrecord
340
1F
  0
XRECORD
  5
18F
102
{ACAD_REACTORS
330
18E
102
}
330
18E
100
AcDbXrecord
340
50
  0
MLINESTYLE
  5
18
102
{ACAD_REACTORS
330
17
102
}
330
17
100
AcDbMlineStyle
  2
STANDARD
 70
     0
  3

 62
   256
 51
90.0
 52
90.0
 71
     2
 49
0.5
 62
   256
  6
BYLAYER
 49
-0.5
 62
   256
  6
BYLAYER
  0
ACDBPLACEHOLDER
  5
F
102
{ACAD_REACTORS
330
E
102
}
330
E
100
AcDbPlaceHolder
280
     0
  0
XRECORD
  5
175
102
{ACAD_REACTORS
330
16B
102
}
330
16B
100
AcDbXrecord
 90
        0
  0
XRECORD
  5
179
102
{ACAD_REACTORS
330
16B
102
}
330
16B
100
AcDbXrecord
1000
DSTYLE
1002
{
1070
   278
 70
    44
1002
}
  0
XRECORD
  5
176
102
{ACAD_REACTORS
330
16B
102
}
330
16B
100
AcDbXrecord
  1
{FDEAD578-A652-11D2-9A35-0060089B3A3F}
  0
XRECORD
  5
16E
102
{ACAD_REACTORS
330
16B
102
}
330
16B
100
AcDbXrecord
  1

  0
XRECORD
  5
174
102
{ACAD_REACTORS
330
16B
102
}
330
16B
100
AcDbXrecord
 90
        4
  0
XRECORD
  5
170
102
{ACAD_REACTORS
330
16B
102
}
330
16B
100
AcDbXrecord
340
1A
  0
XRECORD
  5
173
102
{ACAD_REACTORS
330
16B
102
}
330
16B
100
AcDbXrecord
 90
    10781
  0
XRECORD
  5
171
102
{ACAD_REACTORS
330
16B
102
}
330
16B
100
AcDbXrecord
340
19
  0
XRECORD
  5
172
102
{ACAD_REACTORS
330
16B
102
}
330
16B
100
AcDbXrecord
340
E
  0
XRECORD
  5
178
102
{ACAD_REACTORS
330
16B
102
}
330
16B
100
AcDbXrecord
 40
0.0
  0
XRECORD
  5
17C
102
{ACAD_REACTORS
330
16B
102
}
330
16B
100
AcDbXrecord
340
0
  0
XRECORD
  5
182
102
{ACAD_REACTORS
330
16B
102
}
330
16B
100
AcDbXrecord
 10
0.0
 20
0.0
 30
0.0
  0
XRECORD
  5
17E
102
{ACAD_REACTORS
330
16B
102
}
330
16B
100
AcDbXrecord
 10
0.0
 20
0.0
 30
0.0
  0
XRECORD
  5
181
102
{ACAD_REACTORS
330
16B
102
}
330
16B
100
AcDbXrecord
 10
0.0
 20
0.0
 30
0.0
  0
XRECORD
  5
17F
102
{ACAD_REACTORS
330
16B
102
}
330
16B
100
AcDbXrecord
 10
0.0
 20
0.0
 30
0.0
  0
XRECORD
  5
180
102
{ACAD_REACTORS
330
16B
102
}
330
16B
100
AcDbXrecord
 10
0.0
 20
0.0
 30
0.0
  0
XRECORD
  5
17D
102
{ACAD_REACTORS
330
16B
102
}
330
16B
100
AcDbXrecord
 10
0.0
 20
0.0
 30
0.0
  0
XRECORD
  5
17A
102
{ACAD_REACTORS
330
16B
102
}
330
16B
100
AcDbXrecord
340
0
  0
XRECORD
  5
17B
102
{ACAD_REACTORS
330
16B
102
}
330
16B
100
AcDbXrecord
 70
     0
  0
XRECORD
  5
16F
102
{ACAD_REACTORS
330
16B
102
}
330
16B
100
AcDbXrecord
  1

  0
XRECORD
  5
16C
102
{ACAD_REACTORS
330
16B
102
}
330
16B
100
AcDbXrecord
 90
        1
  0
XRECORD
  5
16D
102
{ACAD_REACTORS
330
16B
102
}
330
16B
100
AcDbXrecord
 90
       70
  0
XRECORD
  5
185
102
{ACAD_REACTORS
330
16B
102
}
330
16B
100
AcDbXrecord
340
0
  0
XRECORD
  5
18B
102
{ACAD_REACTORS
330
16B
102
}
330
16B
100
AcDbXrecord
 10
0.0
 20
0.0
 30
0.0
  0
XRECORD
  5
187
102
{ACAD_REACTORS
330
16B
102
}
330
16B
100
AcDbXrecord
 10
0.0
 20
0.0
 30
0.0
  0
XRECORD
  5
18A
102
{ACAD_REACTORS
330
16B
102
}
330
16B
100
AcDbXrecord
 10
0.0
 20
0.0
 30
0.0
  0
XRECORD
  5
188
102
{ACAD_REACTORS
330
16B
102
}
330
16B
100
AcDbXrecord
 10
0.0
 20
0.0
 30
0.0
  0
XRECORD
  5
189
102
{ACAD_REACTORS
330
16B
102
}
330
16B
100
AcDbXrecord
 10
0.0
 20
0.0
 30
0.0
  0
XRECORD
  5
186
102
{ACAD_REACTORS
330
16B
102
}
330
16B
100
AcDbXrecord
 10
0.0
 20
0.0
 30
0.0
  0
XRECORD
  5
183
102
{ACAD_REACTORS
330
16B
102
}
330
16B
100
AcDbXrecord
340
0
  0
XRECORD
  5
184
102
{ACAD_REACTORS
330
16B
102
}
330
16B
100
AcDbXrecord
 70
     0
  0
XRECORD
  5
177
102
{ACAD_REACTORS
330
16B
102
}
330
16B
100
AcDbXrecord
  1
{4011B93C-9993-4381-B300-11B23F721BEE}
  0
ENDSEC
  0
EOF
