  0
SECTION
  2
HEADER
  9
$ACADVER
  1
AC1014
  9
$ACADMAINTVER
 70
     9
  9
$DWGCODEPAGE
  3
ANSI_1252
  9
$INSBASE
 10
0.0
 20
0.0
 30
0.0
  9
$EXTMIN
 10
-0.306983413411217
 20
-0.1889769633617106
 30
-0.0015258207003583
  9
$EXTMAX
 10
10060.30702632106
 20
6193.058612502555
 30
0.0000000349246037
  9
$LIMMIN
 10
0.0
 20
0.0
  9
$LIMMAX
 10
420.0
 20
297.0
  9
$ORTHOMODE
 70
     0
  9
$REGENMODE
 70
     1
  9
$FILLMODE
 70
     1
  9
$QTEXTMODE
 70
     0
  9
$MIRRTEXT
 70
     1
  9
$DRAGMODE
 70
     2
  9
$LTSCALE
 40
1.0
  9
$OSMODE
 70
   511
  9
$ATTMODE
 70
     1
  9
$TEXTSIZE
 40
2.5
  9
$TRACEWID
 40
1.0
  9
$TEXTSTYLE
  7
STANDARD
  9
$CLAYER
  8
0
  9
$CELTYPE
  6
BYLAYER
  9
$CECOLOR
 62
   256
  9
$CELTSCALE
 40
1.0
  9
$DELOBJ
 70
     1
  9
$DISPSILH
 70
     0
  9
$DIMSCALE
 40
1.0
  9
$DIMASZ
 40
2.5
  9
$DIMEXO
 40
0.625
  9
$DIMDLI
 40
3.75
  9
$DIMRND
 40
0.0
  9
$DIMDLE
 40
0.0
  9
$DIMEXE
 40
1.25
  9
$DIMTP
 40
0.0
  9
$DIMTM
 40
0.0
  9
$DIMTXT
 40
2.5
  9
$DIMCEN
 40
2.5
  9
$DIMTSZ
 40
0.0
  9
$DIMTOL
 70
     0
  9
$DIMLIM
 70
     0
  9
$DIMTIH
 70
     0
  9
$DIMTOH
 70
     0
  9
$DIMSE1
 70
     0
  9
$DIMSE2
 70
     0
  9
$DIMTAD
 70
     1
  9
$DIMZIN
 70
     8
  9
$DIMBLK
  1

  9
$DIMASO
 70
     1
  9
$DIMSHO
 70
     1
  9
$DIMPOST
  1

  9
$DIMAPOST
  1

  9
$DIMALT
 70
     0
  9
$DIMALTD
 70
     3
  9
$DIMALTF
 40
0.03937007874016
  9
$DIMLFAC
 40
1.0
  9
$DIMTOFL
 70
     1
  9
$DIMTVP
 40
0.0
  9
$DIMTIX
 70
     0
  9
$DIMSOXD
 70
     0
  9
$DIMSAH
 70
     0
  9
$DIMBLK1
  1

  9
$DIMBLK2
  1

  9
$DIMSTYLE
  2
ISO-25
  9
$DIMCLRD
 70
     0
  9
$DIMCLRE
 70
     0
  9
$DIMCLRT
 70
     0
  9
$DIMTFAC
 40
1.0
  9
$DIMGAP
 40
0.625
  9
$DIMJUST
 70
     0
  9
$DIMSD1
 70
     0
  9
$DIMSD2
 70
     0
  9
$DIMTOLJ
 70
     0
  9
$DIMTZIN
 70
     8
  9
$DIMALTZ
 70
     0
  9
$DIMALTTZ
 70
     0
  9
$DIMFIT
 70
     3
  9
$DIMUPT
 70
     0
  9
$DIMUNIT
 70
     2
  9
$DIMDEC
 70
     2
  9
$DIMTDEC
 70
     2
  9
$DIMALTU
 70
     2
  9
$DIMALTTD
 70
     3
  9
$DIMTXSTY
  7
STANDARD
  9
$DIMAUNIT
 70
     0
  9
$LUNITS
 70
     2
  9
$LUPREC
 70
     4
  9
$SKETCHINC
 40
1.0
  9
$FILLETRAD
 40
10.0
  9
$AUNITS
 70
     0
  9
$AUPREC
 70
     0
  9
$MENU
  1
.
  9
$ELEVATION
 40
0.0
  9
$PELEVATION
 40
0.0
  9
$THICKNESS
 40
0.0
  9
$LIMCHECK
 70
     0
  9
$BLIPMODE
 70
     0
  9
$CHAMFERA
 40
10.0
  9
$CHAMFERB
 40
10.0
  9
$CHAMFERC
 40
20.0
  9
$CHAMFERD
 40
0.0
  9
$SKPOLY
 70
     0
  9
$TDCREATE
 40
2453124.446606979
  9
$TDUPDATE
 40
2453186.690431655
  9
$TDINDWG
 40
0.0009915625
  9
$TDUSRTIMER
 40
0.0009915625
  9
$USRTIMER
 70
     1
  9
$ANGBASE
 50
0.0
  9
$ANGDIR
 70
     0
  9
$PDMODE
 70
     0
  9
$PDSIZE
 40
0.0
  9
$PLINEWID
 40
0.0
  9
$COORDS
 70
     2
  9
$SPLFRAME
 70
     0
  9
$SPLINETYPE
 70
     6
  9
$SPLINESEGS
 70
     8
  9
$ATTDIA
 70
     0
  9
$ATTREQ
 70
     1
  9
$HANDLING
 70
-16383
  9
$HANDSEED
  5
3C8
  9
$SURFTAB1
 70
     6
  9
$SURFTAB2
 70
     6
  9
$SURFTYPE
 70
     6
  9
$SURFU
 70
     6
  9
$SURFV
 70
     6
  9
$UCSNAME
  2

  9
$UCSORG
 10
0.0
 20
0.0
 30
0.0
  9
$UCSXDIR
 10
1.0
 20
0.0
 30
0.0
  9
$UCSYDIR
 10
0.0
 20
1.0
 30
0.0
  9
$PUCSNAME
  2

  9
$PUCSORG
 10
0.0
 20
0.0
 30
0.0
  9
$PUCSXDIR
 10
1.0
 20
0.0
 30
0.0
  9
$PUCSYDIR
 10
0.0
 20
1.0
 30
0.0
  9
$USERI1
 70
     0
  9
$USERI2
 70
     0
  9
$USERI3
 70
     0
  9
$USERI4
 70
     0
  9
$USERI5
 70
     0
  9
$USERR1
 40
0.0
  9
$USERR2
 40
0.0
  9
$USERR3
 40
0.0
  9
$USERR4
 40
0.0
  9
$USERR5
 40
0.0
  9
$WORLDVIEW
 70
     1
  9
$SHADEDGE
 70
     3
  9
$SHADEDIF
 70
    70
  9
$TILEMODE
 70
     1
  9
$MAXACTVP
 70
    64
  9
$PINSBASE
 10
0.0
 20
0.0
 30
0.0
  9
$PLIMCHECK
 70
     0
  9
$PEXTMIN
 10
0.0
 20
0.0
 30
0.0
  9
$PEXTMAX
 10
0.0
 20
0.0
 30
0.0
  9
$PLIMMIN
 10
0.0
 20
0.0
  9
$PLIMMAX
 10
12.0
 20
9.0
  9
$UNITMODE
 70
     0
  9
$VISRETAIN
 70
     1
  9
$PLINEGEN
 70
     0
  9
$PSLTSCALE
 70
     1
  9
$TREEDEPTH
 70
  3020
  9
$PICKSTYLE
 70
     0
  9
$CMLSTYLE
  2
STANDARD
  9
$CMLJUST
 70
     0
  9
$CMLSCALE
 40
20.0
  9
$PROXYGRAPHICS
 70
     1
  9
$MEASUREMENT
 70
     1
  0
ENDSEC
  0
SECTION
  2
CLASSES
  0
CLASS
  1
ACDBDICTIONARYWDFLT
  2
AcDbDictionaryWithDefault
  3
AutoCAD 2000
 90
        0
280
     0
281
     0
  0
CLASS
  1
ACDBPLACEHOLDER
  2
AcDbPlaceHolder
  3
AutoCAD 2000
 90
        0
280
     0
281
     0
  0
CLASS
  1
LAYOUT
  2
AcDbLayout
  3
AutoCAD 2000
 90
        0
280
     0
281
     0
  0
CLASS
  1
LONG_TRANSACTION
  2
AcDbLongTransaction
  3
AutoCAD 2000
 90
        0
280
     0
281
     0
  0
CLASS
  1
LWPOLYLINE
  2
AcDbPolyline
  3
AutoCAD 2000
 90
        0
280
     0
281
     1
  0
CLASS
  1
HATCH
  2
AcDbHatch
  3
AutoCAD 2000
 90
        0
280
     0
281
     1
  0
CLASS
  1
XRECORD
  2
AcDbXrecord
  3
AutoCAD 2000
 90
        0
280
     0
281
     0
  0
ENDSEC
  0
SECTION
  2
TABLES
  0
TABLE
  2
VPORT
  5
8
330
0
100
AcDbSymbolTable
 70
     2
  0
VPORT
  5
39F
330
8
100
AcDbSymbolTableRecord
100
AcDbViewportTableRecord
  2
*ACTIVE
 70
     0
 10
0.0
 20
0.0
 11
1.0
 21
1.0
 12
5030.000021453829
 22
3096.434817769596
 13
0.0
 23
0.0
 14
10.0
 24
10.0
 15
10.0
 25
10.0
 16
0.0
 26
0.0
 36
1.0
 17
0.0
 27
0.0
 37
0.0
 40
6266.830729142739
 41
1.720238095238095
 42
50.0
 43
0.0
 44
0.0
 50
0.0
 51
0.0
 71
     0
 72
   100
 73
     1
 74
     3
 75
     0
 76
     0
 77
     0
 78
     0
  0
ENDTAB
  0
TABLE
  2
LTYPE
  5
5
330
0
100
AcDbSymbolTable
 70
     1
  0
LTYPE
  5
14
330
5
100
AcDbSymbolTableRecord
100
AcDbLinetypeTableRecord
  2
BYBLOCK
 70
     0
  3

 72
    65
 73
     0
 40
0.0
  0
LTYPE
  5
15
330
5
100
AcDbSymbolTableRecord
100
AcDbLinetypeTableRecord
  2
BYLAYER
 70
     0
  3

 72
    65
 73
     0
 40
0.0
  0
LTYPE
  5
16
330
5
100
AcDbSymbolTableRecord
100
AcDbLinetypeTableRecord
  2
CONTINUOUS
 70
     0
  3
Solid line
 72
    65
 73
     0
 40
0.0
  0
ENDTAB
  0
TABLE
  2
LAYER
  5
2
330
0
100
AcDbSymbolTable
 70
     2
  0
LAYER
  5
10
330
2
100
AcDbSymbolTableRecord
100
AcDbLayerTableRecord
  2
0
 70
     0
 62
     7
  6
CONTINUOUS
  0
LAYER
  5
5D
330
2
100
AcDbSymbolTableRecord
100
AcDbLayerTableRecord
  2
LAYER1
 70
     0
 62
     3
  6
CONTINUOUS
  0
ENDTAB
  0
TABLE
  2
STYLE
  5
3
330
0
100
AcDbSymbolTable
 70
     1
  0
STYLE
  5
11
330
3
100
AcDbSymbolTableRecord
100
AcDbTextStyleTableRecord
  2
STANDARD
 70
     0
 40
0.0
 41
1.0
 50
0.0
 71
     0
 42
2.5
  3
txt
  4

  0
ENDTAB
  0
TABLE
  2
VIEW
  5
6
330
0
100
AcDbSymbolTable
 70
     0
  0
ENDTAB
  0
TABLE
  2
UCS
  5
7
330
0
100
AcDbSymbolTable
 70
     0
  0
ENDTAB
  0
TABLE
  2
APPID
  5
9
330
0
100
AcDbSymbolTable
 70
     2
  0
APPID
  5
12
330
9
100
AcDbSymbolTableRecord
100
AcDbRegAppTableRecord
  2
ACAD
 70
     0
  0
APPID
  5
3C7
330
9
100
AcDbSymbolTableRecord
100
AcDbRegAppTableRecord
  2
CONTENTBLOCKICON
 70
     0
  0
ENDTAB
  0
TABLE
  2
DIMSTYLE
  5
A
330
0
100
AcDbSymbolTable
 70
     1
  0
DIMSTYLE
105
27
330
A
100
AcDbSymbolTableRecord
100
AcDbDimStyleTableRecord
  2
ISO-25
 70
     0
  3

  4

  5

  6

  7

 40
1.0
 41
2.5
 42
0.625
 43
3.75
 44
1.25
 45
0.0
 46
0.0
 47
0.0
 48
0.0
140
2.5
141
2.5
142
0.0
143
0.03937007874016
144
1.0
145
0.0
146
1.0
147
0.625
 71
     0
 72
     0
 73
     0
 74
     0
 75
     0
 76
     0
 77
     1
 78
     8
170
     0
171
     3
172
     1
173
     0
174
     0
175
     0
176
     0
177
     0
178
     0
270
     2
271
     2
272
     2
273
     2
274
     3
340
11
275
     0
280
     0
281
     0
282
     0
283
     0
284
     8
285
     0
286
     0
287
     3
288
     0
  0
ENDTAB
  0
TABLE
  2
BLOCK_RECORD
  5
1
330
0
100
AcDbSymbolTable
 70
     2
  0
BLOCK_RECORD
  5
1F
102
{ACAD_XDICTIONARY
360
3C1
102
}
330
1
100
AcDbSymbolTableRecord
100
AcDbBlockTableRecord
  2
*MODEL_SPACE
  0
BLOCK_RECORD
  5
50
102
{ACAD_XDICTIONARY
360
3C3
102
}
330
1
100
AcDbSymbolTableRecord
100
AcDbBlockTableRecord
  2
*PAPER_SPACE
  0
BLOCK_RECORD
  5
288
330
1
100
AcDbSymbolTableRecord
100
AcDbBlockTableRecord
  2
ADKK
1001
ACAD
1000
DesignCenter Data
1002
{
1070
     1
1070
     4
1002
}
1001
CONTENTBLOCKICON
1071
        0
1004
2800000020000000200000000100080000000000000400000000000000000000000000000000000000000000000080000080000000808000800000008000800080800000C0C0C000C0DCC000F0CAA6000020400000206000002080000020A0000020C0000020E00000400000004020000040400000406000004080000040A0
1004
000040C0000040E00000600000006020000060400000606000006080000060A0000060C0000060E00000800000008020000080400000806000008080000080A0000080C0000080E00000A0000000A0200000A0400000A0600000A0800000A0A00000A0C00000A0E00000C0000000C0200000C0400000C0600000C0800000C0
1004
A00000C0C00000C0E00000E0000000E0200000E0400000E0600000E0800000E0A00000E0C00000E0E00040000000400020004000400040006000400080004000A0004000C0004000E00040200000402020004020400040206000402080004020A0004020C0004020E000404000004040200040404000404060004040800040
1004
40A0004040C0004040E00040600000406020004060400040606000406080004060A0004060C0004060E00040800000408020004080400040806000408080004080A0004080C0004080E00040A0000040A0200040A0400040A0600040A0800040A0A00040A0C00040A0E00040C0000040C0200040C0400040C0600040C08000
1004
40C0A00040C0C00040C0E00040E0000040E0200040E0400040E0600040E0800040E0A00040E0C00040E0E00080000000800020008000400080006000800080008000A0008000C0008000E00080200000802020008020400080206000802080008020A0008020C0008020E00080400000804020008040400080406000804080
1004
008040A0008040C0008040E00080600000806020008060400080606000806080008060A0008060C0008060E00080800000808020008080400080806000808080008080A0008080C0008080E00080A0000080A0200080A0400080A0600080A0800080A0A00080A0C00080A0E00080C0000080C0200080C0400080C0600080C0
1004
800080C0A00080C0C00080C0E00080E0000080E0200080E0400080E0600080E0800080E0A00080E0C00080E0E000C0000000C0002000C0004000C0006000C0008000C000A000C000C000C000E000C0200000C0202000C0204000C0206000C0208000C020A000C020C000C020E000C0400000C0402000C0404000C0406000C0
1004
408000C040A000C040C000C040E000C0600000C0602000C0604000C0606000C0608000C060A000C060C000C060E000C0800000C0802000C0804000C0806000C0808000C080A000C080C000C080E000C0A00000C0A02000C0A04000C0A06000C0A08000C0A0A000C0A0C000C0A0E000C0C00000C0C02000C0C04000C0C06000
1004
C0C08000C0C0A000F0FBFF00A4A0A000808080000000FF0000FF000000FFFF00FF000000FF00FF00FFFF0000FFFFFF00FFFFFFFFFFFFFFFFFFFFFFFFFFFFFFFFFFFFFFFFFFFFFFFFFFFFFFFFFFFFFFFFFFFFFFFFFFFFFFFFFFFFFFFFFFFFFFFFFFFFFFFFFFFFFFFFFFFFFFFFFFFFFFFFFFFFFFFFFFFFFFFFFFFFFFFFFFFFFF
1004
FFFFFFFFFFFFFFFFFFFFFFFFFFFFFFFFFFFFFFFFFFFFFFFFFFFFFFFFFFFFFFFFFFFFFFFFFFFFFFFFFFFFFFFFFFFFFFFFFFFFFFFFFFFFFFFFFFFFFFFFFFFFFFFFFFFFFFFFFFFFFFFFFFFFFFFFFFFFFFFFFFFFFFFFFFFFFFFFFFFFFFFFFFFFFFFFFFFFFFFFFFFFFFFFFFFFFFFFFFFFFFFFFFFFFFFFFFFFFFFFFFFFFFFFFFFFFF
1004
FFFFFFFFFFFFFFFFFFFFFFFFFFFFFFFFFFFFFFFFFFFFFFFFFFFFFFFFFFFF000000000000000000FFFFFFFFFFFFFFFFFFFFFFFFFFFFFFFFFFFF0000000000FFFFFFFFFFFFFFFFFF00FFFFFFFFFFFFFFFFFFFFFFFFFFFFFF0000FFFFFFFFFFFFFFFFFFFFFFFFFFFFFF0000FFFFFFFFFFFFFFFFFFFFFFFF00FFFFFFFFFFFFFFFF
1004
FFFFFFFFFFFFFFFFFFFFFF0000FFFFFFFFFFFFFFFFFF00FFFFFFFFFFFFFFFFFFFFFF0000000000FFFFFFFFFFFF00FFFFFFFFFFFFFF00FFFFFFFFFFFF0000FFFFFFFF3C00000000FFFFFFFFFFFFFF00000000FFFFFF00FFFFFFFFFFFF0000FFFFFFFFFF000000FFFFFFFFFFFFFFFFFFFFFF00FFFF00FFFFFFFF000000000000
1004
00000000000000000000000000FFFFFFFFFF00FFFF00FFFFFFFF00000000000000000000000000FBFFFFFF0000FFFFFFFFFF00FFFF00FFFFFFFF00000000000000000000000000000000000000FFFFFFFFFF00FFFF00FFFFFFFF00FF00E0E000FFFFFFFF00000000FFFFFFFFFFFFFFFFFFFF00FFFFFF00FFFFFFFFFFFFE0E0
1004
FFFFFFFFFFFFFFFFFFFFFFFFFFFFFFFFFFFFFF00FFFFFF00FFFFFFFFFFFFE0E0FFFFFFFFFFFFFFFFFFFFFFFFFFFFFF0000000000FFFFFFFF00FFFFFFFFFF0000FFFFFFFFFFFFFFFFFF000000000000FFFFFFFFFFFFFFFFFFFF0000FFFFFFFFFFFFFFFF000000000000FFFFFFFFFFFFFFFFFFFFFFFFFFFFFFFFFFFF00FFFFFF
1004
FFFFFF00FFFFFFFFFFFFFFFFFFFFFFFFFFFFFFFFFFFFFFFFFFFFFFFFFF00FFFFFFFF0000FFFFFFFFFFFFFFFFFFFFFFFFFFFFFFFFFFFFFFFFFFFFFFFFFFFF00000000FFFFFFFFFFFFFFFFFFFFFFFFFFFFFFFFFFFFFFFFFFFFFFFFFFFFFFFFFFFFFFFFFFFFFFFFFFFFFFFFFFFFFFFFFFFFFFFFFFFFFFFFFFFFFFFFFFFFFFFFFF
1004
FFFFFFFFFFFFFFFFFFFFFFFFFFFFFFFFFFFFFFFFFFFFFFFFFFFFFFFFFFFFFFFFFFFFFFFFFFFFFFFFFFFFFFFFFFFFFFFFFFFFFFFFFFFFFFFFFFFFFFFFFFFFFFFFFFFFFFFFFFFFFFFFFFFFFFFFFFFFFFFFFFFFFFFFFFFFFFFFFFFFFFFFFFFFFFFFFFFFFFFFFFFFFFFFFFFFFFFFFFFFFFFFFFFFFFFFFFFFFFFFFFFFFFFFFFFFFF
1004
FFFFFFFFFFFFFFFFFFFFFFFFFFFFFFFFFFFFFFFFFFFFFFFFFFFFFFFFFFFFFFFFFFFFFFFFFFFFFFFFFFFFFFFFFFFFFFFFFFFFFFFFFFFFFFFF
  0
ENDTAB
  0
ENDSEC
  0
SECTION
  2
BLOCKS
  0
BLOCK
  5
20
330
1F
100
AcDbEntity
  8
0
100
AcDbBlockBegin
  2
*MODEL_SPACE
 70
     0
 10
0.0
 20
0.0
 30
0.0
  3
*MODEL_SPACE
  1

  0
ENDBLK
  5
21
330
1F
100
AcDbEntity
  8
0
100
AcDbBlockEnd
  0
BLOCK
  5
52
330
50
100
AcDbEntity
 67
     1
  8
0
100
AcDbBlockBegin
  2
*PAPER_SPACE
 70
     0
 10
0.0
 20
0.0
 30
0.0
  3
*PAPER_SPACE
  1

  0
ENDBLK
  5
53
330
50
100
AcDbEntity
 67
     1
  8
0
100
AcDbBlockEnd
  0
BLOCK
  5
289
330
288
100
AcDbEntity
  8
0
100
AcDbBlockBegin
  2
ADKK
 70
     0
 10
0.0
 20
0.0
 30
0.0
  3
ADKK
  1

  0
HATCH
  5
28B
330
288
100
AcDbEntity
  8
0
 62
   250
100
AcDbHatch
 10
0.0
 20
0.0
 30
0.0
210
0.0
220
0.0
230
1.0
  2
SOLID
 70
     1
 71
     1
 91
       15
 92
        7
 72
     0
 73
     1
 93
        4
 10
-5020.174146252324
 20
1537.10803269127
 10
-5020.174146252325
 20
1637.226180414456
 10
-6594.334076383667
 20
1637.226180414456
 10
-6594.334076383667
 20
1537.10803269127
 97
        4
330
292
330
2BB
330
291
330
30F
 92
        7
 72
     0
 73
     1
 93
        4
 10
-5020.174146252324
 20
906.4172411516265
 10
-5020.174146252324
 20
1006.535388874814
 10
-6594.334076383667
 20
1006.535388874814
 10
-6594.334076383667
 20
906.4172411516265
 97
        4
330
28F
330
2BB
330
290
330
30F
 92
        7
 72
     0
 73
     1
 93
        4
 10
-5020.174146252325
 20
1537.10803269127
 10
-5084.609887310693
 20
1537.10803269127
 10
-5084.609887310692
 20
1006.535388874814
 10
-5020.174146252324
 20
1006.535388874814
 97
        4
330
291
330
295
330
28F
330
30F
 92
        7
 72
     0
 73
     1
 93
        4
 10
-5212.568375577227
 20
1006.535388874814
 10
-5100.136231075252
 20
1006.535388874814
 10
-5100.136231075252
 20
1537.10803269127
 10
-5212.568375577227
 20
1537.10803269127
 97
        4
330
291
330
297
330
28F
330
296
 92
        7
 72
     0
 73
     1
 93
        4
 10
-5229.165501670372
 20
1537.10803269127
 10
-5343.203819665236
 20
1537.10803269127
 10
-5343.203819665236
 20
1006.535388874814
 10
-5229.165501670373
 20
1006.535388874814
 97
        4
330
291
330
299
330
28F
330
298
 92
        7
 72
     0
 73
     1
 93
        4
 10
-5358.73016342979
 20
1537.10803269127
 10
-5473.839263753241
 20
1537.10803269127
 10
-5473.839263753241
 20
1006.535388874814
 10
-5358.730163429791
 20
1006.535388874814
 97
        4
330
291
330
29B
330
28F
330
29A
 92
        7
 72
     0
 73
     1
 93
        4
 10
-5604.474707841248
 20
1006.535388874814
 10
-5488.29482518921
 20
1006.535388874814
 10
-5488.294825189209
 20
1537.10803269127
 10
-5604.474707841248
 20
1537.10803269127
 97
        4
330
291
330
29D
330
28F
330
29C
 92
        7
 72
     0
 73
     1
 93
        4
 10
-5734.039369600665
 20
1006.535388874814
 10
-5618.930269277218
 20
1006.535388874814
 10
-5618.930269277218
 20
1537.10803269127
 10
-5734.039369600665
 20
1537.10803269127
 97
        4
330
291
330
29F
330
28F
330
29E
 92
        7
 72
     0
 73
     1
 93
        4
 10
-5749.565713365225
 20
1537.10803269127
 10
-5866.280987181559
 20
1537.10803269127
 10
-5866.28098718156
 20
1006.535388874814
 10
-5749.565713365224
 20
1006.535388874814
 97
        4
330
291
330
2A1
330
28F
330
2A0
 92
        7
 72
     0
 73
     1
 93
        4
 10
-5996.916431269568
 20
1006.535388874814
 10
-5880.201157453234
 20
1006.535388874814
 10
-5880.201157453234
 20
1537.10803269127
 10
-5996.916431269568
 20
1537.10803269127
 97
        4
330
291
330
2A3
330
28F
330
2A2
 92
        7
 72
     0
 73
     1
 93
        4
 10
-6011.371992705536
 20
1537.10803269127
 10
-6128.08726652187
 20
1537.108032691271
 10
-6128.08726652187
 20
1006.535388874814
 10
-6011.371992705536
 20
1006.535388874814
 97
        4
330
291
330
2A5
330
28F
330
2A4
 92
        7
 72
     0
 73
     1
 93
        4
 10
-6257.116537116992
 20
1006.535388874814
 10
-6142.007436793544
 20
1006.535388874814
 10
-6142.007436793544
 20
1537.10803269127
 10
-6257.116537116992
 20
1537.10803269127
 97
        4
330
291
330
2A7
330
28F
330
2A6
 92
        7
 72
     0
 73
     1
 93
        4
 10
-6386.681198876409
 20
1006.535388874814
 10
-6272.64288088155
 20
1006.535388874814
 10
-6272.642880881551
 20
1537.10803269127
 10
-6386.681198876409
 20
1537.10803269127
 97
        4
330
291
330
2A9
330
28F
330
2A8
 92
        7
 72
     0
 73
     1
 93
        4
 10
-6516.781251800124
 20
1006.535388874814
 10
-6402.742933805261
 20
1006.535388874814
 10
-6402.742933805261
 20
1537.10803269127
 10
-6516.781251800122
 20
1537.10803269127
 97
        4
330
291
330
2AB
330
28F
330
2AA
 92
        7
 72
     0
 73
     1
 93
        4
 10
-6531.772204400386
 20
1537.10803269127
 10
-6594.334076383669
 20
1537.10803269127
 10
-6594.334076383669
 20
1006.535388874814
 10
-6531.772204400386
 20
1006.535388874814
 97
        4
330
291
330
2BB
330
28F
330
2AC
 75
     0
 76
     1
 47
4.840544086279949
 98
       15
 10
-5264.3176731083
 20
1563.401921252782
 10
-5405.114790663465
 20
916.4099432916154
 10
-5036.484263057523
 20
1260.756867302134
 10
-5162.469681870272
 20
1255.916291843296
 10
-5278.763958965959
 20
1251.075759604657
 10
-5399.903806920185
 20
1265.597399540773
 10
-5550.117162381451
 20
1265.597399540773
 10
-5690.639376125655
 20
1260.756867302134
 10
-5787.551287431364
 20
1270.437931779412
 10
-5952.301437824069
 20
1270.437931779412
 10
-6068.595714919757
 20
1270.437931779412
 10
-6218.809152736874
 20
1275.27846401805
 10
-6339.9490006911
 20
1284.95957171552
 10
-6465.93441950385
 20
1284.95957171552
 10
-6562.846330809574
 20
1280.119039476882
  0
LWPOLYLINE
  5
28C
330
288
100
AcDbEntity
  8
0
 62
     7
100
AcDbPolyline
 90
       32
 70
     1
 43
0.0
 10
-10059.99997710518
 20
768.2863207634873
 10
-9828.710994129695
 20
-32.65886102200238
 10
-9556.732282667773
 20
-353.8935595990697
 10
-9206.586461218773
 20
-586.7887160674436
 10
-8092.972839484938
 20
-1119.50292454108
 10
-7722.482153792717
 20
-1240.501327671776
 10
-5402.096847737695
 20
-1675.774344243702
 10
-5125.835006961417
 20
-1701.47312012987
 10
-3754.162844037338
 20
-1701.47312012987
 10
-3309.252786508099
 20
-1634.013833428686
 10
-2904.497066300995
 20
-1437.525276132379
 10
-1155.374132548859
 20
-234.5013299612582
 10
-887.6785504013023
 20
0.0
 10
0.0
 20
0.0
 10
0.0
 20
2543.643421566085
 10
-887.6785504013023
 20
2543.643421566085
 10
-1185.891428913681
 20
2799.025006934851
 10
-1540.320379677046
 20
2968.744006016404
 10
-1925.802017969523
 20
3040.486422031946
 10
-5694.420423442829
 20
3238.581152821142
 10
-5811.135697259164
 20
3619.779661799261
 10
-6023.685989484322
 20
3957.076095305183
 10
-6317.61573868234
 20
4226.377850945624
 10
-6671.50929828141
 20
4408.946237970257
 10
-7061.274065888254
 20
4491.396477271704
 10
-7459.069700959521
 20
4468.374657207015
 10
-7837.055862951871
 20
4342.02234243337
 10
-8167.927602486251
 20
4119.835009250895
 10
-9552.449153353416
 20
2896.466198836562
 10
-9826.569429472511
 20
2574.696109095199
 10
-10000.57155786842
 20
2189.214470802718
 10
-10059.99997710518
 20
1770.53858032394
  0
LINE
  5
28D
102
{ACAD_REACTORS
330
294
102
}
330
288
100
AcDbEntity
  8
0
100
AcDbLine
 10
-5125.835006961417
 20
-185.7807340104045
 30
0.0
 11
-3754.162844037338
 21
-185.7807340104045
 31
0.0
  0
LINE
  5
28E
102
{ACAD_REACTORS
330
294
102
}
330
288
100
AcDbEntity
  8
0
100
AcDbLine
 10
-4840.345302188595
 20
691.1110988657383
 30
0.0
 11
-5095.317710596595
 21
-38.01277266495162
 31
0.0
  0
LINE
  5
28F
102
{ACAD_REACTORS
330
28B
102
}
330
288
100
AcDbEntity
  8
0
100
AcDbLine
 10
-5020.174146252324
 20
1006.535388874814
 30
0.0
 11
-6594.412970622915
 21
1006.535388874814
 31
0.0
  0
LINE
  5
290
102
{ACAD_REACTORS
330
28B
102
}
330
288
100
AcDbEntity
  8
0
100
AcDbLine
 10
-6594.334076383667
 20
906.4172411516265
 30
0.0
 11
-5020.174146252324
 21
906.4172411516265
 31
0.0
  0
LINE
  5
291
102
{ACAD_REACTORS
330
28B
102
}
330
288
100
AcDbEntity
  8
0
100
AcDbLine
 10
-5020.174146252324
 20
1537.10803269127
 30
0.0
 11
-6594.412970622915
 21
1537.10803269127
 31
0.0
  0
LINE
  5
292
102
{ACAD_REACTORS
330
28B
102
}
330
288
100
AcDbEntity
  8
0
100
AcDbLine
 10
-6594.412970622915
 20
1637.226180414456
 30
0.0
 11
-5020.174146252324
 21
1637.226180414456
 31
0.0
  0
HATCH
  5
293
330
288
100
AcDbEntity
  8
0
 62
    84
100
AcDbHatch
 10
0.0
 20
0.0
 30
0.0
210
0.0
220
0.0
230
1.0
  2
SOLID
 70
     1
 71
     1
 91
        2
 92
        1
 93
        4
 72
     1
 10
-5020.174146252324
 20
691.1110988657383
 11
-3859.288313582016
 21
691.1110988657383
 72
     1
 10
-3859.288313582016
 20
691.1110988657383
 11
-3859.288313582016
 21
1851.996931536043
 72
     1
 10
-3859.288313582016
 20
1851.996931536043
 11
-5020.174146252324
 21
1851.996931536043
 72
     1
 10
-5020.174146252324
 20
1851.996931536043
 11
-5020.174146252324
 21
691.1110988657383
 97
        1
330
30F
 92
        1
 93
        4
 72
     1
 10
-7755.219909053976
 20
691.1110988657364
 11
-6594.334076383667
 21
691.1110988657364
 72
     1
 10
-6594.334076383667
 20
691.1110988657364
 11
-6594.334076383667
 21
1851.996931536041
 72
     1
 10
-6594.334076383667
 20
1851.996931536041
 11
-7755.219909053976
 21
1851.996931536041
 72
     1
 10
-7755.219909053976
 20
1851.996931536041
 11
-7755.219909053976
 21
691.1110988657364
 97
        1
330
2BB
 75
     0
 76
     1
 98
        1
 10
-30902.24457606592
 20
-12185.19058758131
  0
HATCH
  5
294
330
288
100
AcDbEntity
  8
0
 62
    70
100
AcDbHatch
 10
0.0
 20
0.0
 30
0.0
210
0.0
220
0.0
230
1.0
  2
SOLID
 70
     1
 71
     1
 91
       13
 92
        7
 72
     0
 73
     1
 93
        6
 10
-4039.21065555469
 20
691.1110988657383
 10
-4840.345302188595
 20
691.1110988657383
 10
-5095.317710596594
 20
-38.01277266495247
 10
-5125.835006961417
 20
-185.7807340104045
 10
-3754.162844037338
 20
-185.7807340104045
 10
-3784.680140402162
 20
-38.01277266494987
 97
        6
330
30F
330
28E
330
2F2
330
28D
330
353
330
31B
 92
       22
 72
     0
 73
     1
 93
        8
 10
-4125.188920893848
 20
119.9276208021056
 10
-4124.653529729552
 20
77.09632765849746
 10
-4145.533785137064
 20
60.49920156534972
 10
-4248.328888681725
 20
60.49920156534972
 10
-4269.209144089233
 20
77.09632765849689
 10
-4268.673752924937
 20
119.9276208021055
 10
-4246.722715188837
 20
135.9893557309606
 10
-4147.139958629945
 20
135.9893557309606
 97
        8
330
360
330
35E
330
31D
330
345
330
349
330
348
330
31C
330
35F
 92
       22
 72
     0
 73
     1
 93
        9
 10
-4013.827558720462
 20
-66.92389553688925
 10
-4011.685994063285
 20
-99.85045214103777
 10
-4059.871198849843
 20
-143.4848320310884
 10
-4135.89674417975
 20
-143.4848320310884
 10
-4184.617340130603
 20
-99.04736539459586
 10
-4181.775648566268
 20
-64.94706662256742
 10
-4165.34325821598
 20
-58.89302807246154
 10
-4097.883971514799
 20
-80.84406580856194
 10
-4028.283120156433
 20
-60.49920156534805
 97
       10
330
35D
330
355
330
35B
330
357
330
35A
330
358
330
359
330
356
330
354
330
35C
 92
       22
 72
     0
 73
     1
 93
        9
 10
-4130.007441372508
 20
309.1883973804288
 10
-4178.192646159066
 20
265.5540174903781
 10
-4254.218191488972
 20
265.5540174903781
 10
-4302.938787439827
 20
309.9914841268713
 10
-4300.097095875489
 20
344.0917828988992
 10
-4283.664705525204
 20
350.145821449005
 10
-4216.205418824022
 20
328.1947837129044
 10
-4146.604567465656
 20
348.5396479561184
 10
-4132.149006029686
 20
342.114953984577
 97
       10
330
361
330
31F
330
34F
330
352
330
350
330
351
330
31E
330
364
330
363
330
365
 92
       22
 72
     0
 73
     1
 93
        8
 10
-4066.831283985684
 20
426.7067579432078
 10
-4169.626387530345
 20
426.7067579432078
 10
-4190.506642937853
 20
443.3038840363549
 10
-4189.971251773557
 20
486.1351771799633
 10
-4168.020214037457
 20
502.1969121088186
 10
-4068.437457478565
 20
502.1969121088186
 10
-4046.486419742468
 20
486.1351771799638
 10
-4045.951028578172
 20
443.3038840363551
 97
        8
330
362
330
31A
330
382
330
381
330
380
330
37F
330
384
330
319
 92
       22
 72
     0
 73
     1
 93
        8
 10
-4364.508771333767
 20
-46.04364012938114
 10
-4363.973380169471
 20
-88.87493327298946
 10
-4384.853635576983
 20
-105.4720593661368
 10
-4487.648739121643
 20
-105.4720593661368
 10
-4508.528994529151
 20
-88.87493327298944
 10
-4507.993603364855
 20
-46.04364012938079
 10
-4486.042565628755
 20
-29.98190520052594
 10
-4386.459809069863
 20
-29.98190520052594
 97
        8
330
320
330
327
330
325
330
326
330
321
330
33D
330
33A
330
346
 92
       22
 72
     0
 73
     1
 93
        9
 10
-4427.684928720591
 20
136.7924424774028
 10
-4475.870133507148
 20
93.15806258735209
 10
-4551.895678837055
 20
93.15806258735211
 10
-4600.616274787909
 20
137.595529223845
 10
-4597.774583223572
 20
171.6958279958735
 10
-4581.342192873285
 20
177.7498665459789
 10
-4513.882906172105
 20
155.7988288098786
 10
-4444.282054813739
 20
176.1436930530925
 10
-4429.826493377768
 20
169.7189990815516
 97
       10
330
33C
330
33F
330
342
330
343
330
340
330
341
330
33E
330
344
330
33B
330
347
 92
       22
 72
     0
 73
     1
 93
        8
 10
-4263.855232446287
 20
607.8569725981396
 10
-4366.650335990948
 20
607.8569725981398
 10
-4387.530591398454
 20
624.4540986912875
 10
-4386.995200234159
 20
667.2853918348959
 10
-4365.044162498059
 20
683.3471267637506
 10
-4265.461405939166
 20
683.3471267637506
 10
-4243.510368203071
 20
667.2853918348953
 10
-4242.974977038775
 20
624.4540986912876
 97
        8
330
37A
330
37C
330
37D
330
370
330
37E
330
366
330
383
330
367
 92
       22
 72
     0
 73
     1
 93
        8
 10
-4497.285780078954
 20
304.1021813196239
 10
-4518.166035486465
 20
287.5050552264765
 10
-4620.961139031126
 20
287.5050552264765
 10
-4641.841394438634
 20
304.1021813196237
 10
-4641.306003274338
 20
346.9334744632325
 10
-4619.354965538238
 20
362.9952093920873
 10
-4519.772208979346
 20
362.9952093920874
 10
-4497.821171243249
 20
346.9334744632319
 97
        8
330
34C
330
34B
330
329
330
337
330
328
330
34D
330
34E
330
34A
 92
       22
 72
     0
 73
     1
 93
        9
 10
-4419.654061256165
 20
526.0218189199494
 10
-4467.839266042723
 20
482.3874390298987
 10
-4543.86481137263
 20
482.3874390298988
 10
-4592.585407323485
 20
526.8249056663923
 10
-4589.743715759146
 20
560.9252044384199
 10
-4573.311325408861
 20
566.9792429885255
 10
-4505.852038707678
 20
545.0282052524254
 10
-4436.251187349313
 20
565.3730694956391
 10
-4421.795625913342
 20
558.9483755240981
 97
       10
330
372
330
375
330
376
330
374
330
377
330
378
330
373
330
371
330
37B
330
379
 92
       22
 72
     0
 73
     1
 93
        9
 10
-4672.894081967749
 20
15.52634376455892
 10
-4670.752517310571
 20
-17.40021283958917
 10
-4718.93772209713
 20
-61.03459272964028
 10
-4794.963267427036
 20
-61.03459272964028
 10
-4843.68386337789
 20
-16.59712609314786
 10
-4840.842171813552
 20
17.50317267888083
 10
-4824.409781463266
 20
23.55721122898653
 10
-4756.950494762084
 20
1.606173492886228
 10
-4687.349643403718
 20
21.95103773610038
 97
       10
330
333
330
322
330
324
330
323
330
32F
330
32E
330
32D
330
331
330
330
330
332
 92
       22
 72
     0
 73
     1
 93
        8
 10
-4653.084608888831
 20
515.0463000519013
 10
-4673.964864296343
 20
498.4491739587538
 10
-4776.759967841004
 20
498.4491739587538
 10
-4797.640223248511
 20
515.0463000519009
 10
-4797.104832084216
 20
557.8775931955101
 10
-4775.153794348116
 20
573.9393281243646
 10
-4675.571037789224
 20
573.9393281243646
 10
-4653.620000053127
 20
557.8775931955092
 97
        8
330
36C
330
36A
330
36B
330
369
330
36E
330
36D
330
36F
330
368
 92
       22
 72
     0
 73
     1
 93
        8
 10
-4740.888759833231
 20
192.2054279819458
 10
-4761.769015240742
 20
175.6083018887984
 10
-4864.564118785402
 20
175.6083018887984
 10
-4885.44437419291
 20
192.2054279819461
 10
-4884.908983028615
 20
235.0367211255544
 10
-4862.957945292514
 20
251.0984560544093
 10
-4763.375188733622
 20
251.0984560544093
 10
-4741.424150997525
 20
235.0367211255546
 97
        8
330
32A
330
32C
330
32B
330
336
330
335
330
334
330
338
330
339
 75
     0
 76
     1
 47
9.376694780567449
 98
       13
 10
-3922.051473187857
 20
156.897687107059
 10
-3922.051473187857
 20
156.897687107059
 10
-3922.051473187857
 20
156.897687107059
 10
-3922.051473187857
 20
156.897687107059
 10
-3922.051473187857
 20
156.897687107059
 10
-3922.051473187857
 20
156.897687107059
 10
-3922.051473187857
 20
156.897687107059
 10
-3922.051473187857
 20
156.897687107059
 10
-3922.051473187857
 20
156.897687107059
 10
-3922.051473187857
 20
156.897687107059
 10
-3922.051473187857
 20
156.897687107059
 10
-3922.051473187857
 20
156.897687107059
 10
-3922.051473187857
 20
156.897687107059
  0
LINE
  5
295
102
{ACAD_REACTORS
330
28B
102
}
330
288
100
AcDbEntity
  8
0
100
AcDbLine
 10
-5084.609887310693
 20
1006.535388874814
 30
0.0
 11
-5084.609887310693
 21
1537.10803269127
 31
0.0
  0
LINE
  5
296
102
{ACAD_REACTORS
330
28B
102
}
330
288
100
AcDbEntity
  8
0
100
AcDbLine
 10
-5100.136231075252
 20
1537.10803269127
 30
0.0
 11
-5100.136231075252
 21
1006.535388874814
 31
0.0
  0
LINE
  5
297
102
{ACAD_REACTORS
330
28B
102
}
330
288
100
AcDbEntity
  8
0
100
AcDbLine
 10
-5212.568375577227
 20
1006.535388874814
 30
0.0
 11
-5212.568375577227
 21
1537.10803269127
 31
0.0
  0
LINE
  5
298
102
{ACAD_REACTORS
330
28B
102
}
330
288
100
AcDbEntity
  8
0
100
AcDbLine
 10
-5229.165501670373
 20
1537.10803269127
 30
0.0
 11
-5229.165501670373
 21
1006.535388874814
 31
0.0
  0
LINE
  5
299
102
{ACAD_REACTORS
330
28B
102
}
330
288
100
AcDbEntity
  8
0
100
AcDbLine
 10
-5343.203819665236
 20
1006.535388874814
 30
0.0
 11
-5343.203819665236
 21
1537.10803269127
 31
0.0
  0
LINE
  5
29A
102
{ACAD_REACTORS
330
28B
102
}
330
288
100
AcDbEntity
  8
0
100
AcDbLine
 10
-5358.730163429791
 20
1537.10803269127
 30
0.0
 11
-5358.730163429791
 21
1006.535388874814
 31
0.0
  0
LINE
  5
29B
102
{ACAD_REACTORS
330
28B
102
}
330
288
100
AcDbEntity
  8
0
100
AcDbLine
 10
-5473.839263753241
 20
1006.535388874814
 30
0.0
 11
-5473.839263753241
 21
1537.10803269127
 31
0.0
  0
LINE
  5
29C
102
{ACAD_REACTORS
330
28B
102
}
330
288
100
AcDbEntity
  8
0
100
AcDbLine
 10
-5488.294825189209
 20
1537.10803269127
 30
0.0
 11
-5488.294825189209
 21
1006.535388874814
 31
0.0
  0
LINE
  5
29D
102
{ACAD_REACTORS
330
28B
102
}
330
288
100
AcDbEntity
  8
0
100
AcDbLine
 10
-5604.474707841248
 20
1006.535388874814
 30
0.0
 11
-5604.474707841248
 21
1537.10803269127
 31
0.0
  0
LINE
  5
29E
102
{ACAD_REACTORS
330
28B
102
}
330
288
100
AcDbEntity
  8
0
100
AcDbLine
 10
-5618.930269277218
 20
1537.10803269127
 30
0.0
 11
-5618.930269277218
 21
1006.535388874814
 31
0.0
  0
LINE
  5
29F
102
{ACAD_REACTORS
330
28B
102
}
330
288
100
AcDbEntity
  8
0
100
AcDbLine
 10
-5734.039369600665
 20
1006.535388874814
 30
0.0
 11
-5734.039369600665
 21
1537.10803269127
 31
0.0
  0
LINE
  5
2A0
102
{ACAD_REACTORS
330
28B
102
}
330
288
100
AcDbEntity
  8
0
100
AcDbLine
 10
-5749.565713365224
 20
1537.10803269127
 30
0.0
 11
-5749.565713365224
 21
1006.535388874814
 31
0.0
  0
LINE
  5
2A1
102
{ACAD_REACTORS
330
28B
102
}
330
288
100
AcDbEntity
  8
0
100
AcDbLine
 10
-5866.280987181559
 20
1004.929215381927
 30
0.0
 11
-5866.280987181559
 21
1537.10803269127
 31
0.0
  0
LINE
  5
2A2
102
{ACAD_REACTORS
330
28B
102
}
330
288
100
AcDbEntity
  8
0
100
AcDbLine
 10
-5880.201157453234
 20
1537.10803269127
 30
0.0
 11
-5880.201157453234
 21
1006.535388874814
 31
0.0
  0
LINE
  5
2A3
102
{ACAD_REACTORS
330
28B
102
}
330
288
100
AcDbEntity
  8
0
100
AcDbLine
 10
-5996.916431269568
 20
1006.535388874814
 30
0.0
 11
-5996.916431269568
 21
1537.10803269127
 31
0.0
  0
LINE
  5
2A4
102
{ACAD_REACTORS
330
28B
102
}
330
288
100
AcDbEntity
  8
0
100
AcDbLine
 10
-6011.371992705536
 20
1537.10803269127
 30
0.0
 11
-6011.371992705536
 21
1006.535388874814
 31
0.0
  0
LINE
  5
2A5
102
{ACAD_REACTORS
330
28B
102
}
330
288
100
AcDbEntity
  8
0
100
AcDbLine
 10
-6128.08726652187
 20
1006.535388874814
 30
0.0
 11
-6128.08726652187
 21
1537.10803269127
 31
0.0
  0
LINE
  5
2A6
102
{ACAD_REACTORS
330
28B
102
}
330
288
100
AcDbEntity
  8
0
100
AcDbLine
 10
-6142.007436793544
 20
1537.10803269127
 30
0.0
 11
-6142.007436793544
 21
1006.535388874814
 31
0.0
  0
LINE
  5
2A7
102
{ACAD_REACTORS
330
28B
102
}
330
288
100
AcDbEntity
  8
0
100
AcDbLine
 10
-6257.116537116992
 20
1006.535388874814
 30
0.0
 11
-6257.116537116992
 21
1537.10803269127
 31
0.0
  0
LINE
  5
2A8
102
{ACAD_REACTORS
330
28B
102
}
330
288
100
AcDbEntity
  8
0
100
AcDbLine
 10
-6272.642880881551
 20
1537.10803269127
 30
0.0
 11
-6272.642880881551
 21
1006.535388874814
 31
0.0
  0
LINE
  5
2A9
102
{ACAD_REACTORS
330
28B
102
}
330
288
100
AcDbEntity
  8
0
100
AcDbLine
 10
-6386.681198876409
 20
1006.535388874814
 30
0.0
 11
-6386.681198876409
 21
1537.10803269127
 31
0.0
  0
LINE
  5
2AA
102
{ACAD_REACTORS
330
28B
102
}
330
288
100
AcDbEntity
  8
0
100
AcDbLine
 10
-6402.742933805261
 20
1537.10803269127
 30
0.0
 11
-6402.742933805261
 21
1006.535388874814
 31
0.0
  0
LINE
  5
2AB
102
{ACAD_REACTORS
330
28B
102
}
330
288
100
AcDbEntity
  8
0
100
AcDbLine
 10
-6516.781251800122
 20
1006.535388874814
 30
0.0
 11
-6516.781251800122
 21
1537.10803269127
 31
0.0
  0
LINE
  5
2AC
102
{ACAD_REACTORS
330
28B
102
}
330
288
100
AcDbEntity
  8
0
100
AcDbLine
 10
-6531.772204400386
 20
1537.10803269127
 30
0.0
 11
-6531.772204400386
 21
1006.535388874814
 31
0.0
  0
HATCH
  5
2AD
330
288
100
AcDbEntity
  8
0
 62
   250
100
AcDbHatch
 10
0.0
 20
0.0
 30
0.0
210
0.0
220
0.0
230
1.0
  2
SOLID
 70
     1
 71
     0
 91
        3
 92
        7
 72
     1
 73
     1
 93
        4
 10
-8309.991312145127
 20
1707.315775476532
 42
-0.2679491924310617
 10
-8329.995088698895
 20
1707.315775476532
 42
0.0
 10
-8329.995088698895
 20
1427.525591090074
 42
-0.2679491924310617
 10
-8309.991312145127
 20
1427.525591090074
 42
0.0
 97
        0
 92
        7
 72
     1
 73
     1
 93
        4
 10
-8309.991312145127
 20
1392.878033755685
 42
-0.2679491924310617
 10
-8329.995088698895
 20
1392.878033755685
 42
0.0
 10
-8329.995088698895
 20
1145.183998956852
 42
-0.2679491924310617
 10
-8309.991312145127
 20
1145.183998956852
 42
0.0
 97
        0
 92
        7
 72
     1
 73
     1
 93
        4
 10
-8309.991312145127
 20
1110.536441622463
 42
-0.2679491924310617
 10
-8329.995088698895
 20
1110.536441622463
 42
0.0
 10
-8329.995088698895
 20
831.7914996144972
 42
-0.2679491924310617
 10
-8309.991312145127
 20
831.7914996144972
 42
0.0
 97
        0
 75
     0
 76
     1
 47
3.005531458579665
 98
        3
 10
-8316.264745503897
 20
1541.022652326801
 10
-8319.273404756437
 20
1324.624387309062
 10
-8322.282064008978
 20
994.015915758171
  0
HATCH
  5
2AE
330
288
100
AcDbEntity
  8
0
 62
   250
100
AcDbHatch
 10
0.0
 20
0.0
 30
0.0
210
0.0
220
0.0
230
1.0
  2
SOLID
 70
     1
 71
     0
 91
        3
 92
        7
 72
     1
 73
     1
 93
        4
 10
-8117.955057228956
 20
1670.642185127961
 42
-0.2679491924311883
 10
-8137.958833782731
 20
1670.642185127961
 42
0.0
 10
-8137.958833782731
 20
1407.900264363001
 42
-0.2679491924311883
 10
-8117.955057228956
 20
1407.900264363001
 42
0.0
 97
        0
 92
        7
 72
     1
 73
     1
 93
        4
 10
-8117.955057228956
 20
1373.252707028619
 42
-0.2679491924311883
 10
-8137.958833782731
 20
1373.252707028619
 42
0.0
 10
-8137.958833782731
 20
1164.520982958825
 42
-0.2679491924311883
 10
-8117.955057228956
 20
1164.520982958825
 42
0.0
 97
        0
 92
        7
 72
     1
 73
     1
 93
        4
 10
-8117.955057228956
 20
1129.873425624444
 42
-0.2679491924311883
 10
-8137.958833782731
 20
1129.873425624444
 42
0.0
 10
-8137.958833782731
 20
869.1318825148591
 42
-0.2679491924311883
 10
-8117.955057228956
 20
869.1318825148591
 42
0.0
 97
        0
 75
     0
 76
     1
 47
3.005531458579665
 98
        3
 10
-8123.710081673744
 20
1519.983945603971
 10
-8132.736059431357
 20
1258.502696807043
 10
-8129.727400178818
 20
945.9274187678257
  0
HATCH
  5
2AF
330
288
100
AcDbEntity
  8
0
 62
   250
100
AcDbHatch
 10
0.0
 20
0.0
 30
0.0
210
0.0
220
0.0
230
1.0
  2
SOLID
 70
     1
 71
     0
 91
        4
 92
        7
 72
     1
 73
     1
 93
        4
 10
-7926.585594864583
 20
1634.635387331176
 42
-0.2679491924310617
 10
-7946.589371418347
 20
1634.635387331176
 42
0.0
 10
-7946.589371418347
 20
1388.563280361027
 42
-0.2679491924310617
 10
-7926.585594864583
 20
1388.563280361027
 42
0.0
 97
        0
 92
        7
 72
     1
 73
     1
 93
        4
 10
-7926.585594864583
 20
1353.915723026639
 42
-0.2679491924310617
 10
-7946.589371418347
 20
1353.915723026639
 42
0.0
 10
-7946.589371418347
 20
1287.877605040399
 42
-0.2679491924310617
 10
-7926.585594864583
 20
1287.877605040399
 42
0.0
 97
        0
 92
        7
 72
     1
 73
     1
 93
        4
 10
-7926.585594864583
 20
1253.23004770601
 42
-0.2679491924310617
 10
-7946.589371418347
 20
1253.23004770601
 42
0.0
 10
-7946.589371418347
 20
1183.857966960804
 42
-0.2679491924310617
 10
-7926.585594864583
 20
1183.857966960804
 42
0.0
 97
        0
 92
        7
 72
     1
 73
     1
 93
        4
 10
-7926.585594864583
 20
1149.210409626415
 42
-0.2679491924310617
 10
-7946.589371418347
 20
1149.210409626415
 42
0.0
 10
-7946.589371418347
 20
906.4722654152284
 42
-0.2679491924310617
 10
-7926.585594864583
 20
906.4722654152284
 42
0.0
 97
        0
 75
     0
 76
     1
 47
3.005531458579665
 98
        4
 10
-7937.172736348664
 20
1477.906494076725
 10
-7937.172736348664
 20
1318.613322805171
 10
-7940.181395601205
 20
1210.414199816701
 10
-7934.164040813993
 20
1069.154203016029
  0
HATCH
  5
2B0
330
288
100
AcDbEntity
  8
0
 62
   250
100
AcDbHatch
 10
0.0
 20
0.0
 30
0.0
210
0.0
220
0.0
230
1.0
  2
SOLID
 70
     1
 71
     1
 91
       13
 92
        7
 72
     1
 73
     1
 93
        2
 10
-7916.583706587696
 20
1651.95916599837
 42
1.0
 10
-7956.591259695236
 20
1651.95916599837
 42
1.0
 97
        1
330
306
 92
        7
 72
     1
 73
     1
 93
        2
 10
-8107.95316895207
 20
1687.965963795152
 42
1.0
 10
-8147.960722059611
 20
1687.965963795152
 42
1.0
 97
        1
330
309
 92
        7
 72
     1
 73
     1
 93
        2
 10
-8299.989423868243
 20
1724.639554143727
 42
1.0
 10
-8339.996976975784
 20
1724.639554143727
 42
1.0
 97
        1
330
2FE
 92
        7
 72
     1
 73
     1
 93
        2
 10
-8299.989423868243
 20
1410.201812422879
 42
1.0
 10
-8339.996976975783
 20
1410.201812422879
 42
1.0
 97
        1
330
2B6
 92
        7
 72
     1
 73
     1
 93
        2
 10
-8107.95316895207
 20
1390.57648569581
 42
1.0
 10
-8147.960722059611
 20
1390.57648569581
 42
1.0
 97
        1
330
2B7
 92
        7
 72
     1
 73
     1
 93
        2
 10
-7916.583706587696
 20
1371.239501693833
 42
1.0
 10
-7956.591259695236
 20
1371.239501693833
 42
1.0
 97
        1
330
2F0
 92
        7
 72
     1
 73
     1
 93
        2
 10
-7916.583706587696
 20
1270.553826373205
 42
1.0
 10
-7956.591259695236
 20
1270.553826373205
 42
1.0
 97
        1
330
2EB
 92
        7
 72
     1
 73
     1
 93
        2
 10
-7916.583706587696
 20
1166.53418829361
 42
1.0
 10
-7956.591259695236
 20
1166.53418829361
 42
1.0
 97
        1
330
2E6
 92
        7
 72
     1
 73
     1
 93
        2
 10
-8107.95316895207
 20
1147.197204291635
 42
1.0
 10
-8147.960722059611
 20
1147.197204291635
 42
1.0
 97
        1
330
2E5
 92
        7
 72
     1
 73
     1
 93
        2
 10
-8299.989423868243
 20
1127.860220289658
 42
1.0
 10
-8339.996976975784
 20
1127.860220289658
 42
1.0
 97
        1
330
2CC
 92
        7
 72
     1
 73
     1
 93
        2
 10
-7916.583706587696
 20
889.1484867480341
 42
1.0
 10
-7956.591259695236
 20
889.148486748034
 42
1.0
 97
        1
330
2E1
 92
        7
 72
     1
 73
     1
 93
        2
 10
-8107.95316895207
 20
851.8081038476685
 42
1.0
 10
-8147.960722059611
 20
851.8081038476685
 42
1.0
 97
        1
330
2E0
 92
        7
 72
     1
 73
     1
 93
        2
 10
-8299.989423868243
 20
814.4677209473032
 42
1.0
 10
-8339.996976975784
 20
814.4677209473028
 42
1.0
 97
        1
330
2C6
 75
     0
 76
     1
 47
2.676158162350435
 98
       13
 10
-7940.205994884556
 20
1652.431653371242
 10
-8119.474070566553
 20
1684.724992766723
 10
-8322.252748048873
 20
1722.889846684948
 10
-8319.313895612236
 20
1405.827929171284
 10
-8119.474070566553
 20
1397.020647866773
 10
-7937.267142447926
 20
1364.727308471292
 10
-7940.205994884556
 20
1267.847271244054
 10
-7937.267142447926
 20
1162.159971753097
 10
-8128.29051903008
 20
1144.545409144075
 10
-8322.252748048873
 20
1129.86661331682
 10
-7943.14481103907
 20
883.2628891168624
 10
-8131.229371466718
 20
850.9695497213815
 10
-8313.436263303215
 20
818.6762103259006
  0
HATCH
  5
2B1
330
288
100
AcDbEntity
  8
0
 62
    50
100
AcDbHatch
 10
0.0
 20
0.0
 30
0.0
210
0.0
220
0.0
230
1.0
  2
SOLID
 70
     1
 71
     0
 91
       15
 92
        7
 72
     1
 73
     1
 93
        5
 10
-8550.703423342136
 20
1779.316543390692
 42
0.0
 10
-8556.037763756471
 20
1759.312766836921
 42
0.0
 10
-8338.854579955507
 20
1717.976263777345
 42
-0.0851023481420786
 10
-8339.996976975781
 20
1724.639554143727
 42
-0.1859621584946757
 10
-8334.826610037103
 20
1738.060471981343
 42
0.0
 97
        0
 92
        7
 72
     1
 73
     1
 93
        6
 10
-8301.256152007507
 20
1731.644844510705
 42
-0.0896850285161526
 10
-8299.989423868243
 20
1724.639554143727
 42
-0.1808726405839401
 10
-8304.898353914715
 20
1711.513370946226
 42
0.0
 10
-8146.864469795465
 20
1681.434761635486
 42
-0.0833413142280533
 10
-8147.960722059613
 20
1687.965963795152
 42
-0.1855709679467075
 10
-8142.810638152125
 20
1701.364429796262
 42
0.0
 97
        0
 92
        7
 72
     1
 73
     1
 93
        6
 10
-8109.209322573891
 20
1694.942905160427
 42
-0.0893038586945105
 10
-8107.953168952073
 20
1687.965963795152
 42
-0.1790673735504051
 10
-8112.770657645466
 20
1674.945682022662
 42
0.0
 10
-7955.334596866542
 20
1644.980856504495
 42
-0.0893222485011883
 10
-7956.591259695237
 20
1651.95916599837
 42
-0.1772621847634118
 10
-7951.864522077006
 20
1664.872847029557
 42
0.0
 97
        0
 92
        7
 72
     1
 73
     1
 93
        5
 10
-7917.625112727917
 20
1658.329376725852
 42
-0.0812013531982661
 10
-7916.583706587698
 20
1651.95916599837
 42
-0.1852009961545732
 10
-7921.714636299741
 20
1638.581965123907
 42
0.0
 10
-7763.347167025401
 20
1608.439864508071
 42
-0.2685811292006837
 10
-7759.847402324307
 20
1628.176585476254
 42
0.0
 97
        0
 92
        7
 72
     1
 73
     1
 93
        5
 10
-8336.206085223407
 20
1421.919040884844
 42
0.0
 10
-8552.037008445717
 20
1443.919889839186
 42
0.0
 10
-8554.704178652887
 20
1423.91611328542
 42
0.0
 10
-8338.231754315858
 20
1401.985595028332
 42
-0.10621125263883
 10
-8339.996976975781
 20
1410.201812422879
 42
-0.1577406454984231
 97
        0
 92
        7
 72
     1
 73
     1
 93
        6
 10
-8144.095111849056
 20
1402.396412239235
 42
0.0
 10
-8301.754646528172
 20
1418.418029817436
 42
-0.1062112526389573
 10
-8299.989423868243
 20
1410.201812422879
 42
-0.1577406454982801
 10
-8303.780315620613
 20
1398.484583960924
 42
0.0
 10
-8146.247107642018
 20
1382.47580390688
 42
-0.1046122499629626
 10
-8147.960722059613
 20
1390.57648569581
 42
-0.1593677876891822
 97
        0
 92
        7
 72
     1
 73
     1
 93
        6
 10
-7952.800367942867
 20
1382.956730155794
 42
0.0
 10
-8109.770923272908
 20
1398.90833253528
 42
-0.1078166695744589
 10
-8107.953168952073
 20
1390.57648569581
 42
-0.1561202689644205
 10
-8111.670265664834
 20
1378.962049154604
 42
0.0
 10
-7954.826037035309
 20
1363.023284299282
 42
-0.106211252638881
 10
-7956.591259695237
 20
1371.239501693833
 42
-0.1577406454983651
 97
        0
 92
        7
 72
     1
 73
     1
 93
        5
 10
-7762.267381164992
 20
1280.275527800477
 42
0.0
 10
-7918.913352910164
 20
1279.922721557808
 42
-0.1224641477092257
 10
-7916.583706587698
 20
1270.553826373205
 42
-0.1206628716633466
 10
-7918.847278140987
 20
1261.310655761661
 42
0.0
 10
-7762.430555781091
 20
1262.015235592111
 42
-0.2415336677682219
 97
        0
 92
        7
 72
     1
 73
     1
 93
        6
 10
-7952.800367942867
 20
1154.81695983165
 42
-0.1577406454983381
 10
-7956.591259695237
 20
1166.53418829361
 42
-0.1062112526390083
 10
-7954.826037035306
 20
1174.750405688169
 42
0.0
 10
-8111.670265664834
 20
1158.811640832842
 42
-0.1561202689644513
 10
-8107.953168952073
 20
1147.197204291635
 42
-0.1078166695745329
 10
-8109.770923272909
 20
1138.865357452159
 42
0.0
 97
        0
 92
        7
 72
     1
 73
     1
 93
        6
 10
-8147.960722059613
 20
1147.197204291635
 42
-0.104612249963011
 10
-8146.247107642018
 20
1155.297886080568
 42
0.0
 10
-8303.589310760864
 20
1139.30851625011
 42
-0.1535182735215436
 10
-8299.989423868243
 20
1127.860220289658
 42
-0.1104223275205014
 10
-8301.893959223923
 20
1119.341502987947
 42
0.0
 10
-8144.095111849049
 20
1135.377277748204
 42
-0.1593677876892712
 97
        0
 92
        7
 72
     1
 73
     1
 93
        5
 10
-8339.996976975781
 20
1127.860220289658
 42
-0.102044031375449
 10
-8338.364754476847
 20
1135.774579267081
 42
0.0
 10
-8554.037386101096
 20
1113.857576702024
 42
0.0
 10
-8552.037008445717
 20
1093.853800148252
 42
0.0
 10
-8336.008767828898
 20
1115.8747008162
 42
-0.1620092734141219
 97
        0
 92
        7
 72
     1
 73
     1
 93
        5
 10
-8339.996976975781
 20
814.4677209473028
 42
-0.079198403321382
 10
-8339.005680133011
 20
820.6867796905626
 42
0.0
 10
-8556.037763756467
 20
778.4609231505219
 42
0.0
 10
-8552.115868648543
 20
758.4416973757324
 42
0.0
 10
-8334.798321039386
 20
801.0156029015034
 42
-0.1865067590877368
 97
        0
 92
        7
 72
     1
 73
     1
 93
        6
 10
-8142.975672312816
 20
838.5948937338998
 42
-0.1823652781536637
 10
-8147.960722059613
 20
851.8081038476685
 42
-0.0827944421143663
 10
-8146.878614185835
 20
858.2982140761378
 42
0.0
 10
-8304.729233924835
 20
827.3968509716379
 42
-0.1775230658767542
 10
-8299.989423868243
 20
814.4677209473028
 42
-0.0878853185701973
 10
-8301.206594844201
 20
807.5964381502672
 42
0.0
 97
        0
 92
        7
 72
     1
 73
     1
 93
        6
 10
-7951.718048364608
 20
876.0634925775557
 42
-0.1801690726475175
 10
-7956.591259695237
 20
889.148486748034
 42
-0.0845485779383144
 10
-7955.463471332939
 20
895.7702800254301
 42
0.0
 10
-8112.879293561041
 20
864.954034329934
 42
-0.181210605973591
 10
-8107.953168952073
 20
851.8081038476685
 42
-0.0838505500870652
 10
-8109.062671254003
 20
845.2386687951292
 42
0.0
 97
        0
 92
        7
 72
     1
 73
     1
 93
        5
 10
-7759.390861065869
 20
913.7416257618115
 42
-0.2684352454930941
 10
-7763.57676508417
 20
933.3346607958228
 42
0.0
 10
-7921.601794160925
 20
902.3991547384284
 42
-0.1830103166745941
 10
-7916.583706587698
 20
889.148486748034
 42
-0.0817096404766589
 10
-7917.63801761721
 20
882.7399898292387
 42
0.0
 97
        0
 75
     0
 76
     1
 47
3.667923569414485
 98
       15
 10
-8460.779299404993
 20
1748.352191939271
 10
-8225.933366931695
 20
1708.005067529279
 10
-8046.129474762503
 20
1671.3258050247
 10
-7851.647731718284
 20
1634.646606865169
 10
-8394.728851040051
 20
1414.571160527766
 10
-8218.594481303266
 20
1396.23152927547
 10
-8064.476848069938
 20
1381.559824273636
 10
-7877.333990654148
 20
1267.854239199548
 10
-8035.121066701682
 20
1154.148589780385
 10
-8229.602889364086
 20
1135.808958528088
 10
-8431.423597654921
 20
1117.469327275792
 10
-8416.745667161707
 20
802.0279271165982
 10
-8244.28074023913
 20
831.3712727752044
 10
-8042.460031948296
 20
868.0505352797972
 10
-7851.647731718284
 20
904.7297977843754
  0
LINE
  5
2B2
330
288
100
AcDbEntity
  8
0
100
AcDbLine
 10
-7926.585594864583
 20
1388.563280361029
 30
0.0
 11
-7926.585594864583
 21
1634.635387331176
 31
0.0
  0
LINE
  5
2B3
330
288
100
AcDbEntity
  8
0
100
AcDbLine
 10
-7946.589371418347
 20
1634.635387331176
 30
0.0
 11
-7946.589371418347
 21
1388.563280361029
 31
0.0
  0
LINE
  5
2B4
330
288
100
AcDbEntity
  8
0
100
AcDbLine
 10
-8146.247107642023
 20
1382.47580390688
 30
0.0
 11
-8303.780315620613
 21
1398.484583960924
 31
0.0
  0
LINE
  5
2B5
330
288
100
AcDbEntity
  8
0
100
AcDbLine
 10
-8109.770923272908
 20
1398.90833253528
 30
0.0
 11
-7952.800367942862
 21
1382.956730155794
 31
0.0
  0
CIRCLE
  5
2B6
102
{ACAD_REACTORS
330
2B0
102
}
330
288
100
AcDbEntity
  8
0
100
AcDbCircle
 10
-8319.993200422015
 20
1410.201812422879
 30
0.0
 40
20.00377655377027
  0
CIRCLE
  5
2B7
102
{ACAD_REACTORS
330
2B0
102
}
330
288
100
AcDbEntity
  8
0
100
AcDbCircle
 10
-8127.956945505841
 20
1390.57648569581
 30
0.0
 40
20.00377655377027
  0
LINE
  5
2B8
330
288
100
AcDbEntity
  8
0
100
AcDbLine
 10
-6594.334076383667
 20
1851.996931536044
 30
0.0
 11
-7755.219909053973
 21
691.1110988657364
 31
0.0
  0
LINE
  5
2B9
330
288
100
AcDbEntity
  8
0
100
AcDbLine
 10
-7755.219909053973
 20
1851.996931536044
 30
0.0
 11
-6594.334076383667
 21
691.1110988657364
 31
0.0
  0
LWPOLYLINE
  5
2BA
330
288
100
AcDbEntity
  8
0
100
AcDbPolyline
 90
        4
 70
     1
 43
0.0
 10
-7466.49873412793
 20
1563.275756609999
 10
-6883.19436630253
 20
1563.275756609999
 10
-6883.19436630253
 20
979.8322737917787
 10
-7466.49873412793
 20
979.8322737917787
  0
LWPOLYLINE
  5
2BB
102
{ACAD_REACTORS
330
293
330
28B
330
2CE
102
}
330
288
100
AcDbEntity
  8
0
100
AcDbPolyline
 90
        4
 70
     1
 43
0.0
 10
-7755.219909053976
 20
691.1110988657364
 10
-6594.334076383667
 20
691.1110988657364
 10
-6594.334076383667
 20
1851.996931536041
 10
-7755.219909053976
 20
1851.996931536041
  0
HATCH
  5
2BC
330
288
100
AcDbEntity
  8
0
 62
   250
100
AcDbHatch
 10
0.0
 20
0.0
 30
0.0
210
0.0
220
0.0
230
1.0
  2
SOLID
 70
     1
 71
     0
 91
       23
 92
        7
 72
     1
 73
     1
 93
        2
 10
-8339.996976975781
 20
1724.639554143727
 42
1.0
 10
-8299.989423868243
 20
1724.639554143727
 42
1.0
 97
        0
 92
        7
 72
     1
 73
     1
 93
        2
 10
-8107.953168952073
 20
1687.965963795152
 42
1.0
 10
-8147.960722059613
 20
1687.965963795152
 42
1.0
 97
        0
 92
        7
 72
     1
 73
     1
 93
        2
 10
-7956.591259695237
 20
1651.95916599837
 42
1.0
 10
-7916.583706587696
 20
1651.95916599837
 42
1.0
 97
        0
 92
        7
 72
     1
 73
     1
 93
        4
 10
-7926.585594864583
 20
1634.635387331176
 42
-0.2679491924310617
 10
-7946.589371418347
 20
1634.635387331176
 42
0.0
 10
-7946.589371418347
 20
1388.563280361027
 42
-0.2679491924310617
 10
-7926.585594864583
 20
1388.563280361027
 42
0.0
 97
        0
 92
        7
 72
     1
 73
     1
 93
        4
 10
-8117.955057228956
 20
1670.642185127961
 42
-0.2679491924311883
 10
-8137.958833782731
 20
1670.642185127961
 42
0.0
 10
-8137.958833782731
 20
1407.900264363001
 42
-0.2679491924311883
 10
-8117.955057228956
 20
1407.900264363001
 42
0.0
 97
        0
 92
        7
 72
     1
 73
     1
 93
        4
 10
-8309.991312145127
 20
1707.315775476532
 42
-0.2679491924310617
 10
-8329.995088698895
 20
1707.315775476532
 42
0.0
 10
-8329.995088698895
 20
1427.525591090074
 42
-0.2679491924310617
 10
-8309.991312145127
 20
1427.525591090074
 42
0.0
 97
        0
 92
        7
 72
     1
 73
     1
 93
        2
 10
-8299.989423868243
 20
1410.201812422879
 42
1.0
 10
-8339.996976975781
 20
1410.201812422879
 42
1.0
 97
        0
 92
        7
 72
     1
 73
     1
 93
        2
 10
-8107.953168952073
 20
1390.57648569581
 42
1.0
 10
-8147.960722059613
 20
1390.57648569581
 42
1.0
 97
        0
 92
        7
 72
     1
 73
     1
 93
        2
 10
-7956.591259695237
 20
1371.239501693833
 42
1.0
 10
-7916.583706587696
 20
1371.239501693833
 42
1.0
 97
        0
 92
        7
 72
     1
 73
     1
 93
        4
 10
-7926.585594864583
 20
1353.915723026639
 42
-0.2679491924310617
 10
-7946.589371418347
 20
1353.915723026639
 42
0.0
 10
-7946.589371418347
 20
1287.877605040399
 42
-0.2679491924310617
 10
-7926.585594864583
 20
1287.877605040399
 42
0.0
 97
        0
 92
        7
 72
     1
 73
     1
 93
        2
 10
-7956.591259695237
 20
1270.553826373205
 42
1.0
 10
-7916.583706587696
 20
1270.553826373205
 42
1.0
 97
        0
 92
        7
 72
     1
 73
     1
 93
        4
 10
-7926.585594864583
 20
1253.23004770601
 42
-0.2679491924310617
 10
-7946.589371418347
 20
1253.23004770601
 42
0.0
 10
-7946.589371418347
 20
1183.857966960804
 42
-0.2679491924310617
 10
-7926.585594864583
 20
1183.857966960804
 42
0.0
 97
        0
 92
        7
 72
     1
 73
     1
 93
        2
 10
-7916.583706587698
 20
1166.53418829361
 42
1.0
 10
-7956.591259695237
 20
1166.53418829361
 42
1.0
 97
        0
 92
        7
 72
     1
 73
     1
 93
        4
 10
-7926.585594864583
 20
1149.210409626415
 42
-0.2679491924310617
 10
-7946.589371418347
 20
1149.210409626415
 42
0.0
 10
-7946.589371418347
 20
906.4722654152284
 42
-0.2679491924310617
 10
-7926.585594864583
 20
906.4722654152284
 42
0.0
 97
        0
 92
        7
 72
     1
 73
     1
 93
        4
 10
-8117.955057228956
 20
1373.252707028619
 42
-0.2679491924311883
 10
-8137.958833782731
 20
1373.252707028619
 42
0.0
 10
-8137.958833782731
 20
1164.520982958825
 42
-0.2679491924311883
 10
-8117.955057228956
 20
1164.520982958825
 42
0.0
 97
        0
 92
        7
 72
     1
 73
     1
 93
        4
 10
-8117.955057228956
 20
1129.873425624444
 42
-0.2679491924311883
 10
-8137.958833782731
 20
1129.873425624444
 42
0.0
 10
-8137.958833782731
 20
869.1318825148591
 42
-0.2679491924311883
 10
-8117.955057228956
 20
869.1318825148591
 42
0.0
 97
        0
 92
        7
 72
     1
 73
     1
 93
        2
 10
-8107.953168952073
 20
1147.197204291635
 42
1.0
 10
-8147.960722059613
 20
1147.197204291635
 42
1.0
 97
        0
 92
        7
 72
     1
 73
     1
 93
        2
 10
-7916.583706587698
 20
889.148486748034
 42
1.0
 10
-7956.591259695237
 20
889.148486748034
 42
1.0
 97
        0
 92
        7
 72
     1
 73
     1
 93
        2
 10
-8147.960722059613
 20
851.8081038476685
 42
1.0
 10
-8107.95316895207
 20
851.8081038476685
 42
1.0
 97
        0
 92
        7
 72
     1
 73
     1
 93
        2
 10
-8299.989423868243
 20
814.4677209473028
 42
1.0
 10
-8339.996976975781
 20
814.4677209473028
 42
1.0
 97
        0
 92
        7
 72
     1
 73
     1
 93
        4
 10
-8309.991312145127
 20
1110.536441622463
 42
-0.2679491924310617
 10
-8329.995088698895
 20
1110.536441622463
 42
0.0
 10
-8329.995088698895
 20
831.7914996144972
 42
-0.2679491924310617
 10
-8309.991312145127
 20
831.7914996144972
 42
0.0
 97
        0
 92
        7
 72
     1
 73
     1
 93
        2
 10
-8299.989423868243
 20
1127.860220289658
 42
1.0
 10
-8339.996976975781
 20
1127.860220289658
 42
1.0
 97
        0
 92
        7
 72
     1
 73
     1
 93
        4
 10
-8309.991312145127
 20
1392.878033755685
 42
-0.2679491924310617
 10
-8329.995088698895
 20
1392.878033755685
 42
0.0
 10
-8329.995088698895
 20
1145.183998956852
 42
-0.2679491924310617
 10
-8309.991312145127
 20
1145.183998956852
 42
0.0
 97
        0
 75
     0
 76
     1
 47
2.764541729509131
 98
       23
 10
-8323.073522367653
 20
1727.668971800057
 10
-8126.586311155987
 20
1686.2008637708
 10
-7943.936196833485
 20
1653.026354498439
 10
-7935.63393869999
 20
1575.619185237063
 10
-8129.353730533818
 20
1542.444675964701
 10
-8312.003808574191
 20
1547.973760843428
 10
-8317.538683611987
 20
1406.982144037885
 10
-8123.818891778151
 20
1384.86580452298
 10
-7935.63393869999
 20
1373.807634765527
 10
-7938.401358077818
 20
1312.987720140327
 10
-7935.63393869999
 20
1271.519593070277
 10
-7932.866483040022
 20
1213.464211364042
 10
-7935.63393869999
 20
1160.937914536536
 10
-7932.866483040022
 20
1113.940702587757
 10
-8126.586311155987
 20
1307.4586352616
 10
-8126.586311155987
 20
1036.533533326381
 10
-8126.586311155987
 20
1141.586126981392
 10
-7932.866483040022
 20
881.7191948036251
 10
-8129.353730533818
 20
851.3092374910247
 10
-8314.771264234158
 20
812.6056623807325
 10
-8320.306102989823
 20
859.602874329512
 10
-8317.538683611987
 20
1124.998872345213
 10
-8323.073522367653
 20
1185.81878697041
  0
LINE
  5
2BD
330
288
100
AcDbEntity
  8
0
100
AcDbLine
 10
-8301.206594844201
 20
807.5964381502672
 30
0.0
 11
-8142.97567231282
 21
838.5948937338998
 31
0.0
  0
LINE
  5
2BE
330
288
100
AcDbEntity
  8
0
100
AcDbLine
 10
-8146.87861418584
 20
858.2982140761378
 30
0.0
 11
-8304.729233924835
 21
827.3968509716379
 31
0.0
  0
LINE
  5
2BF
330
288
100
AcDbEntity
  8
0
100
AcDbLine
 10
-8144.095111849049
 20
1135.377277748204
 30
0.0
 11
-8301.893959223919
 21
1119.341502987947
 31
0.0
  0
LINE
  5
2C0
330
288
100
AcDbEntity
  8
0
100
AcDbLine
 10
-8303.589310760864
 20
1139.30851625011
 30
0.0
 11
-8146.247107642018
 21
1155.297886080568
 31
0.0
  0
LINE
  5
2C1
330
288
100
AcDbEntity
  8
0
100
AcDbLine
 10
-8309.991312145127
 20
831.7914996144972
 30
0.0
 11
-8309.991312145127
 21
1110.536441622463
 31
0.0
  0
LINE
  5
2C2
330
288
100
AcDbEntity
  8
0
100
AcDbLine
 10
-8329.995088698895
 20
1110.536441622463
 30
0.0
 11
-8329.995088698895
 21
831.7914996144972
 31
0.0
  0
LINE
  5
2C3
330
288
100
AcDbEntity
  8
0
100
AcDbLine
 10
-8552.115868648543
 20
758.4416973757306
 30
0.0
 11
-8334.798321039386
 21
801.0156029015034
 31
0.0
  0
LINE
  5
2C4
330
288
100
AcDbEntity
  8
0
100
AcDbLine
 10
-8339.005680133006
 20
820.6867796905626
 30
0.0
 11
-8556.037763756471
 21
778.4609231505219
 31
0.0
  0
LINE
  5
2C5
330
288
100
AcDbEntity
  8
0
100
AcDbLine
 10
-8556.037763756471
 20
778.4609231505219
 30
0.0
 11
-8552.115868648543
 21
758.4416973757306
 31
0.0
  0
CIRCLE
  5
2C6
102
{ACAD_REACTORS
330
2B0
102
}
330
288
100
AcDbEntity
  8
0
100
AcDbCircle
 10
-8319.993200422015
 20
814.4677209473028
 30
0.0
 40
20.00377655377027
  0
LINE
  5
2C7
330
288
100
AcDbEntity
  8
0
100
AcDbLine
 10
-8309.991312145127
 20
1392.878033755685
 30
0.0
 11
-8309.991312145127
 21
1145.183998956854
 31
0.0
  0
LINE
  5
2C8
330
288
100
AcDbEntity
  8
0
100
AcDbLine
 10
-8329.995088698895
 20
1392.878033755685
 30
0.0
 11
-8329.995088698895
 21
1141.862863877297
 31
0.0
  0
LINE
  5
2C9
330
288
100
AcDbEntity
  8
0
100
AcDbLine
 10
-8552.037008445717
 20
1093.853800148254
 30
0.0
 11
-8336.008767828898
 21
1115.8747008162
 31
0.0
  0
LINE
  5
2CA
330
288
100
AcDbEntity
  8
0
100
AcDbLine
 10
-8338.364754476847
 20
1135.774579267081
 30
0.0
 11
-8554.037386101096
 21
1113.857576702024
 31
0.0
  0
LINE
  5
2CB
330
288
100
AcDbEntity
  8
0
100
AcDbLine
 10
-8554.037386101096
 20
1113.857576702024
 30
0.0
 11
-8552.037008445717
 21
1093.853800148254
 31
0.0
  0
CIRCLE
  5
2CC
102
{ACAD_REACTORS
330
2B0
102
}
330
288
100
AcDbEntity
  8
0
100
AcDbCircle
 10
-8319.993200422015
 20
1127.860220289658
 30
0.0
 40
20.00377655377027
  0
HATCH
  5
2CD
330
288
100
AcDbEntity
  8
0
 62
    50
100
AcDbHatch
 10
0.0
 20
0.0
 30
0.0
210
0.0
220
0.0
230
1.0
  2
SOLID
 70
     1
 71
     0
 91
        2
 92
        7
 72
     0
 73
     1
 93
        4
 10
-6903.588045425516
 20
691.1110988657364
 10
-6923.41084108226
 20
691.1110988657383
 10
-6923.410841082263
 20
231.2889829754894
 10
-6904.136759167643
 20
231.2889829754967
 97
        0
 92
        7
 72
     0
 73
     1
 93
        4
 10
-7425.875448773222
 20
691.1110988657364
 10
-7445.684921852145
 20
691.1110988657364
 10
-7445.684921852117
 20
231.2889829754876
 10
-7425.875448773222
 20
231.2889829754931
 97
        0
 75
     0
 76
     1
 47
2.277875573870468
 98
        2
 10
-6908.316418231269
 20
523.1489951933363
 10
-7437.334871826323
 20
484.4251262659854
  0
HATCH
  5
2CE
330
288
100
AcDbEntity
  8
0
 62
   250
100
AcDbHatch
 10
0.0
 20
0.0
 30
0.0
210
0.0
220
0.0
230
1.0
  2
SOLID
 70
     1
 71
     1
 91
        2
 92
        7
 72
     0
 73
     1
 93
        4
 10
-7425.875448773223
 20
691.1110988657363
 10
-7425.875448773222
 20
607.6689714749536
 10
-6923.41084108226
 20
607.6689714749518
 10
-6923.41084108226
 20
691.1110988657364
 97
        4
330
2BB
330
2D1
330
2D6
330
2D0
 92
        7
 72
     0
 73
     1
 93
        4
 10
-7425.875448773222
 20
607.6689714749536
 10
-7425.875448773222
 20
336.2256511773302
 10
-6923.410841082262
 20
336.2256511773283
 10
-6923.41084108226
 20
607.6689714749518
 97
        4
330
2D6
330
2D1
330
2D3
330
2D0
 75
     0
 76
     1
 47
2.277875573870468
 98
        2
 10
-6992.685781394809
 20
659.821539861925
 10
-7054.252540521083
 20
541.3720126745284
  0
LINE
  5
2CF
330
288
100
AcDbEntity
  8
0
100
AcDbLine
 10
-6904.136759167639
 20
231.2889829754967
 30
0.0
 11
-6903.588045425523
 21
691.1110988657364
 31
0.0
  0
LINE
  5
2D0
102
{ACAD_REACTORS
330
2CE
102
}
330
288
100
AcDbEntity
  8
0
100
AcDbLine
 10
-6923.41084108226
 20
691.1110988657364
 30
0.0
 11
-6923.410841082263
 21
231.2889829754894
 31
0.0
  0
LINE
  5
2D1
102
{ACAD_REACTORS
330
2CE
102
}
330
288
100
AcDbEntity
  8
0
100
AcDbLine
 10
-7425.875448773222
 20
231.2889829754912
 30
0.0
 11
-7425.875448773222
 21
691.1899931049902
 31
0.0
  0
LINE
  5
2D2
330
288
100
AcDbEntity
  8
0
100
AcDbLine
 10
-7445.684921852145
 20
691.189993104992
 30
0.0
 11
-7445.684921852117
 21
231.2889829754876
 31
0.0
  0
LINE
  5
2D3
102
{ACAD_REACTORS
330
2CE
102
}
330
288
100
AcDbEntity
  8
0
100
AcDbLine
 10
-7425.875448773222
 20
336.2256511773303
 30
0.0
 11
-6923.410841082263
 21
336.2256511773284
 31
0.0
  0
LINE
  5
2D4
330
288
100
AcDbEntity
  8
0
100
AcDbLine
 10
-7445.684921852117
 20
231.2889829754876
 30
0.0
 11
-7425.875448773222
 21
231.2889829754912
 31
0.0
  0
LINE
  5
2D5
330
288
100
AcDbEntity
  8
0
100
AcDbLine
 10
-6923.410841082263
 20
231.2889829754894
 30
0.0
 11
-6904.136759167639
 21
231.2889829754967
 31
0.0
  0
LINE
  5
2D6
102
{ACAD_REACTORS
330
2CE
102
}
330
288
100
AcDbEntity
  8
0
100
AcDbLine
 10
-7425.875448773222
 20
607.6689714749536
 30
0.0
 11
-6923.41084108226
 21
607.6689714749518
 31
0.0
  0
LINE
  5
2D7
330
288
100
AcDbEntity
  8
0
100
AcDbLine
 10
-7926.585594864583
 20
906.4722654152301
 30
0.0
 11
-7926.585594864583
 21
1149.210409626415
 31
0.0
  0
LINE
  5
2D8
330
288
100
AcDbEntity
  8
0
100
AcDbLine
 10
-7946.589371418347
 20
1149.210409626415
 30
0.0
 11
-7946.589371418347
 21
906.4722654152301
 31
0.0
  0
LINE
  5
2D9
330
288
100
AcDbEntity
  8
0
100
AcDbLine
 10
-8117.955057228956
 20
869.1318825148591
 30
0.0
 11
-8117.955057228956
 21
1129.873425624444
 31
0.0
  0
LINE
  5
2DA
330
288
100
AcDbEntity
  8
0
100
AcDbLine
 10
-8137.958833782731
 20
1129.873425624444
 30
0.0
 11
-8137.958833782731
 21
869.1318825148591
 31
0.0
  0
ARC
  5
2DB
330
288
100
AcDbEntity
  8
0
100
AcDbCircle
 10
-7744.551228225301
 20
927.1556622001899
 30
0.0
 40
20.00377655376609
100
AcDbArc
 50
122.2309526354793
 51
237.7690473645206
  0
LINE
  5
2DC
330
288
100
AcDbEntity
  8
0
100
AcDbLine
 10
-7917.63801761721
 20
882.7399898292387
 30
0.0
 11
-7759.091441001976
 21
913.800284078421
 31
0.0
  0
LINE
  5
2DD
330
288
100
AcDbEntity
  8
0
100
AcDbLine
 10
-7761.753929198981
 20
933.6915052203876
 30
0.0
 11
-7921.601794160928
 21
902.3991547384284
 31
0.0
  0
LINE
  5
2DE
330
288
100
AcDbEntity
  8
0
100
AcDbLine
 10
-8109.062671254003
 20
845.2386687951292
 30
0.0
 11
-7951.718048364608
 21
876.0634925775557
 31
0.0
  0
LINE
  5
2DF
330
288
100
AcDbEntity
  8
0
100
AcDbLine
 10
-7955.463471332939
 20
895.7702800254301
 30
0.0
 11
-8112.879293561041
 21
864.954034329934
 31
0.0
  0
CIRCLE
  5
2E0
102
{ACAD_REACTORS
330
2B0
102
}
330
288
100
AcDbEntity
  8
0
100
AcDbCircle
 10
-8127.956945505841
 20
851.8081038476685
 30
0.0
 40
20.00377655377027
  0
CIRCLE
  5
2E1
102
{ACAD_REACTORS
330
2B0
102
}
330
288
100
AcDbEntity
  8
0
100
AcDbCircle
 10
-7936.587483141465
 20
889.148486748034
 30
0.0
 40
20.00377655377027
  0
LINE
  5
2E2
330
288
100
AcDbEntity
  8
0
100
AcDbLine
 10
-7762.430555781087
 20
1262.015235592111
 30
0.0
 11
-7918.847278140987
 21
1261.310655761661
 31
0.0
  0
LINE
  5
2E3
330
288
100
AcDbEntity
  8
0
100
AcDbLine
 10
-7918.913352910159
 20
1279.922721557808
 30
0.0
 11
-7762.267381164988
 21
1280.275527800477
 31
0.0
  0
LINE
  5
2E4
330
288
100
AcDbEntity
  8
0
100
AcDbLine
 10
-7952.800367942862
 20
1154.81695983165
 30
0.0
 11
-8109.770923272909
 21
1138.865357452159
 31
0.0
  0
CIRCLE
  5
2E5
102
{ACAD_REACTORS
330
2B0
102
}
330
288
100
AcDbEntity
  8
0
100
AcDbCircle
 10
-8127.956945505841
 20
1147.197204291635
 30
0.0
 40
20.00377655377027
  0
CIRCLE
  5
2E6
102
{ACAD_REACTORS
330
2B0
102
}
330
288
100
AcDbEntity
  8
0
100
AcDbCircle
 10
-7936.587483141465
 20
1166.53418829361
 30
0.0
 40
20.00377655377027
  0
LINE
  5
2E7
330
288
100
AcDbEntity
  8
0
100
AcDbLine
 10
-8111.670265664834
 20
1158.811640832842
 30
0.0
 11
-7954.826037035302
 21
1174.750405688169
 31
0.0
  0
LINE
  5
2E8
330
288
100
AcDbEntity
  8
0
100
AcDbLine
 10
-7954.826037035309
 20
1363.023284299282
 30
0.0
 11
-8111.670265664834
 21
1378.962049154604
 31
0.0
  0
LINE
  5
2E9
330
288
100
AcDbEntity
  8
0
100
AcDbLine
 10
-8117.955057228956
 20
1164.520982958825
 30
0.0
 11
-8117.955057228956
 21
1373.252707028617
 31
0.0
  0
LINE
  5
2EA
330
288
100
AcDbEntity
  8
0
100
AcDbLine
 10
-8137.958833782731
 20
1373.252707028617
 30
0.0
 11
-8137.958833782731
 21
1164.520982958825
 31
0.0
  0
CIRCLE
  5
2EB
102
{ACAD_REACTORS
330
2B0
102
}
330
288
100
AcDbEntity
  8
0
100
AcDbCircle
 10
-7936.587483141465
 20
1270.553826373205
 30
0.0
 40
20.00377655377027
  0
LINE
  5
2EC
330
288
100
AcDbEntity
  8
0
100
AcDbLine
 10
-7926.585594864583
 20
1253.230047706009
 30
0.0
 11
-7926.585594864583
 21
1183.857966960806
 31
0.0
  0
LINE
  5
2ED
330
288
100
AcDbEntity
  8
0
100
AcDbLine
 10
-7946.589371418347
 20
1253.230047706009
 30
0.0
 11
-7946.589371418347
 21
1183.857966960806
 31
0.0
  0
LINE
  5
2EE
330
288
100
AcDbEntity
  8
0
100
AcDbLine
 10
-7926.585594864583
 20
1353.915723026639
 30
0.0
 11
-7926.585594864583
 21
1287.877605040399
 31
0.0
  0
LINE
  5
2EF
330
288
100
AcDbEntity
  8
0
100
AcDbLine
 10
-7946.589371418347
 20
1353.915723026639
 30
0.0
 11
-7946.589371418347
 21
1287.877605040399
 31
0.0
  0
CIRCLE
  5
2F0
102
{ACAD_REACTORS
330
2B0
102
}
330
288
100
AcDbEntity
  8
0
100
AcDbCircle
 10
-7936.587483141465
 20
1371.239501693833
 30
0.0
 40
20.00377655377027
  0
ARC
  5
2F1
330
288
100
AcDbEntity
  8
0
100
AcDbCircle
 10
-7744.551228225301
 20
1270.986340460851
 30
0.0
 40
20.00377655377027
100
AcDbArc
 50
122.2309526354793
 51
237.7690473645206
  0
LINE
  5
2F2
102
{ACAD_REACTORS
330
294
102
}
330
288
100
AcDbEntity
  8
0
100
AcDbLine
 10
-5095.317710596595
 20
-38.01277266495162
 30
0.0
 11
-5125.835006961417
 21
-185.7807340104045
 31
0.0
  0
LINE
  5
2F3
330
288
100
AcDbEntity
  8
0
100
AcDbLine
 10
-8142.810638152125
 20
1701.364429796262
 30
0.0
 11
-8301.256152007507
 21
1731.644844510705
 31
0.0
  0
LINE
  5
2F4
330
288
100
AcDbEntity
  8
0
100
AcDbLine
 10
-8304.898353914715
 20
1711.513370946226
 30
0.0
 11
-8146.864469795465
 21
1681.434761635486
 31
0.0
  0
LINE
  5
2F5
330
288
100
AcDbEntity
  8
0
100
AcDbLine
 10
-8301.754646528172
 20
1418.418029817436
 30
0.0
 11
-8144.095111849056
 21
1402.396412239235
 31
0.0
  0
LINE
  5
2F6
330
288
100
AcDbEntity
  8
0
100
AcDbLine
 10
-8309.991312145127
 20
1707.31577547653
 30
0.0
 11
-8309.991312145127
 21
1427.525591090076
 31
0.0
  0
LINE
  5
2F7
330
288
100
AcDbEntity
  8
0
100
AcDbLine
 10
-8329.995088698895
 20
1707.31577547653
 30
0.0
 11
-8329.995088698895
 21
1427.525591090076
 31
0.0
  0
LINE
  5
2F8
330
288
100
AcDbEntity
  8
0
100
AcDbLine
 10
-8338.231754315858
 20
1401.985595028332
 30
0.0
 11
-8554.704178652887
 21
1423.91611328542
 31
0.0
  0
LINE
  5
2F9
330
288
100
AcDbEntity
  8
0
100
AcDbLine
 10
-8552.037008445717
 20
1443.919889839186
 30
0.0
 11
-8336.206085223409
 21
1421.919040884844
 31
0.0
  0
LINE
  5
2FA
330
288
100
AcDbEntity
  8
0
100
AcDbLine
 10
-8554.704178652887
 20
1423.91611328542
 30
0.0
 11
-8552.037008445717
 21
1443.919889839186
 31
0.0
  0
LINE
  5
2FB
330
288
100
AcDbEntity
  8
0
100
AcDbLine
 10
-8334.826610037103
 20
1738.060471981343
 30
0.0
 11
-8550.703423342136
 21
1779.316543390692
 31
0.0
  0
LINE
  5
2FC
330
288
100
AcDbEntity
  8
0
100
AcDbLine
 10
-8556.037763756471
 20
1759.312766836921
 30
0.0
 11
-8338.854579955507
 21
1717.976263777345
 31
0.0
  0
LINE
  5
2FD
330
288
100
AcDbEntity
  8
0
100
AcDbLine
 10
-8550.703423342136
 20
1779.316543390692
 30
0.0
 11
-8556.037763756471
 21
1759.312766836921
 31
0.0
  0
CIRCLE
  5
2FE
102
{ACAD_REACTORS
330
2B0
102
}
330
288
100
AcDbEntity
  8
0
100
AcDbCircle
 10
-8319.993200422015
 20
1724.639554143727
 30
0.0
 40
20.00377655377027
  0
LINE
  5
2FF
330
288
100
AcDbEntity
  8
0
100
AcDbLine
 10
-7195.780958100273
 20
2966.874078132688
 30
0.0
 11
-7195.780958100273
 21
1851.996931536041
 31
0.0
  0
LINE
  5
300
330
288
100
AcDbEntity
  8
0
100
AcDbLine
 10
-7153.773027337364
 20
1851.996931536041
 30
0.0
 11
-7153.77302733736
 21
2966.874078132688
 31
0.0
  0
HATCH
  5
301
330
288
100
AcDbEntity
  8
0
 62
   150
100
AcDbHatch
 10
0.0
 20
0.0
 30
0.0
210
0.0
220
0.0
230
1.0
  2
SOLID
 70
     1
 71
     0
 91
        1
 92
        7
 72
     1
 73
     1
 93
        4
 10
-7195.780958100273
 20
1851.996931536043
 42
0.0
 10
-7153.773027337367
 20
1851.996931536043
 42
0.0
 10
-7153.77302733736
 20
2966.874078132688
 42
1.0
 10
-7195.780958100273
 20
2966.874078132688
 42
0.0
 97
        0
 75
     0
 76
     1
 47
3.819930990568736
 98
        1
 10
-7176.380929832397
 20
2452.071759675382
  0
LINE
  5
302
330
288
100
AcDbEntity
  8
0
100
AcDbLine
 10
-7921.714636299741
 20
1638.581965123907
 30
0.0
 11
-7761.467831036148
 21
1608.082170249657
 31
0.0
  0
LINE
  5
303
330
288
100
AcDbEntity
  8
0
100
AcDbLine
 10
-7755.219909053973
 20
1627.292228375163
 30
0.0
 11
-7917.625112727917
 21
1658.329376725852
 31
0.0
  0
LINE
  5
304
330
288
100
AcDbEntity
  8
0
100
AcDbLine
 10
-8117.955057228956
 20
1407.900264363001
 30
0.0
 11
-8117.955057228956
 21
1670.642185127961
 31
0.0
  0
LINE
  5
305
330
288
100
AcDbEntity
  8
0
100
AcDbLine
 10
-8137.958833782731
 20
1670.642185127961
 30
0.0
 11
-8137.958833782731
 21
1407.900264363001
 31
0.0
  0
CIRCLE
  5
306
102
{ACAD_REACTORS
330
2B0
102
}
330
288
100
AcDbEntity
  8
0
100
AcDbCircle
 10
-7936.587483141465
 20
1651.95916599837
 30
0.0
 40
20.00377655377027
  0
LINE
  5
307
330
288
100
AcDbEntity
  8
0
100
AcDbLine
 10
-7951.864522077006
 20
1664.872847029557
 30
0.0
 11
-8109.209322573891
 21
1694.942905160427
 31
0.0
  0
LINE
  5
308
330
288
100
AcDbEntity
  8
0
100
AcDbLine
 10
-8112.770657645466
 20
1674.945682022662
 30
0.0
 11
-7955.334596866542
 21
1644.980856504495
 31
0.0
  0
CIRCLE
  5
309
102
{ACAD_REACTORS
330
2B0
102
}
330
288
100
AcDbEntity
  8
0
100
AcDbCircle
 10
-8127.956945505841
 20
1687.965963795152
 30
0.0
 40
20.00377655377027
  0
ARC
  5
30A
330
288
100
AcDbEntity
  8
0
100
AcDbCircle
 10
-7744.551228225301
 20
1615.285575649795
 30
0.0
 40
20.00377655376609
100
AcDbArc
 50
122.2309526354793
 51
237.7690473645206
  0
ARC
  5
30B
330
288
100
AcDbEntity
  8
0
100
AcDbCircle
 10
-7174.77699271882
 20
2966.874078132688
 30
0.0
 40
21.00396538145651
100
AcDbArc
 50
0.0
 51
180.0
  0
LINE
  5
30C
330
288
100
AcDbEntity
  8
0
100
AcDbLine
 10
-3859.288313582016
 20
1851.996931536046
 30
0.0
 11
-5020.174146252321
 21
691.1110988657383
 31
0.0
  0
LINE
  5
30D
330
288
100
AcDbEntity
  8
0
100
AcDbLine
 10
-5020.174146252321
 20
1851.996931536046
 30
0.0
 11
-3859.288313582016
 21
691.1110988657383
 31
0.0
  0
LWPOLYLINE
  5
30E
330
288
100
AcDbEntity
  8
0
100
AcDbPolyline
 90
        4
 70
     1
 43
0.0
 10
-4731.452971326278
 20
1563.275756610001
 10
-4148.148603500878
 20
1563.275756610001
 10
-4148.148603500878
 20
979.8322737917805
 10
-4731.452971326278
 20
979.8322737917805
  0
LWPOLYLINE
  5
30F
102
{ACAD_REACTORS
330
294
330
293
330
28B
102
}
330
288
100
AcDbEntity
  8
0
100
AcDbPolyline
 90
        4
 70
     1
 43
0.0
 10
-5020.174146252324
 20
691.1110988657383
 10
-3859.288313582016
 20
691.1110988657383
 10
-3859.288313582016
 20
1851.996931536043
 10
-5020.174146252324
 20
1851.996931536043
  0
LINE
  5
310
330
288
100
AcDbEntity
  8
0
100
AcDbLine
 10
-2176.703009828073
 20
1401.245166524486
 30
0.0
 11
-2184.03772789779
 21
1363.23799107233
 31
0.0
  0
ARC
  5
311
330
288
100
AcDbEntity
  8
0
100
AcDbCircle
 10
-4040.807119345088
 20
1269.887033821409
 30
0.0
 40
309.1438787374797
100
AcDbArc
 50
306.0174788173628
 51
53.98252118263719
  0
ARC
  5
312
330
288
100
AcDbEntity
  8
0
100
AcDbCircle
 10
-4034.571117307856
 20
1269.887033821412
 30
0.0
 40
268.9014565588423
100
AcDbArc
 50
310.7563149162313
 51
49.24368508376861
  0
HATCH
  5
313
330
288
100
AcDbEntity
  8
0
 62
    50
100
AcDbHatch
 10
0.0
 20
0.0
 30
0.0
210
0.0
220
0.0
230
1.0
  2
SOLID
 70
     1
 71
     0
 91
        3
 92
        7
 72
     1
 73
     1
 93
       22
 10
-2185.704709277263
 20
1271.220618925068
 42
0.0
 10
-2184.03772789779
 20
1363.237991072332
 42
0.0
 10
-2176.703009828073
 20
1401.245166524482
 42
0.0
 10
-2159.366403481479
 20
1428.583661147964
 42
0.0
 10
-2134.69507906516
 20
1449.254230253529
 42
0.0
 10
-2108.023376993467
 20
1464.590458944752
 42
0.0
 10
-2094.020733405836
 20
1477.926309980595
 42
0.0
 10
-2086.686015336112
 20
1491.928953568234
 42
0.0
 10
-2084.01884512895
 20
1507.931974811248
 42
0.0
 10
-2084.01884512895
 20
1520.601033295302
 42
0.0
 10
-3859.020617999929
 20
1520.601033295295
 42
0.0
 10
-3859.020617999929
 20
1519.934240743501
 42
-0.5047677450341376
 10
-3855.407401988836
 20
1022.506997106487
 42
0.0
 10
-2084.01884512895
 20
1022.506997106487
 42
0.0
 10
-2084.01884512895
 20
1035.17605559054
 42
0.0
 10
-2087.35280788791
 20
1053.846247040723
 42
0.0
 10
-2096.02111106121
 20
1067.848890628354
 42
0.0
 10
-2108.023376993478
 20
1077.850778905242
 42
0.0
 10
-2134.69507906516
 20
1093.853800148257
 42
0.0
 10
-2164.033951344019
 20
1119.858709668151
 42
0.0
 10
-2178.703387483452
 20
1147.86399684343
 42
0.0
 10
-2184.03772789779
 20
1179.870039329464
 42
0.0
 97
        0
 92
       22
 72
     1
 73
     1
 93
        2
 10
-3859.020617999929
 20
1473.578014309514
 42
0.0
 10
-3859.020617999929
 20
1066.196053333311
 42
0.4582969605586812
 97
        0
 92
        7
 72
     1
 73
     1
 93
        5
 10
-3859.020617999929
 20
1519.934240743503
 42
0.0
 10
-3859.020617999929
 20
1473.578014309514
 42
-0.4582969605586812
 10
-3859.020617999929
 20
1066.196053333311
 42
0.0
 10
-3859.020617999929
 20
1022.506997106487
 42
0.0
 10
-3855.407401988836
 20
1022.506997106487
 42
0.5047677450341411
 97
        0
 75
     0
 76
     1
 47
4.472321723810398
 98
        3
 10
-2536.310399918944
 20
1246.591861928123
 10
-3820.407024108859
 20
1304.732006238608
 10
-3775.664949273978
 20
1367.344518838415
  0
HATCH
  5
314
330
288
100
AcDbEntity
  8
0
 62
    30
100
AcDbHatch
 10
0.0
 20
0.0
 30
0.0
210
0.0
220
0.0
230
1.0
  2
SOLID
 70
     1
 71
     0
 91
        2
 92
        7
 72
     0
 73
     1
 93
        4
 10
-2929.511800801527
 20
1539.938017297276
 10
-3859.020617999929
 20
1539.938017297276
 10
-3859.020617999929
 20
1520.601033295297
 10
-2929.511800801527
 20
1520.601033295299
 97
        0
 92
        7
 72
     1
 73
     1
 93
        5
 10
-2929.511800801534
 20
1022.506997106485
 42
0.0
 10
-3855.407401988836
 20
1022.506997106487
 42
-0.003631856113254
 10
-3859.020617999929
 20
1019.839826899315
 42
0.0
 10
-3859.020617999929
 20
1003.17001310451
 42
0.0
 10
-2929.511800801527
 20
1003.170013104505
 42
0.0
 97
        0
 75
     0
 76
     1
 47
3.387716884985549
 98
        2
 10
-3644.414693210387
 20
1529.250029098891
 10
-3552.850916602878
 20
1010.929337652962
  0
HATCH
  5
315
330
288
100
AcDbEntity
  8
0
 62
   150
100
AcDbHatch
 10
0.0
 20
0.0
 30
0.0
210
0.0
220
0.0
230
1.0
  2
SOLID
 70
     1
 71
     1
 91
        2
 92
        7
 72
     0
 73
     1
 93
        4
 10
-2000.00298360312
 20
1520.601033295301
 10
-2000.002983603124
 20
1539.938017297276
 10
-2929.511800801527
 20
1539.938017297276
 10
-2929.511800801527
 20
1520.601033295299
 97
        4
330
392
330
393
330
391
330
39B
 92
        7
 72
     0
 73
     1
 93
        4
 10
-2000.002983603124
 20
1003.170013104498
 10
-2000.002983603131
 20
1022.506997106487
 10
-2929.51180080153
 20
1022.506997106487
 10
-2929.511800801527
 20
1003.170013104504
 97
        4
330
316
330
385
330
317
330
38E
 75
     0
 76
     1
 47
2.231880503813954
 98
        2
 10
-2372.962551122033
 20
1531.131221503959
 10
-2475.73616979313
 20
1006.639258941004
  0
LINE
  5
316
102
{ACAD_REACTORS
330
315
102
}
330
288
100
AcDbEntity
  8
0
100
AcDbLine
 10
-2000.002983603131
 20
1022.506997106487
 30
0.0
 11
-3859.020617999929
 21
1022.506997106487
 31
0.0
  0
LINE
  5
317
102
{ACAD_REACTORS
330
315
102
}
330
288
100
AcDbEntity
  8
0
100
AcDbLine
 10
-3859.020617999929
 20
1003.17001310451
 30
0.0
 11
-2000.002983603124
 21
1003.170013104498
 31
0.0
  0
HATCH
  5
318
330
288
100
AcDbEntity
  8
0
 62
    30
100
AcDbHatch
 10
0.0
 20
0.0
 30
0.0
210
0.0
220
0.0
230
1.0
  2
SOLID
 70
     1
 71
     1
 91
       12
 92
        7
 72
     0
 73
     1
 93
        8
 10
-4263.855232446288
 20
607.8569725981396
 10
-4242.974977038775
 20
624.4540986912872
 10
-4243.510368203071
 20
667.2853918348951
 10
-4265.461405939169
 20
683.3471267637506
 10
-4365.044162498058
 20
683.3471267637506
 10
-4386.995200234159
 20
667.2853918348957
 10
-4387.530591398455
 20
624.4540986912867
 10
-4366.650335990947
 20
607.8569725981398
 97
        8
330
366
330
37E
330
370
330
37D
330
37C
330
37A
330
367
330
383
 92
        7
 72
     0
 73
     1
 93
        8
 10
-4066.831283985684
 20
426.7067579432078
 10
-4045.951028578173
 20
443.3038840363552
 10
-4046.486419742467
 20
486.1351771799633
 10
-4068.437457478565
 20
502.1969121088186
 10
-4168.020214037457
 20
502.1969121088186
 10
-4189.971251773557
 20
486.1351771799638
 10
-4190.506642937853
 20
443.3038840363551
 10
-4169.626387530343
 20
426.7067579432077
 97
        8
330
37F
330
380
330
381
330
382
330
31A
330
362
330
319
330
384
 92
        7
 72
     0
 73
     1
 93
       10
 10
-4216.205418824022
 20
328.1947837129047
 10
-4283.664705525202
 20
350.1458214490049
 10
-4293.837137646813
 20
346.3980832989385
 10
-4300.261831618351
 20
342.1149539845773
 10
-4302.938787439827
 20
309.9914841268711
 10
-4254.218191488972
 20
265.5540174903781
 10
-4178.192646159066
 20
265.5540174903781
 10
-4130.007441372508
 20
309.1883973804294
 10
-4132.149006029686
 20
342.1149539845773
 10
-4146.604567465656
 20
348.5396479561186
 97
       10
330
365
330
363
330
364
330
31E
330
351
330
350
330
352
330
34F
330
31F
330
361
 92
        7
 72
     0
 73
     1
 93
        8
 10
-4147.139958629945
 20
135.9893557309606
 10
-4246.722715188837
 20
135.9893557309606
 10
-4268.673752924937
 20
119.9276208021055
 10
-4269.209144089233
 20
77.09632765849689
 10
-4248.328888681725
 20
60.49920156534972
 10
-4145.533785137064
 20
60.49920156534972
 10
-4124.653529729552
 20
77.09632765849647
 10
-4125.188920893849
 20
119.9276208021063
 97
        8
330
35F
330
31C
330
348
330
349
330
345
330
31D
330
35E
330
360
 92
        7
 72
     0
 73
     1
 93
       10
 10
-4165.34325821598
 20
-58.89302807246169
 10
-4175.515690337592
 20
-62.64076622252911
 10
-4181.940384309126
 20
-66.92389553688894
 10
-4184.617340130603
 20
-99.0473653945961
 10
-4135.89674417975
 20
-143.4848320310884
 10
-4059.871198849843
 20
-143.4848320310884
 10
-4011.685994063285
 20
-99.85045214103735
 10
-4013.827558720463
 20
-66.92389553688882
 10
-4028.283120156433
 20
-60.49920156534806
 10
-4097.883971514799
 20
-80.84406580856201
 97
       10
330
35D
330
35C
330
354
330
356
330
359
330
358
330
35A
330
357
330
35B
330
355
 92
        7
 72
     0
 73
     1
 93
        8
 10
-4386.459809069863
 20
-29.98190520052594
 10
-4486.042565628755
 20
-29.98190520052594
 10
-4507.993603364855
 20
-46.04364012938079
 10
-4508.528994529151
 20
-88.87493327298962
 10
-4487.648739121643
 20
-105.4720593661368
 10
-4384.853635576983
 20
-105.4720593661368
 10
-4363.973380169471
 20
-88.87493327298956
 10
-4364.508771333767
 20
-46.04364012938135
 97
        8
330
346
330
33A
330
33D
330
321
330
326
330
325
330
327
330
320
 92
        7
 72
     0
 73
     1
 93
       10
 10
-4429.826493377768
 20
169.7189990815513
 10
-4444.282054813739
 20
176.1436930530928
 10
-4513.882906172103
 20
155.7988288098786
 10
-4581.342192873285
 20
177.7498665459788
 10
-4591.514624994895
 20
174.0021283959121
 10
-4597.939318966433
 20
169.7189990815503
 10
-4600.616274787909
 20
137.5955292238448
 10
-4551.895678837055
 20
93.15806258735211
 10
-4475.870133507149
 20
93.15806258735211
 10
-4427.684928720591
 20
136.7924424774023
 97
       10
330
347
330
33B
330
344
330
33E
330
341
330
340
330
343
330
342
330
33F
330
33C
 92
        7
 72
     0
 73
     1
 93
       10
 10
-4672.894081967747
 20
15.52634376455882
 10
-4687.349643403718
 20
21.95103773610028
 10
-4756.950494762084
 20
1.606173492886228
 10
-4824.409781463266
 20
23.55721122898665
 10
-4834.582213584877
 20
19.80947307891892
 10
-4841.006907556414
 20
15.52634376455912
 10
-4843.68386337789
 20
-16.59712609314779
 10
-4794.963267427036
 20
-61.03459272964027
 10
-4718.937722097128
 20
-61.03459272964026
 10
-4670.752517310571
 20
-17.40021283958987
 97
       10
330
332
330
330
330
331
330
32D
330
32E
330
32F
330
323
330
324
330
322
330
333
 92
        7
 72
     0
 73
     1
 93
        8
 10
-4741.424150997525
 20
235.0367211255544
 10
-4763.375188733622
 20
251.0984560544093
 10
-4862.957945292514
 20
251.0984560544093
 10
-4884.908983028615
 20
235.0367211255538
 10
-4885.44437419291
 20
192.2054279819458
 10
-4864.564118785402
 20
175.6083018887984
 10
-4761.769015240742
 20
175.6083018887984
 10
-4740.888759833229
 20
192.2054279819458
 97
        8
330
338
330
334
330
335
330
336
330
32B
330
32C
330
32A
330
339
 92
        7
 72
     0
 73
     1
 93
        8
 10
-4497.821171243249
 20
346.9334744632319
 10
-4519.772208979346
 20
362.9952093920874
 10
-4619.354965538238
 20
362.9952093920874
 10
-4641.306003274336
 20
346.9334744632329
 10
-4641.841394438634
 20
304.1021813196233
 10
-4620.961139031126
 20
287.5050552264766
 10
-4518.166035486465
 20
287.5050552264765
 10
-4497.285780078953
 20
304.1021813196243
 97
        8
330
34E
330
34D
330
328
330
337
330
329
330
34B
330
34C
330
34A
 92
        7
 72
     0
 73
     1
 93
        8
 10
-4653.084608888831
 20
515.046300051901
 10
-4653.620000053129
 20
557.8775931955102
 10
-4675.571037789224
 20
573.9393281243646
 10
-4775.153794348116
 20
573.9393281243646
 10
-4797.104832084215
 20
557.8775931955099
 10
-4797.640223248511
 20
515.0463000519014
 10
-4776.759967841003
 20
498.4491739587538
 10
-4673.964864296345
 20
498.4491739587538
 97
        8
330
36F
330
36D
330
36E
330
369
330
36B
330
36A
330
36C
330
368
 92
        7
 72
     0
 73
     1
 93
       10
 10
-4419.654061256165
 20
526.0218189199496
 10
-4421.795625913342
 20
558.9483755240978
 10
-4436.251187349313
 20
565.3730694956395
 10
-4505.852038707678
 20
545.0282052524253
 10
-4573.31132540886
 20
566.9792429885254
 10
-4583.483757530471
 20
563.2315048384583
 10
-4589.908451502007
 20
558.9483755240981
 10
-4592.585407323485
 20
526.8249056663923
 10
-4543.86481137263
 20
482.3874390298988
 10
-4467.839266042723
 20
482.3874390298987
 97
       10
330
379
330
37B
330
371
330
373
330
378
330
377
330
374
330
376
330
375
330
372
 75
     0
 76
     1
 47
2.204275466911288
 98
       27
 10
-4307.577714196617
 20
643.7186458521937
 10
-4146.497752041083
 20
462.9680279937566
 10
-4223.727851704017
 20
343.937145956308
 10
-4223.727851704017
 20
343.937145956308
 10
-4223.727851704017
 20
343.937145956308
 10
-4223.727851704017
 20
343.937145956308
 10
-4223.727851704017
 20
343.937145956308
 10
-4223.727851704017
 20
343.937145956308
 10
-4223.727851704017
 20
343.937145956308
 10
-4223.727851704017
 20
343.937145956308
 10
-4223.727851704017
 20
343.937145956308
 10
-4223.727851704017
 20
343.937145956308
 10
-4223.727851704017
 20
343.937145956308
 10
-4223.727851704017
 20
343.937145956308
 10
-4223.727851704017
 20
343.937145956308
 10
-4311.990916868344
 20
652.5357386208525
 10
-4155.324075028686
 20
454.1509352250978
 10
-4225.934494217806
 20
295.4430925084998
 10
-4210.488408400538
 20
86.0369231519253
 10
-4124.431985750002
 20
-107.9393338594927
 10
-4406.873580150633
 20
-61.64955360385284
 10
-4508.376088618439
 20
112.4882446780939
 10
-4733.446707133429
 20
4.478728601465263
 10
-4788.611122861119
 20
211.6806247658714
 10
-4590.019308597249
 20
321.8944140346684
 10
-4700.348057696806
 20
548.9347689285532
 10
-4510.582648776376
 20
498.2364422885766
  0
LINE
  5
319
102
{ACAD_REACTORS
330
294
330
318
102
}
330
288
100
AcDbEntity
  8
0
100
AcDbLine
 10
-4066.831283985684
 20
426.7067579432078
 30
0.0
 11
-4045.951028578172
 21
443.3038840363551
 31
0.0
  0
LINE
  5
31A
102
{ACAD_REACTORS
330
294
330
318
102
}
330
288
100
AcDbEntity
  8
0
100
AcDbLine
 10
-4190.506642937853
 20
443.3038840363551
 30
0.0
 11
-4169.626387530345
 21
426.7067579432078
 31
0.0
  0
LINE
  5
31B
102
{ACAD_REACTORS
330
294
102
}
330
288
100
AcDbEntity
  8
0
100
AcDbLine
 10
-3784.680140402161
 20
-38.01277266495162
 30
0.0
 11
-4039.238196816394
 21
691.189993104992
 31
0.0
  0
LINE
  5
31C
102
{ACAD_REACTORS
330
294
330
318
102
}
330
288
100
AcDbEntity
  8
0
100
AcDbLine
 10
-4147.139958629945
 20
135.9893557309606
 30
0.0
 11
-4246.722715188837
 21
135.9893557309606
 31
0.0
  0
LINE
  5
31D
102
{ACAD_REACTORS
330
294
330
318
102
}
330
288
100
AcDbEntity
  8
0
100
AcDbLine
 10
-4248.328888681725
 20
60.49920156534972
 30
0.0
 11
-4145.533785137064
 21
60.49920156534972
 31
0.0
  0
LINE
  5
31E
102
{ACAD_REACTORS
330
294
330
318
102
}
330
288
100
AcDbEntity
  8
0
100
AcDbLine
 10
-4216.205418824022
 20
328.1947837129046
 30
0.0
 11
-4283.664705525203
 21
350.1458214490048
 31
0.0
  0
LINE
  5
31F
102
{ACAD_REACTORS
330
294
330
318
102
}
330
288
100
AcDbEntity
  8
0
100
AcDbLine
 10
-4254.218191488972
 20
265.5540174903781
 30
0.0
 11
-4178.192646159066
 21
265.5540174903781
 31
0.0
  0
LINE
  5
320
102
{ACAD_REACTORS
330
294
330
318
102
}
330
288
100
AcDbEntity
  8
0
100
AcDbLine
 10
-4363.973380169471
 20
-88.87493327298944
 30
0.0
 11
-4364.508771333767
 21
-46.04364012938094
 31
0.0
  0
LINE
  5
321
102
{ACAD_REACTORS
330
294
330
318
102
}
330
288
100
AcDbEntity
  8
0
100
AcDbLine
 10
-4507.993603364855
 20
-46.04364012938094
 30
0.0
 11
-4508.528994529151
 21
-88.87493327298944
 31
0.0
  0
LINE
  5
322
102
{ACAD_REACTORS
330
294
330
318
102
}
330
288
100
AcDbEntity
  8
0
100
AcDbLine
 10
-4718.93772209713
 20
-61.03459272964028
 30
0.0
 11
-4670.752517310571
 21
-17.40021283958958
 31
0.0
  0
LINE
  5
323
102
{ACAD_REACTORS
330
294
330
318
102
}
330
288
100
AcDbEntity
  8
0
100
AcDbLine
 10
-4843.68386337789
 20
-16.59712609314738
 30
0.0
 11
-4794.963267427036
 21
-61.03459272964028
 31
0.0
  0
LINE
  5
324
102
{ACAD_REACTORS
330
294
330
318
102
}
330
288
100
AcDbEntity
  8
0
100
AcDbLine
 10
-4794.963267427036
 20
-61.03459272964028
 30
0.0
 11
-4718.93772209713
 21
-61.03459272964028
 31
0.0
  0
LINE
  5
325
102
{ACAD_REACTORS
330
294
330
318
102
}
330
288
100
AcDbEntity
  8
0
100
AcDbLine
 10
-4487.648739121643
 20
-105.4720593661368
 30
0.0
 11
-4384.853635576983
 21
-105.4720593661368
 31
0.0
  0
LINE
  5
326
102
{ACAD_REACTORS
330
294
330
318
102
}
330
288
100
AcDbEntity
  8
0
100
AcDbLine
 10
-4508.528994529151
 20
-88.87493327298944
 30
0.0
 11
-4487.648739121643
 21
-105.4720593661368
 31
0.0
  0
LINE
  5
327
102
{ACAD_REACTORS
330
294
330
318
102
}
330
288
100
AcDbEntity
  8
0
100
AcDbLine
 10
-4384.853635576983
 20
-105.4720593661368
 30
0.0
 11
-4363.973380169471
 21
-88.87493327298944
 31
0.0
  0
LINE
  5
328
102
{ACAD_REACTORS
330
294
330
318
102
}
330
288
100
AcDbEntity
  8
0
100
AcDbLine
 10
-4619.354965538238
 20
362.9952093920874
 30
0.0
 11
-4641.306003274338
 21
346.9334744632324
 31
0.0
  0
LINE
  5
329
102
{ACAD_REACTORS
330
294
330
318
102
}
330
288
100
AcDbEntity
  8
0
100
AcDbLine
 10
-4641.841394438634
 20
304.1021813196239
 30
0.0
 11
-4620.961139031126
 21
287.5050552264765
 31
0.0
  0
LINE
  5
32A
102
{ACAD_REACTORS
330
294
330
318
102
}
330
288
100
AcDbEntity
  8
0
100
AcDbLine
 10
-4761.769015240741
 20
175.6083018887984
 30
0.0
 11
-4740.888759833229
 21
192.2054279819458
 31
0.0
  0
LINE
  5
32B
102
{ACAD_REACTORS
330
294
330
318
102
}
330
288
100
AcDbEntity
  8
0
100
AcDbLine
 10
-4885.44437419291
 20
192.2054279819458
 30
0.0
 11
-4864.564118785402
 21
175.6083018887984
 31
0.0
  0
LINE
  5
32C
102
{ACAD_REACTORS
330
294
330
318
102
}
330
288
100
AcDbEntity
  8
0
100
AcDbLine
 10
-4864.564118785402
 20
175.6083018887984
 30
0.0
 11
-4761.769015240741
 21
175.6083018887984
 31
0.0
  0
LINE
  5
32D
102
{ACAD_REACTORS
330
294
330
318
102
}
330
288
100
AcDbEntity
  8
0
100
AcDbLine
 10
-4824.409781463266
 20
23.55721122898648
 30
0.0
 11
-4834.582213584876
 21
19.80947307891983
 31
0.0
  0
LINE
  5
32E
102
{ACAD_REACTORS
330
294
330
318
102
}
330
288
100
AcDbEntity
  8
0
100
AcDbLine
 10
-4834.582213584876
 20
19.80947307891983
 30
0.0
 11
-4841.006907556414
 21
15.52634376455898
 31
0.0
  0
LINE
  5
32F
102
{ACAD_REACTORS
330
294
330
318
102
}
330
288
100
AcDbEntity
  8
0
100
AcDbLine
 10
-4841.006907556414
 20
15.52634376455898
 30
0.0
 11
-4843.68386337789
 21
-16.59712609314738
 31
0.0
  0
LINE
  5
330
102
{ACAD_REACTORS
330
294
330
318
102
}
330
288
100
AcDbEntity
  8
0
100
AcDbLine
 10
-4687.349643403718
 20
21.95103773610026
 30
0.0
 11
-4756.950494762084
 21
1.606173492886227
 31
0.0
  0
LINE
  5
331
102
{ACAD_REACTORS
330
294
330
318
102
}
330
288
100
AcDbEntity
  8
0
100
AcDbLine
 10
-4756.950494762084
 20
1.606173492886227
 30
0.0
 11
-4824.409781463266
 21
23.55721122898648
 31
0.0
  0
LINE
  5
332
102
{ACAD_REACTORS
330
294
330
318
102
}
330
288
100
AcDbEntity
  8
0
100
AcDbLine
 10
-4672.894081967748
 20
15.52634376455898
 30
0.0
 11
-4687.349643403718
 21
21.95103773610026
 31
0.0
  0
LINE
  5
333
102
{ACAD_REACTORS
330
294
330
318
102
}
330
288
100
AcDbEntity
  8
0
100
AcDbLine
 10
-4670.752517310571
 20
-17.40021283958958
 30
0.0
 11
-4672.894081967748
 21
15.52634376455898
 31
0.0
  0
LINE
  5
334
102
{ACAD_REACTORS
330
294
330
318
102
}
330
288
100
AcDbEntity
  8
0
100
AcDbLine
 10
-4763.375188733622
 20
251.0984560544093
 30
0.0
 11
-4862.957945292514
 21
251.0984560544093
 31
0.0
  0
LINE
  5
335
102
{ACAD_REACTORS
330
294
330
318
102
}
330
288
100
AcDbEntity
  8
0
100
AcDbLine
 10
-4862.957945292514
 20
251.0984560544093
 30
0.0
 11
-4884.908983028614
 21
235.0367211255543
 31
0.0
  0
LINE
  5
336
102
{ACAD_REACTORS
330
294
330
318
102
}
330
288
100
AcDbEntity
  8
0
100
AcDbLine
 10
-4884.908983028614
 20
235.0367211255543
 30
0.0
 11
-4885.44437419291
 21
192.2054279819458
 31
0.0
  0
LINE
  5
337
102
{ACAD_REACTORS
330
294
330
318
102
}
330
288
100
AcDbEntity
  8
0
100
AcDbLine
 10
-4641.306003274338
 20
346.9334744632324
 30
0.0
 11
-4641.841394438634
 21
304.1021813196239
 31
0.0
  0
LINE
  5
338
102
{ACAD_REACTORS
330
294
330
318
102
}
330
288
100
AcDbEntity
  8
0
100
AcDbLine
 10
-4741.424150997525
 20
235.0367211255543
 30
0.0
 11
-4763.375188733622
 21
251.0984560544093
 31
0.0
  0
LINE
  5
339
102
{ACAD_REACTORS
330
294
330
318
102
}
330
288
100
AcDbEntity
  8
0
100
AcDbLine
 10
-4740.888759833229
 20
192.2054279819458
 30
0.0
 11
-4741.424150997525
 21
235.0367211255543
 31
0.0
  0
LINE
  5
33A
102
{ACAD_REACTORS
330
294
330
318
102
}
330
288
100
AcDbEntity
  8
0
100
AcDbLine
 10
-4386.459809069863
 20
-29.98190520052594
 30
0.0
 11
-4486.042565628755
 21
-29.98190520052594
 31
0.0
  0
LINE
  5
33B
102
{ACAD_REACTORS
330
294
330
318
102
}
330
288
100
AcDbEntity
  8
0
100
AcDbLine
 10
-4429.826493377768
 20
169.7189990815513
 30
0.0
 11
-4444.282054813739
 21
176.1436930530926
 31
0.0
  0
LINE
  5
33C
102
{ACAD_REACTORS
330
294
330
318
102
}
330
288
100
AcDbEntity
  8
0
100
AcDbLine
 10
-4475.870133507149
 20
93.15806258735211
 30
0.0
 11
-4427.684928720591
 21
136.7924424774028
 31
0.0
  0
LINE
  5
33D
102
{ACAD_REACTORS
330
294
330
318
102
}
330
288
100
AcDbEntity
  8
0
100
AcDbLine
 10
-4486.042565628755
 20
-29.98190520052594
 30
0.0
 11
-4507.993603364855
 21
-46.04364012938094
 31
0.0
  0
LINE
  5
33E
102
{ACAD_REACTORS
330
294
330
318
102
}
330
288
100
AcDbEntity
  8
0
100
AcDbLine
 10
-4513.882906172105
 20
155.7988288098786
 30
0.0
 11
-4581.342192873285
 21
177.7498665459788
 31
0.0
  0
LINE
  5
33F
102
{ACAD_REACTORS
330
294
330
318
102
}
330
288
100
AcDbEntity
  8
0
100
AcDbLine
 10
-4551.895678837055
 20
93.15806258735211
 30
0.0
 11
-4475.870133507149
 21
93.15806258735211
 31
0.0
  0
LINE
  5
340
102
{ACAD_REACTORS
330
294
330
318
102
}
330
288
100
AcDbEntity
  8
0
100
AcDbLine
 10
-4591.514624994895
 20
174.0021283959122
 30
0.0
 11
-4597.939318966433
 21
169.7189990815513
 31
0.0
  0
LINE
  5
341
102
{ACAD_REACTORS
330
294
330
318
102
}
330
288
100
AcDbEntity
  8
0
100
AcDbLine
 10
-4581.342192873285
 20
177.7498665459788
 30
0.0
 11
-4591.514624994895
 21
174.0021283959122
 31
0.0
  0
LINE
  5
342
102
{ACAD_REACTORS
330
294
330
318
102
}
330
288
100
AcDbEntity
  8
0
100
AcDbLine
 10
-4600.616274787909
 20
137.595529223845
 30
0.0
 11
-4551.895678837055
 21
93.15806258735211
 31
0.0
  0
LINE
  5
343
102
{ACAD_REACTORS
330
294
330
318
102
}
330
288
100
AcDbEntity
  8
0
100
AcDbLine
 10
-4597.939318966433
 20
169.7189990815513
 30
0.0
 11
-4600.616274787909
 21
137.595529223845
 31
0.0
  0
LINE
  5
344
102
{ACAD_REACTORS
330
294
330
318
102
}
330
288
100
AcDbEntity
  8
0
100
AcDbLine
 10
-4444.282054813739
 20
176.1436930530926
 30
0.0
 11
-4513.882906172105
 21
155.7988288098786
 31
0.0
  0
LINE
  5
345
102
{ACAD_REACTORS
330
294
330
318
102
}
330
288
100
AcDbEntity
  8
0
100
AcDbLine
 10
-4269.209144089233
 20
77.0963276584971
 30
0.0
 11
-4248.328888681725
 21
60.49920156534972
 31
0.0
  0
LINE
  5
346
102
{ACAD_REACTORS
330
294
330
318
102
}
330
288
100
AcDbEntity
  8
0
100
AcDbLine
 10
-4364.508771333767
 20
-46.04364012938094
 30
0.0
 11
-4386.459809069863
 21
-29.98190520052594
 31
0.0
  0
LINE
  5
347
102
{ACAD_REACTORS
330
294
330
318
102
}
330
288
100
AcDbEntity
  8
0
100
AcDbLine
 10
-4427.684928720591
 20
136.7924424774028
 30
0.0
 11
-4429.826493377768
 21
169.7189990815513
 31
0.0
  0
LINE
  5
348
102
{ACAD_REACTORS
330
294
330
318
102
}
330
288
100
AcDbEntity
  8
0
100
AcDbLine
 10
-4246.722715188837
 20
135.9893557309606
 30
0.0
 11
-4268.673752924937
 21
119.9276208021055
 31
0.0
  0
LINE
  5
349
102
{ACAD_REACTORS
330
294
330
318
102
}
330
288
100
AcDbEntity
  8
0
100
AcDbLine
 10
-4268.673752924937
 20
119.9276208021055
 30
0.0
 11
-4269.209144089233
 21
77.0963276584971
 31
0.0
  0
LINE
  5
34A
102
{ACAD_REACTORS
330
294
330
318
102
}
330
288
100
AcDbEntity
  8
0
100
AcDbLine
 10
-4497.285780078953
 20
304.1021813196239
 30
0.0
 11
-4497.821171243249
 21
346.9334744632324
 31
0.0
  0
LINE
  5
34B
102
{ACAD_REACTORS
330
294
330
318
102
}
330
288
100
AcDbEntity
  8
0
100
AcDbLine
 10
-4620.961139031126
 20
287.5050552264765
 30
0.0
 11
-4518.166035486465
 21
287.5050552264765
 31
0.0
  0
LINE
  5
34C
102
{ACAD_REACTORS
330
294
330
318
102
}
330
288
100
AcDbEntity
  8
0
100
AcDbLine
 10
-4518.166035486465
 20
287.5050552264765
 30
0.0
 11
-4497.285780078953
 21
304.1021813196239
 31
0.0
  0
LINE
  5
34D
102
{ACAD_REACTORS
330
294
330
318
102
}
330
288
100
AcDbEntity
  8
0
100
AcDbLine
 10
-4519.772208979346
 20
362.9952093920874
 30
0.0
 11
-4619.354965538238
 21
362.9952093920874
 31
0.0
  0
LINE
  5
34E
102
{ACAD_REACTORS
330
294
330
318
102
}
330
288
100
AcDbEntity
  8
0
100
AcDbLine
 10
-4497.821171243249
 20
346.9334744632324
 30
0.0
 11
-4519.772208979346
 21
362.9952093920874
 31
0.0
  0
LINE
  5
34F
102
{ACAD_REACTORS
330
294
330
318
102
}
330
288
100
AcDbEntity
  8
0
100
AcDbLine
 10
-4302.938787439827
 20
309.9914841268709
 30
0.0
 11
-4254.218191488972
 21
265.5540174903781
 31
0.0
  0
LINE
  5
350
102
{ACAD_REACTORS
330
294
330
318
102
}
330
288
100
AcDbEntity
  8
0
100
AcDbLine
 10
-4293.837137646813
 20
346.3980832989382
 30
0.0
 11
-4300.26183161835
 21
342.1149539845773
 31
0.0
  0
LINE
  5
351
102
{ACAD_REACTORS
330
294
330
318
102
}
330
288
100
AcDbEntity
  8
0
100
AcDbLine
 10
-4283.664705525203
 20
350.1458214490048
 30
0.0
 11
-4293.837137646813
 21
346.3980832989382
 31
0.0
  0
LINE
  5
352
102
{ACAD_REACTORS
330
294
330
318
102
}
330
288
100
AcDbEntity
  8
0
100
AcDbLine
 10
-4300.26183161835
 20
342.1149539845773
 30
0.0
 11
-4302.938787439827
 21
309.9914841268709
 31
0.0
  0
LINE
  5
353
102
{ACAD_REACTORS
330
294
102
}
330
288
100
AcDbEntity
  8
0
100
AcDbLine
 10
-3784.680140402161
 20
-38.01277266495162
 30
0.0
 11
-3754.162844037338
 21
-185.7807340104045
 31
0.0
  0
LINE
  5
354
102
{ACAD_REACTORS
330
294
330
318
102
}
330
288
100
AcDbEntity
  8
0
100
AcDbLine
 10
-4028.283120156433
 20
-60.4992015653479
 30
0.0
 11
-4097.883971514799
 21
-80.84406580856194
 31
0.0
  0
LINE
  5
355
102
{ACAD_REACTORS
330
294
330
318
102
}
330
288
100
AcDbEntity
  8
0
100
AcDbLine
 10
-4059.871198849843
 20
-143.4848320310884
 30
0.0
 11
-4011.685994063285
 21
-99.85045214103775
 31
0.0
  0
LINE
  5
356
102
{ACAD_REACTORS
330
294
330
318
102
}
330
288
100
AcDbEntity
  8
0
100
AcDbLine
 10
-4097.883971514799
 20
-80.84406580856194
 30
0.0
 11
-4165.34325821598
 21
-58.89302807246167
 31
0.0
  0
LINE
  5
357
102
{ACAD_REACTORS
330
294
330
318
102
}
330
288
100
AcDbEntity
  8
0
100
AcDbLine
 10
-4184.617340130603
 20
-99.04736539459555
 30
0.0
 11
-4135.89674417975
 21
-143.4848320310884
 31
0.0
  0
LINE
  5
358
102
{ACAD_REACTORS
330
294
330
318
102
}
330
288
100
AcDbEntity
  8
0
100
AcDbLine
 10
-4175.515690337589
 20
-62.64076622252833
 30
0.0
 11
-4181.940384309128
 21
-66.92389553688918
 31
0.0
  0
LINE
  5
359
102
{ACAD_REACTORS
330
294
330
318
102
}
330
288
100
AcDbEntity
  8
0
100
AcDbLine
 10
-4165.34325821598
 20
-58.89302807246167
 30
0.0
 11
-4175.515690337589
 21
-62.64076622252833
 31
0.0
  0
LINE
  5
35A
102
{ACAD_REACTORS
330
294
330
318
102
}
330
288
100
AcDbEntity
  8
0
100
AcDbLine
 10
-4181.940384309128
 20
-66.92389553688918
 30
0.0
 11
-4184.617340130603
 21
-99.04736539459555
 31
0.0
  0
LINE
  5
35B
102
{ACAD_REACTORS
330
294
330
318
102
}
330
288
100
AcDbEntity
  8
0
100
AcDbLine
 10
-4135.89674417975
 20
-143.4848320310884
 30
0.0
 11
-4059.871198849843
 21
-143.4848320310884
 31
0.0
  0
LINE
  5
35C
102
{ACAD_REACTORS
330
294
330
318
102
}
330
288
100
AcDbEntity
  8
0
100
AcDbLine
 10
-4013.827558720462
 20
-66.92389553688918
 30
0.0
 11
-4028.283120156433
 21
-60.4992015653479
 31
0.0
  0
LINE
  5
35D
102
{ACAD_REACTORS
330
294
330
318
102
}
330
288
100
AcDbEntity
  8
0
100
AcDbLine
 10
-4011.685994063285
 20
-99.85045214103775
 30
0.0
 11
-4013.827558720462
 21
-66.92389553688918
 31
0.0
  0
LINE
  5
35E
102
{ACAD_REACTORS
330
294
330
318
102
}
330
288
100
AcDbEntity
  8
0
100
AcDbLine
 10
-4145.533785137064
 20
60.49920156534972
 30
0.0
 11
-4124.653529729552
 21
77.0963276584971
 31
0.0
  0
LINE
  5
35F
102
{ACAD_REACTORS
330
294
330
318
102
}
330
288
100
AcDbEntity
  8
0
100
AcDbLine
 10
-4125.188920893848
 20
119.9276208021055
 30
0.0
 11
-4147.139958629945
 21
135.9893557309606
 31
0.0
  0
LINE
  5
360
102
{ACAD_REACTORS
330
294
330
318
102
}
330
288
100
AcDbEntity
  8
0
100
AcDbLine
 10
-4124.653529729552
 20
77.0963276584971
 30
0.0
 11
-4125.188920893848
 21
119.9276208021055
 31
0.0
  0
LINE
  5
361
102
{ACAD_REACTORS
330
294
330
318
102
}
330
288
100
AcDbEntity
  8
0
100
AcDbLine
 10
-4178.192646159066
 20
265.5540174903781
 30
0.0
 11
-4130.007441372509
 21
309.1883973804288
 31
0.0
  0
LINE
  5
362
102
{ACAD_REACTORS
330
294
330
318
102
}
330
288
100
AcDbEntity
  8
0
100
AcDbLine
 10
-4169.626387530345
 20
426.7067579432078
 30
0.0
 11
-4066.831283985684
 21
426.7067579432078
 31
0.0
  0
LINE
  5
363
102
{ACAD_REACTORS
330
294
330
318
102
}
330
288
100
AcDbEntity
  8
0
100
AcDbLine
 10
-4132.149006029686
 20
342.1149539845773
 30
0.0
 11
-4146.604567465656
 21
348.5396479561186
 31
0.0
  0
LINE
  5
364
102
{ACAD_REACTORS
330
294
330
318
102
}
330
288
100
AcDbEntity
  8
0
100
AcDbLine
 10
-4146.604567465656
 20
348.5396479561186
 30
0.0
 11
-4216.205418824022
 21
328.1947837129046
 31
0.0
  0
LINE
  5
365
102
{ACAD_REACTORS
330
294
330
318
102
}
330
288
100
AcDbEntity
  8
0
100
AcDbLine
 10
-4130.007441372509
 20
309.1883973804288
 30
0.0
 11
-4132.149006029686
 21
342.1149539845773
 31
0.0
  0
LINE
  5
366
102
{ACAD_REACTORS
330
294
330
318
102
}
330
288
100
AcDbEntity
  8
0
100
AcDbLine
 10
-4243.510368203071
 20
667.2853918348955
 30
0.0
 11
-4265.461405939168
 21
683.3471267637506
 31
0.0
  0
LINE
  5
367
102
{ACAD_REACTORS
330
294
330
318
102
}
330
288
100
AcDbEntity
  8
0
100
AcDbLine
 10
-4263.855232446287
 20
607.8569725981396
 30
0.0
 11
-4242.974977038775
 21
624.4540986912871
 31
0.0
  0
LINE
  5
368
102
{ACAD_REACTORS
330
294
330
318
102
}
330
288
100
AcDbEntity
  8
0
100
AcDbLine
 10
-4653.084608888831
 20
515.0463000519011
 30
0.0
 11
-4653.620000053128
 21
557.8775931955097
 31
0.0
  0
LINE
  5
369
102
{ACAD_REACTORS
330
294
330
318
102
}
330
288
100
AcDbEntity
  8
0
100
AcDbLine
 10
-4797.104832084216
 20
557.8775931955097
 30
0.0
 11
-4797.640223248513
 21
515.0463000519011
 31
0.0
  0
LINE
  5
36A
102
{ACAD_REACTORS
330
294
330
318
102
}
330
288
100
AcDbEntity
  8
0
100
AcDbLine
 10
-4776.759967841004
 20
498.4491739587538
 30
0.0
 11
-4673.964864296343
 21
498.4491739587538
 31
0.0
  0
LINE
  5
36B
102
{ACAD_REACTORS
330
294
330
318
102
}
330
288
100
AcDbEntity
  8
0
100
AcDbLine
 10
-4797.640223248513
 20
515.0463000519011
 30
0.0
 11
-4776.759967841004
 21
498.4491739587538
 31
0.0
  0
LINE
  5
36C
102
{ACAD_REACTORS
330
294
330
318
102
}
330
288
100
AcDbEntity
  8
0
100
AcDbLine
 10
-4673.964864296343
 20
498.4491739587538
 30
0.0
 11
-4653.084608888831
 21
515.0463000519011
 31
0.0
  0
LINE
  5
36D
102
{ACAD_REACTORS
330
294
330
318
102
}
330
288
100
AcDbEntity
  8
0
100
AcDbLine
 10
-4675.571037789224
 20
573.9393281243646
 30
0.0
 11
-4775.153794348116
 21
573.9393281243646
 31
0.0
  0
LINE
  5
36E
102
{ACAD_REACTORS
330
294
330
318
102
}
330
288
100
AcDbEntity
  8
0
100
AcDbLine
 10
-4775.153794348116
 20
573.9393281243646
 30
0.0
 11
-4797.104832084216
 21
557.8775931955097
 31
0.0
  0
LINE
  5
36F
102
{ACAD_REACTORS
330
294
330
318
102
}
330
288
100
AcDbEntity
  8
0
100
AcDbLine
 10
-4653.620000053128
 20
557.8775931955097
 30
0.0
 11
-4675.571037789224
 21
573.9393281243646
 31
0.0
  0
LINE
  5
370
102
{ACAD_REACTORS
330
294
330
318
102
}
330
288
100
AcDbEntity
  8
0
100
AcDbLine
 10
-4365.044162498059
 20
683.3471267637506
 30
0.0
 11
-4386.995200234159
 21
667.2853918348955
 31
0.0
  0
LINE
  5
371
102
{ACAD_REACTORS
330
294
330
318
102
}
330
288
100
AcDbEntity
  8
0
100
AcDbLine
 10
-4436.251187349313
 20
565.3730694956393
 30
0.0
 11
-4505.852038707678
 21
545.0282052524253
 31
0.0
  0
LINE
  5
372
102
{ACAD_REACTORS
330
294
330
318
102
}
330
288
100
AcDbEntity
  8
0
100
AcDbLine
 10
-4467.839266042723
 20
482.3874390298988
 30
0.0
 11
-4419.654061256165
 21
526.0218189199495
 31
0.0
  0
LINE
  5
373
102
{ACAD_REACTORS
330
294
330
318
102
}
330
288
100
AcDbEntity
  8
0
100
AcDbLine
 10
-4505.852038707678
 20
545.0282052524253
 30
0.0
 11
-4573.31132540886
 21
566.9792429885255
 31
0.0
  0
LINE
  5
374
102
{ACAD_REACTORS
330
294
330
318
102
}
330
288
100
AcDbEntity
  8
0
100
AcDbLine
 10
-4589.908451502007
 20
558.9483755240981
 30
0.0
 11
-4592.585407323484
 21
526.8249056663917
 31
0.0
  0
LINE
  5
375
102
{ACAD_REACTORS
330
294
330
318
102
}
330
288
100
AcDbEntity
  8
0
100
AcDbLine
 10
-4543.86481137263
 20
482.3874390298988
 30
0.0
 11
-4467.839266042723
 21
482.3874390298988
 31
0.0
  0
LINE
  5
376
102
{ACAD_REACTORS
330
294
330
318
102
}
330
288
100
AcDbEntity
  8
0
100
AcDbLine
 10
-4592.585407323484
 20
526.8249056663917
 30
0.0
 11
-4543.86481137263
 21
482.3874390298988
 31
0.0
  0
LINE
  5
377
102
{ACAD_REACTORS
330
294
330
318
102
}
330
288
100
AcDbEntity
  8
0
100
AcDbLine
 10
-4583.48375753047
 20
563.2315048384589
 30
0.0
 11
-4589.908451502007
 21
558.9483755240981
 31
0.0
  0
LINE
  5
378
102
{ACAD_REACTORS
330
294
330
318
102
}
330
288
100
AcDbEntity
  8
0
100
AcDbLine
 10
-4573.31132540886
 20
566.9792429885255
 30
0.0
 11
-4583.48375753047
 21
563.2315048384589
 31
0.0
  0
LINE
  5
379
102
{ACAD_REACTORS
330
294
330
318
102
}
330
288
100
AcDbEntity
  8
0
100
AcDbLine
 10
-4419.654061256165
 20
526.0218189199495
 30
0.0
 11
-4421.795625913342
 21
558.9483755240981
 31
0.0
  0
LINE
  5
37A
102
{ACAD_REACTORS
330
294
330
318
102
}
330
288
100
AcDbEntity
  8
0
100
AcDbLine
 10
-4366.650335990947
 20
607.8569725981396
 30
0.0
 11
-4263.855232446287
 21
607.8569725981396
 31
0.0
  0
LINE
  5
37B
102
{ACAD_REACTORS
330
294
330
318
102
}
330
288
100
AcDbEntity
  8
0
100
AcDbLine
 10
-4421.795625913342
 20
558.9483755240981
 30
0.0
 11
-4436.251187349313
 21
565.3730694956393
 31
0.0
  0
LINE
  5
37C
102
{ACAD_REACTORS
330
294
330
318
102
}
330
288
100
AcDbEntity
  8
0
100
AcDbLine
 10
-4387.530591398455
 20
624.4540986912871
 30
0.0
 11
-4366.650335990947
 21
607.8569725981396
 31
0.0
  0
LINE
  5
37D
102
{ACAD_REACTORS
330
294
330
318
102
}
330
288
100
AcDbEntity
  8
0
100
AcDbLine
 10
-4386.995200234159
 20
667.2853918348955
 30
0.0
 11
-4387.530591398455
 21
624.4540986912871
 31
0.0
  0
LINE
  5
37E
102
{ACAD_REACTORS
330
294
330
318
102
}
330
288
100
AcDbEntity
  8
0
100
AcDbLine
 10
-4265.461405939168
 20
683.3471267637506
 30
0.0
 11
-4365.044162498059
 21
683.3471267637506
 31
0.0
  0
LINE
  5
37F
102
{ACAD_REACTORS
330
294
330
318
102
}
330
288
100
AcDbEntity
  8
0
100
AcDbLine
 10
-4046.486419742469
 20
486.1351771799636
 30
0.0
 11
-4068.437457478565
 21
502.1969121088186
 31
0.0
  0
LINE
  5
380
102
{ACAD_REACTORS
330
294
330
318
102
}
330
288
100
AcDbEntity
  8
0
100
AcDbLine
 10
-4068.437457478565
 20
502.1969121088186
 30
0.0
 11
-4168.020214037457
 21
502.1969121088186
 31
0.0
  0
LINE
  5
381
102
{ACAD_REACTORS
330
294
330
318
102
}
330
288
100
AcDbEntity
  8
0
100
AcDbLine
 10
-4168.020214037457
 20
502.1969121088186
 30
0.0
 11
-4189.971251773557
 21
486.1351771799636
 31
0.0
  0
LINE
  5
382
102
{ACAD_REACTORS
330
294
330
318
102
}
330
288
100
AcDbEntity
  8
0
100
AcDbLine
 10
-4189.971251773557
 20
486.1351771799636
 30
0.0
 11
-4190.506642937853
 21
443.3038840363551
 31
0.0
  0
LINE
  5
383
102
{ACAD_REACTORS
330
294
330
318
102
}
330
288
100
AcDbEntity
  8
0
100
AcDbLine
 10
-4242.974977038775
 20
624.4540986912871
 30
0.0
 11
-4243.510368203071
 21
667.2853918348955
 31
0.0
  0
LINE
  5
384
102
{ACAD_REACTORS
330
294
330
318
102
}
330
288
100
AcDbEntity
  8
0
100
AcDbLine
 10
-4045.951028578172
 20
443.3038840363551
 30
0.0
 11
-4046.486419742469
 21
486.1351771799636
 31
0.0
  0
LINE
  5
385
102
{ACAD_REACTORS
330
315
102
}
330
288
100
AcDbEntity
  8
0
100
AcDbLine
 10
-2929.511800801527
 20
1003.170013104505
 30
0.0
 11
-2929.511800801531
 21
1022.506997106487
 31
0.0
  0
LINE
  5
386
330
288
100
AcDbEntity
  8
0
100
AcDbLine
 10
-2184.03772789779
 20
1179.870039329462
 30
0.0
 11
-2178.703387483452
 21
1147.863996843432
 31
0.0
  0
LINE
  5
387
330
288
100
AcDbEntity
  8
0
100
AcDbLine
 10
-2084.01884512895
 20
1035.17605559054
 30
0.0
 11
-2084.01884512895
 21
1022.506997106487
 31
0.0
  0
LINE
  5
388
330
288
100
AcDbEntity
  8
0
100
AcDbLine
 10
-2087.35280788791
 20
1053.846247040724
 30
0.0
 11
-2084.01884512895
 21
1035.17605559054
 31
0.0
  0
LINE
  5
389
330
288
100
AcDbEntity
  8
0
100
AcDbLine
 10
-2096.021111061207
 20
1067.84889062836
 30
0.0
 11
-2087.35280788791
 21
1053.846247040724
 31
0.0
  0
LINE
  5
38A
330
288
100
AcDbEntity
  8
0
100
AcDbLine
 10
-2108.023376993471
 20
1077.850778905243
 30
0.0
 11
-2096.021111061207
 21
1067.84889062836
 31
0.0
  0
LINE
  5
38B
330
288
100
AcDbEntity
  8
0
100
AcDbLine
 10
-2134.69507906516
 20
1093.853800148257
 30
0.0
 11
-2108.023376993471
 21
1077.850778905243
 31
0.0
  0
LINE
  5
38C
330
288
100
AcDbEntity
  8
0
100
AcDbLine
 10
-2164.033951344019
 20
1119.858709668154
 30
0.0
 11
-2134.69507906516
 21
1093.853800148257
 31
0.0
  0
LINE
  5
38D
330
288
100
AcDbEntity
  8
0
100
AcDbLine
 10
-2178.703387483452
 20
1147.863996843432
 30
0.0
 11
-2164.033951344019
 21
1119.858709668154
 31
0.0
  0
LINE
  5
38E
102
{ACAD_REACTORS
330
315
102
}
330
288
100
AcDbEntity
  8
0
100
AcDbLine
 10
-2000.002983603124
 20
1003.170013104498
 30
0.0
 11
-2000.002983603131
 21
1022.506997106487
 31
0.0
  0
LINE
  5
38F
330
288
100
AcDbEntity
  8
0
100
AcDbLine
 10
-2184.03772789779
 20
1363.23799107233
 30
0.0
 11
-2185.70470927727
 21
1271.220618924999
 31
0.0
  0
LINE
  5
390
330
288
100
AcDbEntity
  8
0
100
AcDbLine
 10
-2185.70470927727
 20
1271.220618924999
 30
0.0
 11
-2184.03772789779
 21
1179.870039329462
 31
0.0
  0
LINE
  5
391
102
{ACAD_REACTORS
330
315
102
}
330
288
100
AcDbEntity
  8
0
100
AcDbLine
 10
-2000.002983603121
 20
1520.601033295301
 30
0.0
 11
-3859.020617999929
 21
1520.601033295297
 31
0.0
  0
LINE
  5
392
102
{ACAD_REACTORS
330
315
102
}
330
288
100
AcDbEntity
  8
0
100
AcDbLine
 10
-3859.020617999929
 20
1539.938017297276
 30
0.0
 11
-2000.002983603124
 21
1539.938017297276
 31
0.0
  0
LINE
  5
393
102
{ACAD_REACTORS
330
315
102
}
330
288
100
AcDbEntity
  8
0
100
AcDbLine
 10
-2929.511800801527
 20
1539.938017297276
 30
0.0
 11
-2929.511800801527
 21
1520.601033295299
 31
0.0
  0
LINE
  5
394
330
288
100
AcDbEntity
  8
0
100
AcDbLine
 10
-2084.01884512895
 20
1520.601033295301
 30
0.0
 11
-2084.01884512895
 21
1507.931974811248
 31
0.0
  0
LINE
  5
395
330
288
100
AcDbEntity
  8
0
100
AcDbLine
 10
-2159.366403481475
 20
1428.583661147969
 30
0.0
 11
-2176.703009828073
 21
1401.245166524486
 31
0.0
  0
LINE
  5
396
330
288
100
AcDbEntity
  8
0
100
AcDbLine
 10
-2134.69507906516
 20
1449.254230253531
 30
0.0
 11
-2159.366403481475
 21
1428.583661147969
 31
0.0
  0
LINE
  5
397
330
288
100
AcDbEntity
  8
0
100
AcDbLine
 10
-2108.023376993471
 20
1464.59045894475
 30
0.0
 11
-2134.69507906516
 21
1449.254230253531
 31
0.0
  0
LINE
  5
398
330
288
100
AcDbEntity
  8
0
100
AcDbLine
 10
-2094.020733405836
 20
1477.926309980599
 30
0.0
 11
-2108.023376993471
 21
1464.59045894475
 31
0.0
  0
LINE
  5
399
330
288
100
AcDbEntity
  8
0
100
AcDbLine
 10
-2086.686015336116
 20
1491.928953568232
 30
0.0
 11
-2094.020733405836
 21
1477.926309980599
 31
0.0
  0
LINE
  5
39A
330
288
100
AcDbEntity
  8
0
100
AcDbLine
 10
-2084.01884512895
 20
1507.931974811248
 30
0.0
 11
-2086.686015336116
 21
1491.928953568232
 31
0.0
  0
LINE
  5
39B
102
{ACAD_REACTORS
330
315
102
}
330
288
100
AcDbEntity
  8
0
100
AcDbLine
 10
-2000.002983603124
 20
1539.938017297276
 30
0.0
 11
-2000.002983603121
 21
1520.601033295301
 31
0.0
  0
ENDBLK
  5
28A
330
288
100
AcDbEntity
  8
0
100
AcDbBlockEnd
  0
ENDSEC
  0
SECTION
  2
ENTITIES
  0
INSERT
  5
39C
330
1F
100
AcDbEntity
  8
0
100
AcDbBlockReference
  2
ADKK
 10
10059.99999606212
 20
1701.47312942969
 30
0.0
  0
MTEXT
  5
39D
330
1F
100
AcDbEntity
  8
0
100
AcDbMText
 10
4151.226527411258
 20
4576.104867391346
 30
0.0
 40
250.0
 41
325675.77
 71
     1
 72
     5
  1
{\Fisocp.shx;Hoogte: 315cm\PVrije Valhoogte: 155cm}
1001
ACAD
1000
MTEXTBEGIN
1070
    73
1070
     1
1070
    44
1040
1.0
1070
    74
1070
     0
1000
MTEXTEND
  0
ENDSEC
  0
SECTION
  2
OBJECTS
  0
DICTIONARY
  5
C
330
0
100
AcDbDictionary
  3
ACAD_GROUP
350
D
  3
ACAD_LAYOUT
350
1A
  3
ACAD_MLINESTYLE
350
17
  3
ACAD_PLOTSETTINGS
350
19
  3
ACAD_PLOTSTYLENAME
350
E
  3
ACDBHEADERROUNDTRIPXREC
350
3A0
  0
DICTIONARY
  5
3C1
330
1F
100
AcDbDictionary
280
     1
  3
ACAD_LAYOUTSELFREF
360
3C2
  0
DICTIONARY
  5
3C3
330
50
100
AcDbDictionary
280
     1
  3
ACAD_LAYOUTSELFREF
360
3C4
  0
DICTIONARY
  5
D
102
{ACAD_REACTORS
330
C
102
}
330
C
100
AcDbDictionary
  0
DICTIONARY
  5
1A
102
{ACAD_REACTORS
330
C
102
}
330
C
100
AcDbDictionary
  0
DICTIONARY
  5
17
102
{ACAD_REACTORS
330
C
102
}
330
C
100
AcDbDictionary
  3
STANDARD
350
18
  0
DICTIONARY
  5
19
102
{ACAD_REACTORS
330
C
102
}
330
C
100
AcDbDictionary
  0
ACDBDICTIONARYWDFLT
  5
E
102
{ACAD_REACTORS
330
C
102
}
330
C
100
AcDbDictionary
281
     1
  3
Normal
350
F
100
AcDbDictionaryWithDefault
340
F
  0
DICTIONARY
  5
3A0
102
{ACAD_REACTORS
330
C
102
}
330
C
100
AcDbDictionary
  3
CEPSNTYPE
350
3AA
  3
DIMSTYLEDATA
350
3AE
  3
FINGERPRINTGUID
350
3AB
  3
HYPERLINKBASE
350
3A3
  3
INSUNITS
350
3A9
  3
LAYOUTDICT
350
3A5
  3
LWETCUNION
350
3A8
  3
PLOTSETDICT
350
3A6
  3
PLOTSTYLNAMDICT
350
3A7
  3
PSVPSCALE
350
3AD
  3
PUCSBASE
350
3B1
  3
PUCSORGBACK
350
3B7
  3
PUCSORGBOTTOM
350
3B3
  3
PUCSORGFRONT
350
3B6
  3
PUCSORGLEFT
350
3B4
  3
PUCSORGRIGHT
350
3B5
  3
PUCSORGTOP
350
3B2
  3
PUCSORTHOREF
350
3AF
  3
PUCSORTHOVIEW
350
3B0
  3
STYLESHEET
350
3A4
  3
TSTACKALIGN
350
3A1
  3
TSTACKSIZE
350
3A2
  3
UCSBASE
350
3BA
  3
UCSORGBACK
350
3C0
  3
UCSORGBOTTOM
350
3BC
  3
UCSORGFRONT
350
3BF
  3
UCSORGLEFT
350
3BD
  3
UCSORGRIGHT
350
3BE
  3
UCSORGTOP
350
3BB
  3
UCSORTHOREF
350
3B8
  3
UCSORTHOVIEW
350
3B9
  3
VERSIONGUID
350
3AC
  0
XRECORD
  5
3C2
102
{ACAD_REACTORS
330
3C1
102
}
330
3C1
100
AcDbXrecord
340
1F
  0
XRECORD
  5
3C4
102
{ACAD_REACTORS
330
3C3
102
}
330
3C3
100
AcDbXrecord
340
50
  0
MLINESTYLE
  5
18
102
{ACAD_REACTORS
330
17
102
}
330
17
100
AcDbMlineStyle
  2
STANDARD
 70
     0
  3

 62
   256
 51
90.0
 52
90.0
 71
     2
 49
0.5
 62
   256
  6
BYLAYER
 49
-0.5
 62
   256
  6
BYLAYER
  0
ACDBPLACEHOLDER
  5
F
102
{ACAD_REACTORS
330
E
102
}
330
E
100
AcDbPlaceHolder
280
     0
  0
XRECORD
  5
3AA
102
{ACAD_REACTORS
330
3A0
102
}
330
3A0
100
AcDbXrecord
 90
        0
  0
XRECORD
  5
3AE
102
{ACAD_REACTORS
330
3A0
102
}
330
3A0
100
AcDbXrecord
1000
DSTYLE
1002
{
1070
   278
 70
    44
1002
}
  0
XRECORD
  5
3AB
102
{ACAD_REACTORS
330
3A0
102
}
330
3A0
100
AcDbXrecord
  1
{FDEAD578-A652-11D2-9A35-0060089B3A3F}
  0
XRECORD
  5
3A3
102
{ACAD_REACTORS
330
3A0
102
}
330
3A0
100
AcDbXrecord
  1

  0
XRECORD
  5
3A9
102
{ACAD_REACTORS
330
3A0
102
}
330
3A0
100
AcDbXrecord
 90
        4
  0
XRECORD
  5
3A5
102
{ACAD_REACTORS
330
3A0
102
}
330
3A0
100
AcDbXrecord
340
1A
  0
XRECORD
  5
3A8
102
{ACAD_REACTORS
330
3A0
102
}
330
3A0
100
AcDbXrecord
 90
    10781
  0
XRECORD
  5
3A6
102
{ACAD_REACTORS
330
3A0
102
}
330
3A0
100
AcDbXrecord
340
19
  0
XRECORD
  5
3A7
102
{ACAD_REACTORS
330
3A0
102
}
330
3A0
100
AcDbXrecord
340
E
  0
XRECORD
  5
3AD
102
{ACAD_REACTORS
330
3A0
102
}
330
3A0
100
AcDbXrecord
 40
0.0
  0
XRECORD
  5
3B1
102
{ACAD_REACTORS
330
3A0
102
}
330
3A0
100
AcDbXrecord
340
0
  0
XRECORD
  5
3B7
102
{ACAD_REACTORS
330
3A0
102
}
330
3A0
100
AcDbXrecord
 10
0.0
 20
0.0
 30
0.0
  0
XRECORD
  5
3B3
102
{ACAD_REACTORS
330
3A0
102
}
330
3A0
100
AcDbXrecord
 10
0.0
 20
0.0
 30
0.0
  0
XRECORD
  5
3B6
102
{ACAD_REACTORS
330
3A0
102
}
330
3A0
100
AcDbXrecord
 10
0.0
 20
0.0
 30
0.0
  0
XRECORD
  5
3B4
102
{ACAD_REACTORS
330
3A0
102
}
330
3A0
100
AcDbXrecord
 10
0.0
 20
0.0
 30
0.0
  0
XRECORD
  5
3B5
102
{ACAD_REACTORS
330
3A0
102
}
330
3A0
100
AcDbXrecord
 10
0.0
 20
0.0
 30
0.0
  0
XRECORD
  5
3B2
102
{ACAD_REACTORS
330
3A0
102
}
330
3A0
100
AcDbXrecord
 10
0.0
 20
0.0
 30
0.0
  0
XRECORD
  5
3AF
102
{ACAD_REACTORS
330
3A0
102
}
330
3A0
100
AcDbXrecord
340
0
  0
XRECORD
  5
3B0
102
{ACAD_REACTORS
330
3A0
102
}
330
3A0
100
AcDbXrecord
 70
     0
  0
XRECORD
  5
3A4
102
{ACAD_REACTORS
330
3A0
102
}
330
3A0
100
AcDbXrecord
  1

  0
XRECORD
  5
3A1
102
{ACAD_REACTORS
330
3A0
102
}
330
3A0
100
AcDbXrecord
 90
        1
  0
XRECORD
  5
3A2
102
{ACAD_REACTORS
330
3A0
102
}
330
3A0
100
AcDbXrecord
 90
       70
  0
XRECORD
  5
3BA
102
{ACAD_REACTORS
330
3A0
102
}
330
3A0
100
AcDbXrecord
340
0
  0
XRECORD
  5
3C0
102
{ACAD_REACTORS
330
3A0
102
}
330
3A0
100
AcDbXrecord
 10
0.0
 20
0.0
 30
0.0
  0
XRECORD
  5
3BC
102
{ACAD_REACTORS
330
3A0
102
}
330
3A0
100
AcDbXrecord
 10
0.0
 20
0.0
 30
0.0
  0
XRECORD
  5
3BF
102
{ACAD_REACTORS
330
3A0
102
}
330
3A0
100
AcDbXrecord
 10
0.0
 20
0.0
 30
0.0
  0
XRECORD
  5
3BD
102
{ACAD_REACTORS
330
3A0
102
}
330
3A0
100
AcDbXrecord
 10
0.0
 20
0.0
 30
0.0
  0
XRECORD
  5
3BE
102
{ACAD_REACTORS
330
3A0
102
}
330
3A0
100
AcDbXrecord
 10
0.0
 20
0.0
 30
0.0
  0
XRECORD
  5
3BB
102
{ACAD_REACTORS
330
3A0
102
}
330
3A0
100
AcDbXrecord
 10
0.0
 20
0.0
 30
0.0
  0
XRECORD
  5
3B8
102
{ACAD_REACTORS
330
3A0
102
}
330
3A0
100
AcDbXrecord
340
0
  0
XRECORD
  5
3B9
102
{ACAD_REACTORS
330
3A0
102
}
330
3A0
100
AcDbXrecord
 70
     0
  0
XRECORD
  5
3AC
102
{ACAD_REACTORS
330
3A0
102
}
330
3A0
100
AcDbXrecord
  1
{D905EB1D-724B-4016-9654-8265637FBAD8}
  0
ENDSEC
  0
EOF
