  0
SECTION
  2
HEADER
  9
$ACADVER
  1
AC1014
  9
$ACADMAINTVER
 70
     9
  9
$DWGCODEPAGE
  3
ANSI_1252
  9
$INSBASE
 10
0.0
 20
0.0
 30
0.0
  9
$EXTMIN
 10
-0.5474222397970152
 20
-304.1276461659617
 30
-0.0015258207003583
  9
$EXTMAX
 10
18095.45222600949
 20
7504.860223802426
 30
0.0000000349246037
  9
$LIMMIN
 10
0.0
 20
0.0
  9
$LIMMAX
 10
420.0
 20
297.0
  9
$ORTHOMODE
 70
     0
  9
$REGENMODE
 70
     1
  9
$FILLMODE
 70
     1
  9
$QTEXTMODE
 70
     0
  9
$MIRRTEXT
 70
     1
  9
$DRAGMODE
 70
     2
  9
$LTSCALE
 40
1.0
  9
$OSMODE
 70
   511
  9
$ATTMODE
 70
     1
  9
$TEXTSIZE
 40
2.5
  9
$TRACEWID
 40
1.0
  9
$TEXTSTYLE
  7
STANDARD
  9
$CLAYER
  8
0
  9
$CELTYPE
  6
BYLAYER
  9
$CECOLOR
 62
   256
  9
$CELTSCALE
 40
1.0
  9
$DELOBJ
 70
     1
  9
$DISPSILH
 70
     0
  9
$DIMSCALE
 40
1.0
  9
$DIMASZ
 40
2.5
  9
$DIMEXO
 40
0.625
  9
$DIMDLI
 40
3.75
  9
$DIMRND
 40
0.0
  9
$DIMDLE
 40
0.0
  9
$DIMEXE
 40
1.25
  9
$DIMTP
 40
0.0
  9
$DIMTM
 40
0.0
  9
$DIMTXT
 40
2.5
  9
$DIMCEN
 40
2.5
  9
$DIMTSZ
 40
0.0
  9
$DIMTOL
 70
     0
  9
$DIMLIM
 70
     0
  9
$DIMTIH
 70
     0
  9
$DIMTOH
 70
     0
  9
$DIMSE1
 70
     0
  9
$DIMSE2
 70
     0
  9
$DIMTAD
 70
     1
  9
$DIMZIN
 70
     8
  9
$DIMBLK
  1

  9
$DIMASO
 70
     1
  9
$DIMSHO
 70
     1
  9
$DIMPOST
  1

  9
$DIMAPOST
  1

  9
$DIMALT
 70
     0
  9
$DIMALTD
 70
     3
  9
$DIMALTF
 40
0.03937007874016
  9
$DIMLFAC
 40
1.0
  9
$DIMTOFL
 70
     1
  9
$DIMTVP
 40
0.0
  9
$DIMTIX
 70
     0
  9
$DIMSOXD
 70
     0
  9
$DIMSAH
 70
     0
  9
$DIMBLK1
  1

  9
$DIMBLK2
  1

  9
$DIMSTYLE
  2
ISO-25
  9
$DIMCLRD
 70
     0
  9
$DIMCLRE
 70
     0
  9
$DIMCLRT
 70
     0
  9
$DIMTFAC
 40
1.0
  9
$DIMGAP
 40
0.625
  9
$DIMJUST
 70
     0
  9
$DIMSD1
 70
     0
  9
$DIMSD2
 70
     0
  9
$DIMTOLJ
 70
     0
  9
$DIMTZIN
 70
     8
  9
$DIMALTZ
 70
     0
  9
$DIMALTTZ
 70
     0
  9
$DIMFIT
 70
     3
  9
$DIMUPT
 70
     0
  9
$DIMUNIT
 70
     2
  9
$DIMDEC
 70
     2
  9
$DIMTDEC
 70
     2
  9
$DIMALTU
 70
     2
  9
$DIMALTTD
 70
     3
  9
$DIMTXSTY
  7
STANDARD
  9
$DIMAUNIT
 70
     0
  9
$LUNITS
 70
     2
  9
$LUPREC
 70
     4
  9
$SKETCHINC
 40
1.0
  9
$FILLETRAD
 40
10.0
  9
$AUNITS
 70
     0
  9
$AUPREC
 70
     0
  9
$MENU
  1
.
  9
$ELEVATION
 40
0.0
  9
$PELEVATION
 40
0.0
  9
$THICKNESS
 40
0.0
  9
$LIMCHECK
 70
     0
  9
$BLIPMODE
 70
     0
  9
$CHAMFERA
 40
10.0
  9
$CHAMFERB
 40
10.0
  9
$CHAMFERC
 40
20.0
  9
$CHAMFERD
 40
0.0
  9
$SKPOLY
 70
     0
  9
$TDCREATE
 40
2453131.665837477
  9
$TDUPDATE
 40
2453186.718127870
  9
$TDINDWG
 40
0.0011194329
  9
$TDUSRTIMER
 40
0.0011194329
  9
$USRTIMER
 70
     1
  9
$ANGBASE
 50
0.0
  9
$ANGDIR
 70
     0
  9
$PDMODE
 70
     0
  9
$PDSIZE
 40
0.0
  9
$PLINEWID
 40
0.0
  9
$COORDS
 70
     2
  9
$SPLFRAME
 70
     0
  9
$SPLINETYPE
 70
     6
  9
$SPLINESEGS
 70
     8
  9
$ATTDIA
 70
     0
  9
$ATTREQ
 70
     1
  9
$HANDLING
 70
-16383
  9
$HANDSEED
  5
894
  9
$SURFTAB1
 70
     6
  9
$SURFTAB2
 70
     6
  9
$SURFTYPE
 70
     6
  9
$SURFU
 70
     6
  9
$SURFV
 70
     6
  9
$UCSNAME
  2

  9
$UCSORG
 10
0.0
 20
0.0
 30
0.0
  9
$UCSXDIR
 10
1.0
 20
0.0
 30
0.0
  9
$UCSYDIR
 10
0.0
 20
1.0
 30
0.0
  9
$PUCSNAME
  2

  9
$PUCSORG
 10
0.0
 20
0.0
 30
0.0
  9
$PUCSXDIR
 10
1.0
 20
0.0
 30
0.0
  9
$PUCSYDIR
 10
0.0
 20
1.0
 30
0.0
  9
$USERI1
 70
     0
  9
$USERI2
 70
     0
  9
$USERI3
 70
     0
  9
$USERI4
 70
     0
  9
$USERI5
 70
     0
  9
$USERR1
 40
0.0
  9
$USERR2
 40
0.0
  9
$USERR3
 40
0.0
  9
$USERR4
 40
0.0
  9
$USERR5
 40
0.0
  9
$WORLDVIEW
 70
     1
  9
$SHADEDGE
 70
     3
  9
$SHADEDIF
 70
    70
  9
$TILEMODE
 70
     1
  9
$MAXACTVP
 70
    64
  9
$PINSBASE
 10
0.0
 20
0.0
 30
0.0
  9
$PLIMCHECK
 70
     0
  9
$PEXTMIN
 10
0.0
 20
0.0
 30
0.0
  9
$PEXTMAX
 10
0.0
 20
0.0
 30
0.0
  9
$PLIMMIN
 10
0.0
 20
0.0
  9
$PLIMMAX
 10
12.0
 20
9.0
  9
$UNITMODE
 70
     0
  9
$VISRETAIN
 70
     1
  9
$PLINEGEN
 70
     0
  9
$PSLTSCALE
 70
     1
  9
$TREEDEPTH
 70
  3020
  9
$PICKSTYLE
 70
     0
  9
$CMLSTYLE
  2
STANDARD
  9
$CMLJUST
 70
     0
  9
$CMLSCALE
 40
20.0
  9
$PROXYGRAPHICS
 70
     1
  9
$MEASUREMENT
 70
     1
  0
ENDSEC
  0
SECTION
  2
CLASSES
  0
CLASS
  1
ACDBDICTIONARYWDFLT
  2
AcDbDictionaryWithDefault
  3
AutoCAD 2000
 90
        0
280
     0
281
     0
  0
CLASS
  1
ACDBPLACEHOLDER
  2
AcDbPlaceHolder
  3
AutoCAD 2000
 90
        0
280
     0
281
     0
  0
CLASS
  1
LAYOUT
  2
AcDbLayout
  3
AutoCAD 2000
 90
        0
280
     0
281
     0
  0
CLASS
  1
LONG_TRANSACTION
  2
AcDbLongTransaction
  3
AutoCAD 2000
 90
        0
280
     0
281
     0
  0
CLASS
  1
LWPOLYLINE
  2
AcDbPolyline
  3
AutoCAD 2000
 90
        0
280
     0
281
     1
  0
CLASS
  1
HATCH
  2
AcDbHatch
  3
AutoCAD 2000
 90
        0
280
     0
281
     1
  0
CLASS
  1
XRECORD
  2
AcDbXrecord
  3
AutoCAD 2000
 90
        0
280
     0
281
     0
  0
ENDSEC
  0
SECTION
  2
TABLES
  0
TABLE
  2
VPORT
  5
8
330
0
100
AcDbSymbolTable
 70
     2
  0
VPORT
  5
86B
330
8
100
AcDbSymbolTableRecord
100
AcDbViewportTableRecord
  2
*ACTIVE
 70
     0
 10
0.0
 20
0.0
 11
1.0
 21
1.0
 12
9047.45240188485
 22
3600.366288818232
 13
0.0
 23
0.0
 14
10.0
 24
10.0
 15
10.0
 25
10.0
 16
0.0
 26
0.0
 36
1.0
 17
0.0
 27
0.0
 37
0.0
 40
10592.12881422581
 41
1.720238095238095
 42
50.0
 43
0.0
 44
0.0
 50
0.0
 51
0.0
 71
     0
 72
   100
 73
     1
 74
     3
 75
     0
 76
     0
 77
     0
 78
     0
  0
ENDTAB
  0
TABLE
  2
LTYPE
  5
5
330
0
100
AcDbSymbolTable
 70
     1
  0
LTYPE
  5
14
330
5
100
AcDbSymbolTableRecord
100
AcDbLinetypeTableRecord
  2
BYBLOCK
 70
     0
  3

 72
    65
 73
     0
 40
0.0
  0
LTYPE
  5
15
330
5
100
AcDbSymbolTableRecord
100
AcDbLinetypeTableRecord
  2
BYLAYER
 70
     0
  3

 72
    65
 73
     0
 40
0.0
  0
LTYPE
  5
16
330
5
100
AcDbSymbolTableRecord
100
AcDbLinetypeTableRecord
  2
CONTINUOUS
 70
     0
  3
Solid line
 72
    65
 73
     0
 40
0.0
  0
ENDTAB
  0
TABLE
  2
LAYER
  5
2
102
{ACAD_XDICTIONARY
360
5D
102
}
330
0
100
AcDbSymbolTable
 70
     1
  0
LAYER
  5
10
330
2
100
AcDbSymbolTableRecord
100
AcDbLayerTableRecord
  2
0
 70
     0
 62
     7
  6
CONTINUOUS
  0
ENDTAB
  0
TABLE
  2
STYLE
  5
3
330
0
100
AcDbSymbolTable
 70
     1
  0
STYLE
  5
11
330
3
100
AcDbSymbolTableRecord
100
AcDbTextStyleTableRecord
  2
STANDARD
 70
     0
 40
0.0
 41
1.0
 50
0.0
 71
     0
 42
2.5
  3
txt
  4

  0
ENDTAB
  0
TABLE
  2
VIEW
  5
6
330
0
100
AcDbSymbolTable
 70
     0
  0
ENDTAB
  0
TABLE
  2
UCS
  5
7
330
0
100
AcDbSymbolTable
 70
     0
  0
ENDTAB
  0
TABLE
  2
APPID
  5
9
330
0
100
AcDbSymbolTable
 70
     2
  0
APPID
  5
12
330
9
100
AcDbSymbolTableRecord
100
AcDbRegAppTableRecord
  2
ACAD
 70
     0
  0
APPID
  5
893
330
9
100
AcDbSymbolTableRecord
100
AcDbRegAppTableRecord
  2
CONTENTBLOCKICON
 70
     0
  0
ENDTAB
  0
TABLE
  2
DIMSTYLE
  5
A
330
0
100
AcDbSymbolTable
 70
     1
  0
DIMSTYLE
105
27
330
A
100
AcDbSymbolTableRecord
100
AcDbDimStyleTableRecord
  2
ISO-25
 70
     0
  3

  4

  5

  6

  7

 40
1.0
 41
2.5
 42
0.625
 43
3.75
 44
1.25
 45
0.0
 46
0.0
 47
0.0
 48
0.0
140
2.5
141
2.5
142
0.0
143
0.03937007874016
144
1.0
145
0.0
146
1.0
147
0.625
 71
     0
 72
     0
 73
     0
 74
     0
 75
     0
 76
     0
 77
     1
 78
     8
170
     0
171
     3
172
     1
173
     0
174
     0
175
     0
176
     0
177
     0
178
     0
270
     2
271
     2
272
     2
273
     2
274
     3
340
11
275
     0
280
     0
281
     0
282
     0
283
     0
284
     8
285
     0
286
     0
287
     3
288
     0
  0
ENDTAB
  0
TABLE
  2
BLOCK_RECORD
  5
1
330
0
100
AcDbSymbolTable
 70
     2
  0
BLOCK_RECORD
  5
1F
102
{ACAD_XDICTIONARY
360
88D
102
}
330
1
100
AcDbSymbolTableRecord
100
AcDbBlockTableRecord
  2
*MODEL_SPACE
  0
BLOCK_RECORD
  5
50
102
{ACAD_XDICTIONARY
360
88F
102
}
330
1
100
AcDbSymbolTableRecord
100
AcDbBlockTableRecord
  2
*PAPER_SPACE
  0
BLOCK_RECORD
  5
5BB
330
1
100
AcDbSymbolTableRecord
100
AcDbBlockTableRecord
  2
FBKB_3
1001
ACAD
1000
DesignCenter Data
1002
{
1070
     1
1070
     4
1002
}
1001
CONTENTBLOCKICON
1071
        0
1004
2800000020000000200000000100080000000000000400000000000000000000000000000000000000000000000080000080000000808000800000008000800080800000C0C0C000C0DCC000F0CAA6000020400000206000002080000020A0000020C0000020E00000400000004020000040400000406000004080000040A0
1004
000040C0000040E00000600000006020000060400000606000006080000060A0000060C0000060E00000800000008020000080400000806000008080000080A0000080C0000080E00000A0000000A0200000A0400000A0600000A0800000A0A00000A0C00000A0E00000C0000000C0200000C0400000C0600000C0800000C0
1004
A00000C0C00000C0E00000E0000000E0200000E0400000E0600000E0800000E0A00000E0C00000E0E00040000000400020004000400040006000400080004000A0004000C0004000E00040200000402020004020400040206000402080004020A0004020C0004020E000404000004040200040404000404060004040800040
1004
40A0004040C0004040E00040600000406020004060400040606000406080004060A0004060C0004060E00040800000408020004080400040806000408080004080A0004080C0004080E00040A0000040A0200040A0400040A0600040A0800040A0A00040A0C00040A0E00040C0000040C0200040C0400040C0600040C08000
1004
40C0A00040C0C00040C0E00040E0000040E0200040E0400040E0600040E0800040E0A00040E0C00040E0E00080000000800020008000400080006000800080008000A0008000C0008000E00080200000802020008020400080206000802080008020A0008020C0008020E00080400000804020008040400080406000804080
1004
008040A0008040C0008040E00080600000806020008060400080606000806080008060A0008060C0008060E00080800000808020008080400080806000808080008080A0008080C0008080E00080A0000080A0200080A0400080A0600080A0800080A0A00080A0C00080A0E00080C0000080C0200080C0400080C0600080C0
1004
800080C0A00080C0C00080C0E00080E0000080E0200080E0400080E0600080E0800080E0A00080E0C00080E0E000C0000000C0002000C0004000C0006000C0008000C000A000C000C000C000E000C0200000C0202000C0204000C0206000C0208000C020A000C020C000C020E000C0400000C0402000C0404000C0406000C0
1004
408000C040A000C040C000C040E000C0600000C0602000C0604000C0606000C0608000C060A000C060C000C060E000C0800000C0802000C0804000C0806000C0808000C080A000C080C000C080E000C0A00000C0A02000C0A04000C0A06000C0A08000C0A0A000C0A0C000C0A0E000C0C00000C0C02000C0C04000C0C06000
1004
C0C08000C0C0A000F0FBFF00A4A0A000808080000000FF0000FF000000FFFF00FF000000FF00FF00FFFF0000FFFFFF00FFFFFFFFFFFFFFFFFFFFFFFFFFFFFFFFFFFFFFFFFFFFFFFFFFFFFFFFFFFFFFFFFFFFFFFFFFFFFFFFFFFFFFFFFFFFFFFFFFFFFFFFFFFFFFFFFFFFFFFFFFFFFFFFFFFFFFFFFFFFFFFFFFFFFFFFFFFFFF
1004
FFFFFFFFFFFFFFFFFFFFFFFFFFFFFFFFFFFFFFFFFFFFFFFFFFFFFFFFFFFFFFFFFFFFFFFFFFFFFFFFFFFFFFFFFFFFFFFFFFFFFFFFFFFFFFFFFFFFFFFFFFFFFFFFFFFFFFFFFFFFFFFFFFFFFFFFFFFFFFFFFFFFFFFFFFFFFFFFFFFFFFFFFFFFFFFFFFFFFFFFFFFFFFFFFFFFFFFFFFFFFFFFFFFFFFFFFFFFFFFFFFFFFFFFFFFFFF
1004
FFFFFFFFFFFFFFFFFFFFFFFFFFFFFFFFFFFFFFFFFFFFFFFFFFFFFFFFFFFFFFFFFFFFFFFFFFFFFFFFFFFFFFFFFFFFFFFFFFFFFFFFFFFFFFFFFFFFFFFFFFFFFFFFFFFFFFFFFFFFFFFFFFFFFFFFFFFFFFFFFFFFFFFFFFFFFFFFFFFFFFFFFFFFFFFFFFFFFFFFFFFFFFFFFFFFFFFFFFFFFFFFFFFFFFFFFFFFFFFFFFFFFFFF000000
1004
0000FFFFFFFFFFFFFFFFFFFFFFFFFFFFFFFFFFFFFFFFFFFFFFFFFF0000FFFFFFFF00FFFFFFFFFF0000000000FFFFFFFFFFFFFFFFFFFFFFFFFFFFFF00FF000000FFFF000000000000FFFFFFFF0000FFFFFFFFFFFFFFFFFFFFFFFF00FFFF000000FFFFFFFFFFFFFFFFFF00FFFFFFFF0000FFFFFFFFFFFFFFFF0000FF00000000
1004
0000000000000000000000000000FFFFFF00FFFFFF00000000FFFFFF00FF000000FF00FF00000000FF000000270027FFFF00FFFFFF00FFFFFFFFFFFF00FFFF0000FFFFFFFFFFFF0000FFFF00FBFF0000FFFF27FFFF00FFFFFF27FBFB00FBFFFF00000000FFFFFF0000FFFF00FB000000FFFF00FFFF00FFFFFF27FBFB000000
1004
000000000000FFFF0000FFFF0000000000FF00FFFFFF000000FFFFFFFFFFFFFFFFFFFFFFFFFFFFFF0000FFFFFFFFFF00FFFF00FFFFFFFFFFFF0000FFFFFFFFFFFFFFFFFFFFFFFFFFFFFFFFFFFFFFFFFFFF00FFFFFFFFFFFFFFFFFF00000000000000000000000000000000000000000000FFFFFFFFFFFFFFFFFFFFFFFFFFFF
1004
FFFFFFFFFFFFFFFFFFFFFFFFFFFFFFFFFFFFFFFFFFFFFFFFFFFFFFFFFFFFFFFFFFFFFFFFFFFFFFFFFFFFFFFFFFFFFFFFFFFFFFFFFFFFFFFFFFFFFFFFFFFFFFFFFFFFFFFFFFFFFFFFFFFFFFFFFFFFFFFFFFFFFFFFFFFFFFFFFFFFFFFFFFFFFFFFFFFFFFFFFFFFFFFFFFFFFFFFFFFFFFFFFFFFFFFFFFFFFFFFFFFFFFFFFFFFFF
1004
FFFFFFFFFFFFFFFFFFFFFFFFFFFFFFFFFFFFFFFFFFFFFFFFFFFFFFFFFFFFFFFFFFFFFFFFFFFFFFFFFFFFFFFFFFFFFFFFFFFFFFFFFFFFFFFFFFFFFFFFFFFFFFFFFFFFFFFFFFFFFFFFFFFFFFFFFFFFFFFFFFFFFFFFFFFFFFFFFFFFFFFFFFFFFFFFFFFFFFFFFFFFFFFFFFFFFFFFFFFFFFFFFFFFFFFFFFFFFFFFFFFFFFFFFFFFFF
1004
FFFFFFFFFFFFFFFFFFFFFFFFFFFFFFFFFFFFFFFFFFFFFFFFFFFFFFFFFFFFFFFFFFFFFFFFFFFFFFFFFFFFFFFFFFFFFFFFFFFFFFFFFFFFFFFF
  0
ENDTAB
  0
ENDSEC
  0
SECTION
  2
BLOCKS
  0
BLOCK
  5
20
330
1F
100
AcDbEntity
  8
0
100
AcDbBlockBegin
  2
*MODEL_SPACE
 70
     0
 10
0.0
 20
0.0
 30
0.0
  3
*MODEL_SPACE
  1

  0
ENDBLK
  5
21
330
1F
100
AcDbEntity
  8
0
100
AcDbBlockEnd
  0
BLOCK
  5
52
330
50
100
AcDbEntity
 67
     1
  8
0
100
AcDbBlockBegin
  2
*PAPER_SPACE
 70
     0
 10
0.0
 20
0.0
 30
0.0
  3
*PAPER_SPACE
  1

  0
ENDBLK
  5
53
330
50
100
AcDbEntity
 67
     1
  8
0
100
AcDbBlockEnd
  0
BLOCK
  5
5BC
330
5BB
100
AcDbEntity
  8
0
100
AcDbBlockBegin
  2
FBKB_3
 70
     0
 10
0.0
 20
0.0
 30
0.0
  3
FBKB_3
  1

  0
LWPOLYLINE
  5
5BE
330
5BB
100
AcDbEntity
  8
0
100
AcDbPolyline
 90
       32
 70
     0
 43
0.0
 10
17938.88109028555
 20
835.7460229425695
 42
-0.2499198797675324
 10
17275.25320243499
 20
-409.8664805125699
 10
14077.24080146416
 20
-2557.926043454131
 42
-0.1489545419688805
 10
13240.86875068063
 20
-2812.742606097144
 10
12940.53192041579
 20
-2812.742606097144
 42
-0.2888388933398571
 10
11587.29599830965
 20
-1959.853523267871
 10
8444.421824207312
 20
-1959.853523267873
 42
-0.4049958985221268
 10
6945.169417752928
 20
-3412.501419399633
 10
5442.768506365333
 20
-3412.501419399633
 42
-0.2328210406710782
 10
4253.939126058386
 20
-2827.206128318864
 10
3299.302735992169
 20
-1586.478080289218
 10
1220.78450633159
 20
-277.0558328411498
 42
-0.071608691356869
 10
895.2659946454224
 20
0.0
 10
0.0
 20
0.0
 10
0.0
 20
2700.0
 10
895.5750569587253
 20
2700.000000000001
 42
-0.1823296188818903
 10
1831.207366528484
 20
3195.586842310296
 10
4135.963242253215
 20
3488.498960295377
 42
-0.0111945400368512
 10
4202.759028051601
 20
3495.472527866057
 10
5420.911175317859
 20
3595.13948849259
 42
-0.0204119128957782
 10
5551.384243895686
 20
3600.468118468068
 10
6886.306695478416
 20
3600.468118468068
 10
10063.91874478834
 20
3600.468118468068
 42
-0.1832502082313196
 10
11058.57408410152
 20
3977.676616907881
 10
11763.5252580082
 20
3977.67661690788
 42
-0.2080492804224722
 10
12860.74790831043
 20
3500.468118468065
 10
14787.47571622412
 20
3500.468118468068
 42
-0.3476257891072374
 10
16640.60696368238
 20
3330.83302220935
 10
17378.95978943645
 20
2628.499906949169
 42
-0.1702713669656573
 10
17831.33531368632
 20
1744.704509015504
 10
17925.07250050742
 20
1058.58727104317
 42
-0.0339578371204426
 10
17938.87825877556
 20
855.5437391590912
  0
LWPOLYLINE
  5
5BF
330
5BB
100
AcDbEntity
  8
0
100
AcDbPolyline
 90
        6
 70
     0
 43
0.0
 10
9226.515259041445
 20
2046.601000084439
 10
9234.011023983359
 20
2046.601000084439
 10
9234.011023983359
 20
2066.572890496973
 10
6856.008049993659
 20
2066.572890496973
 10
6856.008049993659
 20
2046.601000084439
 10
9116.515644419378
 20
2046.601000084439
  0
HATCH
  5
5C0
330
5BB
100
AcDbEntity
  8
0
 62
    10
100
AcDbHatch
 10
0.0
 20
0.0
 30
0.0
210
0.0
220
0.0
230
1.0
  2
SOLID
 70
     1
 71
     1
 91
        1
 92
        7
 72
     0
 73
     1
 93
        5
 10
9090.783932284278
 20
1634.53419163035
 10
9093.895745010552
 20
1644.906900717954
 10
9090.78393228428
 20
1654.760974351173
 10
6850.797404816607
 20
1654.760974351243
 10
6850.797404816607
 20
1634.534191630278
 97
        5
330
5C2
330
5C9
330
5C1
330
7AE
330
7AF
 75
     0
 76
     1
 47
2.903409186776291
 98
        1
 10
8176.673220003817
 20
1647.116394254508
  0
LINE
  5
5C1
102
{ACAD_REACTORS
330
5C0
102
}
330
5BB
100
AcDbEntity
  8
0
100
AcDbLine
 10
9090.783932284278
 20
1634.534191630349
 30
0.0
 11
6850.797404816607
 21
1634.534191630278
 31
0.0
  0
LINE
  5
5C2
102
{ACAD_REACTORS
330
5C0
102
}
330
5BB
100
AcDbEntity
  8
0
100
AcDbLine
 10
6850.797404816607
 20
1654.760974351243
 30
0.0
 11
9090.783932284278
 21
1654.760974351173
 31
0.0
  0
LWPOLYLINE
  5
5C3
330
5BB
100
AcDbEntity
  8
0
100
AcDbPolyline
 90
        3
 70
     0
 43
0.0
 10
4308.446407445678
 20
-360.6810432054735
 10
4308.446407445678
 20
-375.6968295467886
 10
9171.515451730412
 20
-375.6968295467886
  0
LWPOLYLINE
  5
5C4
102
{ACAD_REACTORS
330
69D
102
}
330
5BB
100
AcDbEntity
  8
0
100
AcDbPolyline
 90
        2
 70
     0
 43
0.0
 10
9116.515451730412
 20
-355.9886822805019
 10
8106.748342068183
 20
-355.9886822805019
  0
HATCH
  5
5C5
330
5BB
100
AcDbEntity
  8
0
 62
   250
100
AcDbHatch
 10
0.0
 20
0.0
 30
0.0
210
0.0
220
0.0
230
1.0
  2
SOLID
 70
     1
 71
     1
 91
        2
 92
        7
 72
     1
 73
     1
 93
       64
 10
4362.250889252282
 20
1065.591098175416
 42
0.0
 10
4362.250889252282
 20
913.1842112197064
 42
-0.151547508638467
 10
4369.199160547578
 20
900.1710300638942
 42
0.0
 10
4389.637497891715
 20
900.1710300638942
 42
0.0
 10
4389.637497891715
 20
790.171030063895
 42
0.0
 10
4384.637497891715
 20
790.1710300638951
 42
0.0
 10
4384.637497891715
 20
-250.6810432054753
 42
0.0
 10
4394.305216981141
 20
-250.6810432054753
 42
0.0
 10
4394.305216981141
 20
-355.9886822805019
 42
0.0
 10
5471.202454329921
 20
-355.9886822805019
 42
0.0
 10
5471.202454329919
 20
-250.6810432054753
 42
0.0
 10
5581.20245432992
 20
-250.6810432054753
 42
0.0
 10
5581.20245432992
 20
-281.3380413956545
 42
-0.146115135272092
 10
5593.697000031358
 20
-288.1810432054753
 42
0.0
 10
6733.513855494691
 20
-288.1810432054753
 42
-0.1461151352720267
 10
6746.008401196123
 20
-281.3380413956555
 42
0.0
 10
6746.008401196123
 20
-250.6810432054753
 42
0.0
 10
6751.219397575638
 20
-250.6810432054753
 42
0.0
 10
6751.219397575638
 20
765.1710300638941
 42
0.0
 10
6665.774673510924
 20
765.1710300638941
 42
0.0
 10
6629.933243068226
 20
801.0124605065948
 42
0.0
 10
6629.933243068226
 20
544.8811019778351
 42
0.0
 10
6611.262366710537
 20
544.8811019778349
 42
0.0
 10
6611.262366710537
 20
442.709917464962
 42
0.0
 10
6592.072854898477
 20
442.7099174649619
 42
0.0
 10
6592.072854898477
 20
770.4875246331649
 42
0.0
 10
6572.883343086418
 20
770.4875246331648
 42
0.0
 10
6572.883343086418
 20
825.1710300638897
 42
0.0
 10
6528.799329464264
 20
825.1710300638897
 42
0.0
 10
6528.799329464264
 20
835.3169564306728
 42
0.0
 10
6259.108893186479
 20
835.3169564306725
 42
0.0
 10
6259.108893186481
 20
855.5437391514951
 42
0.0
 10
6528.806277481212
 20
855.5437391514951
 42
-0.4033363128414948
 10
6538.799329464265
 20
865.1710300638896
 42
0.0
 10
6572.883343086417
 20
865.1710300638891
 42
0.0
 10
6572.883343086417
 20
920.3731709490039
 42
0.0
 10
6592.072854898477
 20
920.3731709490041
 42
0.0
 10
6592.072854898479
 20
1247.632142662825
 42
0.0
 10
6611.262366710537
 20
1247.632142662825
 42
0.0
 10
6611.262366710537
 20
1145.460958149952
 42
0.0
 10
6629.933243068226
 20
1145.460958149952
 42
0.0
 10
6629.933243068226
 20
889.3295996211945
 42
0.0
 10
6665.774673510924
 20
925.1710300638942
 42
0.0
 10
6751.219397575638
 20
925.1710300638942
 42
0.0
 10
6751.219397575638
 20
1941.541738787644
 42
0.0
 10
6746.008401196121
 20
1941.541738787644
 42
0.0
 10
6746.008401196121
 20
1972.198736977823
 42
-0.146115135272016
 10
6733.513855494691
 20
1979.041738787642
 42
0.0
 10
5593.697000031358
 20
1979.041738787642
 42
-0.1461151352721022
 10
5581.202454329919
 20
1972.198736977821
 42
0.0
 10
5581.202454329919
 20
1941.541738787643
 42
0.0
 10
5471.202454329919
 20
1941.541738787643
 42
0.0
 10
5471.202454329919
 20
2046.330742408123
 42
0.0
 10
4394.305216981141
 20
2046.330742408123
 42
0.0
 10
4394.305216981141
 20
1941.541738787643
 42
0.0
 10
4368.814130541965
 20
1941.541738787643
 42
-0.151547508638491
 10
4361.865859246667
 20
1928.528557631828
 42
0.0
 10
4361.865859246674
 20
1776.121670676108
 42
0.0
 10
5059.430545388014
 20
1776.121670676108
 42
0.0
 10
5059.430545388016
 20
1684.784204543618
 42
0.0
 10
5039.722398121572
 20
1676.025027980755
 42
0.0
 10
5039.722398121573
 20
1165.687740870769
 42
0.0
 10
5059.430545388015
 20
1157.658495688145
 42
0.0
 10
5059.430545388016
 20
1065.591098175416
 42
0.0
 97
       32
330
710
330
6FC
330
70A
330
713
330
711
330
712
330
6F9
330
6F5
330
716
330
71F
330
6B3
330
6DF
330
6DA
330
6C9
330
6CA
330
6D4
330
6D1
330
6A9
330
6BE
330
6C0
330
6B7
330
5C8
330
61B
330
619
330
61F
330
63A
330
5D5
330
69B
330
678
330
5CA
330
708
330
709
 92
        7
 72
     0
 73
     1
 93
        8
 10
6850.797404816607
 20
1941.541738787643
 10
6751.219397575638
 20
1941.541738787643
 10
6751.219397575638
 20
906.0004759788727
 10
6778.91175850077
 20
878.3081150537414
 10
6778.91175850077
 20
812.0339450740457
 10
6751.219397575638
 20
784.3415841489167
 10
6751.219397575638
 20
-250.6810432054753
 10
6850.797404816607
 20
-250.6810432054753
 97
        6
330
716
330
6F5
330
6F9
330
5CA
330
678
330
5C9
 75
     0
 76
     1
 47
15.88602425410222
 98
        2
 10
5426.964828968281
 20
475.3771450012054
 10
6810.490742444731
 20
284.7448539519819
  0
HATCH
  5
5C6
330
5BB
100
AcDbEntity
  8
0
 62
    30
100
AcDbHatch
 10
0.0
 20
0.0
 30
0.0
210
0.0
220
0.0
230
1.0
  2
SOLID
 70
     1
 71
     0
 91
        4
 92
        7
 72
     0
 73
     1
 93
        4
 10
4279.637497891715
 20
875.2518864179373
 10
4192.790701118763
 20
875.2518864179373
 10
4192.79070111877
 20
855.5437391514951
 10
4279.637497891715
 20
855.5437391514951
 97
        0
 92
        7
 72
     0
 73
     1
 93
        4
 10
4279.637497891715
 20
835.3169564306726
 10
4192.790701118763
 20
835.3169564306718
 10
4192.790701118763
 20
815.0901737098502
 10
4279.637497891715
 20
815.0901737098502
 97
        0
 92
        7
 72
     0
 73
     1
 93
      126
 10
4314.151397443704
 20
582.7414901475795
 10
4314.670032898088
 20
632.5304937681321
 10
4316.225939261218
 20
682.3194973884501
 10
4318.300481078739
 20
730.5525946458974
 10
4318.819116533123
 20
735.7389491897038
 10
4318.819116533123
 20
742.9998455510204
 10
4318.819116533123
 20
749.7421064579611
 10
4318.819116533123
 20
755.4470964561414
 10
4318.300481078746
 20
761.6707219087029
 10
4317.781845624369
 20
767.8943473612634
 10
4317.263210169985
 20
774.1179728138604
 10
4316.744574715602
 20
777.7484209944877
 10
4316.485256988417
 20
781.119551447955
 10
4316.225939261225
 20
784.4906819014277
 10
4316.631678415688
 20
790.1710300638961
 10
4296.631678415688
 20
790.1710300638961
 10
4296.225939261225
 20
784.4906819014277
 10
4296.485256988417
 20
781.119551447955
 10
4296.744574715609
 20
777.7484209944732
 10
4297.263210169986
 20
774.1179728138567
 10
4297.78184562437
 20
767.8943473612634
 10
4298.300481078746
 20
761.6707219087029
 10
4298.819116533123
 20
755.4470964561414
 10
4298.819116533123
 20
749.7421064579611
 10
4298.819116533123
 20
742.9998455510204
 10
4298.819116533123
 20
735.7389491896992
 10
4298.300481078746
 20
730.5525946459137
 10
4296.225939261217
 20
682.3194973885356
 10
4294.67003289808
 20
632.5304937679812
 10
4294.151397443703
 20
582.7414901475795
 10
4293.632761989328
 20
531.9152156184036
 10
4293.632761989328
 20
481.6075765434979
 10
4294.67003289808
 20
431.2999374686723
 10
4296.225939261232
 20
382.0295693024654
 10
4298.300481078746
 20
333.7964720451454
 10
4298.819116533123
 20
326.5355756838171
 10
4298.819116533123
 20
318.2374084137454
 10
4298.819116533123
 20
309.4206056892999
 10
4298.300481078731
 20
302.6783447822699
 10
4297.781845624363
 20
295.4174484210152
 10
4296.744574715602
 20
288.1565520596759
 10
4295.707303806849
 20
281.9329266071308
 10
4295.188668352465
 20
278.3024784264816
 10
4294.67003289808
 20
277.265207517722
 10
4294.67003289808
 20
275.7093011545794
 10
4294.151397443703
 20
274.6720302458216
 10
4294.151397443703
 20
273.1161238826798
 10
4294.151397443703
 20
270.0043111563991
 10
4291.01479886903
 20
270.0043111563991
 10
4294.67003289808
 20
265.7735696653408
 10
4294.67003289808
 20
262.2247793406986
 10
4295.188668352465
 20
261.7061438863174
 10
4295.707303806849
 20
258.075695705651
 10
4296.744574715594
 20
251.3334347987411
 10
4297.781845624363
 20
244.0725384373899
 10
4298.300481078746
 20
236.8116420759724
 10
4298.819116533123
 20
230.0693811691253
 10
4298.819116533123
 20
221.2525784446734
 10
4298.819116533123
 20
212.9544111745835
 10
4298.300481078746
 20
205.693514813267
 10
4296.225939261225
 20
157.9790530102409
 10
4294.67003289808
 20
108.1900493897828
 10
4294.151397443703
 20
57.88241031495181
 10
4293.632761989328
 20
7.574771240086192
 10
4294.151397443703
 20
-42.73286783478034
 10
4294.67003289808
 20
-93.04050690965596
 10
4296.225939261225
 20
-142.8295105301222
 10
4298.300481078746
 20
-190.5439723331146
 10
4298.819116533123
 20
-196.2489623312712
 10
4298.819116533123
 20
-202.9912232382212
 10
4298.819116533123
 20
-210.2521195995423
 10
4298.819116533123
 20
-215.9571095977198
 10
4298.300481078753
 20
-221.6620995958546
 10
4297.781845624355
 20
-228.4043605028319
 10
4297.263210169986
 20
-234.6279859554178
 10
4296.744574715602
 20
-238.2584341360643
 10
4296.225939261225
 20
-239.2957050448239
 10
4296.662889119878
 20
-250.6810432054753
 10
4316.662889119878
 20
-250.6810432054753
 10
4316.225939261225
 20
-239.2957050448239
 10
4316.744574715602
 20
-238.2584341360643
 10
4317.263210169985
 20
-234.6279859553979
 10
4317.781845624369
 20
-228.4043605028864
 10
4318.300481078739
 20
-221.6620995958928
 10
4318.819116533123
 20
-215.9571095977298
 10
4318.819116533123
 20
-210.2521195995423
 10
4318.819116533123
 20
-202.9912232382212
 10
4318.819116533123
 20
-196.2489623312958
 10
4318.300481078746
 20
-190.5439723331146
 10
4316.225939261225
 20
-142.8295105300985
 10
4314.670032898081
 20
-93.04050690961412
 10
4314.151397443704
 20
-42.73286783478034
 10
4313.632761989327
 20
7.574771240086192
 10
4314.151397443704
 20
57.88241031495181
 10
4314.670032898081
 20
108.1900493899065
 10
4316.225939261218
 20
157.9790530102473
 10
4318.300481078746
 20
205.6935148132915
 10
4318.819116533123
 20
212.9544111745926
 10
4318.819116533123
 20
221.2525784446734
 10
4318.819116533123
 20
230.069381169128
 10
4318.300481078739
 20
236.8116420762098
 10
4317.781845624362
 20
244.0725384374
 10
4316.744574715616
 20
251.333434798681
 10
4315.707303806848
 20
258.0756957055736
 10
4315.188668352464
 20
261.7061438863192
 10
4314.670032898081
 20
262.2247793406986
 10
4314.670032898081
 20
264.2993211582206
 10
4314.151397443704
 20
264.8179566126
 10
4314.151397443704
 20
266.3738629757371
 10
4311.014798869029
 20
270.0043111563991
 10
4314.151397443704
 20
270.0043111563991
 10
4314.151397443704
 20
273.1161238826798
 10
4314.151397443704
 20
276.2279366089614
 10
4315.188668352464
 20
278.3024784264826
 10
4315.707303806848
 20
281.9329266071481
 10
4316.744574715602
 20
288.1565520596804
 10
4317.781845624362
 20
295.4174484210161
 10
4318.300481078746
 20
302.6783447822426
 10
4318.819116533123
 20
309.4206056892862
 10
4318.819116533123
 20
318.2374084137454
 10
4318.819116533123
 20
326.5355756838171
 10
4318.300481078746
 20
333.7964720451418
 10
4316.225939261218
 20
382.0295693025027
 10
4314.670032898081
 20
431.2999374686423
 10
4313.632761989327
 20
481.6075765434907
 10
4313.632761989327
 20
531.9152156183918
 97
        0
 92
        7
 72
     0
 73
     1
 93
       65
 10
4384.637497891715
 20
790.1710300638951
 10
4316.631678415688
 20
790.1710300638961
 10
4316.225939261225
 20
784.4906819014277
 10
4316.485256988417
 20
781.119551447955
 10
4316.744574715602
 20
777.7484209944732
 10
4317.263210169985
 20
774.1179728138359
 10
4317.781845624369
 20
767.8943473612634
 10
4318.300481078746
 20
761.6707219087029
 10
4318.819116533123
 20
755.4470964561414
 10
4318.819116533123
 20
749.7421064579611
 10
4318.819116533123
 20
742.9998455510204
 10
4318.819116533123
 20
735.7389491896992
 10
4318.300481078746
 20
730.5525946459137
 10
4316.225939261218
 20
682.3194973884547
 10
4314.670032898081
 20
632.530493768043
 10
4314.151397443704
 20
582.7414901475795
 10
4313.632761989327
 20
531.9152156183327
 10
4313.632761989327
 20
481.6075765434589
 10
4314.670032898088
 20
431.299937468546
 10
4316.225939261218
 20
382.0295693025427
 10
4318.300481078753
 20
333.7964720450836
 10
4318.819116533123
 20
326.5355756838234
 10
4318.819116533123
 20
318.2374084137454
 10
4318.819116533123
 20
309.4206056892871
 10
4318.300481078746
 20
302.6783447822581
 10
4317.781845624362
 20
295.4174484210225
 10
4316.744574715602
 20
288.1565520597132
 10
4315.707303806848
 20
281.932926607169
 10
4315.188668352464
 20
278.3024784264826
 10
4314.670032898081
 20
277.2652075177211
 10
4314.670032898081
 20
275.7093011545803
 10
4314.151397443704
 20
274.6720302458206
 10
4314.151397443704
 20
273.1161238826798
 10
4314.151397443704
 20
270.0043111563991
 10
4311.014798869029
 20
270.0043111563991
 10
4314.670032898081
 20
265.7735696653417
 10
4314.670032898081
 20
262.2247793406995
 10
4315.188668352464
 20
261.7061438863184
 10
4315.707303806834
 20
258.0756957056064
 10
4316.744574715602
 20
251.3334347987629
 10
4317.781845624369
 20
244.0725384373845
 10
4318.300481078753
 20
236.8116420760598
 10
4318.819116533123
 20
230.0693811691253
 10
4318.819116533123
 20
221.2525784446734
 10
4318.819116533123
 20
212.9544111745972
 10
4318.300481078746
 20
205.6935148133288
 10
4316.225939261225
 20
157.9790530103218
 10
4314.670032898081
 20
108.190049389861
 10
4314.151397443704
 20
57.88241031495181
 10
4313.632761989327
 20
7.574771240086192
 10
4314.151397443704
 20
-42.73286783478034
 10
4314.670032898081
 20
-93.0405069096214
 10
4316.225939261218
 20
-142.8295105300721
 10
4318.300481078739
 20
-190.5439723331
 10
4318.819116533123
 20
-196.2489623312767
 10
4318.819116533123
 20
-202.9912232382212
 10
4318.819116533123
 20
-210.2521195995423
 10
4318.819116533123
 20
-215.9571095977198
 10
4318.300481078753
 20
-221.6620995959092
 10
4317.781845624348
 20
-228.404360502851
 10
4317.263210169985
 20
-234.6279859554133
 10
4316.744574715602
 20
-238.2584341360652
 10
4316.225939261225
 20
-239.2957050448249
 10
4316.662889119878
 20
-250.6810432054753
 10
4384.637497891715
 20
-250.6810432054753
 97
        0
 75
     0
 76
     1
 47
4.06795432954799
 98
        4
 10
4237.575046267731
 20
864.6584465288341
 10
4217.226720762751
 20
819.9109488132654
 10
4302.689742952694
 20
575.8336922998005
 10
4339.316713127635
 20
551.4259625198628
  0
HATCH
  5
5C7
330
5BB
100
AcDbEntity
  8
0
 62
    30
100
AcDbHatch
 10
0.0
 20
0.0
 30
0.0
210
0.0
220
0.0
230
1.0
  2
SOLID
 70
     1
 71
     0
 91
        2
 92
        7
 72
     1
 73
     1
 93
       18
 10
6856.008401196129
 20
2066.557525128945
 42
0.0
 10
6788.561150291156
 20
2066.557525128946
 42
0.0
 10
4308.446407445678
 20
2066.557525128946
 42
0.0
 10
4308.446407445678
 20
2051.541738787643
 42
0.0
 10
4389.305216981141
 20
2051.541738787642
 42
-0.4142135623730951
 10
4394.305216981141
 20
2046.541738787642
 42
0.0
 10
4394.305216981141
 20
2046.330742408123
 42
0.0
 10
5471.202454329919
 20
2046.330742408124
 42
0.0
 10
5471.202454329919
 20
2046.541738787642
 42
-0.4142135623730951
 10
5476.20245432992
 20
2051.541738787642
 42
0.0
 10
5576.202454329919
 20
2051.541738787642
 42
-0.4142135623730951
 10
5581.202454329919
 20
2046.541738787642
 42
0.0
 10
5581.202454329919
 20
2046.330742408123
 42
0.0
 10
6746.008401196123
 20
2046.330742408122
 42
0.0
 10
6746.008401196123
 20
2046.541738787642
 42
-0.4142135623730951
 10
6751.008401196123
 20
2051.541738787642
 42
0.0
 10
6851.008401196122
 20
2051.541738787642
 42
-0.4142135623730951
 10
6856.008401196122
 20
2046.541738787642
 42
0.0
 97
        0
 92
        7
 72
     1
 73
     1
 93
       13
 10
5471.211927484037
 20
-355.9886822805019
 42
0.0
 10
4394.295743827024
 20
-355.9886822805019
 42
-0.3962939233577647
 10
4389.305216981141
 20
-360.6810432054744
 42
0.0
 10
4308.446407445678
 20
-360.6810432054735
 42
0.0
 10
4308.446407445678
 20
-375.6968295467886
 42
0.0
 10
6855.998928042012
 20
-375.6968295467886
 42
0.0
 10
6855.998928042012
 20
-355.9886822804983
 42
-0.3962939233579628
 10
6851.008401196122
 20
-360.6810432054744
 42
0.0
 10
6751.008401196123
 20
-360.6810432054735
 42
-0.3962939233577178
 10
6746.017874350233
 20
-355.9886822805019
 42
0.0
 10
5581.192981175809
 20
-355.9886822805019
 42
-0.3962939233577647
 10
5576.202454329919
 20
-360.6810432054744
 42
0.0
 10
5476.20245432992
 20
-360.6810432054735
 42
-0.3962939233577178
 97
        0
 75
     0
 76
     1
 47
7.676094169684515
 98
        3
 10
5752.568983148223
 20
2042.40815890244
 10
6412.990913973146
 20
2057.76034217161
 10
5353.244089253843
 20
-360.2093381193135
  0
LINE
  5
5C8
102
{ACAD_REACTORS
330
5C5
102
}
330
5BB
100
AcDbEntity
  8
0
100
AcDbLine
 10
4384.637497891715
 20
790.1710300638951
 30
0.0
 11
4384.637497891715
 21
-250.6810432054753
 31
0.0
  0
LWPOLYLINE
  5
5C9
102
{ACAD_REACTORS
330
5C0
330
5C5
102
}
330
5BB
100
AcDbEntity
  8
0
100
AcDbPolyline
 90
        2
 70
     0
 43
0.0
 10
6850.797404816607
 20
-250.6810432054753
 10
6850.797404816607
 20
1941.541738787643
  0
LINE
  5
5CA
102
{ACAD_REACTORS
330
5C5
102
}
330
5BB
100
AcDbEntity
  8
0
100
AcDbLine
 10
6751.219397575638
 20
782.3415841489141
 30
0.0
 11
6751.219397575638
 21
-250.6810432054753
 31
0.0
  0
HATCH
  5
5CB
330
5BB
100
AcDbEntity
  8
0
 62
    50
100
AcDbHatch
 10
0.0
 20
0.0
 30
0.0
210
0.0
220
0.0
230
1.0
  2
SOLID
 70
     1
 71
     0
 91
        9
 92
        6
 72
     1
 73
     1
 93
        2
 10
4294.305216981141
 20
1996.541738787642
 42
1.0
 10
4384.305216981141
 20
1996.541738787642
 42
1.0
 97
        0
 92
        7
 72
     1
 73
     1
 93
        8
 10
4394.305216981141
 20
2046.541738787642
 42
0.4142135623730951
 10
4389.305216981141
 20
2051.541738787642
 42
0.0
 10
4289.305216981142
 20
2051.541738787642
 42
0.4142135623730951
 10
4284.305216981141
 20
2046.541738787642
 42
0.0
 10
4284.305216981141
 20
1946.541738787644
 42
0.4142135623730977
 10
4289.305216981142
 20
1941.541738787644
 42
0.0
 10
4389.305216981141
 20
1941.541738787643
 42
0.4142135623730951
 10
4394.305216981141
 20
1946.541738787643
 42
0.0
 97
        0
 92
       22
 72
     1
 73
     1
 93
        2
 10
4384.305216981141
 20
1996.541738787642
 42
-1.0
 10
4294.305216981141
 20
1996.541738787642
 42
-1.0
 97
        0
 92
        6
 72
     1
 73
     1
 93
        2
 10
4289.637497891716
 20
845.1710300638943
 42
1.0
 10
4379.637497891716
 20
845.1710300638943
 42
1.0
 97
        0
 92
        7
 72
     1
 73
     1
 93
        8
 10
4389.637497891715
 20
895.1710300638943
 42
0.4142135623730951
 10
4384.637497891715
 20
900.1710300638942
 42
0.0
 10
4284.637497891715
 20
900.1710300638942
 42
0.4142135623730951
 10
4279.637497891715
 20
895.1710300638943
 42
0.0
 10
4279.637497891715
 20
795.1710300638961
 42
0.4142135623730977
 10
4284.637497891715
 20
790.1710300638961
 42
0.0
 10
4384.637497891715
 20
790.1710300638951
 42
0.4142135623730951
 10
4389.637497891715
 20
795.1710300638951
 42
0.0
 97
        0
 92
       22
 72
     1
 73
     1
 93
        2
 10
4379.637497891716
 20
845.1710300638943
 42
-1.0
 10
4289.637497891716
 20
845.1710300638943
 42
-1.0
 97
        0
 92
        6
 72
     1
 73
     1
 93
        2
 10
4384.305216981141
 20
-305.6810432054753
 42
1.0
 10
4294.305216981141
 20
-305.6810432054753
 42
1.0
 97
        0
 92
        7
 72
     1
 73
     1
 93
        8
 10
4394.305216981141
 20
-255.6810432054753
 42
0.4142135623730685
 10
4389.305216981141
 20
-250.6810432054753
 42
0.0
 10
4289.305216981142
 20
-250.6810432054753
 42
0.4142135623730951
 10
4284.305216981141
 20
-255.6810432054753
 42
0.0
 10
4284.305216981141
 20
-355.6810432054735
 42
0.4142135623730977
 10
4289.305216981142
 20
-360.6810432054735
 42
0.0
 10
4389.305216981141
 20
-360.6810432054744
 42
0.4142135623730951
 10
4394.305216981141
 20
-355.6810432054744
 42
0.0
 97
        0
 92
       22
 72
     1
 73
     1
 93
        2
 10
4384.305216981141
 20
-305.6810432054753
 42
-1.0
 10
4294.305216981141
 20
-305.6810432054753
 42
-1.0
 97
        0
 75
     0
 76
     1
 47
6.317668530206566
 98
        9
 10
4341.808823264524
 20
2000.744387772532
 10
4379.7308206198
 20
2026.015075474247
 10
4379.7308206198
 20
2026.015075474247
 10
4335.488510039496
 20
844.6110447075971
 10
4297.566552019256
 20
882.517055617218
 10
4297.566552019256
 20
882.517055617218
 10
4322.847844254407
 20
-311.5222983573385
 10
4291.246238794221
 20
-267.2986155222879
 10
4291.246238794221
 20
-267.2986155222879
  0
LWPOLYLINE
  5
5CC
330
5BB
100
AcDbEntity
  8
0
100
AcDbPolyline
 90
       65
 70
     0
 43
0.0
 10
4296.631678415688
 20
790.1710300638961
 10
4296.225939261225
 20
784.4906819014259
 10
4296.485256988417
 20
781.119551447955
 10
4296.744574715602
 20
777.7484209944851
 10
4297.263210169986
 20
774.1179728138249
 10
4297.78184562437
 20
767.8943473612634
 10
4298.300481078746
 20
761.6707219087029
 10
4298.819116533123
 20
755.4470964561423
 10
4298.819116533123
 20
749.7421064579611
 10
4298.819116533123
 20
742.9998455510204
 10
4298.819116533123
 20
735.7389491896992
 10
4298.300481078746
 20
730.5525946458992
 10
4296.225939261225
 20
682.3194973885529
 10
4294.67003289808
 20
632.5304937680666
 10
4294.151397443703
 20
582.7414901475795
 10
4293.632761989328
 20
531.9152156183336
 10
4293.632761989328
 20
481.607576543467
 10
4294.67003289808
 20
431.2999374686005
 10
4296.225939261225
 20
382.0295693024945
 10
4298.300481078746
 20
333.7964720451473
 10
4298.819116533123
 20
326.5355756838271
 10
4298.819116533123
 20
318.2374084137454
 10
4298.819116533123
 20
309.4206056892844
 10
4298.300481078746
 20
302.6783447823436
 10
4297.78184562437
 20
295.4174484210234
 10
4296.744574715602
 20
288.1565520597023
 10
4295.707303806849
 20
281.9329266071417
 10
4295.188668352465
 20
278.3024784264807
 10
4294.67003289808
 20
277.2652075177211
 10
4294.67003289808
 20
275.7093011545803
 10
4294.151397443703
 20
274.6720302458197
 10
4294.151397443703
 20
273.1161238826798
 10
4294.151397443703
 20
270.0043111563991
 10
4291.01479886903
 20
270.0043111563991
 10
4294.151397443703
 20
266.373862975739
 10
4294.151397443703
 20
264.8179566125991
 10
4294.67003289808
 20
264.2993211582188
 10
4294.67003289808
 20
262.2247793406986
 10
4295.188668352465
 20
261.7061438863192
 10
4295.707303806849
 20
258.0756957056582
 10
4296.744574715602
 20
251.3334347987165
 10
4297.78184562437
 20
244.0725384373963
 10
4298.300481078746
 20
236.8116420760752
 10
4298.819116533123
 20
230.0693811691344
 10
4298.819116533123
 20
221.2525784446734
 10
4298.819116533123
 20
212.9544111745917
 10
4298.300481078746
 20
205.6935148132715
 10
4296.225939261225
 20
157.9790530103054
 10
4294.67003289808
 20
108.1900493898192
 10
4294.151397443703
 20
57.88241031495181
 10
4293.632761989328
 20
7.574771240086192
 10
4294.151397443703
 20
-42.73286783478034
 10
4294.67003289808
 20
-93.04050690964686
 10
4296.225939261225
 20
-142.829510530134
 10
4298.300481078746
 20
-190.5439723331
 10
4298.819116533123
 20
-196.2489623312803
 10
4298.819116533123
 20
-202.9912232382212
 10
4298.819116533123
 20
-210.2521195995423
 10
4298.819116533123
 20
-215.9571095977235
 10
4298.300481078746
 20
-221.6620995959037
 10
4297.78184562437
 20
-228.4043605028446
 10
4297.263210169986
 20
-234.6279859554051
 10
4296.744574715602
 20
-238.2584341360661
 10
4296.225939261225
 20
-239.2957050448258
 10
4296.662889119878
 20
-250.6810432054753
  0
LWPOLYLINE
  5
5CD
330
5BB
100
AcDbEntity
  8
0
100
AcDbPolyline
 90
       65
 70
     0
 43
0.0
 10
4316.631678415688
 20
790.1710300638961
 10
4316.225939261225
 20
784.4906819014259
 10
4316.485256988417
 20
781.119551447955
 10
4316.744574715602
 20
777.7484209944851
 10
4317.263210169985
 20
774.1179728138249
 10
4317.781845624369
 20
767.8943473612634
 10
4318.300481078746
 20
761.6707219087029
 10
4318.819116533123
 20
755.4470964561423
 10
4318.819116533123
 20
749.7421064579611
 10
4318.819116533123
 20
742.9998455510204
 10
4318.819116533123
 20
735.7389491896992
 10
4318.300481078746
 20
730.5525946458992
 10
4316.225939261225
 20
682.3194973885529
 10
4314.670032898081
 20
632.5304937680666
 10
4314.151397443704
 20
582.7414901475795
 10
4313.632761989327
 20
531.9152156183336
 10
4313.632761989327
 20
481.607576543467
 10
4314.670032898081
 20
431.2999374686005
 10
4316.225939261225
 20
382.0295693024945
 10
4318.300481078746
 20
333.7964720451473
 10
4318.819116533123
 20
326.5355756838271
 10
4318.819116533123
 20
318.2374084137454
 10
4318.819116533123
 20
309.4206056892844
 10
4318.300481078746
 20
302.6783447823436
 10
4317.781845624369
 20
295.4174484210234
 10
4316.744574715602
 20
288.1565520597023
 10
4315.707303806848
 20
281.9329266071417
 10
4315.188668352464
 20
278.3024784264807
 10
4314.670032898081
 20
277.2652075177211
 10
4314.670032898081
 20
275.7093011545803
 10
4314.151397443704
 20
274.6720302458197
 10
4314.151397443704
 20
273.1161238826798
 10
4314.151397443704
 20
270.0043111563991
 10
4311.014798869029
 20
270.0043111563991
 10
4314.151397443704
 20
266.373862975739
 10
4314.151397443704
 20
264.8179566125991
 10
4314.670032898081
 20
264.2993211582188
 10
4314.670032898081
 20
262.2247793406986
 10
4315.188668352464
 20
261.7061438863192
 10
4315.707303806848
 20
258.0756957056582
 10
4316.744574715602
 20
251.3334347987165
 10
4317.781845624369
 20
244.0725384373963
 10
4318.300481078746
 20
236.8116420760752
 10
4318.819116533123
 20
230.0693811691344
 10
4318.819116533123
 20
221.2525784446734
 10
4318.819116533123
 20
212.9544111745917
 10
4318.300481078746
 20
205.6935148132715
 10
4316.225939261225
 20
157.9790530103054
 10
4314.670032898081
 20
108.1900493898192
 10
4314.151397443704
 20
57.88241031495181
 10
4313.632761989327
 20
7.574771240086192
 10
4314.151397443704
 20
-42.73286783478034
 10
4314.670032898081
 20
-93.04050690964686
 10
4316.225939261225
 20
-142.829510530134
 10
4318.300481078746
 20
-190.5439723331
 10
4318.819116533123
 20
-196.2489623312803
 10
4318.819116533123
 20
-202.9912232382212
 10
4318.819116533123
 20
-210.2521195995423
 10
4318.819116533123
 20
-215.9571095977235
 10
4318.300481078746
 20
-221.6620995959037
 10
4317.781845624369
 20
-228.4043605028446
 10
4317.263210169985
 20
-234.6279859554051
 10
4316.744574715602
 20
-238.2584341360661
 10
4316.225939261225
 20
-239.2957050448258
 10
4316.662889119878
 20
-250.6810432054753
  0
HATCH
  5
5CE
330
5BB
100
AcDbEntity
  8
0
 62
   250
100
AcDbHatch
 10
0.0
 20
0.0
 30
0.0
210
0.0
220
0.0
230
1.0
  2
SOLID
 70
     1
 71
     0
 91
        1
 92
        7
 72
     1
 73
     1
 93
        6
 10
6746.008401196123
 20
-330.024045015295
 42
-0.1461151352720346
 10
6733.513855494689
 20
-323.1810432054753
 42
0.0
 10
5593.697000031352
 20
-323.1810432054753
 42
-0.1461151352720346
 10
5581.202454329919
 20
-330.024045015295
 42
0.0
 10
5581.202454329919
 20
-355.9886822805019
 42
0.0
 10
6746.008401196123
 20
-355.9886822805028
 42
0.0
 97
        0
 75
     0
 76
     1
 47
4.233543478846082
 98
        1
 10
6615.354571249554
 20
-335.5821751071498
  0
HATCH
  5
5CF
330
5BB
100
AcDbEntity
  8
0
 62
   250
100
AcDbHatch
 10
0.0
 20
0.0
 30
0.0
210
0.0
220
0.0
230
1.0
  2
SOLID
 70
     1
 71
     0
 91
       18
 92
        7
 72
     1
 73
     1
 93
        2
 10
6683.485962503517
 20
-1480.390347376324
 42
1.0
 10
6643.485962503517
 20
-1480.390347376324
 42
1.0
 97
        0
 92
        7
 72
     1
 73
     1
 93
        6
 10
6645.155659723693
 20
-1472.390347376324
 42
0.0
 10
6431.833976272152
 20
-1472.390347376324
 42
-0.1032437171755953
 10
6433.503673492326
 20
-1480.390347376324
 42
-0.1032437171755953
 10
6431.833976272152
 20
-1488.390347376324
 42
0.0
 10
6645.155659723693
 20
-1488.390347376324
 42
-0.1032437171755953
 10
6643.485962503517
 20
-1480.390347376324
 42
-0.1032437171755953
 97
        0
 92
        7
 72
     1
 73
     1
 93
        2
 10
6433.503673492326
 20
-1480.390347376324
 42
1.0
 10
6393.503673492327
 20
-1480.390347376324
 42
1.0
 97
        0
 92
        7
 72
     1
 73
     1
 93
        6
 10
6395.173370712502
 20
-1472.390347376324
 42
0.0
 10
6181.851687260962
 20
-1472.390347376324
 42
-0.1032437171755953
 10
6183.521384481137
 20
-1480.390347376324
 42
-0.1032437171755953
 10
6181.851687260962
 20
-1488.390347376324
 42
0.0
 10
6395.173370712502
 20
-1488.390347376324
 42
-0.1032437171755953
 10
6393.503673492327
 20
-1480.390347376324
 42
-0.1032437171755953
 97
        0
 92
        7
 72
     1
 73
     1
 93
        2
 10
6143.521384481137
 20
-1480.390347376324
 42
1.0
 10
6183.521384481137
 20
-1480.390347376324
 42
1.0
 97
        0
 92
        7
 72
     1
 73
     1
 93
        6
 10
6145.191081701312
 20
-1472.390347376324
 42
0.0
 10
5931.869398249764
 20
-1472.390347376324
 42
-0.1032437171755953
 10
5933.53909546994
 20
-1480.390347376324
 42
-0.1032437171755953
 10
5931.869398249764
 20
-1488.390347376324
 42
0.0
 10
6145.191081701312
 20
-1488.390347376324
 42
-0.1032437171755953
 10
6143.521384481137
 20
-1480.390347376324
 42
-0.1032437171755953
 97
        0
 92
        7
 72
     1
 73
     1
 93
        2
 10
5893.53909546994
 20
-1480.390347376324
 42
1.0
 10
5933.53909546994
 20
-1480.390347376324
 42
1.0
 97
        0
 92
        7
 72
     1
 73
     1
 93
        6
 10
5893.53909546994
 20
-1480.390347376324
 42
-0.1032437171755953
 10
5895.208792690115
 20
-1472.390347376324
 42
0.0
 10
5681.887109238574
 20
-1472.390347376324
 42
-0.1032437171755953
 10
5683.556806458749
 20
-1480.390347376324
 42
-0.1032437171755953
 10
5681.887109238574
 20
-1488.390347376324
 42
0.0
 10
5895.208792690115
 20
-1488.390347376324
 42
-0.1032437171755953
 97
        0
 92
        7
 72
     1
 73
     1
 93
        2
 10
5643.55680645875
 20
-1480.390347376324
 42
1.0
 10
5683.556806458749
 20
-1480.390347376324
 42
1.0
 97
        0
 92
        7
 72
     1
 73
     1
 93
        2
 10
5683.556806458749
 20
-1657.245037319927
 42
1.0
 10
5643.55680645875
 20
-1657.245037319927
 42
1.0
 97
        0
 92
        7
 72
     1
 73
     1
 93
        6
 10
5893.53909546994
 20
-1657.245037319927
 42
-0.1032437171755953
 10
5895.208792690115
 20
-1649.245037319927
 42
0.0
 10
5681.887109238574
 20
-1649.245037319927
 42
-0.1032437171755953
 10
5683.556806458749
 20
-1657.245037319927
 42
-0.1032437171755953
 10
5681.887109238574
 20
-1665.245037319927
 42
0.0
 10
5895.208792690115
 20
-1665.245037319927
 42
-0.1032437171755953
 97
        0
 92
        7
 72
     1
 73
     1
 93
        2
 10
5893.53909546994
 20
-1657.245037319927
 42
1.0
 10
5933.53909546994
 20
-1657.245037319927
 42
1.0
 97
        0
 92
        7
 72
     1
 73
     1
 93
        6
 10
6145.191081701312
 20
-1649.245037319927
 42
0.0
 10
5931.869398249764
 20
-1649.245037319927
 42
-0.1032437171755953
 10
5933.53909546994
 20
-1657.245037319927
 42
-0.1032437171755953
 10
5931.869398249764
 20
-1665.245037319927
 42
0.0
 10
6145.191081701312
 20
-1665.245037319927
 42
-0.1032437171755953
 10
6143.521384481137
 20
-1657.245037319927
 42
-0.1032437171755953
 97
        0
 92
        7
 72
     1
 73
     1
 93
        2
 10
6143.521384481137
 20
-1657.245037319927
 42
1.0
 10
6183.521384481137
 20
-1657.245037319927
 42
1.0
 97
        0
 92
        7
 72
     1
 73
     1
 93
        6
 10
6395.173370712502
 20
-1649.245037319927
 42
0.0
 10
6181.851687260962
 20
-1649.245037319927
 42
-0.1032437171755953
 10
6183.521384481137
 20
-1657.245037319927
 42
-0.1032437171755953
 10
6181.851687260962
 20
-1665.245037319927
 42
0.0
 10
6395.173370712502
 20
-1665.245037319927
 42
-0.1032437171755953
 10
6393.503673492327
 20
-1657.245037319927
 42
-0.1032437171755953
 97
        0
 92
        7
 72
     1
 73
     1
 93
        2
 10
6433.503673492326
 20
-1657.245037319927
 42
1.0
 10
6393.503673492327
 20
-1657.245037319927
 42
1.0
 97
        0
 92
        7
 72
     1
 73
     1
 93
        6
 10
6645.155659723693
 20
-1649.245037319927
 42
0.0
 10
6431.833976272152
 20
-1649.245037319927
 42
-0.1032437171755953
 10
6433.503673492326
 20
-1657.245037319927
 42
-0.1032437171755953
 10
6431.833976272152
 20
-1665.245037319927
 42
0.0
 10
6645.155659723693
 20
-1665.245037319927
 42
-0.1032437171755953
 10
6643.485962503517
 20
-1657.245037319927
 42
-0.1032437171755953
 97
        0
 92
        7
 72
     1
 73
     1
 93
        2
 10
6643.485962503517
 20
-1657.245037319927
 42
1.0
 10
6683.485962503517
 20
-1657.245037319927
 42
1.0
 97
        0
 75
     0
 76
     1
 47
2.565033814317645
 98
       18
 10
6663.435269631832
 20
-1482.008711862734
 10
6601.810233786032
 20
-1476.878650919386
 10
6419.502838011831
 20
-1484.57374843139
 10
6334.768419532731
 20
-1479.44367529408
 10
6157.59644728493
 20
-1476.878650919386
 10
6126.783952597558
 20
-1479.44367529408
 10
5921.367174190062
 20
-1479.44367529408
 10
5846.903579528247
 20
-1482.008711862734
 10
5656.89307169996
 20
-1476.878650919386
 10
5664.596206989576
 20
-1664.126113133886
 10
5710.814972256158
 20
-1658.996052190538
 10
5913.664038900453
 20
-1656.431015621883
 10
5972.721362983051
 20
-1653.865979053227
 10
6165.299582574538
 20
-1656.431015621883
 10
6219.221483130736
 20
-1656.431015621883
 10
6416.935126248623
 20
-1658.996052190538
 10
6511.940391780533
 20
-1653.865979053227
 10
6663.435269631832
 20
-1651.300942484571
  0
HATCH
  5
5D0
330
5BB
100
AcDbEntity
  8
0
 62
   250
100
AcDbHatch
 10
0.0
 20
0.0
 30
0.0
210
0.0
220
0.0
230
1.0
  2
SOLID
 70
     1
 71
     0
 91
       18
 92
        7
 72
     1
 73
     1
 93
        2
 10
5643.55680645875
 20
-1126.421649761929
 42
1.0
 10
5683.556806458749
 20
-1126.421649761929
 42
1.0
 97
        0
 92
        7
 72
     1
 73
     1
 93
        6
 10
5893.53909546994
 20
-1126.421649761929
 42
-0.1032437171755953
 10
5895.208792690115
 20
-1118.421649761929
 42
0.0
 10
5681.887109238574
 20
-1118.421649761929
 42
-0.1032437171755953
 10
5683.556806458749
 20
-1126.421649761929
 42
-0.1032437171755953
 10
5681.887109238574
 20
-1134.421649761929
 42
0.0
 10
5895.208792690115
 20
-1134.421649761929
 42
-0.1032437171755953
 97
        0
 92
        7
 72
     1
 73
     1
 93
        2
 10
5893.53909546994
 20
-1126.421649761929
 42
1.0
 10
5933.53909546994
 20
-1126.421649761929
 42
1.0
 97
        0
 92
        7
 72
     1
 73
     1
 93
        6
 10
6145.191081701312
 20
-1118.421649761929
 42
0.0
 10
5931.869398249764
 20
-1118.421649761929
 42
-0.1032437171755953
 10
5933.53909546994
 20
-1126.421649761929
 42
-0.1032437171755953
 10
5931.869398249764
 20
-1134.421649761929
 42
0.0
 10
6145.191081701312
 20
-1134.421649761929
 42
-0.1032437171755953
 10
6143.521384481137
 20
-1126.421649761929
 42
-0.1032437171755953
 97
        0
 92
        7
 72
     1
 73
     1
 93
        2
 10
6183.521384481137
 20
-1126.421649761929
 42
1.0
 10
6143.521384481137
 20
-1126.421649761929
 42
1.0
 97
        0
 92
        7
 72
     1
 73
     1
 93
        6
 10
6395.173370712502
 20
-1118.421649761929
 42
0.0
 10
6181.851687260962
 20
-1118.421649761929
 42
-0.1032437171755953
 10
6183.521384481137
 20
-1126.421649761929
 42
-0.1032437171755953
 10
6181.851687260962
 20
-1134.421649761929
 42
0.0
 10
6395.173370712502
 20
-1134.421649761929
 42
-0.1032437171755953
 10
6393.503673492327
 20
-1126.421649761929
 42
-0.1032437171755953
 97
        0
 92
        7
 72
     1
 73
     1
 93
        2
 10
6393.503673492327
 20
-1126.421649761929
 42
1.0
 10
6433.503673492326
 20
-1126.421649761929
 42
1.0
 97
        0
 92
        7
 72
     1
 73
     1
 93
        6
 10
6645.155659723693
 20
-1118.421649761929
 42
0.0
 10
6431.833976272152
 20
-1118.421649761929
 42
-0.1032437171755953
 10
6433.503673492326
 20
-1126.421649761929
 42
-0.1032437171755953
 10
6431.833976272152
 20
-1134.421649761929
 42
0.0
 10
6645.155659723693
 20
-1134.421649761929
 42
-0.1032437171755953
 10
6643.485962503517
 20
-1126.421649761929
 42
-0.1032437171755953
 97
        0
 92
        7
 72
     1
 73
     1
 93
        2
 10
6643.485962503517
 20
-1126.421649761929
 42
1.0
 10
6683.485962503517
 20
-1126.421649761929
 42
1.0
 97
        0
 92
        7
 72
     1
 73
     1
 93
        2
 10
5683.556806458749
 20
-1303.535657432721
 42
1.0
 10
5643.55680645875
 20
-1303.535657432721
 42
1.0
 97
        0
 92
        7
 72
     1
 73
     1
 93
        6
 10
5895.208792690115
 20
-1295.535657432721
 42
0.0
 10
5681.887109238574
 20
-1295.535657432721
 42
-0.1032437171755953
 10
5683.556806458749
 20
-1303.535657432721
 42
-0.1032437171755953
 10
5681.887109238574
 20
-1311.535657432721
 42
0.0
 10
5895.208792690115
 20
-1311.535657432721
 42
-0.1032437171755953
 10
5893.53909546994
 20
-1303.535657432721
 42
-0.1032437171755953
 97
        0
 92
        7
 72
     1
 73
     1
 93
        2
 10
5893.53909546994
 20
-1303.535657432721
 42
1.0
 10
5933.53909546994
 20
-1303.535657432721
 42
1.0
 97
        0
 92
        7
 72
     1
 73
     1
 93
        6
 10
6143.521384481137
 20
-1303.535657432721
 42
-0.1032437171755953
 10
6145.191081701312
 20
-1295.535657432721
 42
0.0
 10
5931.869398249764
 20
-1295.535657432721
 42
-0.1032437171755953
 10
5933.53909546994
 20
-1303.535657432721
 42
-0.1032437171755953
 10
5931.869398249764
 20
-1311.535657432721
 42
0.0
 10
6145.191081701312
 20
-1311.535657432721
 42
-0.1032437171755953
 97
        0
 92
        7
 72
     1
 73
     1
 93
        2
 10
6183.521384481137
 20
-1303.535657432721
 42
1.0
 10
6143.521384481137
 20
-1303.535657432721
 42
1.0
 97
        0
 92
        7
 72
     1
 73
     1
 93
        6
 10
6393.503673492327
 20
-1303.535657432721
 42
-0.1032437171755953
 10
6395.173370712502
 20
-1295.535657432721
 42
0.0
 10
6181.851687260962
 20
-1295.535657432721
 42
-0.1032437171755953
 10
6183.521384481137
 20
-1303.535657432721
 42
-0.1032437171755953
 10
6181.851687260962
 20
-1311.535657432721
 42
0.0
 10
6395.173370712502
 20
-1311.535657432721
 42
-0.1032437171755953
 97
        0
 92
        7
 72
     1
 73
     1
 93
        2
 10
6433.503673492326
 20
-1303.535657432721
 42
1.0
 10
6393.503673492327
 20
-1303.535657432721
 42
1.0
 97
        0
 92
        7
 72
     1
 73
     1
 93
        6
 10
6643.485962503517
 20
-1303.535657432721
 42
-0.1032437171755953
 10
6645.155659723693
 20
-1295.535657432721
 42
0.0
 10
6431.833976272152
 20
-1295.535657432721
 42
-0.1032437171755953
 10
6433.503673492326
 20
-1303.535657432721
 42
-0.1032437171755953
 10
6431.833976272152
 20
-1311.535657432721
 42
0.0
 10
6645.155659723693
 20
-1311.535657432721
 42
-0.1032437171755953
 97
        0
 92
        7
 72
     1
 73
     1
 93
        2
 10
6683.485962503517
 20
-1303.535657432721
 42
1.0
 10
6643.485962503517
 20
-1303.535657432721
 42
1.0
 97
        0
 75
     0
 76
     1
 47
2.565033814317645
 98
       18
 10
5662.028495226368
 20
-1125.469006832434
 10
5741.62749017906
 20
-1128.03404340109
 10
5918.799462426861
 20
-1122.903982457741
 10
5965.01822769345
 20
-1120.338945889085
 10
6157.59644728493
 20
-1135.729140913095
 10
6208.95065931345
 20
-1125.469006832434
 10
6411.799725957746
 20
-1120.338945889085
 10
6460.586202987535
 20
-1125.469006832434
 10
6658.299846105423
 20
-1122.903982457741
 10
5664.596206989576
 20
-1307.586408103587
 10
5731.356643126244
 20
-1302.456347160237
 10
5913.664038900453
 20
-1302.456347160237
 10
5995.830745616346
 20
-1310.151444672243
 10
6165.299582574538
 20
-1305.021383728893
 10
6255.169424580039
 20
-1305.021383728893
 10
6416.935126248623
 20
-1307.586408103587
 10
6463.153914750742
 20
-1305.021383728893
 10
6671.138381685917
 20
-1305.021383728893
  0
HATCH
  5
5D1
330
5BB
100
AcDbEntity
  8
0
 62
   250
100
AcDbHatch
 10
0.0
 20
0.0
 30
0.0
210
0.0
220
0.0
230
1.0
  2
SOLID
 70
     1
 71
     0
 91
       27
 92
        7
 72
     1
 73
     1
 93
        2
 10
5643.55680645875
 20
-595.59826220393
 42
1.0
 10
5683.556806458749
 20
-595.59826220393
 42
1.0
 97
        0
 92
        7
 72
     1
 73
     1
 93
        6
 10
5895.208792690115
 20
-587.59826220393
 42
0.0
 10
5681.887109238574
 20
-587.59826220393
 42
-0.1032437171755953
 10
5683.556806458749
 20
-595.59826220393
 42
-0.1032437171755953
 10
5681.887109238574
 20
-603.59826220393
 42
0.0
 10
5895.208792690115
 20
-603.59826220393
 42
-0.1032437171755953
 10
5893.53909546994
 20
-595.59826220393
 42
-0.1032437171755953
 97
        0
 92
        7
 72
     1
 73
     1
 93
        2
 10
5933.53909546994
 20
-595.59826220393
 42
1.0
 10
5893.53909546994
 20
-595.59826220393
 42
1.0
 97
        0
 92
        7
 72
     1
 73
     1
 93
        6
 10
6143.521384481137
 20
-595.59826220393
 42
-0.1032437171755953
 10
6145.191081701312
 20
-587.59826220393
 42
0.0
 10
5931.869398249764
 20
-587.59826220393
 42
-0.1032437171755953
 10
5933.53909546994
 20
-595.59826220393
 42
-0.1032437171755953
 10
5931.869398249764
 20
-603.59826220393
 42
0.0
 10
6145.191081701312
 20
-603.59826220393
 42
-0.1032437171755953
 97
        0
 92
        7
 72
     1
 73
     1
 93
        2
 10
6183.521384481137
 20
-595.59826220393
 42
1.0
 10
6143.521384481137
 20
-595.59826220393
 42
1.0
 97
        0
 92
        7
 72
     1
 73
     1
 93
        6
 10
6393.503673492327
 20
-595.59826220393
 42
-0.1032437171755953
 10
6395.173370712502
 20
-587.59826220393
 42
0.0
 10
6181.851687260962
 20
-587.59826220393
 42
-0.1032437171755953
 10
6183.521384481137
 20
-595.59826220393
 42
-0.1032437171755953
 10
6181.851687260962
 20
-603.59826220393
 42
0.0
 10
6395.173370712502
 20
-603.59826220393
 42
-0.1032437171755953
 97
        0
 92
        7
 72
     1
 73
     1
 93
        2
 10
6393.503673492327
 20
-595.59826220393
 42
1.0
 10
6433.503673492326
 20
-595.59826220393
 42
1.0
 97
        0
 92
        7
 72
     1
 73
     1
 93
        6
 10
6643.485962503517
 20
-595.59826220393
 42
-0.1032437171755953
 10
6645.155659723693
 20
-587.59826220393
 42
0.0
 10
6431.833976272152
 20
-587.59826220393
 42
-0.1032437171755953
 10
6433.503673492326
 20
-595.59826220393
 42
-0.1032437171755953
 10
6431.833976272152
 20
-603.59826220393
 42
0.0
 10
6645.155659723693
 20
-603.59826220393
 42
-0.1032437171755953
 97
        0
 92
        7
 72
     1
 73
     1
 93
        2
 10
6643.485962503517
 20
-595.59826220393
 42
1.0
 10
6683.485962503517
 20
-595.59826220393
 42
1.0
 97
        0
 92
        7
 72
     1
 73
     1
 93
        2
 10
6683.485962503517
 20
-772.4529521475333
 42
1.0
 10
6643.485962503517
 20
-772.4529521475333
 42
1.0
 97
        0
 92
        7
 72
     1
 73
     1
 93
        6
 10
6643.485962503517
 20
-772.4529521475333
 42
-0.1032437171755953
 10
6645.155659723693
 20
-764.4529521475333
 42
0.0
 10
6431.833976272152
 20
-764.4529521475333
 42
-0.1032437171755953
 10
6433.503673492326
 20
-772.4529521475333
 42
-0.1032437171755953
 10
6431.833976272152
 20
-780.4529521475333
 42
0.0
 10
6645.155659723693
 20
-780.4529521475333
 42
-0.1032437171755953
 97
        0
 92
        7
 72
     1
 73
     1
 93
        2
 10
6393.503673492327
 20
-772.4529521475333
 42
1.0
 10
6433.503673492326
 20
-772.4529521475333
 42
1.0
 97
        0
 92
        7
 72
     1
 73
     1
 93
        6
 10
6393.503673492327
 20
-772.4529521475333
 42
-0.1032437171755953
 10
6395.173370712502
 20
-764.4529521475333
 42
0.0
 10
6181.851687260962
 20
-764.4529521475333
 42
-0.1032437171755953
 10
6183.521384481137
 20
-772.4529521475333
 42
-0.1032437171755953
 10
6181.851687260962
 20
-780.4529521475333
 42
0.0
 10
6395.173370712502
 20
-780.4529521475333
 42
-0.1032437171755953
 97
        0
 92
        7
 72
     1
 73
     1
 93
        2
 10
6183.521384481137
 20
-772.4529521475333
 42
1.0
 10
6143.521384481137
 20
-772.4529521475333
 42
1.0
 97
        0
 92
        7
 72
     1
 73
     1
 93
        6
 10
6145.191081701312
 20
-764.4529521475333
 42
0.0
 10
5931.869398249764
 20
-764.4529521475333
 42
-0.1032437171755953
 10
5933.53909546994
 20
-772.4529521475333
 42
-0.1032437171755953
 10
5931.869398249764
 20
-780.4529521475333
 42
0.0
 10
6145.191081701312
 20
-780.4529521475333
 42
-0.1032437171755953
 10
6143.521384481137
 20
-772.4529521475333
 42
-0.1032437171755953
 97
        0
 92
        7
 72
     1
 73
     1
 93
        2
 10
5933.53909546994
 20
-772.4529521475333
 42
1.0
 10
5893.53909546994
 20
-772.4529521475333
 42
1.0
 97
        0
 92
        7
 72
     1
 73
     1
 93
        6
 10
5893.53909546994
 20
-772.4529521475333
 42
-0.1032437171755953
 10
5895.208792690115
 20
-764.4529521475333
 42
0.0
 10
5681.887109238574
 20
-764.4529521475333
 42
-0.1032437171755953
 10
5683.556806458749
 20
-772.4529521475333
 42
-0.1032437171755953
 10
5681.887109238574
 20
-780.4529521475333
 42
0.0
 10
5895.208792690115
 20
-780.4529521475333
 42
-0.1032437171755953
 97
        0
 92
        7
 72
     1
 73
     1
 93
        2
 10
5683.556806458749
 20
-772.4529521475333
 42
1.0
 10
5643.55680645875
 20
-772.4529521475333
 42
1.0
 97
        0
 92
        7
 72
     1
 73
     1
 93
        2
 10
5683.556806458749
 20
-949.3076420911357
 42
1.0
 10
5643.55680645875
 20
-949.3076420911357
 42
1.0
 97
        0
 92
        7
 72
     1
 73
     1
 93
        6
 10
5893.53909546994
 20
-949.3076420911357
 42
-0.1032437171755953
 10
5895.208792690115
 20
-941.3076420911357
 42
0.0
 10
5681.887109238574
 20
-941.3076420911357
 42
-0.1032437171755953
 10
5683.556806458749
 20
-949.3076420911357
 42
-0.1032437171755953
 10
5681.887109238574
 20
-957.3076420911357
 42
0.0
 10
5895.208792690115
 20
-957.3076420911357
 42
-0.1032437171755953
 97
        0
 92
        7
 72
     1
 73
     1
 93
        2
 10
5933.53909546994
 20
-949.3076420911357
 42
1.0
 10
5893.53909546994
 20
-949.3076420911357
 42
1.0
 97
        0
 92
        7
 72
     1
 73
     1
 93
        6
 10
6145.191081701312
 20
-941.3076420911357
 42
0.0
 10
5931.869398249764
 20
-941.3076420911357
 42
-0.1032437171755953
 10
5933.53909546994
 20
-949.3076420911357
 42
-0.1032437171755953
 10
5931.869398249764
 20
-957.3076420911357
 42
0.0
 10
6145.191081701312
 20
-957.3076420911357
 42
-0.1032437171755953
 10
6143.521384481137
 20
-949.3076420911357
 42
-0.1032437171755953
 97
        0
 92
        7
 72
     1
 73
     1
 93
        2
 10
6183.521384481137
 20
-949.3076420911357
 42
1.0
 10
6143.521384481137
 20
-949.3076420911357
 42
1.0
 97
        0
 92
        7
 72
     1
 73
     1
 93
        6
 10
6395.173370712502
 20
-941.3076420911357
 42
0.0
 10
6181.851687260962
 20
-941.3076420911357
 42
-0.1032437171755953
 10
6183.521384481137
 20
-949.3076420911357
 42
-0.1032437171755953
 10
6181.851687260962
 20
-957.3076420911357
 42
0.0
 10
6395.173370712502
 20
-957.3076420911357
 42
-0.1032437171755953
 10
6393.503673492327
 20
-949.3076420911357
 42
-0.1032437171755953
 97
        0
 92
        7
 72
     1
 73
     1
 93
        2
 10
6393.503673492327
 20
-949.3076420911357
 42
1.0
 10
6433.503673492326
 20
-949.3076420911357
 42
1.0
 97
        0
 92
        7
 72
     1
 73
     1
 93
        6
 10
6643.485962503517
 20
-949.3076420911357
 42
-0.1032437171755953
 10
6645.155659723693
 20
-941.3076420911357
 42
0.0
 10
6431.833976272152
 20
-941.3076420911357
 42
-0.1032437171755953
 10
6433.503673492326
 20
-949.3076420911357
 42
-0.1032437171755953
 10
6431.833976272152
 20
-957.3076420911357
 42
0.0
 10
6645.155659723693
 20
-957.3076420911357
 42
-0.1032437171755953
 97
        0
 92
        7
 72
     1
 73
     1
 93
        2
 10
6683.485962503517
 20
-949.3076420911357
 42
1.0
 10
6643.485962503517
 20
-949.3076420911357
 42
1.0
 97
        0
 75
     0
 76
     1
 47
2.565033814317645
 98
       27
 10
5662.028495226368
 20
-591.9419736682939
 10
5728.788931363045
 20
-594.5070102369499
 10
5916.231750663661
 20
-597.0720346116431
 10
5988.127610326745
 20
-597.0720346116431
 10
6160.164159048131
 20
-597.0720346116431
 10
6224.356906657136
 20
-599.6370711802992
 10
6414.367414485416
 20
-589.3769370996379
 10
6481.127873857629
 20
-597.0720346116431
 10
6671.138381685917
 20
-594.5070102369499
 10
6673.706093449117
 20
-776.6244115081026
 10
6601.810233786032
 20
-774.0593749394466
 10
6422.070549775032
 20
-768.9293018021344
 10
6334.768419532731
 20
-774.0593749394466
 10
6165.299582574538
 20
-779.1894480767568
 10
6113.945393781541
 20
-771.4943383707905
 10
5911.096327137245
 20
-774.0593749394466
 10
5846.903579528247
 20
-776.6244115081026
 10
5674.867030806854
 20
-779.1894480767568
 10
5659.460783463161
 20
-953.6117396419431
 10
5728.788931363045
 20
-953.6117396419431
 10
5905.960903610845
 20
-951.04671526725
 10
5988.127610326745
 20
-948.4816786985939
 10
6162.731870811331
 20
-953.6117396419431
 10
6208.95065931345
 20
-945.9166421299379
 10
6414.367414485416
 20
-948.4816786985939
 10
6463.153914750742
 20
-953.6117396419431
 10
6663.435269631832
 20
-953.6117396419431
  0
HATCH
  5
5D2
330
5BB
100
AcDbEntity
  8
0
 62
    50
100
AcDbHatch
 10
0.0
 20
0.0
 30
0.0
210
0.0
220
0.0
230
1.0
  2
SOLID
 70
     1
 71
     0
 91
       35
 92
        7
 72
     1
 73
     1
 93
        4
 10
6671.461379275061
 20
-375.6968295467886
 42
0.0
 10
6655.485962503516
 20
-375.6968295467886
 42
0.0
 10
6655.485962503516
 20
-577.2679594241071
 42
-0.2083623928360087
 10
6671.461379275061
 20
-577.2572500366504
 42
0.0
 97
        0
 92
        7
 72
     1
 73
     1
 93
        4
 10
6421.479090263864
 20
-375.6968295467886
 42
0.0
 10
6405.503673492328
 20
-375.6968295467886
 42
0.0
 10
6405.503673492328
 20
-577.2679594241062
 42
-0.2083623928359828
 10
6421.479090263864
 20
-577.2572500366496
 42
0.0
 97
        0
 92
        7
 72
     1
 73
     1
 93
        4
 10
6171.496801252673
 20
-375.6968295467886
 42
0.0
 10
6155.521384481136
 20
-375.6968295467886
 42
0.0
 10
6155.521384481136
 20
-577.2679594241071
 42
-0.2083623928360087
 10
6171.496801252666
 20
-577.2572500366496
 42
0.0
 97
        0
 92
        7
 72
     1
 73
     1
 93
        4
 10
5921.514512241483
 20
-375.6968295467886
 42
0.0
 10
5905.53909546994
 20
-375.6968295467868
 42
0.0
 10
5905.53909546994
 20
-577.2679594241071
 42
-0.2083623928360087
 10
5921.514512241483
 20
-577.2572500366496
 42
0.0
 97
        0
 92
        7
 72
     1
 73
     1
 93
        4
 10
5671.532223230286
 20
-375.6968295467886
 42
0.0
 10
5655.55680645875
 20
-375.6968295467886
 42
0.0
 10
5655.55680645875
 20
-577.2679594241071
 42
-0.2083623928360087
 10
5671.532223230286
 20
-577.2572500366504
 42
0.0
 97
        0
 92
        7
 72
     1
 73
     1
 93
        4
 10
5671.532223230286
 20
-613.9392743712096
 42
-0.2083623928360087
 10
5655.55680645875
 20
-613.9285649837529
 42
0.0
 10
5655.55680645875
 20
-754.1226493677104
 42
-0.2083623928360216
 10
5671.532223230286
 20
-754.1119399802537
 42
0.0
 97
        0
 92
        7
 72
     1
 73
     1
 93
        4
 10
5671.532223230286
 20
-790.7939643148129
 42
-0.2083623928360216
 10
5655.55680645875
 20
-790.7832549273562
 42
0.0
 10
5655.55680645875
 20
-930.9773393113127
 42
-0.2083623928360216
 10
5671.532223230286
 20
-930.9666299238561
 42
0.0
 97
        0
 92
        7
 72
     1
 73
     1
 93
        4
 10
5671.532223230286
 20
-967.6486542584152
 42
-0.2083623928360216
 10
5655.55680645875
 20
-967.6379448709585
 42
0.0
 10
5655.55680645875
 20
-1108.091346982106
 42
-0.2083623928360346
 10
5671.532223230286
 20
-1108.08063759465
 42
0.0
 97
        0
 92
        7
 72
     1
 73
     1
 93
        4
 10
5671.532223230286
 20
-1144.762661929207
 42
-0.2083623928360346
 10
5655.55680645875
 20
-1144.751952541751
 42
0.0
 10
5655.55680645875
 20
-1285.205354652898
 42
-0.2083623928360346
 10
5671.532223230286
 20
-1285.194645265443
 42
0.0
 97
        0
 92
        7
 72
     1
 73
     1
 93
        4
 10
5671.532223230286
 20
-1321.8766696
 42
-0.2083623928360216
 10
5655.55680645875
 20
-1321.865960212544
 42
0.0
 10
5655.55680645875
 20
-1462.060044596501
 42
-0.2083623928360087
 10
5671.532223230286
 20
-1462.049335209044
 42
0.0
 97
        0
 92
        7
 72
     1
 73
     1
 93
        4
 10
5671.532223230286
 20
-1498.731359543603
 42
-0.2083623928360087
 10
5655.55680645875
 20
-1498.720650156147
 42
0.0
 10
5655.55680645875
 20
-1638.914734540103
 42
-0.2083623928360087
 10
5671.532223230286
 20
-1638.904025152647
 42
0.0
 97
        0
 92
        7
 72
     1
 73
     1
 93
        4
 10
5921.514512241483
 20
-613.9392743712106
 42
-0.2083623928360087
 10
5905.53909546994
 20
-613.9285649837529
 42
0.0
 10
5905.53909546994
 20
-754.1226493677104
 42
-0.2083623928360087
 10
5921.514512241483
 20
-754.1119399802537
 42
0.0
 97
        0
 92
        7
 72
     1
 73
     1
 93
        4
 10
5921.514512241483
 20
-790.7939643148129
 42
-0.2083623928360087
 10
5905.53909546994
 20
-790.7832549273562
 42
0.0
 10
5905.53909546994
 20
-930.9773393113127
 42
-0.2083623928360087
 10
5921.514512241483
 20
-930.9666299238561
 42
0.0
 97
        0
 92
        7
 72
     1
 73
     1
 93
        4
 10
5921.514512241483
 20
-967.6486542584152
 42
-0.2083623928360087
 10
5905.53909546994
 20
-967.6379448709585
 42
0.0
 10
5905.53909546994
 20
-1108.091346982106
 42
-0.2083623928360087
 10
5921.514512241483
 20
-1108.080637594649
 42
0.0
 97
        0
 92
        7
 72
     1
 73
     1
 93
        4
 10
5921.514512241483
 20
-1144.762661929208
 42
-0.2083623928360087
 10
5905.53909546994
 20
-1144.751952541751
 42
0.0
 10
5905.53909546994
 20
-1285.205354652898
 42
-0.2083623928360087
 10
5921.514512241483
 20
-1285.194645265442
 42
0.0
 97
        0
 92
        7
 72
     1
 73
     1
 93
        4
 10
5921.514512241483
 20
-1321.876669600001
 42
-0.2083623928360087
 10
5905.53909546994
 20
-1321.865960212544
 42
0.0
 10
5905.53909546994
 20
-1462.060044596501
 42
-0.2083623928360216
 10
5921.514512241483
 20
-1462.049335209045
 42
0.0
 97
        0
 92
        7
 72
     1
 73
     1
 93
        4
 10
5921.514512241483
 20
-1498.731359543602
 42
-0.2083623928360216
 10
5905.53909546994
 20
-1498.720650156147
 42
0.0
 10
5905.53909546994
 20
-1638.914734540103
 42
-0.2083623928360087
 10
5921.514512241483
 20
-1638.904025152647
 42
0.0
 97
        0
 92
        7
 72
     1
 73
     1
 93
        4
 10
6171.496801252666
 20
-613.9392743712106
 42
-0.2083623928360087
 10
6155.521384481136
 20
-613.9285649837529
 42
0.0
 10
6155.521384481136
 20
-754.1226493677104
 42
-0.2083623928360087
 10
6171.496801252666
 20
-754.1119399802537
 42
0.0
 97
        0
 92
        7
 72
     1
 73
     1
 93
        4
 10
6171.496801252666
 20
-790.7939643148129
 42
-0.2083623928360087
 10
6155.521384481136
 20
-790.7832549273562
 42
0.0
 10
6155.521384481136
 20
-930.9773393113127
 42
-0.2083623928360087
 10
6171.496801252666
 20
-930.9666299238561
 42
0.0
 97
        0
 92
        7
 72
     1
 73
     1
 93
        4
 10
6171.496801252666
 20
-967.6486542584152
 42
-0.2083623928360087
 10
6155.521384481136
 20
-967.6379448709585
 42
0.0
 10
6155.521384481136
 20
-1108.091346982106
 42
-0.2083623928360087
 10
6171.496801252666
 20
-1108.080637594648
 42
0.0
 97
        0
 92
        7
 72
     1
 73
     1
 93
        4
 10
6171.496801252666
 20
-1144.762661929209
 42
-0.2083623928360087
 10
6155.521384481136
 20
-1144.751952541751
 42
0.0
 10
6155.521384481136
 20
-1285.205354652898
 42
-0.2083623928360087
 10
6171.496801252666
 20
-1285.194645265441
 42
0.0
 97
        0
 92
        7
 72
     1
 73
     1
 93
        4
 10
6171.496801252666
 20
-1321.876669600002
 42
-0.2083623928360087
 10
6155.521384481136
 20
-1321.865960212544
 42
0.0
 10
6155.521384481136
 20
-1462.060044596501
 42
-0.2083623928359958
 10
6171.496801252666
 20
-1462.049335209043
 42
0.0
 97
        0
 92
        7
 72
     1
 73
     1
 93
        4
 10
6171.496801252666
 20
-1498.731359543604
 42
-0.2083623928359958
 10
6155.521384481136
 20
-1498.720650156147
 42
0.0
 10
6155.521384481136
 20
-1638.914734540103
 42
-0.2083623928359828
 10
6171.496801252666
 20
-1638.904025152646
 42
0.0
 97
        0
 92
        7
 72
     1
 73
     1
 93
        4
 10
6421.479090263864
 20
-613.9392743712106
 42
-0.2083623928359828
 10
6405.503673492328
 20
-613.9285649837538
 42
0.0
 10
6405.503673492328
 20
-754.1226493677095
 42
-0.2083623928359958
 10
6421.479090263864
 20
-754.1119399802537
 42
0.0
 97
        0
 92
        7
 72
     1
 73
     1
 93
        4
 10
6421.479090263864
 20
-790.7939643148129
 42
-0.2083623928359958
 10
6405.503673492328
 20
-790.7832549273571
 42
0.0
 10
6405.503673492328
 20
-930.9773393113118
 42
-0.2083623928360216
 10
6421.479090263864
 20
-930.9666299238561
 42
0.0
 97
        0
 92
        7
 72
     1
 73
     1
 93
        4
 10
6421.479090263864
 20
-967.6486542584152
 42
-0.2083623928360087
 10
6405.503673492328
 20
-967.6379448709594
 42
0.0
 10
6405.503673492328
 20
-1108.091346982105
 42
-0.2083623928359958
 10
6421.479090263864
 20
-1108.080637594649
 42
0.0
 97
        0
 92
        7
 72
     1
 73
     1
 93
        4
 10
6421.479090263864
 20
-1144.762661929208
 42
-0.2083623928359958
 10
6405.503673492328
 20
-1144.751952541753
 42
0.0
 10
6405.503673492328
 20
-1285.205354652898
 42
-0.2083623928360087
 10
6421.479090263864
 20
-1285.194645265442
 42
0.0
 97
        0
 92
        7
 72
     1
 73
     1
 93
        4
 10
6421.479090263864
 20
-1321.876669600001
 42
-0.2083623928360087
 10
6405.503673492328
 20
-1321.865960212544
 42
0.0
 10
6405.503673492328
 20
-1462.060044596501
 42
-0.2083623928360216
 10
6421.479090263864
 20
-1462.049335209045
 42
0.0
 97
        0
 92
        7
 72
     1
 73
     1
 93
        4
 10
6421.479090263864
 20
-1498.731359543602
 42
-0.2083623928360216
 10
6405.503673492328
 20
-1498.720650156147
 42
0.0
 10
6405.503673492328
 20
-1638.914734540103
 42
-0.2083623928360087
 10
6421.479090263864
 20
-1638.904025152647
 42
0.0
 97
        0
 92
        7
 72
     1
 73
     1
 93
        4
 10
6671.461379275061
 20
-613.9392743712096
 42
-0.2083623928360087
 10
6655.485962503516
 20
-613.9285649837529
 42
0.0
 10
6655.485962503516
 20
-754.1226493677095
 42
-0.2083623928359958
 10
6671.461379275061
 20
-754.1119399802537
 42
0.0
 97
        0
 92
        7
 72
     1
 73
     1
 93
        4
 10
6671.461379275061
 20
-790.7939643148129
 42
-0.2083623928359958
 10
6655.485962503516
 20
-790.7832549273571
 42
0.0
 10
6655.485962503516
 20
-930.9773393113118
 42
-0.2083623928360087
 10
6671.461379275061
 20
-930.9666299238561
 42
0.0
 97
        0
 92
        7
 72
     1
 73
     1
 93
        4
 10
6671.461379275061
 20
-967.6486542584152
 42
-0.2083623928360087
 10
6655.485962503516
 20
-967.6379448709594
 42
0.0
 10
6655.485962503516
 20
-1108.091346982106
 42
-0.2083623928360216
 10
6671.461379275061
 20
-1108.08063759465
 42
0.0
 97
        0
 92
        7
 72
     1
 73
     1
 93
        4
 10
6671.461379275061
 20
-1144.762661929207
 42
-0.2083623928360216
 10
6655.485962503516
 20
-1144.751952541751
 42
0.0
 10
6655.485962503516
 20
-1285.205354652898
 42
-0.2083623928360346
 10
6671.461379275061
 20
-1285.194645265443
 42
0.0
 97
        0
 92
        7
 72
     1
 73
     1
 93
        4
 10
6671.461379275061
 20
-1321.8766696
 42
-0.2083623928360346
 10
6655.485962503516
 20
-1321.865960212544
 42
0.0
 10
6655.485962503516
 20
-1462.060044596501
 42
-0.2083623928360346
 10
6671.461379275061
 20
-1462.049335209045
 42
0.0
 97
        0
 92
        7
 72
     1
 73
     1
 93
        4
 10
6671.461379275061
 20
-1498.731359543602
 42
-0.2083623928360346
 10
6655.485962503516
 20
-1498.720650156147
 42
0.0
 10
6655.485962503516
 20
-1638.914734540104
 42
-0.2083623928360346
 10
6671.461379275061
 20
-1638.904025152647
 42
0.0
 97
        0
 75
     0
 76
     1
 47
3.165779599533427
 98
       35
 10
6662.87825416131
 20
-469.341828294544
 10
6412.676391076267
 20
-488.3365015458602
 10
6162.474527991224
 20
-500.9996308087047
 10
5915.439803486457
 20
-478.8391752416774
 10
5665.237979736441
 20
-510.4969571128877
 10
5662.070841156172
 20
-725.7699687946897
 10
5662.070841156172
 20
-868.2300697869377
 10
5662.070841156172
 20
-1042.347952650396
 10
5665.237979736441
 20
-1219.631597186615
 10
5662.070841156172
 20
-1419.075717932812
 10
5662.070841156172
 20
-1574.198927544954
 10
5912.272704241208
 20
-668.7859490407409
 10
5915.439803486457
 20
-865.0642874712266
 10
5915.439803486457
 20
-1055.01106127029
 10
5915.439803486457
 20
-1241.792052753642
 10
5912.272704241208
 20
-1419.075717932812
 10
5912.272704241208
 20
-1542.541125030793
 10
6165.641666571501
 20
-687.7806222920571
 10
6162.474527991224
 20
-887.224743038254
 10
6162.474527991224
 20
-1023.353258756129
 10
6165.641666571501
 20
-1200.636923935299
 10
6165.641666571501
 20
-1393.749480050073
 10
6165.641666571501
 20
-1561.535798282109
 10
6409.509291831025
 20
-706.7752955433734
 10
6412.676391076267
 20
-871.3958521026489
 10
6409.509291831025
 20
-1048.679496638867
 10
6412.676391076267
 20
-1235.46050876517
 10
6412.676391076267
 20
-1384.25215374589
 10
6412.676391076267
 20
-1567.867362913531
 10
6659.711115581034
 20
-690.9464046077682
 10
6662.87825416131
 20
-877.7273960911207
 10
6659.711115581034
 20
-1058.176843586001
 10
6662.87825416131
 20
-1216.465814870904
 10
6662.87825416131
 20
-1387.417915418651
 10
6662.87825416131
 20
-1539.375342715082
  0
HATCH
  5
5D3
330
5BB
100
AcDbEntity
  8
0
 62
    50
100
AcDbHatch
 10
0.0
 20
0.0
 30
0.0
210
0.0
220
0.0
230
1.0
  2
SOLID
 70
     1
 71
     0
 91
        7
 92
        6
 72
     1
 73
     1
 93
        2
 10
5571.202454329919
 20
-305.6810432054753
 42
1.0
 10
5481.20245432992
 20
-305.6810432054753
 42
1.0
 97
        0
 92
        7
 72
     1
 73
     1
 93
        8
 10
5581.202454329919
 20
-255.6810432054753
 42
0.4142135623730951
 10
5576.202454329919
 20
-250.6810432054753
 42
0.0
 10
5476.20245432992
 20
-250.6810432054753
 42
0.4142135623730951
 10
5471.202454329919
 20
-255.6810432054753
 42
0.0
 10
5471.202454329919
 20
-355.6810432054735
 42
0.4142135623730977
 10
5476.20245432992
 20
-360.6810432054735
 42
0.0
 10
5576.202454329919
 20
-360.6810432054744
 42
0.4142135623730951
 10
5581.202454329919
 20
-355.6810432054744
 42
0.0
 97
        0
 92
       22
 72
     1
 73
     1
 93
        2
 10
5571.202454329919
 20
-305.6810432054753
 42
-1.0
 10
5481.20245432992
 20
-305.6810432054753
 42
-1.0
 97
        0
 92
        7
 72
     0
 73
     1
 93
        4
 10
6733.513855494689
 20
-288.1810432054753
 10
5593.697000031352
 20
-288.1810432054753
 10
5593.697000031352
 20
-323.1810432054753
 10
6733.513855494689
 20
-323.1810432054753
 97
        0
 92
        6
 72
     1
 73
     1
 93
        2
 10
6756.008401196123
 20
-305.6810432054753
 42
1.0
 10
6846.008401196122
 20
-305.6810432054753
 42
1.0
 97
        0
 92
        7
 72
     1
 73
     1
 93
        8
 10
6856.008401196122
 20
-255.6810432054753
 42
0.4142135623731217
 10
6851.008401196122
 20
-250.6810432054753
 42
0.0
 10
6751.008401196123
 20
-250.6810432054753
 42
0.4142135623730951
 10
6746.008401196123
 20
-255.6810432054753
 42
0.0
 10
6746.008401196123
 20
-355.6810432054735
 42
0.4142135623730977
 10
6751.008401196123
 20
-360.6810432054735
 42
0.0
 10
6851.008401196122
 20
-360.6810432054744
 42
0.4142135623730951
 10
6856.008401196122
 20
-355.6810432054744
 42
0.0
 97
        0
 92
       22
 72
     1
 73
     1
 93
        2
 10
6846.008401196122
 20
-305.6810432054753
 42
-1.0
 10
6756.008401196123
 20
-305.6810432054753
 42
-1.0
 97
        0
 75
     0
 76
     1
 47
4.034641405285192
 98
        7
 10
5530.991339125998
 20
-310.9596540860711
 10
5571.354704429941
 20
-270.6132335143938
 10
5571.354704429941
 20
-270.6132335143938
 10
5627.863486658513
 20
-306.9250099646105
 10
6822.619933557885
 20
-302.8903658431463
 10
6842.801635877375
 20
-266.5785893929296
 10
6842.801635877375
 20
-266.5785893929296
  0
LWPOLYLINE
  5
5D4
330
5BB
100
AcDbEntity
  8
0
100
AcDbPolyline
 90
        2
 70
     0
 43
0.0
 10
6746.017874350233
 20
-355.9886822805019
 10
5581.192981175809
 20
-355.9886822805019
  0
LINE
  5
5D5
102
{ACAD_REACTORS
330
5C5
102
}
330
5BB
100
AcDbEntity
  8
0
100
AcDbLine
 10
6733.513855494689
 20
-288.1810432054753
 30
0.0
 11
5593.697000031359
 21
-288.1810432054753
 31
0.0
  0
LINE
  5
5D6
330
5BB
100
AcDbEntity
  8
0
100
AcDbLine
 10
6733.513855494689
 20
-323.1810432054753
 30
0.0
 11
5593.697000031359
 21
-323.1810432054753
 31
0.0
  0
CIRCLE
  5
5D7
330
5BB
100
AcDbEntity
  8
0
100
AcDbCircle
 10
6163.521384481136
 20
-1657.245037319927
 30
0.0
 40
20.0
  0
CIRCLE
  5
5D8
330
5BB
100
AcDbEntity
  8
0
100
AcDbCircle
 10
6163.521384481136
 20
-1480.390347376324
 30
0.0
 40
20.0
  0
CIRCLE
  5
5D9
330
5BB
100
AcDbEntity
  8
0
100
AcDbCircle
 10
6163.521384481136
 20
-1303.535657432721
 30
0.0
 40
20.0
  0
CIRCLE
  5
5DA
330
5BB
100
AcDbEntity
  8
0
100
AcDbCircle
 10
6163.521384481136
 20
-1126.421649761929
 30
0.0
 40
20.0
  0
CIRCLE
  5
5DB
330
5BB
100
AcDbEntity
  8
0
100
AcDbCircle
 10
6163.521384481136
 20
-949.3076420911357
 30
0.0
 40
20.0
  0
CIRCLE
  5
5DC
330
5BB
100
AcDbEntity
  8
0
100
AcDbCircle
 10
6163.521384481136
 20
-772.4529521475333
 30
0.0
 40
20.0
  0
CIRCLE
  5
5DD
330
5BB
100
AcDbEntity
  8
0
100
AcDbCircle
 10
6163.521384481136
 20
-595.59826220393
 30
0.0
 40
20.0
  0
LINE
  5
5DE
330
5BB
100
AcDbEntity
  8
0
100
AcDbLine
 10
6155.521384481136
 20
-790.7832549273562
 30
0.0
 11
6155.521384481136
 21
-930.9773393113127
 31
0.0
  0
LINE
  5
5DF
330
5BB
100
AcDbEntity
  8
0
100
AcDbLine
 10
5921.514512241483
 20
-790.7939643148129
 30
0.0
 11
5921.514512241483
 21
-930.9666299238561
 31
0.0
  0
LINE
  5
5E0
330
5BB
100
AcDbEntity
  8
0
100
AcDbLine
 10
5905.53909546994
 20
-790.7832549273562
 30
0.0
 11
5905.53909546994
 21
-930.9773393113127
 31
0.0
  0
LINE
  5
5E1
330
5BB
100
AcDbEntity
  8
0
100
AcDbLine
 10
5671.532223230286
 20
-790.7939643148129
 30
0.0
 11
5671.532223230286
 21
-930.9666299238561
 31
0.0
  0
LINE
  5
5E2
330
5BB
100
AcDbEntity
  8
0
100
AcDbLine
 10
5655.55680645875
 20
-790.7832549273562
 30
0.0
 11
5655.55680645875
 21
-930.9773393113127
 31
0.0
  0
LINE
  5
5E3
330
5BB
100
AcDbEntity
  8
0
100
AcDbLine
 10
6155.521384481136
 20
-1321.865960212544
 30
0.0
 11
6155.521384481136
 21
-1462.060044596501
 31
0.0
  0
LINE
  5
5E4
330
5BB
100
AcDbEntity
  8
0
100
AcDbLine
 10
5921.514512241483
 20
-1321.876669600001
 30
0.0
 11
5921.514512241483
 21
-1462.049335209045
 31
0.0
  0
LINE
  5
5E5
330
5BB
100
AcDbEntity
  8
0
100
AcDbLine
 10
5905.53909546994
 20
-1321.865960212544
 30
0.0
 11
5905.53909546994
 21
-1462.060044596501
 31
0.0
  0
LINE
  5
5E6
330
5BB
100
AcDbEntity
  8
0
100
AcDbLine
 10
5671.532223230286
 20
-1321.8766696
 30
0.0
 11
5671.532223230286
 21
-1462.049335209044
 31
0.0
  0
LINE
  5
5E7
330
5BB
100
AcDbEntity
  8
0
100
AcDbLine
 10
5655.55680645875
 20
-1321.865960212544
 30
0.0
 11
5655.55680645875
 21
-1462.060044596501
 31
0.0
  0
LINE
  5
5E8
330
5BB
100
AcDbEntity
  8
0
100
AcDbLine
 10
5681.887109238574
 20
-1649.245037319927
 30
0.0
 11
5895.208792690115
 21
-1649.245037319927
 31
0.0
  0
LINE
  5
5E9
330
5BB
100
AcDbEntity
  8
0
100
AcDbLine
 10
5681.887109238574
 20
-1665.245037319927
 30
0.0
 11
5895.208792690115
 21
-1665.245037319927
 31
0.0
  0
LINE
  5
5EA
330
5BB
100
AcDbEntity
  8
0
100
AcDbLine
 10
5681.887109238574
 20
-1488.390347376324
 30
0.0
 11
5895.208792690115
 21
-1488.390347376324
 31
0.0
  0
LINE
  5
5EB
330
5BB
100
AcDbEntity
  8
0
100
AcDbLine
 10
5681.887109238574
 20
-1472.390347376324
 30
0.0
 11
5895.208792690115
 21
-1472.390347376324
 31
0.0
  0
LINE
  5
5EC
330
5BB
100
AcDbEntity
  8
0
100
AcDbLine
 10
5655.55680645875
 20
-1498.720650156147
 30
0.0
 11
5655.55680645875
 21
-1638.914734540103
 31
0.0
  0
LINE
  5
5ED
330
5BB
100
AcDbEntity
  8
0
100
AcDbLine
 10
5671.532223230286
 20
-1498.731359543603
 30
0.0
 11
5671.532223230286
 21
-1638.904025152647
 31
0.0
  0
LINE
  5
5EE
330
5BB
100
AcDbEntity
  8
0
100
AcDbLine
 10
5671.532223230286
 20
-1687.083845920751
 30
0.0
 11
5655.55680645875
 21
-1687.083845920751
 31
0.0
  0
LINE
  5
5EF
330
5BB
100
AcDbEntity
  8
0
100
AcDbLine
 10
5655.55680645875
 20
-1675.575340099751
 30
0.0
 11
5655.55680645875
 21
-1686.197246250251
 31
0.0
  0
LINE
  5
5F0
330
5BB
100
AcDbEntity
  8
0
100
AcDbLine
 10
5671.532223230286
 20
-1675.586049487206
 30
0.0
 11
5671.532223230286
 21
-1687.083845920751
 31
0.0
  0
CIRCLE
  5
5F1
330
5BB
100
AcDbEntity
  8
0
100
AcDbCircle
 10
5663.55680645875
 20
-1657.245037319927
 30
0.0
 40
20.0
  0
CIRCLE
  5
5F2
330
5BB
100
AcDbEntity
  8
0
100
AcDbCircle
 10
5663.55680645875
 20
-1480.390347376324
 30
0.0
 40
20.0
  0
LINE
  5
5F3
330
5BB
100
AcDbEntity
  8
0
100
AcDbLine
 10
6155.521384481136
 20
-1498.720650156147
 30
0.0
 11
6155.521384481136
 21
-1638.914734540103
 31
0.0
  0
LINE
  5
5F4
330
5BB
100
AcDbEntity
  8
0
100
AcDbLine
 10
5905.53909546994
 20
-1498.720650156147
 30
0.0
 11
5905.53909546994
 21
-1638.914734540103
 31
0.0
  0
LINE
  5
5F5
330
5BB
100
AcDbEntity
  8
0
100
AcDbLine
 10
5921.514512241483
 20
-1498.731359543602
 30
0.0
 11
5921.514512241483
 21
-1638.904025152647
 31
0.0
  0
LINE
  5
5F6
330
5BB
100
AcDbEntity
  8
0
100
AcDbLine
 10
5931.869398249764
 20
-1649.245037319927
 30
0.0
 11
6145.191081701312
 21
-1649.245037319927
 31
0.0
  0
LINE
  5
5F7
330
5BB
100
AcDbEntity
  8
0
100
AcDbLine
 10
5931.869398249764
 20
-1665.245037319927
 30
0.0
 11
6145.191081701312
 21
-1665.245037319927
 31
0.0
  0
CIRCLE
  5
5F8
330
5BB
100
AcDbEntity
  8
0
100
AcDbCircle
 10
5913.539095469939
 20
-1657.245037319927
 30
0.0
 40
20.0
  0
LINE
  5
5F9
330
5BB
100
AcDbEntity
  8
0
100
AcDbLine
 10
5931.869398249764
 20
-1472.390347376324
 30
0.0
 11
6145.191081701312
 21
-1472.390347376324
 31
0.0
  0
LINE
  5
5FA
330
5BB
100
AcDbEntity
  8
0
100
AcDbLine
 10
5931.869398249764
 20
-1488.390347376324
 30
0.0
 11
6145.191081701312
 21
-1488.390347376324
 31
0.0
  0
CIRCLE
  5
5FB
330
5BB
100
AcDbEntity
  8
0
100
AcDbCircle
 10
5913.539095469939
 20
-1480.390347376324
 30
0.0
 40
20.0
  0
LINE
  5
5FC
330
5BB
100
AcDbEntity
  8
0
100
AcDbLine
 10
6155.521384481136
 20
-1144.751952541751
 30
0.0
 11
6155.521384481136
 21
-1285.205354652898
 31
0.0
  0
LINE
  5
5FD
330
5BB
100
AcDbEntity
  8
0
100
AcDbLine
 10
5905.53909546994
 20
-1144.751952541751
 30
0.0
 11
5905.53909546994
 21
-1285.205354652898
 31
0.0
  0
LINE
  5
5FE
330
5BB
100
AcDbEntity
  8
0
100
AcDbLine
 10
5921.514512241483
 20
-1144.762661929207
 30
0.0
 11
5921.514512241483
 21
-1285.194645265442
 31
0.0
  0
LINE
  5
5FF
330
5BB
100
AcDbEntity
  8
0
100
AcDbLine
 10
5655.55680645875
 20
-1144.751952541751
 30
0.0
 11
5655.55680645875
 21
-1285.205354652898
 31
0.0
  0
LINE
  5
600
330
5BB
100
AcDbEntity
  8
0
100
AcDbLine
 10
5671.532223230286
 20
-1144.762661929207
 30
0.0
 11
5671.532223230286
 21
-1285.194645265443
 31
0.0
  0
LINE
  5
601
330
5BB
100
AcDbEntity
  8
0
100
AcDbLine
 10
5681.887109238574
 20
-1295.535657432721
 30
0.0
 11
5895.208792690115
 21
-1295.535657432721
 31
0.0
  0
LINE
  5
602
330
5BB
100
AcDbEntity
  8
0
100
AcDbLine
 10
5681.887109238574
 20
-1311.535657432721
 30
0.0
 11
5895.208792690115
 21
-1311.535657432721
 31
0.0
  0
CIRCLE
  5
603
330
5BB
100
AcDbEntity
  8
0
100
AcDbCircle
 10
5663.55680645875
 20
-1303.535657432721
 30
0.0
 40
20.0
  0
CIRCLE
  5
604
330
5BB
100
AcDbEntity
  8
0
100
AcDbCircle
 10
5913.539095469939
 20
-1303.535657432721
 30
0.0
 40
20.0
  0
LINE
  5
605
330
5BB
100
AcDbEntity
  8
0
100
AcDbLine
 10
5931.869398249764
 20
-1311.535657432721
 30
0.0
 11
6145.191081701312
 21
-1311.535657432721
 31
0.0
  0
LINE
  5
606
330
5BB
100
AcDbEntity
  8
0
100
AcDbLine
 10
5931.869398249764
 20
-1295.535657432721
 30
0.0
 11
6145.191081701312
 21
-1295.535657432721
 31
0.0
  0
LINE
  5
607
330
5BB
100
AcDbEntity
  8
0
100
AcDbLine
 10
5681.887109238574
 20
-1134.421649761929
 30
0.0
 11
5895.208792690115
 21
-1134.421649761929
 31
0.0
  0
LINE
  5
608
330
5BB
100
AcDbEntity
  8
0
100
AcDbLine
 10
5681.887109238574
 20
-1118.421649761929
 30
0.0
 11
5895.208792690115
 21
-1118.421649761929
 31
0.0
  0
LINE
  5
609
330
5BB
100
AcDbEntity
  8
0
100
AcDbLine
 10
5681.887109238574
 20
-941.3076420911357
 30
0.0
 11
5895.208792690115
 21
-941.3076420911357
 31
0.0
  0
LINE
  5
60A
330
5BB
100
AcDbEntity
  8
0
100
AcDbLine
 10
5681.887109238574
 20
-957.3076420911357
 30
0.0
 11
5895.208792690115
 21
-957.3076420911357
 31
0.0
  0
LINE
  5
60B
330
5BB
100
AcDbEntity
  8
0
100
AcDbLine
 10
5671.532223230286
 20
-967.6486542584152
 30
0.0
 11
5671.532223230286
 21
-1108.08063759465
 31
0.0
  0
LINE
  5
60C
330
5BB
100
AcDbEntity
  8
0
100
AcDbLine
 10
5655.55680645875
 20
-967.6379448709585
 30
0.0
 11
5655.55680645875
 21
-1108.091346982106
 31
0.0
  0
CIRCLE
  5
60D
330
5BB
100
AcDbEntity
  8
0
100
AcDbCircle
 10
5663.55680645875
 20
-1126.421649761929
 30
0.0
 40
20.0
  0
CIRCLE
  5
60E
330
5BB
100
AcDbEntity
  8
0
100
AcDbCircle
 10
5663.55680645875
 20
-949.3076420911357
 30
0.0
 40
20.0
  0
LINE
  5
60F
330
5BB
100
AcDbEntity
  8
0
100
AcDbLine
 10
6155.521384481136
 20
-967.6379448709585
 30
0.0
 11
6155.521384481136
 21
-1108.091346982106
 31
0.0
  0
LINE
  5
610
330
5BB
100
AcDbEntity
  8
0
100
AcDbLine
 10
5921.514512241483
 20
-967.6486542584152
 30
0.0
 11
5921.514512241483
 21
-1108.080637594649
 31
0.0
  0
LINE
  5
611
330
5BB
100
AcDbEntity
  8
0
100
AcDbLine
 10
5905.53909546994
 20
-967.6379448709585
 30
0.0
 11
5905.53909546994
 21
-1108.091346982106
 31
0.0
  0
LINE
  5
612
330
5BB
100
AcDbEntity
  8
0
100
AcDbLine
 10
5931.869398249764
 20
-1134.421649761929
 30
0.0
 11
6145.191081701312
 21
-1134.421649761929
 31
0.0
  0
LINE
  5
613
330
5BB
100
AcDbEntity
  8
0
100
AcDbLine
 10
5931.869398249764
 20
-1118.421649761929
 30
0.0
 11
6145.191081701312
 21
-1118.421649761929
 31
0.0
  0
CIRCLE
  5
614
330
5BB
100
AcDbEntity
  8
0
100
AcDbCircle
 10
5913.539095469939
 20
-1126.421649761929
 30
0.0
 40
20.0
  0
LINE
  5
615
330
5BB
100
AcDbEntity
  8
0
100
AcDbLine
 10
5931.869398249764
 20
-957.3076420911357
 30
0.0
 11
6145.191081701312
 21
-957.3076420911357
 31
0.0
  0
LINE
  5
616
330
5BB
100
AcDbEntity
  8
0
100
AcDbLine
 10
5931.869398249764
 20
-941.3076420911357
 30
0.0
 11
6145.191081701312
 21
-941.3076420911357
 31
0.0
  0
CIRCLE
  5
617
330
5BB
100
AcDbEntity
  8
0
100
AcDbCircle
 10
5913.539095469939
 20
-949.3076420911357
 30
0.0
 40
20.0
  0
HATCH
  5
618
330
5BB
100
AcDbEntity
  8
0
 62
    50
100
AcDbHatch
 10
0.0
 20
0.0
 30
0.0
210
0.0
220
0.0
230
1.0
  2
SOLID
 70
     1
 71
     0
 91
        1
 92
        7
 72
     0
 73
     1
 93
        4
 10
5293.304524954401
 20
-395.6968295467831
 10
5293.304524954401
 20
-375.6968295467886
 10
4693.304524954402
 20
-375.6968295467886
 10
4693.304524954402
 20
-395.6968295467831
 97
        0
 75
     0
 76
     1
 47
3.940977817969716
 98
        1
 10
5030.165666093125
 20
-385.8887768929144
  0
LWPOLYLINE
  5
619
102
{ACAD_REACTORS
330
5C5
102
}
330
5BB
100
AcDbEntity
  8
0
100
AcDbPolyline
 90
        2
 70
     0
 43
0.0
 10
5471.211927484037
 20
-355.9886822805019
 10
4394.295743827024
 20
-355.9886822805019
  0
LWPOLYLINE
  5
61A
330
5BB
100
AcDbEntity
  8
0
100
AcDbPolyline
 90
        4
 70
     1
 43
0.0
 10
4693.304524954402
 20
-395.6968295467831
 10
5293.304524954401
 20
-395.6968295467831
 10
5293.304524954401
 20
-375.6968295467832
 10
4693.304524954402
 20
-375.6968295467832
  0
LWPOLYLINE
  5
61B
102
{ACAD_REACTORS
330
5C5
102
}
330
5BB
100
AcDbEntity
  8
0
100
AcDbPolyline
 90
        8
 70
     1
 43
0.0
 10
4289.305216981142
 20
-360.6810432054735
 10
4389.305216981141
 20
-360.6810432054744
 42
0.4142135623730951
 10
4394.305216981141
 20
-355.6810432054744
 10
4394.305216981141
 20
-255.6810432054753
 42
0.4142135623730951
 10
4389.305216981141
 20
-250.6810432054753
 10
4289.305216981142
 20
-250.6810432054753
 42
0.4142135623730951
 10
4284.305216981141
 20
-255.6810432054753
 10
4284.305216981141
 20
-355.6810432054735
 42
0.4142135623730977
  0
CIRCLE
  5
61C
330
5BB
100
AcDbEntity
  8
0
100
AcDbCircle
 10
4339.305216981141
 20
-305.6810432054753
 30
0.0
 40
45.0
  0
HATCH
  5
61D
330
5BB
100
AcDbEntity
  8
0
 62
   150
100
AcDbHatch
 10
0.0
 20
0.0
 30
0.0
210
0.0
220
0.0
230
1.0
  2
SOLID
 70
     1
 71
     0
 91
        1
 92
        7
 72
     1
 73
     1
 93
        4
 10
5593.697000031352
 20
-288.1810432054753
 42
0.1461151352720345
 10
5581.202454329919
 20
-281.3380413956556
 42
0.0
 10
5581.202454329919
 20
-330.024045015295
 42
0.1461151352720346
 10
5593.697000031352
 20
-323.1810432054753
 42
0.0
 97
        0
 75
     0
 76
     1
 47
1.439580771632663
 98
        1
 10
5590.146716293443
 20
-307.5542245054002
  0
LINE
  5
61E
330
5BB
100
AcDbEntity
  8
0
100
AcDbLine
 10
5593.697000031352
 20
-288.1810432054753
 30
0.0
 11
5593.697000031352
 21
-323.1810432054753
 31
0.0
  0
LWPOLYLINE
  5
61F
102
{ACAD_REACTORS
330
5C5
102
}
330
5BB
100
AcDbEntity
  8
0
100
AcDbPolyline
 90
        8
 70
     1
 43
0.0
 10
5476.20245432992
 20
-360.6810432054735
 10
5576.202454329919
 20
-360.6810432054744
 42
0.4142135623730951
 10
5581.202454329919
 20
-355.6810432054744
 10
5581.202454329919
 20
-255.6810432054753
 42
0.4142135623730951
 10
5576.202454329919
 20
-250.6810432054753
 10
5476.20245432992
 20
-250.6810432054753
 42
0.4142135623730951
 10
5471.202454329919
 20
-255.6810432054753
 10
5471.202454329919
 20
-355.6810432054735
 42
0.4142135623730977
  0
CIRCLE
  5
620
330
5BB
100
AcDbEntity
  8
0
100
AcDbCircle
 10
5526.202454329919
 20
-305.6810432054753
 30
0.0
 40
45.0
  0
CIRCLE
  5
621
330
5BB
100
AcDbEntity
  8
0
100
AcDbCircle
 10
5913.539095469939
 20
-595.59826220393
 30
0.0
 40
20.0
  0
CIRCLE
  5
622
330
5BB
100
AcDbEntity
  8
0
100
AcDbCircle
 10
5663.55680645875
 20
-595.59826220393
 30
0.0
 40
20.0
  0
LINE
  5
623
330
5BB
100
AcDbEntity
  8
0
100
AcDbLine
 10
5681.887109238574
 20
-780.4529521475333
 30
0.0
 11
5895.208792690115
 21
-780.4529521475333
 31
0.0
  0
LINE
  5
624
330
5BB
100
AcDbEntity
  8
0
100
AcDbLine
 10
5681.887109238574
 20
-764.4529521475333
 30
0.0
 11
5895.208792690115
 21
-764.4529521475333
 31
0.0
  0
LINE
  5
625
330
5BB
100
AcDbEntity
  8
0
100
AcDbLine
 10
5681.887109238574
 20
-587.59826220393
 30
0.0
 11
5895.208792690115
 21
-587.59826220393
 31
0.0
  0
LINE
  5
626
330
5BB
100
AcDbEntity
  8
0
100
AcDbLine
 10
5681.887109238574
 20
-603.59826220393
 30
0.0
 11
5895.208792690115
 21
-603.59826220393
 31
0.0
  0
LINE
  5
627
330
5BB
100
AcDbEntity
  8
0
100
AcDbLine
 10
5655.55680645875
 20
-613.9285649837529
 30
0.0
 11
5655.55680645875
 21
-754.1226493677104
 31
0.0
  0
LINE
  5
628
330
5BB
100
AcDbEntity
  8
0
100
AcDbLine
 10
5671.532223230286
 20
-613.9392743712096
 30
0.0
 11
5671.532223230286
 21
-754.1119399802537
 31
0.0
  0
CIRCLE
  5
629
330
5BB
100
AcDbEntity
  8
0
100
AcDbCircle
 10
5663.55680645875
 20
-772.4529521475333
 30
0.0
 40
20.0
  0
LINE
  5
62A
330
5BB
100
AcDbEntity
  8
0
100
AcDbLine
 10
6155.521384481136
 20
-613.9285649837529
 30
0.0
 11
6155.521384481136
 21
-754.1226493677104
 31
0.0
  0
LINE
  5
62B
330
5BB
100
AcDbEntity
  8
0
100
AcDbLine
 10
5905.53909546994
 20
-613.9285649837529
 30
0.0
 11
5905.53909546994
 21
-754.1226493677104
 31
0.0
  0
LINE
  5
62C
330
5BB
100
AcDbEntity
  8
0
100
AcDbLine
 10
5921.514512241483
 20
-613.9392743712096
 30
0.0
 11
5921.514512241483
 21
-754.1119399802537
 31
0.0
  0
LINE
  5
62D
330
5BB
100
AcDbEntity
  8
0
100
AcDbLine
 10
5931.869398249764
 20
-780.4529521475333
 30
0.0
 11
6145.191081701312
 21
-780.4529521475333
 31
0.0
  0
LINE
  5
62E
330
5BB
100
AcDbEntity
  8
0
100
AcDbLine
 10
5931.869398249764
 20
-764.4529521475333
 30
0.0
 11
6145.191081701312
 21
-764.4529521475333
 31
0.0
  0
CIRCLE
  5
62F
330
5BB
100
AcDbEntity
  8
0
100
AcDbCircle
 10
5913.539095469939
 20
-772.4529521475333
 30
0.0
 40
20.0
  0
LINE
  5
630
330
5BB
100
AcDbEntity
  8
0
100
AcDbLine
 10
5931.869398249764
 20
-603.59826220393
 30
0.0
 11
6145.191081701312
 21
-603.59826220393
 31
0.0
  0
LINE
  5
631
330
5BB
100
AcDbEntity
  8
0
100
AcDbLine
 10
5931.869398249764
 20
-587.59826220393
 30
0.0
 11
6145.191081701312
 21
-587.59826220393
 31
0.0
  0
LINE
  5
632
330
5BB
100
AcDbEntity
  8
0
100
AcDbLine
 10
5655.55680645875
 20
-376.1240884862027
 30
0.0
 11
5655.55680645875
 21
-577.2679594241071
 31
0.0
  0
LINE
  5
633
330
5BB
100
AcDbEntity
  8
0
100
AcDbLine
 10
5671.532223230286
 20
-377.0106881567026
 30
0.0
 11
5671.532223230286
 21
-577.2572500366504
 31
0.0
  0
LINE
  5
634
330
5BB
100
AcDbEntity
  8
0
100
AcDbLine
 10
5581.202454329919
 20
-323.1810432054753
 30
0.0
 11
5581.177812494207
 21
-323.1810432054753
 31
0.0
  0
ARC
  5
635
330
5BB
100
AcDbEntity
  8
0
100
AcDbCircle
 10
5575.991457950411
 20
-305.6810432054753
 30
0.0
 40
24.89450181024313
100
AcDbArc
 50
282.0826920484418
 51
315.3345086951397
  0
LINE
  5
636
330
5BB
100
AcDbEntity
  8
0
100
AcDbLine
 10
6155.521384481136
 20
-376.1240884862027
 30
0.0
 11
6155.521384481136
 21
-577.2679594241071
 31
0.0
  0
LINE
  5
637
330
5BB
100
AcDbEntity
  8
0
100
AcDbLine
 10
5905.53909546994
 20
-376.1240884862027
 30
0.0
 11
5905.53909546994
 21
-577.2679594241071
 31
0.0
  0
LINE
  5
638
330
5BB
100
AcDbEntity
  8
0
100
AcDbLine
 10
5921.514512241483
 20
-377.0106881567026
 30
0.0
 11
5921.514512241483
 21
-577.2572500366504
 31
0.0
  0
LINE
  5
639
330
5BB
100
AcDbEntity
  8
0
100
AcDbLine
 10
5581.202454329919
 20
-288.1810432054753
 30
0.0
 11
5581.177812494207
 21
-288.1810432054753
 31
0.0
  0
ARC
  5
63A
102
{ACAD_REACTORS
330
5C5
102
}
330
5BB
100
AcDbEntity
  8
0
100
AcDbCircle
 10
5575.991457950411
 20
-305.6810432054753
 30
0.0
 40
24.89450181024313
100
AcDbArc
 50
44.66549130486022
 51
77.91730795155817
  0
LINE
  5
63B
330
5BB
100
AcDbEntity
  8
0
100
AcDbLine
 10
6655.485962503516
 20
-790.7832549273571
 30
0.0
 11
6655.485962503516
 21
-930.9773393113118
 31
0.0
  0
LINE
  5
63C
330
5BB
100
AcDbEntity
  8
0
100
AcDbLine
 10
6671.461379275061
 20
-790.7939643148129
 30
0.0
 11
6671.461379275061
 21
-930.9666299238561
 31
0.0
  0
LINE
  5
63D
330
5BB
100
AcDbEntity
  8
0
100
AcDbLine
 10
6405.503673492328
 20
-790.7832549273571
 30
0.0
 11
6405.503673492328
 21
-930.9773393113118
 31
0.0
  0
LINE
  5
63E
330
5BB
100
AcDbEntity
  8
0
100
AcDbLine
 10
6421.479090263864
 20
-790.7939643148129
 30
0.0
 11
6421.479090263864
 21
-930.9666299238561
 31
0.0
  0
LINE
  5
63F
330
5BB
100
AcDbEntity
  8
0
100
AcDbLine
 10
6171.496801252666
 20
-790.7939643148129
 30
0.0
 11
6171.496801252666
 21
-930.9666299238561
 31
0.0
  0
LINE
  5
640
330
5BB
100
AcDbEntity
  8
0
100
AcDbLine
 10
6655.485962503516
 20
-1321.865960212544
 30
0.0
 11
6655.485962503516
 21
-1462.060044596501
 31
0.0
  0
LINE
  5
641
330
5BB
100
AcDbEntity
  8
0
100
AcDbLine
 10
6671.461379275061
 20
-1321.8766696
 30
0.0
 11
6671.461379275061
 21
-1462.049335209045
 31
0.0
  0
LINE
  5
642
330
5BB
100
AcDbEntity
  8
0
100
AcDbLine
 10
6405.503673492328
 20
-1321.865960212544
 30
0.0
 11
6405.503673492328
 21
-1462.060044596501
 31
0.0
  0
LINE
  5
643
330
5BB
100
AcDbEntity
  8
0
100
AcDbLine
 10
6421.479090263864
 20
-1321.876669600001
 30
0.0
 11
6421.479090263864
 21
-1462.049335209045
 31
0.0
  0
LINE
  5
644
330
5BB
100
AcDbEntity
  8
0
100
AcDbLine
 10
6171.496801252666
 20
-1321.876669600002
 30
0.0
 11
6171.496801252666
 21
-1462.049335209044
 31
0.0
  0
LINE
  5
645
330
5BB
100
AcDbEntity
  8
0
100
AcDbLine
 10
6431.833976272152
 20
-1472.390347376324
 30
0.0
 11
6645.155659723693
 21
-1472.390347376324
 31
0.0
  0
LINE
  5
646
330
5BB
100
AcDbEntity
  8
0
100
AcDbLine
 10
6431.833976272152
 20
-1488.390347376324
 30
0.0
 11
6645.155659723693
 21
-1488.390347376324
 31
0.0
  0
LINE
  5
647
330
5BB
100
AcDbEntity
  8
0
100
AcDbLine
 10
6431.833976272152
 20
-1649.245037319927
 30
0.0
 11
6645.155659723693
 21
-1649.245037319927
 31
0.0
  0
LINE
  5
648
330
5BB
100
AcDbEntity
  8
0
100
AcDbLine
 10
6431.833976272152
 20
-1665.245037319927
 30
0.0
 11
6645.155659723693
 21
-1665.245037319927
 31
0.0
  0
LINE
  5
649
330
5BB
100
AcDbEntity
  8
0
100
AcDbLine
 10
6405.503673492328
 20
-1498.720650156147
 30
0.0
 11
6405.503673492328
 21
-1638.914734540103
 31
0.0
  0
LINE
  5
64A
330
5BB
100
AcDbEntity
  8
0
100
AcDbLine
 10
6421.479090263864
 20
-1498.731359543602
 30
0.0
 11
6421.479090263864
 21
-1638.904025152647
 31
0.0
  0
LINE
  5
64B
330
5BB
100
AcDbEntity
  8
0
100
AcDbLine
 10
6171.496801252666
 20
-1498.731359543603
 30
0.0
 11
6171.496801252666
 21
-1638.904025152647
 31
0.0
  0
LINE
  5
64C
330
5BB
100
AcDbEntity
  8
0
100
AcDbLine
 10
6181.851687260962
 20
-1649.245037319927
 30
0.0
 11
6395.173370712502
 21
-1649.245037319927
 31
0.0
  0
LINE
  5
64D
330
5BB
100
AcDbEntity
  8
0
100
AcDbLine
 10
6181.851687260962
 20
-1665.245037319927
 30
0.0
 11
6395.173370712502
 21
-1665.245037319927
 31
0.0
  0
CIRCLE
  5
64E
330
5BB
100
AcDbEntity
  8
0
100
AcDbCircle
 10
6413.503673492328
 20
-1657.245037319927
 30
0.0
 40
20.0
  0
LINE
  5
64F
330
5BB
100
AcDbEntity
  8
0
100
AcDbLine
 10
6181.851687260962
 20
-1472.390347376324
 30
0.0
 11
6395.173370712502
 21
-1472.390347376324
 31
0.0
  0
LINE
  5
650
330
5BB
100
AcDbEntity
  8
0
100
AcDbLine
 10
6181.851687260962
 20
-1488.390347376324
 30
0.0
 11
6395.173370712502
 21
-1488.390347376324
 31
0.0
  0
CIRCLE
  5
651
330
5BB
100
AcDbEntity
  8
0
100
AcDbCircle
 10
6413.503673492328
 20
-1480.390347376324
 30
0.0
 40
20.0
  0
LINE
  5
652
330
5BB
100
AcDbEntity
  8
0
100
AcDbLine
 10
6671.461379275061
 20
-1498.731359543602
 30
0.0
 11
6671.461379275061
 21
-1638.904025152647
 31
0.0
  0
LINE
  5
653
330
5BB
100
AcDbEntity
  8
0
100
AcDbLine
 10
6655.485962503516
 20
-1498.720650156147
 30
0.0
 11
6655.485962503516
 21
-1638.914734540103
 31
0.0
  0
LINE
  5
654
330
5BB
100
AcDbEntity
  8
0
100
AcDbLine
 10
6671.461379275061
 20
-1687.083845920751
 30
0.0
 11
6655.485962503516
 21
-1687.083845920751
 31
0.0
  0
LINE
  5
655
330
5BB
100
AcDbEntity
  8
0
100
AcDbLine
 10
6655.485962503516
 20
-1675.575340099751
 30
0.0
 11
6655.485962503516
 21
-1686.197246250251
 31
0.0
  0
LINE
  5
656
330
5BB
100
AcDbEntity
  8
0
100
AcDbLine
 10
6671.461379275061
 20
-1675.586049487206
 30
0.0
 11
6671.461379275061
 21
-1687.083845920751
 31
0.0
  0
CIRCLE
  5
657
330
5BB
100
AcDbEntity
  8
0
100
AcDbCircle
 10
6663.485962503518
 20
-1657.245037319927
 30
0.0
 40
20.0
  0
CIRCLE
  5
658
330
5BB
100
AcDbEntity
  8
0
100
AcDbCircle
 10
6663.485962503518
 20
-1480.390347376324
 30
0.0
 40
20.0
  0
LINE
  5
659
330
5BB
100
AcDbEntity
  8
0
100
AcDbLine
 10
6671.461379275061
 20
-1144.762661929207
 30
0.0
 11
6671.461379275061
 21
-1285.194645265443
 31
0.0
  0
LINE
  5
65A
330
5BB
100
AcDbEntity
  8
0
100
AcDbLine
 10
6655.485962503516
 20
-1144.751952541751
 30
0.0
 11
6655.485962503516
 21
-1285.205354652898
 31
0.0
  0
LINE
  5
65B
330
5BB
100
AcDbEntity
  8
0
100
AcDbLine
 10
6405.503673492328
 20
-1144.751952541751
 30
0.0
 11
6405.503673492328
 21
-1285.205354652898
 31
0.0
  0
LINE
  5
65C
330
5BB
100
AcDbEntity
  8
0
100
AcDbLine
 10
6421.479090263864
 20
-1144.762661929208
 30
0.0
 11
6421.479090263864
 21
-1285.194645265442
 31
0.0
  0
LINE
  5
65D
330
5BB
100
AcDbEntity
  8
0
100
AcDbLine
 10
6171.496801252666
 20
-1144.762661929209
 30
0.0
 11
6171.496801252666
 21
-1285.194645265441
 31
0.0
  0
LINE
  5
65E
330
5BB
100
AcDbEntity
  8
0
100
AcDbLine
 10
6431.833976272152
 20
-1311.535657432721
 30
0.0
 11
6645.155659723693
 21
-1311.535657432721
 31
0.0
  0
LINE
  5
65F
330
5BB
100
AcDbEntity
  8
0
100
AcDbLine
 10
6431.833976272152
 20
-1295.535657432721
 30
0.0
 11
6645.155659723693
 21
-1295.535657432721
 31
0.0
  0
CIRCLE
  5
660
330
5BB
100
AcDbEntity
  8
0
100
AcDbCircle
 10
6413.503673492328
 20
-1303.535657432721
 30
0.0
 40
20.0
  0
LINE
  5
661
330
5BB
100
AcDbEntity
  8
0
100
AcDbLine
 10
6181.851687260962
 20
-1311.535657432721
 30
0.0
 11
6395.173370712502
 21
-1311.535657432721
 31
0.0
  0
LINE
  5
662
330
5BB
100
AcDbEntity
  8
0
100
AcDbLine
 10
6181.851687260962
 20
-1295.535657432721
 30
0.0
 11
6395.173370712502
 21
-1295.535657432721
 31
0.0
  0
CIRCLE
  5
663
330
5BB
100
AcDbEntity
  8
0
100
AcDbCircle
 10
6663.485962503518
 20
-1303.535657432721
 30
0.0
 40
20.0
  0
LINE
  5
664
330
5BB
100
AcDbEntity
  8
0
100
AcDbLine
 10
6431.833976272152
 20
-941.3076420911357
 30
0.0
 11
6645.155659723693
 21
-941.3076420911357
 31
0.0
  0
LINE
  5
665
330
5BB
100
AcDbEntity
  8
0
100
AcDbLine
 10
6431.833976272152
 20
-957.3076420911357
 30
0.0
 11
6645.155659723693
 21
-957.3076420911357
 31
0.0
  0
LINE
  5
666
330
5BB
100
AcDbEntity
  8
0
100
AcDbLine
 10
6431.833976272152
 20
-1134.421649761929
 30
0.0
 11
6645.155659723693
 21
-1134.421649761929
 31
0.0
  0
LINE
  5
667
330
5BB
100
AcDbEntity
  8
0
100
AcDbLine
 10
6431.833976272152
 20
-1118.421649761929
 30
0.0
 11
6645.155659723693
 21
-1118.421649761929
 31
0.0
  0
LINE
  5
668
330
5BB
100
AcDbEntity
  8
0
100
AcDbLine
 10
6405.503673492328
 20
-967.6379448709594
 30
0.0
 11
6405.503673492328
 21
-1108.091346982106
 31
0.0
  0
LINE
  5
669
330
5BB
100
AcDbEntity
  8
0
100
AcDbLine
 10
6421.479090263864
 20
-967.6486542584152
 30
0.0
 11
6421.479090263864
 21
-1108.080637594649
 31
0.0
  0
LINE
  5
66A
330
5BB
100
AcDbEntity
  8
0
100
AcDbLine
 10
6171.496801252666
 20
-967.6486542584152
 30
0.0
 11
6171.496801252666
 21
-1108.080637594648
 31
0.0
  0
LINE
  5
66B
330
5BB
100
AcDbEntity
  8
0
100
AcDbLine
 10
6181.851687260962
 20
-1118.421649761929
 30
0.0
 11
6395.173370712502
 21
-1118.421649761929
 31
0.0
  0
LINE
  5
66C
330
5BB
100
AcDbEntity
  8
0
100
AcDbLine
 10
6181.851687260962
 20
-1134.421649761929
 30
0.0
 11
6395.173370712502
 21
-1134.421649761929
 31
0.0
  0
CIRCLE
  5
66D
330
5BB
100
AcDbEntity
  8
0
100
AcDbCircle
 10
6413.503673492328
 20
-1126.421649761929
 30
0.0
 40
20.0
  0
LINE
  5
66E
330
5BB
100
AcDbEntity
  8
0
100
AcDbLine
 10
6181.851687260962
 20
-957.3076420911357
 30
0.0
 11
6395.173370712502
 21
-957.3076420911357
 31
0.0
  0
LINE
  5
66F
330
5BB
100
AcDbEntity
  8
0
100
AcDbLine
 10
6181.851687260962
 20
-941.3076420911357
 30
0.0
 11
6395.173370712502
 21
-941.3076420911357
 31
0.0
  0
CIRCLE
  5
670
330
5BB
100
AcDbEntity
  8
0
100
AcDbCircle
 10
6413.503673492328
 20
-949.3076420911357
 30
0.0
 40
20.0
  0
LINE
  5
671
330
5BB
100
AcDbEntity
  8
0
100
AcDbLine
 10
6671.461379275061
 20
-967.6486542584152
 30
0.0
 11
6671.461379275061
 21
-1108.08063759465
 31
0.0
  0
LINE
  5
672
330
5BB
100
AcDbEntity
  8
0
100
AcDbLine
 10
6655.485962503516
 20
-967.6379448709594
 30
0.0
 11
6655.485962503516
 21
-1108.091346982106
 31
0.0
  0
CIRCLE
  5
673
330
5BB
100
AcDbEntity
  8
0
100
AcDbCircle
 10
6663.485962503518
 20
-1126.421649761929
 30
0.0
 40
20.0
  0
CIRCLE
  5
674
330
5BB
100
AcDbEntity
  8
0
100
AcDbCircle
 10
6663.485962503518
 20
-949.3076420911357
 30
0.0
 40
20.0
  0
LWPOLYLINE
  5
675
330
5BB
100
AcDbEntity
  8
0
100
AcDbPolyline
 90
        2
 70
     0
 43
0.0
 10
7996.748342068181
 20
-355.9886822805019
 10
6855.998928042012
 20
-355.9886822805019
  0
HATCH
  5
676
330
5BB
100
AcDbEntity
  8
0
 62
   150
100
AcDbHatch
 10
0.0
 20
0.0
 30
0.0
210
0.0
220
0.0
230
1.0
  2
SOLID
 70
     1
 71
     0
 91
        1
 92
        7
 72
     1
 73
     1
 93
        4
 10
6746.008401196123
 20
-281.3380413956556
 42
0.1461151352720345
 10
6733.513855494689
 20
-288.1810432054753
 42
0.0
 10
6733.513855494689
 20
-323.1810432054753
 42
0.1461151352720346
 10
6746.008401196123
 20
-330.024045015295
 42
0.0
 97
        0
 75
     0
 76
     1
 47
1.439580771632663
 98
        1
 10
6741.554579670264
 20
-312.8282107867271
  0
LINE
  5
677
330
5BB
100
AcDbEntity
  8
0
100
AcDbLine
 10
6733.513855494689
 20
-288.1810432054753
 30
0.0
 11
6733.513855494689
 21
-323.1810432054753
 31
0.0
  0
LWPOLYLINE
  5
678
102
{ACAD_REACTORS
330
5C5
102
}
330
5BB
100
AcDbEntity
  8
0
100
AcDbPolyline
 90
        8
 70
     1
 43
0.0
 10
6751.008401196123
 20
-360.6810432054735
 10
6851.008401196122
 20
-360.6810432054744
 42
0.4142135623730951
 10
6856.008401196122
 20
-355.6810432054744
 10
6856.008401196122
 20
-255.6810432054753
 42
0.4142135623730951
 10
6851.008401196122
 20
-250.6810432054753
 10
6751.008401196123
 20
-250.6810432054753
 42
0.4142135623730951
 10
6746.008401196123
 20
-255.6810432054753
 10
6746.008401196123
 20
-355.6810432054735
 42
0.4142135623730977
  0
CIRCLE
  5
679
330
5BB
100
AcDbEntity
  8
0
100
AcDbCircle
 10
6801.008401196122
 20
-305.6810432054753
 30
0.0
 40
45.0
  0
HATCH
  5
67A
330
5BB
100
AcDbEntity
  8
0
 62
    10
100
AcDbHatch
 10
0.0
 20
0.0
 30
0.0
210
0.0
220
0.0
230
1.0
  2
SOLID
 70
     1
 71
     0
 91
        2
 92
        7
 72
     1
 73
     1
 93
        2
 10
6837.216611505508
 20
-409.923612267612
 42
0.0
 10
6814.589194507542
 20
-409.923612267612
 42
0.3535533905932957
 97
        0
 92
        7
 72
     1
 73
     1
 93
        2
 10
6887.005615125993
 20
-409.923612267612
 42
0.0
 10
6864.378198128019
 20
-409.923612267612
 42
0.3535533905932957
 97
        0
 75
     0
 76
     1
 47
0.2019644302174783
 98
        2
 10
6822.910265411549
 20
-411.2760559816288
 10
6873.454087072722
 20
-411.4780059708336
  0
HATCH
  5
67B
330
5BB
100
AcDbEntity
  8
0
 62
    50
100
AcDbHatch
 10
0.0
 20
0.0
 30
0.0
210
0.0
220
0.0
230
1.0
  2
SOLID
 70
     1
 71
     0
 91
        2
 92
        7
 72
     1
 73
     1
 93
        4
 10
6843.902903006521
 20
-395.923612267612
 42
0.0
 10
6807.902903006521
 20
-395.923612267612
 42
0.2265409196609858
 10
6814.589194507542
 20
-409.923612267612
 42
0.0
 10
6837.216611505508
 20
-409.923612267612
 42
0.2265409196609922
 97
        0
 92
        7
 72
     1
 73
     1
 93
        4
 10
6893.691906627006
 20
-395.923612267612
 42
0.0
 10
6857.691906627007
 20
-395.923612267612
 42
0.2265409196609858
 10
6864.378198128019
 20
-409.923612267612
 42
0.0
 10
6887.005615125993
 20
-409.923612267612
 42
0.2265409196609858
 97
        0
 75
     0
 76
     1
 47
1.006774101677668
 98
        2
 10
6824.100543407985
 20
-406.2025553532894
 10
6874.491745154213
 20
-405.1957779921995
  0
HATCH
  5
67C
330
5BB
100
AcDbEntity
  8
0
 62
    50
100
AcDbHatch
 10
0.0
 20
0.0
 30
0.0
210
0.0
220
0.0
230
1.0
  2
SOLID
 70
     1
 71
     0
 91
        1
 92
        7
 72
     0
 73
     1
 93
        4
 10
6913.552294796755
 20
-375.6968295467886
 10
6788.561150291156
 20
-375.6968295467886
 10
6788.561150291156
 20
-395.923612267612
 10
6913.552294796755
 20
-395.923612267612
 97
        0
 75
     0
 76
     1
 47
2.431118613880594
 98
        1
 10
6867.07300122692
 20
-390.6099642772805
  0
LWPOLYLINE
  5
67D
330
5BB
100
AcDbEntity
  8
0
100
AcDbPolyline
 90
        2
 70
     0
 43
0.0
 10
6887.005615125993
 20
-409.923612267612
 10
6864.378198128019
 20
-409.923612267612
  0
ARC
  5
67E
330
5BB
100
AcDbEntity
  8
0
100
AcDbCircle
 10
6875.691906627006
 20
-395.923612267612
 30
0.0
 40
18.0
100
AcDbArc
 50
180.0
 51
0.0
  0
LWPOLYLINE
  5
67F
330
5BB
100
AcDbEntity
  8
0
100
AcDbPolyline
 90
        4
 70
     1
 43
0.0
 10
6913.552294796755
 20
-395.923612267612
 10
6788.561150291156
 20
-395.923612267612
 10
6788.561150291156
 20
-375.6968295467886
 10
6913.552294796755
 20
-375.6968295467886
  0
CIRCLE
  5
680
330
5BB
100
AcDbEntity
  8
0
100
AcDbCircle
 10
6663.485962503518
 20
-595.59826220393
 30
0.0
 40
20.0
  0
CIRCLE
  5
681
330
5BB
100
AcDbEntity
  8
0
100
AcDbCircle
 10
6413.503673492328
 20
-595.59826220393
 30
0.0
 40
20.0
  0
LINE
  5
682
330
5BB
100
AcDbEntity
  8
0
100
AcDbLine
 10
6431.833976272152
 20
-603.59826220393
 30
0.0
 11
6645.155659723693
 21
-603.59826220393
 31
0.0
  0
LINE
  5
683
330
5BB
100
AcDbEntity
  8
0
100
AcDbLine
 10
6431.833976272152
 20
-587.59826220393
 30
0.0
 11
6645.155659723693
 21
-587.59826220393
 31
0.0
  0
LINE
  5
684
330
5BB
100
AcDbEntity
  8
0
100
AcDbLine
 10
6431.833976272152
 20
-780.4529521475333
 30
0.0
 11
6645.155659723693
 21
-780.4529521475333
 31
0.0
  0
LINE
  5
685
330
5BB
100
AcDbEntity
  8
0
100
AcDbLine
 10
6431.833976272152
 20
-764.4529521475333
 30
0.0
 11
6645.155659723693
 21
-764.4529521475333
 31
0.0
  0
LINE
  5
686
330
5BB
100
AcDbEntity
  8
0
100
AcDbLine
 10
6405.503673492328
 20
-613.9285649837538
 30
0.0
 11
6405.503673492328
 21
-754.1226493677095
 31
0.0
  0
LINE
  5
687
330
5BB
100
AcDbEntity
  8
0
100
AcDbLine
 10
6421.479090263864
 20
-613.9392743712106
 30
0.0
 11
6421.479090263864
 21
-754.1119399802537
 31
0.0
  0
LINE
  5
688
330
5BB
100
AcDbEntity
  8
0
100
AcDbLine
 10
6171.496801252666
 20
-613.9392743712096
 30
0.0
 11
6171.496801252666
 21
-754.1119399802537
 31
0.0
  0
LINE
  5
689
330
5BB
100
AcDbEntity
  8
0
100
AcDbLine
 10
6181.851687260962
 20
-764.4529521475333
 30
0.0
 11
6395.173370712502
 21
-764.4529521475333
 31
0.0
  0
LINE
  5
68A
330
5BB
100
AcDbEntity
  8
0
100
AcDbLine
 10
6181.851687260962
 20
-780.4529521475333
 30
0.0
 11
6395.173370712502
 21
-780.4529521475333
 31
0.0
  0
CIRCLE
  5
68B
330
5BB
100
AcDbEntity
  8
0
100
AcDbCircle
 10
6413.503673492328
 20
-772.4529521475333
 30
0.0
 40
20.0
  0
LINE
  5
68C
330
5BB
100
AcDbEntity
  8
0
100
AcDbLine
 10
6181.851687260962
 20
-603.59826220393
 30
0.0
 11
6395.173370712502
 21
-603.59826220393
 31
0.0
  0
LINE
  5
68D
330
5BB
100
AcDbEntity
  8
0
100
AcDbLine
 10
6181.851687260962
 20
-587.59826220393
 30
0.0
 11
6395.173370712502
 21
-587.59826220393
 31
0.0
  0
LINE
  5
68E
330
5BB
100
AcDbEntity
  8
0
100
AcDbLine
 10
6655.485962503516
 20
-613.9285649837529
 30
0.0
 11
6655.485962503516
 21
-754.1226493677095
 31
0.0
  0
LINE
  5
68F
330
5BB
100
AcDbEntity
  8
0
100
AcDbLine
 10
6671.461379275061
 20
-613.9392743712096
 30
0.0
 11
6671.461379275061
 21
-754.1119399802537
 31
0.0
  0
CIRCLE
  5
690
330
5BB
100
AcDbEntity
  8
0
100
AcDbCircle
 10
6663.485962503518
 20
-772.4529521475333
 30
0.0
 40
20.0
  0
LINE
  5
691
330
5BB
100
AcDbEntity
  8
0
100
AcDbLine
 10
6405.503673492328
 20
-376.1240884862027
 30
0.0
 11
6405.503673492328
 21
-577.2679594241062
 31
0.0
  0
LINE
  5
692
330
5BB
100
AcDbEntity
  8
0
100
AcDbLine
 10
6421.479090263864
 20
-377.0106881567026
 30
0.0
 11
6421.479090263864
 21
-577.2572500366496
 31
0.0
  0
LINE
  5
693
330
5BB
100
AcDbEntity
  8
0
100
AcDbLine
 10
6171.496801252673
 20
-377.0106881567026
 30
0.0
 11
6171.496801252666
 21
-577.2572500366504
 31
0.0
  0
LINE
  5
694
330
5BB
100
AcDbEntity
  8
0
100
AcDbLine
 10
6655.485962503516
 20
-376.1240884862027
 30
0.0
 11
6655.485962503516
 21
-577.2679594241071
 31
0.0
  0
LINE
  5
695
330
5BB
100
AcDbEntity
  8
0
100
AcDbLine
 10
6671.461379275061
 20
-377.0106881567026
 30
0.0
 11
6671.461379275061
 21
-577.2572500366504
 31
0.0
  0
LINE
  5
696
330
5BB
100
AcDbEntity
  8
0
100
AcDbLine
 10
6855.998928042012
 20
-355.9886822805019
 30
0.0
 11
6855.998928042012
 21
-375.6968295467886
 31
0.0
  0
LWPOLYLINE
  5
697
330
5BB
100
AcDbEntity
  8
0
100
AcDbPolyline
 90
        2
 70
     0
 43
0.0
 10
6837.216611505508
 20
-409.923612267612
 10
6814.589194507542
 20
-409.923612267612
  0
ARC
  5
698
330
5BB
100
AcDbEntity
  8
0
100
AcDbCircle
 10
6825.902903006521
 20
-395.923612267612
 30
0.0
 40
18.0
100
AcDbArc
 50
180.0
 51
0.0
  0
ARC
  5
699
330
5BB
100
AcDbEntity
  8
0
100
AcDbCircle
 10
6751.219397575638
 20
-305.6810432054753
 30
0.0
 40
24.89450181024313
100
AcDbArc
 50
224.6654913048601
 51
257.9173079515581
  0
LINE
  5
69A
330
5BB
100
AcDbEntity
  8
0
100
AcDbLine
 10
6746.033043031842
 20
-323.1810432054753
 30
0.0
 11
6746.008401196123
 21
-323.1810432054753
 31
0.0
  0
ARC
  5
69B
102
{ACAD_REACTORS
330
5C5
102
}
330
5BB
100
AcDbEntity
  8
0
100
AcDbCircle
 10
6751.219397575638
 20
-305.6810432054753
 30
0.0
 40
24.89450181024313
100
AcDbArc
 50
102.0826920484418
 51
135.3345086951397
  0
LINE
  5
69C
330
5BB
100
AcDbEntity
  8
0
100
AcDbLine
 10
6746.033043031842
 20
-288.1810432054753
 30
0.0
 11
6746.008401196123
 21
-288.1810432054753
 31
0.0
  0
HATCH
  5
69D
330
5BB
100
AcDbEntity
  8
0
 62
    30
100
AcDbHatch
 10
0.0
 20
0.0
 30
0.0
210
0.0
220
0.0
230
1.0
  2
SOLID
 70
     1
 71
     1
 91
        1
 92
        7
 72
     1
 73
     1
 93
        9
 10
8106.748342068183
 20
-256.2150440278711
 42
0.4142135623730984
 10
8101.748342068182
 20
-251.215044027871
 42
0.0
 10
8001.748342068182
 20
-251.215044027871
 42
0.4142135623730951
 10
7996.748342068181
 20
-256.215044027871
 42
0.0
 10
7996.748342068181
 20
-356.2150440278692
 42
0.4142135623730977
 10
8001.748342068182
 20
-361.2150440278692
 42
0.0
 10
8101.748342068182
 20
-361.2150440278701
 42
2.338956242414826
 10
8096.753468660443
 20
-355.9886822805019
 42
0.0
 10
8106.748342068181
 20
-355.9886822805019
 42
0.0
 97
        2
330
69E
330
5C4
 75
     0
 76
     1
 47
0.6664528283696248
 98
        1
 10
8080.05238945994
 20
-314.9916653087175
  0
LWPOLYLINE
  5
69E
102
{ACAD_REACTORS
330
69D
102
}
330
5BB
100
AcDbEntity
  8
0
100
AcDbPolyline
 90
        8
 70
     1
 43
0.0
 10
8001.748342068182
 20
-361.2150440278692
 10
8101.748342068182
 20
-361.2150440278701
 42
0.4142135623730951
 10
8106.748342068183
 20
-356.2150440278701
 10
8106.748342068183
 20
-256.215044027871
 42
0.4142135623730951
 10
8101.748342068182
 20
-251.215044027871
 10
8001.748342068182
 20
-251.215044027871
 42
0.4142135623730951
 10
7996.748342068181
 20
-256.215044027871
 10
7996.748342068181
 20
-356.2150440278692
 42
0.4142135623730977
  0
HATCH
  5
69F
330
5BB
100
AcDbEntity
  8
0
 62
    50
100
AcDbHatch
 10
0.0
 20
0.0
 30
0.0
210
0.0
220
0.0
230
1.0
  2
SOLID
 70
     1
 71
     0
 91
        2
 92
        7
 72
     1
 73
     1
 93
        4
 10
8037.908231029891
 20
-410.4576130900086
 42
0.2265409196609985
 10
8044.594522530912
 20
-396.4576130900086
 42
0.0
 10
8008.594522530911
 20
-396.4576130900086
 42
0.2265409196609858
 10
8015.280814031925
 20
-410.4576130900086
 42
0.0
 97
        0
 92
        7
 72
     1
 73
     1
 93
        4
 10
8087.697234650375
 20
-410.4576130900086
 42
0.2265409196609858
 10
8094.383526151396
 20
-396.4576130900086
 42
0.0
 10
8058.383526151395
 20
-396.4576130900086
 42
0.2265409196609858
 10
8065.069817652409
 20
-410.4576130900086
 42
0.0
 97
        0
 75
     0
 76
     1
 47
0.5905904357064414
 98
        2
 10
8022.36032622747
 20
-403.815846973729
 10
8068.474433527482
 20
-404.4064211576378
  0
HATCH
  5
6A0
330
5BB
100
AcDbEntity
  8
0
 62
    50
100
AcDbHatch
 10
0.0
 20
0.0
 30
0.0
210
0.0
220
0.0
230
1.0
  2
SOLID
 70
     1
 71
     0
 91
        1
 92
        7
 72
     0
 73
     1
 93
        4
 10
8114.243914321138
 20
-396.4576130900077
 10
8114.243914321138
 20
-376.2308303691843
 10
7989.252769815546
 20
-376.2308303691843
 10
7989.252769815546
 20
-396.4576130900086
 97
        0
 75
     0
 76
     1
 47
2.431118613880594
 98
        1
 10
8050.976048923891
 20
-390.9056628738371
  0
ARC
  5
6A1
330
5BB
100
AcDbEntity
  8
0
100
AcDbCircle
 10
8076.383526151396
 20
-396.4576130900086
 30
0.0
 40
18.0
100
AcDbArc
 50
180.0
 51
0.0
  0
LWPOLYLINE
  5
6A2
330
5BB
100
AcDbEntity
  8
0
100
AcDbPolyline
 90
        4
 70
     1
 43
0.0
 10
8114.243914321138
 20
-396.4576130900086
 10
7989.252769815546
 20
-396.4576130900086
 10
7989.252769815546
 20
-376.2308303691852
 10
8114.243914321138
 20
-376.2308303691852
  0
HATCH
  5
6A3
330
5BB
100
AcDbEntity
  8
0
 62
    10
100
AcDbHatch
 10
0.0
 20
0.0
 30
0.0
210
0.0
220
0.0
230
1.0
  2
SOLID
 70
     1
 71
     0
 91
        2
 92
        7
 72
     1
 73
     1
 93
        2
 10
8015.280814031925
 20
-410.4576130900086
 42
0.3535533905932775
 10
8037.908231029891
 20
-410.4576130900086
 42
0.0
 97
        0
 92
        7
 72
     1
 73
     1
 93
        2
 10
8065.069817652409
 20
-410.4576130900086
 42
0.353553390593314
 10
8087.697234650383
 20
-410.4576130900086
 42
0.0
 97
        0
 75
     0
 76
     1
 47
0.2405395867282383
 98
        2
 10
8024.935983967283
 20
-411.6702214542465
 10
8072.853327030367
 20
-411.9107737617423
  0
LWPOLYLINE
  5
6A4
330
5BB
100
AcDbEntity
  8
0
100
AcDbPolyline
 90
        2
 70
     0
 43
0.0
 10
8037.908231029891
 20
-410.4576130900086
 10
8015.280814031925
 20
-410.4576130900086
  0
ARC
  5
6A5
330
5BB
100
AcDbEntity
  8
0
100
AcDbCircle
 10
8026.594522530912
 20
-396.4576130900086
 30
0.0
 40
18.0
100
AcDbArc
 50
180.0
 51
0.0
  0
LWPOLYLINE
  5
6A6
330
5BB
100
AcDbEntity
  8
0
100
AcDbPolyline
 90
        2
 70
     0
 43
0.0
 10
8087.697234650375
 20
-410.4576130900086
 10
8065.069817652409
 20
-410.4576130900086
  0
LINE
  5
6A7
102
{ACAD_REACTORS
330
6AA
102
}
330
5BB
100
AcDbEntity
  8
0
100
AcDbLine
 10
5039.722398121572
 20
1165.687740870769
 30
0.0
 11
2102.174218367741
 21
1165.687740870769
 31
0.0
  0
LINE
  5
6A8
102
{ACAD_REACTORS
330
6AA
102
}
330
5BB
100
AcDbEntity
  8
0
100
AcDbLine
 10
2101.65254905849
 20
1676.025027980755
 30
0.0
 11
5039.722398121572
 21
1676.025027980755
 31
0.0
  0
LWPOLYLINE
  5
6A9
102
{ACAD_REACTORS
330
6AA
330
5C5
102
}
330
5BB
100
AcDbEntity
  8
0
100
AcDbPolyline
 90
       38
 70
     0
 43
0.0
 10
5059.430545388015
 20
1696.251810701578
 10
5059.430545388015
 20
1756.413523409666
 10
5053.725555389836
 20
1770.416680677928
 10
5039.722398121572
 20
1776.121670676108
 10
2020.226782720827
 20
1776.121670676108
 10
2012.447250905119
 20
1774.565764312967
 10
2006.223625452563
 20
1770.416680677928
 10
2001.555906363137
 20
1764.193055225367
 10
2000.0
 20
1756.413523409666
 10
2000.0
 20
1696.251810701578
 10
2001.555906363137
 20
1688.472278885877
 10
2005.704989998179
 20
1682.248653433316
 10
2011.928615450742
 20
1677.580934343895
 10
2016.077699085784
 20
1676.543663435135
 10
2020.226782720827
 20
1676.025027980755
 10
2101.65254905849
 20
1676.025027980755
 10
2102.171184512874
 20
1165.687740870769
 10
2020.226782720827
 20
1165.687740870769
 10
2012.447250905119
 20
1164.131834507629
 10
2006.223625452563
 20
1159.982750872588
 10
2001.555906363137
 20
1153.759125420028
 10
2000.518635454383
 20
1149.610041784987
 10
2000.0
 20
1145.460958149947
 10
2000.0
 20
1085.817880896239
 10
2001.555906363137
 20
1078.038349080537
 10
2005.704989998179
 20
1071.296088173598
 10
2011.928615450742
 20
1067.147004538557
 10
2016.077699085784
 20
1066.109733629797
 10
2020.226782720827
 20
1065.591098175416
 10
5039.722398121572
 20
1065.591098175416
 10
5053.725555389836
 20
1071.296088173598
 10
5059.430545388015
 20
1085.817880896239
 10
5059.430545388015
 20
1145.460958149947
 10
5053.725555389836
 20
1159.982750872588
 10
5039.722398121572
 20
1165.687740870769
 10
5039.722398121572
 20
1676.025027980755
 10
5053.725555389836
 20
1682.248653433316
 10
5059.430545388015
 20
1696.251810701578
  0
HATCH
  5
6AA
330
5BB
100
AcDbEntity
  8
0
 62
    50
100
AcDbHatch
 10
0.0
 20
0.0
 30
0.0
210
0.0
220
0.0
230
1.0
  2
SOLID
 70
     1
 71
     1
 91
        4
 92
        7
 72
     0
 73
     1
 93
       18
 10
5039.722398121572
 20
1676.025027980755
 10
5053.725555389837
 20
1682.248653433316
 10
5059.430545388014
 20
1696.251810701574
 10
5059.430545388015
 20
1756.413523409668
 10
5053.725555389836
 20
1770.416680677928
 10
5039.722398121572
 20
1776.121670676108
 10
2020.226782720825
 20
1776.121670676107
 10
2012.44725090512
 20
1774.565764312968
 10
2006.223625452562
 20
1770.416680677928
 10
2001.555906363137
 20
1764.193055225367
 10
2000.0
 20
1756.413523409665
 10
2000.0
 20
1696.251810701577
 10
2001.555906363136
 20
1688.472278885877
 10
2005.704989998178
 20
1682.248653433316
 10
2011.928615450742
 20
1677.580934343896
 10
2016.077699085788
 20
1676.543663435134
 10
2020.22678272083
 20
1676.025027980755
 10
2101.65254905849
 20
1676.025027980755
 97
        2
330
6A9
330
6A8
 92
        7
 72
     1
 73
     1
 93
        6
 10
2101.652549058489
 20
1676.025027980755
 42
0.0
 10
2102.171184512874
 20
1165.687740870769
 42
0.0
 10
4319.471357436424
 20
1165.687740870769
 42
-0.2004301281480358
 10
4326.865859246667
 20
1183.393282951722
 42
0.0
 10
4326.865859246667
 20
1658.319485899813
 42
-0.2004301281479179
 10
4319.471357436425
 20
1676.025027980755
 42
0.0
 97
        6
330
6D0
330
6A8
330
6A9
330
6A7
330
6C4
330
6B4
 92
        7
 72
     0
 73
     1
 93
       19
 10
5039.722398121573
 20
1065.591098175417
 10
5053.725555389836
 20
1071.296088173598
 10
5059.430545388015
 20
1085.817880896236
 10
5059.430545388014
 20
1145.46095814995
 10
5053.725555389836
 20
1159.982750872588
 10
5039.722398121573
 20
1165.687740870769
 10
2102.174218367741
 20
1165.687740870769
 10
2020.226782720828
 20
1165.687740870769
 10
2012.447250905119
 20
1164.131834507629
 10
2006.223625452562
 20
1159.982750872588
 10
2001.555906363137
 20
1153.759125420029
 10
2000.518635454384
 20
1149.610041784989
 10
2000.0
 20
1145.460958149947
 10
2000.0
 20
1085.817880896239
 10
2001.555906363137
 20
1078.038349080537
 10
2005.704989998179
 20
1071.296088173598
 10
2011.928615450742
 20
1067.147004538557
 10
2016.077699085786
 20
1066.109733629796
 10
2020.226782720826
 20
1065.591098175416
 97
        2
330
6A9
330
6A7
 92
        7
 72
     1
 73
     1
 93
        6
 10
5039.722398121572
 20
1165.687740870769
 42
0.0
 10
5039.722398121572
 20
1676.025027980755
 42
0.0
 10
4369.26036105691
 20
1676.025027980755
 42
-0.2004301281479218
 10
4361.865859246667
 20
1658.319485899813
 42
0.0
 10
4361.865859246667
 20
1183.393282951722
 42
-0.2004301281480318
 10
4369.260361056909
 20
1165.687740870769
 42
0.0
 97
        6
330
6A8
330
6CD
330
6B5
330
6C7
330
6A7
330
6A9
 75
     0
 76
     1
 47
5.981913060574505
 98
        4
 10
3573.23987002061
 20
1718.374415949178
 10
3585.208732834748
 20
1467.134076096817
 10
3579.224301427682
 20
1096.255470324928
 10
4584.608659809862
 20
1371.423467489783
  0
LINE
  5
6AB
330
5BB
100
AcDbEntity
  8
0
 62
    30
100
AcDbLine
 10
2000.0
 20
1696.251810701578
 30
0.0
 11
2000.0
 21
1145.460958149947
 31
0.0
  0
HATCH
  5
6AC
330
5BB
100
AcDbEntity
  8
0
 62
   250
100
AcDbHatch
 10
0.0
 20
0.0
 30
0.0
210
0.0
220
0.0
230
1.0
  2
SOLID
 70
     1
 71
     0
 91
        1
 92
        7
 72
     1
 73
     1
 93
        6
 10
6746.008401196123
 20
2046.330742408123
 42
0.0
 10
5581.202454329919
 20
2046.330742408123
 42
0.0
 10
5581.202454329919
 20
2020.884740597462
 42
-0.1461151352720127
 10
5593.697000031352
 20
2014.041738787643
 42
0.0
 10
6733.513855494689
 20
2014.041738787643
 42
-0.1461151352720104
 10
6746.008401196123
 20
2020.884740597461
 42
0.0
 97
        0
 75
     0
 76
     1
 47
2.855411841492416
 98
        1
 10
6399.177707813404
 20
2027.782079692827
  0
HATCH
  5
6AD
330
5BB
100
AcDbEntity
  8
0
 62
   150
100
AcDbHatch
 10
0.0
 20
0.0
 30
0.0
210
0.0
220
0.0
230
1.0
  2
SOLID
 70
     1
 71
     0
 91
        2
 92
        7
 72
     1
 73
     1
 93
        4
 10
6746.00840119613
 20
2020.884740597462
 42
0.1461151352720383
 10
6733.513855494689
 20
2014.041738787643
 42
0.0
 10
6733.513855494689
 20
1979.041738787642
 42
0.1461151352720346
 10
6746.008401196123
 20
1972.198736977822
 42
0.0
 97
        0
 92
        7
 72
     1
 73
     1
 93
        4
 10
5593.697000031352
 20
2014.041738787642
 42
0.1461151352720345
 10
5581.202454329919
 20
2020.884740597462
 42
0.0
 10
5581.202454329919
 20
1972.198736977822
 42
0.1461151352720346
 10
5593.697000031352
 20
1979.041738787642
 42
0.0
 97
        0
 75
     0
 76
     1
 47
1.404298611130089
 98
        2
 10
6737.15163293852
 20
2001.132831163127
 10
5590.048546186306
 20
1988.4941427805
  0
HATCH
  5
6AE
330
5BB
100
AcDbEntity
  8
0
 62
   150
100
AcDbHatch
 10
0.0
 20
0.0
 30
0.0
210
0.0
220
0.0
230
1.0
  2
SOLID
 70
     1
 71
     0
 91
        4
 92
        7
 72
     1
 73
     1
 93
        3
 10
6653.19729669796
 20
2104.669291901376
 42
-0.3279150488505747
 10
6681.203611234487
 20
2066.557525128946
 42
0.0
 10
6705.060842135956
 20
2066.557525128946
 42
0.506120441764058
 97
        0
 92
        7
 72
     1
 73
     1
 93
        2
 10
6570.734259451528
 20
2066.557525128946
 42
1.0
 10
6490.864399477003
 20
2066.557525128946
 42
0.0
 97
        0
 92
        7
 72
     1
 73
     1
 93
        2
 10
6153.232718675572
 20
2066.557525128945
 42
1.0
 10
6073.362858701046
 20
2066.557525128946
 42
0.0
 97
        0
 92
        7
 72
     1
 73
     1
 93
        2
 10
5650.156327926911
 20
2066.557525128946
 42
0.0
 10
5730.026187901437
 20
2066.557525128946
 42
1.0
 97
        0
 75
     0
 76
     1
 47
1.714896853630235
 98
        4
 10
6692.407690260871
 20
2080.599042535259
 10
6534.472590104887
 20
2085.743740701445
 10
6112.167857223656
 20
2078.884150027513
 10
5682.996368885856
 20
2089.17352571694
  0
HATCH
  5
6AF
330
5BB
100
AcDbEntity
  8
0
 62
    10
100
AcDbHatch
 10
0.0
 20
0.0
 30
0.0
210
0.0
220
0.0
230
1.0
  2
SOLID
 70
     1
 71
     0
 91
        5
 92
        7
 72
     1
 73
     1
 93
        2
 10
6601.333751259961
 20
2066.557525128946
 42
0.0
 10
6681.203611234487
 20
2066.557525128946
 42
1.0
 97
        0
 92
        7
 72
     1
 73
     1
 93
        2
 10
6332.680585891081
 20
2066.557525128946
 42
0.0
 10
6412.550445865607
 20
2066.557525128946
 42
1.0
 97
        0
 92
        7
 72
     1
 73
     1
 93
        3
 10
6332.680585891081
 20
2066.557525128945
 42
-0.2347806031014872
 10
6348.498967249675
 20
2098.388181976213
 42
0.6197209406890485
 10
6284.447488633734
 20
2066.557525128946
 42
0.0
 97
        0
 92
        7
 72
     1
 73
     1
 93
        3
 10
6017.868865082375
 20
2066.557525128946
 42
0.0
 10
6062.471514159057
 20
2066.557525128946
 42
-0.2495685991122961
 10
6080.105119607979
 20
2099.685301343528
 42
0.6005523837754091
 97
        0
 92
        7
 72
     1
 73
     1
 93
        2
 10
5753.883418802928
 20
2066.557525128946
 42
0.0
 10
5833.753278777454
 20
2066.557525128946
 42
1.0
 97
        0
 75
     0
 76
     1
 47
1.714896853630235
 98
        5
 10
6640.907083339115
 20
2090.888418224686
 10
6352.503865518411
 20
2089.17352571694
 10
6311.30341144903
 20
2080.599042535259
 10
6041.783721965112
 20
2087.458633209191
 10
5798.014355609587
 20
2087.458633209191
  0
HATCH
  5
6B0
330
5BB
100
AcDbEntity
  8
0
 62
    50
100
AcDbHatch
 10
0.0
 20
0.0
 30
0.0
210
0.0
220
0.0
230
1.0
  2
SOLID
 70
     1
 71
     0
 91
        7
 92
        6
 72
     1
 73
     1
 93
        2
 10
5481.20245432992
 20
1996.541738787642
 42
1.0
 10
5571.202454329919
 20
1996.541738787642
 42
1.0
 97
        0
 92
        7
 72
     1
 73
     1
 93
        9
 10
5476.20245432992
 20
2051.541738787642
 42
0.426631858988264
 10
5471.206908260887
 20
2046.330742408123
 42
0.0
 10
5471.202454329919
 20
2046.330742408122
 42
0.0
 10
5471.202454329919
 20
1946.541738787644
 42
0.4142135623730977
 10
5476.20245432992
 20
1941.541738787644
 42
0.0
 10
5576.202454329919
 20
1941.541738787643
 42
0.4142135623730951
 10
5581.202454329919
 20
1946.541738787643
 42
0.0
 10
5581.202454329919
 20
2046.541738787642
 42
0.4142135623730951
 10
5576.202454329919
 20
2051.541738787642
 42
0.0
 97
        0
 92
       22
 72
     1
 73
     1
 93
        2
 10
5571.202454329919
 20
1996.541738787642
 42
-1.0
 10
5481.20245432992
 20
1996.541738787642
 42
-1.0
 97
        0
 92
        7
 72
     0
 73
     1
 93
        4
 10
6733.513855494689
 20
1979.041738787643
 10
6733.513855494689
 20
2014.041738787643
 10
5593.697000031352
 20
2014.041738787643
 10
5593.697000031359
 20
1979.041738787642
 97
        0
 92
        6
 72
     1
 73
     1
 93
        2
 10
6756.008401196123
 20
1996.541738787642
 42
1.0
 10
6846.008401196122
 20
1996.541738787642
 42
1.0
 97
        0
 92
        7
 72
     1
 73
     1
 93
       10
 10
6751.008401196123
 20
2051.541738787642
 42
0.426631858988264
 10
6746.01285512709
 20
2046.330742408123
 42
0.0
 10
6746.008401196123
 20
2046.330742408123
 42
0.0
 10
6746.008401196123
 20
1946.541738787644
 42
0.4266318589880403
 10
6751.219397575638
 20
1941.54619271861
 42
0.0
 10
6751.219397575638
 20
1941.541738787643
 42
0.0
 10
6850.797404816607
 20
1941.541738787642
 42
0.0
 10
6850.797404816607
 20
2046.330742408128
 42
0.0
 10
6856.003947265155
 20
2046.330742408128
 42
0.4266318589879813
 10
6851.008401196122
 20
2051.541738787642
 42
0.0
 97
        0
 92
       22
 72
     1
 73
     1
 93
        2
 10
6846.008401196122
 20
1996.541738787642
 42
-1.0
 10
6756.008401196123
 20
1996.541738787642
 42
-1.0
 97
        0
 75
     0
 76
     1
 47
3.662779241488303
 98
        7
 10
5539.211219601654
 20
2007.565995416707
 10
5568.525768434374
 20
2040.531012800178
 10
5568.525768434374
 20
2040.531012800178
 10
6667.8219986896
 20
1992.914867404962
 10
6792.408939400019
 20
2007.565995416707
 10
6759.430017877537
 20
2040.531012800178
 10
6759.430017877537
 20
2040.531012800178
  0
LWPOLYLINE
  5
6B1
330
5BB
100
AcDbEntity
  8
0
100
AcDbPolyline
 90
        2
 70
     0
 43
0.0
 10
6746.00840119613
 20
2046.330742408123
 10
5581.202454329919
 20
2046.330742408123
  0
LINE
  5
6B2
330
5BB
100
AcDbEntity
  8
0
100
AcDbLine
 10
6733.513855494689
 20
2014.041738787643
 30
0.0
 11
5593.697000031359
 21
2014.041738787643
 31
0.0
  0
LINE
  5
6B3
102
{ACAD_REACTORS
330
5C5
102
}
330
5BB
100
AcDbEntity
  8
0
100
AcDbLine
 10
6733.513855494689
 20
1979.041738787642
 30
0.0
 11
5593.697000031359
 21
1979.041738787642
 31
0.0
  0
LINE
  5
6B4
102
{ACAD_REACTORS
330
6AA
102
}
330
5BB
100
AcDbEntity
  8
0
100
AcDbLine
 10
4326.865859246667
 20
1658.319485899813
 30
0.0
 11
4326.865859246667
 21
1183.393282951723
 31
0.0
  0
LINE
  5
6B5
102
{ACAD_REACTORS
330
6AA
102
}
330
5BB
100
AcDbEntity
  8
0
100
AcDbLine
 10
4361.865859246667
 20
1658.319485899813
 30
0.0
 11
4361.865859246667
 21
1183.393282951721
 31
0.0
  0
HATCH
  5
6B6
330
5BB
100
AcDbEntity
  8
0
 62
    50
100
AcDbHatch
 10
0.0
 20
0.0
 30
0.0
210
0.0
220
0.0
230
1.0
  2
SOLID
 70
     1
 71
     0
 91
        4
 92
        7
 72
     0
 73
     1
 93
        4
 10
4361.865859246674
 20
1658.319485899812
 10
4326.865859246674
 20
1658.319485899812
 10
4326.865859246667
 20
1183.393282951723
 10
4361.865859246667
 20
1183.393282951722
 97
        0
 92
        7
 72
     0
 73
     1
 93
        4
 10
4361.865859246667
 20
1928.52855763183
 10
4326.865859246667
 20
1928.528557631829
 10
4326.865859246667
 20
1776.121670676109
 10
4361.865859246667
 20
1776.121670676109
 97
        0
 92
        7
 72
     0
 73
     1
 93
        4
 10
4362.250889252282
 20
1065.591098175416
 10
4327.250889252282
 20
1065.591098175415
 10
4327.250889252282
 20
913.1842112197064
 10
4362.250889252282
 20
913.1842112197055
 97
        0
 92
        7
 72
     0
 73
     1
 93
        4
 10
5293.304524954401
 20
2086.557525128944
 10
4693.304524954402
 20
2086.557525128946
 10
4693.304524954402
 20
2066.557525128945
 10
5293.304524954401
 20
2066.557525128945
 97
        0
 75
     0
 76
     1
 47
5.981913060574505
 98
        4
 10
4345.231403527185
 20
1431.242590128074
 10
4339.246972120112
 20
1855.958424853082
 10
4333.262540713047
 20
988.5810330616459
 10
4865.876896606991
 20
2077.289213707774
  0
LWPOLYLINE
  5
6B7
102
{ACAD_REACTORS
330
5C5
102
}
330
5BB
100
AcDbEntity
  8
0
100
AcDbPolyline
 90
        8
 70
     1
 43
0.0
 10
4284.637497891715
 20
790.1710300638961
 10
4384.637497891715
 20
790.1710300638951
 42
0.4142135623730951
 10
4389.637497891715
 20
795.1710300638951
 10
4389.637497891715
 20
895.1710300638943
 42
0.4142135623730951
 10
4384.637497891715
 20
900.1710300638942
 10
4284.637497891715
 20
900.1710300638942
 42
0.4142135623730951
 10
4279.637497891715
 20
895.1710300638943
 10
4279.637497891715
 20
795.1710300638961
 42
0.4142135623730977
  0
LWPOLYLINE
  5
6B8
330
5BB
100
AcDbEntity
  8
0
100
AcDbPolyline
 90
        4
 70
     0
 43
0.0
 10
4279.637497891715
 20
855.5437391514951
 10
4192.79070111877
 20
855.5437391514951
 10
4192.79070111877
 20
875.2518864179373
 10
4279.637497891715
 20
875.2518864179373
  0
CIRCLE
  5
6B9
330
5BB
100
AcDbEntity
  8
0
100
AcDbCircle
 10
4334.637497891715
 20
845.1710300638943
 30
0.0
 40
45.0
  0
HATCH
  5
6BA
330
5BB
100
AcDbEntity
  8
0
 62
    70
100
AcDbHatch
 10
0.0
 20
0.0
 30
0.0
210
0.0
220
0.0
230
1.0
  2
SOLID
 70
     1
 71
     0
 91
        1
 92
        7
 72
     0
 73
     1
 93
        4
 10
4279.637497891715
 20
855.5437391514951
 10
4192.790701118763
 20
855.5437391514951
 10
4192.790701118763
 20
835.3169564306726
 10
4279.637497891715
 20
835.3169564306726
 97
        0
 75
     0
 76
     1
 47
1.526646224594518
 98
        1
 10
4230.788216910673
 20
846.5306023199772
  0
LWPOLYLINE
  5
6BB
330
5BB
100
AcDbEntity
  8
0
100
AcDbPolyline
 90
        4
 70
     0
 43
0.0
 10
4279.637497891715
 20
835.3169564306726
 10
4192.79070111877
 20
835.3169564306726
 10
4192.79070111877
 20
855.5437391514951
 10
4279.637497891715
 20
855.5437391514951
  0
LWPOLYLINE
  5
6BC
330
5BB
100
AcDbEntity
  8
0
100
AcDbPolyline
 90
        4
 70
     0
 43
0.0
 10
4279.637497891715
 20
815.0901737098502
 10
4192.79070111877
 20
815.0901737098502
 10
4192.79070111877
 20
835.3169564306726
 10
4279.637497891715
 20
835.3169564306726
  0
LINE
  5
6BD
330
5BB
100
AcDbEntity
  8
0
100
AcDbLine
 10
4327.250889252282
 20
1065.591098175416
 30
0.0
 11
4327.250889252282
 21
913.1842112197073
 31
0.0
  0
LINE
  5
6BE
102
{ACAD_REACTORS
330
5C5
102
}
330
5BB
100
AcDbEntity
  8
0
100
AcDbLine
 10
4362.250889252282
 20
1065.591098175416
 30
0.0
 11
4362.250889252282
 21
913.1842112197055
 31
0.0
  0
HATCH
  5
6BF
330
5BB
100
AcDbEntity
  8
0
 62
   150
100
AcDbHatch
 10
0.0
 20
0.0
 30
0.0
210
0.0
220
0.0
230
1.0
  2
SOLID
 70
     1
 71
     0
 91
        1
 92
        7
 72
     1
 73
     1
 93
        4
 10
4362.250889252282
 20
913.1842112197055
 42
0.0
 10
4327.250889252282
 20
913.1842112197073
 42
0.1515475086384864
 10
4320.302617956985
 20
900.1710300638942
 42
0.0
 10
4369.199160547577
 20
900.1710300638942
 42
0.1515475086384554
 97
        0
 75
     0
 76
     1
 47
0.1635226934754627
 98
        1
 10
4346.167323091642
 20
905.6312261177936
  0
ARC
  5
6C0
102
{ACAD_REACTORS
330
5C5
102
}
330
5BB
100
AcDbEntity
  8
0
100
AcDbCircle
 10
4344.750889252281
 20
895.4786691387589
 30
0.0
 40
24.89450181024313
100
AcDbArc
 50
10.86466670754254
 51
45.3345086951265
  0
LINE
  5
6C1
330
5BB
100
AcDbEntity
  8
0
100
AcDbLine
 10
4327.250889252282
 20
913.1842112197073
 30
0.0
 11
4362.250889252282
 21
913.1842112197055
 31
0.0
  0
ARC
  5
6C2
330
5BB
100
AcDbEntity
  8
0
100
AcDbCircle
 10
4344.750889252281
 20
895.4786691387589
 30
0.0
 40
24.89450181024313
100
AcDbArc
 50
134.6654913048734
 51
169.1353332924574
  0
HATCH
  5
6C3
330
5BB
100
AcDbEntity
  8
0
 62
   150
100
AcDbHatch
 10
0.0
 20
0.0
 30
0.0
210
0.0
220
0.0
230
1.0
  2
SOLID
 70
     1
 71
     0
 91
        1
 92
        7
 72
     1
 73
     1
 93
        4
 10
4361.865859246667
 20
1183.393282951721
 42
0.0
 10
4326.865859246667
 20
1183.393282951723
 42
0.2004301281480497
 10
4319.471357436428
 20
1165.687740870769
 42
0.0
 10
4369.260361056912
 20
1165.687740870769
 42
0.2004301281480227
 97
        0
 75
     0
 76
     1
 47
0.0794923070536937
 98
        1
 10
4353.247049156518
 20
1176.423231566652
  0
ARC
  5
6C4
102
{ACAD_REACTORS
330
6AA
102
}
330
5BB
100
AcDbEntity
  8
0
100
AcDbCircle
 10
4344.365859246667
 20
1165.687740870775
 30
0.0
 40
24.89450181024313
100
AcDbArc
 50
134.6654913048734
 51
180.0
  0
LINE
  5
6C5
330
5BB
100
AcDbEntity
  8
0
100
AcDbLine
 10
4361.865859246667
 20
1183.393282951721
 30
0.0
 11
4326.865859246667
 21
1183.393282951723
 31
0.0
  0
LINE
  5
6C6
330
5BB
100
AcDbEntity
  8
0
100
AcDbLine
 10
4369.260361056912
 20
1165.687740870775
 30
0.0
 11
4319.471357436428
 21
1165.687740870775
 31
0.0
  0
ARC
  5
6C7
102
{ACAD_REACTORS
330
6AA
102
}
330
5BB
100
AcDbEntity
  8
0
100
AcDbCircle
 10
4344.365859246667
 20
1165.687740870775
 30
0.0
 40
24.89450181024313
100
AcDbArc
 50
0.0
 51
45.3345086951265
  0
LWPOLYLINE
  5
6C8
330
5BB
100
AcDbEntity
  8
0
100
AcDbPolyline
 90
        4
 70
     1
 43
0.0
 10
4693.304524954402
 20
2066.557525128945
 10
5293.304524954401
 20
2066.557525128945
 10
5293.304524954401
 20
2086.557525128945
 10
4693.304524954402
 20
2086.557525128945
  0
LWPOLYLINE
  5
6C9
102
{ACAD_REACTORS
330
5C5
102
}
330
5BB
100
AcDbEntity
  8
0
100
AcDbPolyline
 90
        2
 70
     0
 43
0.0
 10
5471.202454329919
 20
2046.330742408123
 10
4394.305216981141
 20
2046.330742408123
  0
LWPOLYLINE
  5
6CA
102
{ACAD_REACTORS
330
5C5
102
}
330
5BB
100
AcDbEntity
  8
0
100
AcDbPolyline
 90
        8
 70
     1
 43
0.0
 10
4289.305216981142
 20
1941.541738787644
 10
4389.305216981141
 20
1941.541738787643
 42
0.4142135623730951
 10
4394.305216981141
 20
1946.541738787643
 10
4394.305216981141
 20
2046.541738787642
 42
0.4142135623730951
 10
4389.305216981141
 20
2051.541738787642
 10
4289.305216981142
 20
2051.541738787642
 42
0.4142135623730951
 10
4284.305216981141
 20
2046.541738787642
 10
4284.305216981141
 20
1946.541738787644
 42
0.4142135623730977
  0
CIRCLE
  5
6CB
330
5BB
100
AcDbEntity
  8
0
100
AcDbCircle
 10
4339.305216981141
 20
1996.541738787642
 30
0.0
 40
45.0
  0
HATCH
  5
6CC
330
5BB
100
AcDbEntity
  8
0
 62
   150
100
AcDbHatch
 10
0.0
 20
0.0
 30
0.0
210
0.0
220
0.0
230
1.0
  2
SOLID
 70
     1
 71
     0
 91
        1
 92
        7
 72
     1
 73
     1
 93
        4
 10
4369.260361056912
 20
1676.025027980755
 42
0.0
 10
4319.471357436428
 20
1676.025027980755
 42
0.2004301281479183
 10
4326.865859246667
 20
1658.319485899813
 42
0.0
 10
4361.865859246667
 20
1658.319485899813
 42
0.2004301281479223
 97
        0
 75
     0
 76
     1
 47
0.1180199066885595
 98
        1
 10
4339.997128547191
 20
1667.780018763398
  0
ARC
  5
6CD
102
{ACAD_REACTORS
330
6AA
102
}
330
5BB
100
AcDbEntity
  8
0
100
AcDbCircle
 10
4344.365859246667
 20
1676.02502798076
 30
0.0
 40
24.89450181024313
100
AcDbArc
 50
314.6654913048735
 51
0.0
  0
LINE
  5
6CE
330
5BB
100
AcDbEntity
  8
0
100
AcDbLine
 10
4319.471357436428
 20
1676.02502798076
 30
0.0
 11
4369.260361056912
 21
1676.02502798076
 31
0.0
  0
LINE
  5
6CF
330
5BB
100
AcDbEntity
  8
0
100
AcDbLine
 10
4326.865859246667
 20
1658.319485899813
 30
0.0
 11
4361.865859246667
 21
1658.319485899813
 31
0.0
  0
ARC
  5
6D0
102
{ACAD_REACTORS
330
6AA
102
}
330
5BB
100
AcDbEntity
  8
0
100
AcDbCircle
 10
4344.365859246667
 20
1676.02502798076
 30
0.0
 40
24.89450181024313
100
AcDbArc
 50
180.0
 51
225.3345086951265
  0
LINE
  5
6D1
102
{ACAD_REACTORS
330
5C5
102
}
330
5BB
100
AcDbEntity
  8
0
100
AcDbLine
 10
4361.865859246667
 20
1928.52855763183
 30
0.0
 11
4361.865859246674
 21
1776.121670676108
 31
0.0
  0
LINE
  5
6D2
330
5BB
100
AcDbEntity
  8
0
100
AcDbLine
 10
4326.865859246667
 20
1928.528557631829
 30
0.0
 11
4326.865859246667
 21
1776.121670676108
 31
0.0
  0
HATCH
  5
6D3
330
5BB
100
AcDbEntity
  8
0
 62
   150
100
AcDbHatch
 10
0.0
 20
0.0
 30
0.0
210
0.0
220
0.0
230
1.0
  2
SOLID
 70
     1
 71
     0
 91
        1
 92
        7
 72
     1
 73
     1
 93
        4
 10
4368.81413054197
 20
1941.541738787643
 42
0.0
 10
4319.917587951372
 20
1941.541738787644
 42
0.1515475086385052
 10
4326.865859246667
 20
1928.528557631828
 42
0.0
 10
4361.865859246667
 20
1928.528557631829
 42
0.151547508638483
 97
        0
 75
     0
 76
     1
 47
0.1372986146946483
 98
        1
 10
4347.060798862003
 20
1936.054227053862
  0
ARC
  5
6D4
102
{ACAD_REACTORS
330
5C5
102
}
330
5BB
100
AcDbEntity
  8
0
100
AcDbCircle
 10
4344.365859246667
 20
1946.234099712775
 30
0.0
 40
24.89450181024313
100
AcDbArc
 50
314.6654913048735
 51
349.1353332924574
  0
LINE
  5
6D5
330
5BB
100
AcDbEntity
  8
0
100
AcDbLine
 10
4326.865859246667
 20
1928.528557631828
 30
0.0
 11
4361.865859246667
 21
1928.528557631829
 31
0.0
  0
LINE
  5
6D6
330
5BB
100
AcDbEntity
  8
0
100
AcDbLine
 10
4361.865859246667
 20
1941.566380623355
 30
0.0
 11
4361.865859246667
 21
1941.541738787643
 31
0.0
  0
LINE
  5
6D7
330
5BB
100
AcDbEntity
  8
0
100
AcDbLine
 10
4326.865859246667
 20
1941.566380623355
 30
0.0
 11
4326.865859246667
 21
1941.541738787644
 31
0.0
  0
ARC
  5
6D8
330
5BB
100
AcDbEntity
  8
0
100
AcDbCircle
 10
4344.365859246667
 20
1946.234099712775
 30
0.0
 40
24.89450181024313
100
AcDbArc
 50
190.8646667075425
 51
225.3345086951265
  0
ARC
  5
6D9
330
5BB
100
AcDbEntity
  8
0
100
AcDbCircle
 10
5575.991457950411
 20
1996.541738787642
 30
0.0
 40
24.89450181024313
100
AcDbArc
 50
44.66549130486022
 51
77.91730795155817
  0
LWPOLYLINE
  5
6DA
102
{ACAD_REACTORS
330
5C5
102
}
330
5BB
100
AcDbEntity
  8
0
100
AcDbPolyline
 90
        8
 70
     1
 43
0.0
 10
5476.20245432992
 20
1941.541738787644
 10
5576.202454329919
 20
1941.541738787643
 42
0.4142135623730951
 10
5581.202454329919
 20
1946.541738787643
 10
5581.202454329919
 20
2046.541738787642
 42
0.4142135623730951
 10
5576.202454329919
 20
2051.541738787642
 10
5476.20245432992
 20
2051.541738787642
 42
0.4142135623730951
 10
5471.202454329919
 20
2046.541738787642
 10
5471.202454329919
 20
1946.541738787644
 42
0.4142135623730977
  0
CIRCLE
  5
6DB
330
5BB
100
AcDbEntity
  8
0
100
AcDbCircle
 10
5526.202454329919
 20
1996.541738787642
 30
0.0
 40
45.0
  0
LINE
  5
6DC
330
5BB
100
AcDbEntity
  8
0
100
AcDbLine
 10
5581.202454329919
 20
2014.041738787642
 30
0.0
 11
5581.177812494207
 21
2014.041738787642
 31
0.0
  0
LINE
  5
6DD
330
5BB
100
AcDbEntity
  8
0
100
AcDbLine
 10
5581.202454329919
 20
1979.041738787642
 30
0.0
 11
5581.177812494207
 21
1979.041738787642
 31
0.0
  0
LINE
  5
6DE
330
5BB
100
AcDbEntity
  8
0
100
AcDbLine
 10
5593.697000031352
 20
2014.041738787642
 30
0.0
 11
5593.697000031352
 21
1979.041738787642
 31
0.0
  0
ARC
  5
6DF
102
{ACAD_REACTORS
330
5C5
102
}
330
5BB
100
AcDbEntity
  8
0
100
AcDbCircle
 10
5575.991457950411
 20
1996.541738787642
 30
0.0
 40
24.89450181024313
100
AcDbArc
 50
282.0826920484418
 51
315.3345086951397
  0
ARC
  5
6E0
330
5BB
100
AcDbEntity
  8
0
100
AcDbCircle
 10
5793.818348790192
 20
2066.557525128946
 30
0.0
 40
39.93492998726469
100
AcDbArc
 50
0.0
 51
180.0
  0
ARC
  5
6E1
330
5BB
100
AcDbEntity
  8
0
100
AcDbCircle
 10
5690.091257914173
 20
2066.557525128946
 30
0.0
 40
39.93492998726469
100
AcDbArc
 50
0.0
 51
180.0
  0
HATCH
  5
6E2
330
5BB
100
AcDbEntity
  8
0
 62
    50
100
AcDbHatch
 10
0.0
 20
0.0
 30
0.0
210
0.0
220
0.0
230
1.0
  2
SOLID
 70
     1
 71
     0
 91
        2
 92
        7
 72
     1
 73
     1
 93
        3
 10
6062.471514159064
 20
2066.557525128946
 42
0.0
 10
6073.362858701046
 20
2066.557525128946
 42
-0.3746931511525727
 10
6107.852116417322
 20
2106.119416977094
 42
0.4548701274340709
 97
        0
 92
        7
 72
     1
 73
     1
 93
        3
 10
5980.527112367017
 20
2066.557525128946
 42
0.0
 10
6017.868865082382
 20
2066.557525128946
 42
-0.2779155561051042
 10
6039.132918711963
 20
2101.859040806376
 42
0.5650486375607546
 97
        0
 75
     0
 76
     1
 47
1.714896853630235
 98
        2
 10
6070.967403154274
 20
2084.02882755075
 10
6004.016625956501
 20
2085.743740701445
  0
ARC
  5
6E3
330
5BB
100
AcDbEntity
  8
0
100
AcDbCircle
 10
6020.46204235428
 20
2066.557525128946
 30
0.0
 40
39.93492998726469
100
AcDbArc
 50
62.12575748739295
 51
180.0
  0
ARC
  5
6E4
330
5BB
100
AcDbEntity
  8
0
100
AcDbCircle
 10
6057.803795069645
 20
2066.557525128946
 30
0.0
 40
39.93492998726469
100
AcDbArc
 50
56.05191050053067
 51
180.0
  0
ARC
  5
6E5
330
5BB
100
AcDbEntity
  8
0
100
AcDbCircle
 10
6113.297788688309
 20
2066.557525128946
 30
0.0
 40
39.93492998726469
100
AcDbArc
 50
0.0
 51
180.0
  0
ARC
  5
6E6
330
5BB
100
AcDbEntity
  8
0
100
AcDbCircle
 10
6102.406444146327
 20
2066.557525128946
 30
0.0
 40
39.93492998726469
100
AcDbArc
 50
82.16252023710385
 51
180.0
  0
HATCH
  5
6E7
330
5BB
100
AcDbEntity
  8
0
 62
   250
100
AcDbHatch
 10
0.0
 20
0.0
 30
0.0
210
0.0
220
0.0
230
1.0
  2
SOLID
 70
     1
 71
     0
 91
       16
 92
        7
 72
     1
 73
     1
 93
        7
 10
6901.623679345852
 20
2046.330742408127
 42
0.0
 10
6856.008401196129
 20
2046.330742408129
 42
0.0
 10
6856.008401196122
 20
1946.541738787643
 42
-0.4142135623730951
 10
6851.008401196122
 20
1941.541738787643
 42
0.0
 10
6850.797404816607
 20
1941.541738787644
 42
0.0
 10
6850.797404816607
 20
1654.760974351243
 42
0.0
 10
6901.623679345852
 20
1654.760974351242
 42
0.0
 97
        0
 92
        7
 72
     0
 73
     1
 93
        6
 10
6901.623679345859
 20
1634.534191630279
 10
6850.797404816607
 20
1634.534191630278
 10
6850.797404816607
 20
1245.557600845306
 10
6869.986916628673
 20
1245.557600845305
 10
6869.986916628673
 20
1242.964423573404
 10
6901.623679345859
 20
1242.964423573404
 97
        0
 92
        7
 72
     0
 73
     1
 93
        4
 10
7131.37918563623
 20
2046.330742408127
 10
6952.449953875104
 20
2046.330742408127
 10
6952.449953875104
 20
1654.760974351241
 10
7131.37918563623
 20
1654.760974351234
 97
        0
 92
        7
 72
     0
 73
     1
 93
        4
 10
7131.37918563623
 20
1634.534191630288
 10
6952.449953875104
 20
1634.534191630282
 10
6952.449953875104
 20
1242.964423573404
 10
7131.37918563623
 20
1242.964423573404
 97
        0
 92
        7
 72
     0
 73
     1
 93
        4
 10
7361.134691926593
 20
2046.330742408127
 10
7182.205460165474
 20
2046.330742408129
 10
7182.205460165474
 20
1654.760974351233
 10
7361.1346919266
 20
1654.760974351226
 97
        0
 92
        7
 72
     0
 73
     1
 93
        4
 10
7361.134691926593
 20
1634.534191630295
 10
7182.205460165474
 20
1634.534191630288
 10
7182.205460165474
 20
1242.964423573404
 10
7361.1346919266
 20
1242.964423573404
 97
        0
 92
        7
 72
     0
 73
     1
 93
        4
 10
7590.890198216962
 20
2046.330742408127
 10
7411.960966455845
 20
2046.330742408128
 10
7411.960966455845
 20
1654.760974351225
 10
7590.890198216962
 20
1654.76097435122
 97
        0
 92
        7
 72
     0
 73
     1
 93
        4
 10
7590.890198216962
 20
1634.534191630301
 10
7411.960966455845
 20
1634.534191630296
 10
7411.960966455845
 20
1242.964423573404
 10
7590.890198216962
 20
1242.964423573404
 97
        0
 92
        7
 72
     0
 73
     1
 93
        4
 10
7820.645704507334
 20
2046.330742408128
 10
7641.716472746215
 20
2046.330742408127
 10
7641.716472746215
 20
1654.760974351218
 10
7820.645704507334
 20
1654.760974351214
 97
        0
 92
        7
 72
     0
 73
     1
 93
        4
 10
7820.645704507334
 20
1634.534191630308
 10
7641.716472746215
 20
1634.534191630303
 10
7641.716472746215
 20
1242.964423573404
 10
7820.645704507334
 20
1242.964423573404
 97
        0
 92
        7
 72
     0
 73
     1
 93
        4
 10
8050.401210797703
 20
2046.330742408128
 10
7871.471979036584
 20
2046.330742408128
 10
7871.471979036584
 20
1654.760974351211
 10
8050.401210797703
 20
1654.760974351205
 97
        0
 92
        7
 72
     0
 73
     1
 93
        4
 10
8050.401210797703
 20
1634.534191630317
 10
7871.471979036584
 20
1634.534191630311
 10
7871.471979036584
 20
1242.964423573404
 10
8050.401210797703
 20
1242.964423573404
 97
        0
 92
        7
 72
     0
 73
     1
 93
        4
 10
8280.156717088074
 20
2046.330742408127
 10
8101.227485326957
 20
2046.330742408128
 10
8101.227485326957
 20
1654.760974351204
 10
8280.156717088074
 20
1654.760974351198
 97
        0
 92
        7
 72
     0
 73
     1
 93
        4
 10
8280.156717088074
 20
1634.534191630324
 10
8101.227485326957
 20
1634.534191630318
 10
8101.227485326957
 20
1242.964423573404
 10
8280.156717088074
 20
1242.964423573406
 97
        0
 92
        7
 72
     0
 73
     1
 93
        4
 10
8519.247661557288
 20
2046.330742408127
 10
8330.982991617318
 20
2046.330742408127
 10
8330.982991617325
 20
1654.760974351196
 10
8519.247661557288
 20
1654.760974351191
 97
        0
 92
        7
 72
     0
 73
     1
 93
        4
 10
8519.247661557281
 20
1634.534191630331
 10
8330.982991617318
 20
1634.534191630325
 10
8330.982991617325
 20
1242.964423573406
 10
8519.247661557288
 20
1242.964423573404
 97
        0
 75
     0
 76
     1
 47
3.898741523743897
 98
       31
 10
6865.557575421444
 20
1769.973959286862
 10
6888.974433800948
 20
1528.251982140625
 10
7045.086792016956
 20
1730.986544798175
 10
7048.989594001693
 20
1481.467077437824
 10
7251.935645741184
 20
1734.885283808251
 10
7287.060910074913
 20
1516.555752916434
 10
7478.298555860179
 20
1738.784022818326
 10
7493.909787034674
 20
1489.264567651938
 10
7728.078301123154
 20
1691.999130309488
 10
7751.495159502657
 20
1516.555752916434
 10
7891.99626330864
 20
1742.682761828404
 10
7958.344013226888
 20
1516.555752916434
 10
8130.067602617391
 20
1723.189054584059
 10
8169.095692171387
 20
1504.859535886206
 10
8317.402423182379
 20
1738.784022818326
 10
6885.071631816209
 20
1715.391576563908
 10
6865.557575421444
 20
1578.935625853504
 10
6990.447448052932
 20
1730.986544798175
 10
7033.3783628272
 20
1493.163306662016
 10
7232.421589346414
 20
1758.277730062671
 10
7294.866537279929
 20
1458.074631183404
 10
7462.687301450154
 20
1723.189054584059
 10
7493.909787034674
 20
1454.175892173329
 10
7685.147409584409
 20
1754.378991052595
 10
7724.175499138408
 20
1442.479662949137
 10
7942.732782052392
 20
1754.378991052595
 10
7970.052442416636
 20
1426.884706908833
 10
8145.678833791883
 20
1769.973959286862
 10
8192.512550550892
 20
1434.682184928984
 10
8352.527687516106
 20
1805.062634765472
 10
8418.875437434357
 20
1376.201063195954
  0
HATCH
  5
6E8
330
5BB
100
AcDbEntity
  8
0
 62
    30
100
AcDbHatch
 10
0.0
 20
0.0
 30
0.0
210
0.0
220
0.0
230
1.0
  2
SOLID
 70
     1
 71
     0
 91
       28
 92
        7
 72
     0
 73
     1
 93
        4
 10
8330.982991617318
 20
2046.330742408128
 10
8292.603967993199
 20
2046.330742408129
 10
8292.603967993199
 20
1654.760974351197
 10
8330.982991617318
 20
1654.760974351195
 97
        0
 92
        7
 72
     0
 73
     1
 93
        4
 10
8292.603967993199
 20
2046.330742408128
 10
8280.156717088074
 20
2046.330742408129
 10
8280.156717088074
 20
1654.760974351198
 10
8292.603967993192
 20
1654.760974351198
 97
        0
 92
        7
 72
     0
 73
     1
 93
        4
 10
8101.227485326957
 20
2046.330742408127
 10
8062.848461702831
 20
2046.330742408127
 10
8062.848461702831
 20
1654.760974351205
 10
8101.227485326957
 20
1654.760974351204
 97
        0
 92
        7
 72
     0
 73
     1
 93
        4
 10
8062.848461702831
 20
2046.330742408127
 10
8050.401210797703
 20
2046.330742408126
 10
8050.401210797703
 20
1654.760974351204
 10
8062.848461702831
 20
1654.760974351203
 97
        0
 92
        7
 72
     0
 73
     1
 93
        4
 10
7871.471979036584
 20
2046.330742408129
 10
7833.092955412459
 20
2046.330742408129
 10
7833.092955412459
 20
1654.760974351214
 10
7871.471979036584
 20
1654.760974351213
 97
        0
 92
        7
 72
     0
 73
     1
 93
        4
 10
7833.092955412459
 20
2046.330742408127
 10
7820.645704507334
 20
2046.330742408127
 10
7820.645704507334
 20
1654.760974351213
 10
7833.092955412459
 20
1654.760974351213
 97
        0
 92
        7
 72
     0
 73
     1
 93
        4
 10
7603.33744912209
 20
2046.330742408128
 10
7590.890198216962
 20
2046.330742408128
 10
7590.890198216962
 20
1654.760974351221
 10
7603.33744912209
 20
1654.76097435122
 97
        0
 92
        7
 72
     0
 73
     1
 93
        4
 10
7641.716472746215
 20
2046.330742408127
 10
7603.33744912209
 20
2046.330742408127
 10
7603.33744912209
 20
1654.76097435122
 10
7641.716472746215
 20
1654.760974351218
 97
        0
 92
        7
 72
     0
 73
     1
 93
        4
 10
7373.581942831719
 20
2046.330742408129
 10
7361.1346919266
 20
2046.330742408129
 10
7361.1346919266
 20
1654.760974351227
 10
7373.581942831719
 20
1654.760974351227
 97
        0
 92
        7
 72
     0
 73
     1
 93
        4
 10
7411.960966455845
 20
2046.330742408127
 10
7373.581942831719
 20
2046.330742408127
 10
7373.581942831719
 20
1654.760974351226
 10
7411.960966455845
 20
1654.760974351224
 97
        0
 92
        7
 72
     0
 73
     1
 93
        4
 10
7143.826436541349
 20
2046.330742408128
 10
7131.37918563623
 20
2046.330742408128
 10
7131.37918563623
 20
1654.760974351234
 10
7143.826436541349
 20
1654.760974351233
 97
        0
 92
        7
 72
     0
 73
     1
 93
        4
 10
7182.205460165474
 20
2046.330742408127
 10
7143.826436541349
 20
2046.330742408127
 10
7143.826436541349
 20
1654.760974351234
 10
7182.205460165474
 20
1654.760974351233
 97
        0
 92
        7
 72
     0
 73
     1
 93
        4
 10
7143.826436541349
 20
1634.534191630288
 10
7131.37918563623
 20
1634.534191630288
 10
7131.37918563623
 20
1242.964423573404
 10
7143.826436541349
 20
1242.964423573404
 97
        0
 92
        7
 72
     0
 73
     1
 93
        4
 10
7182.205460165474
 20
1634.534191630289
 10
7143.826436541349
 20
1634.534191630288
 10
7143.826436541349
 20
1242.964423573404
 10
7182.205460165474
 20
1242.964423573404
 97
        0
 92
        7
 72
     0
 73
     1
 93
        4
 10
7373.581942831719
 20
1634.534191630295
 10
7361.134691926593
 20
1634.534191630295
 10
7361.134691926593
 20
1242.964423573404
 10
7373.581942831719
 20
1242.964423573404
 97
        0
 92
        7
 72
     0
 73
     1
 93
        4
 10
7411.960966455845
 20
1634.534191630296
 10
7373.581942831719
 20
1634.534191630295
 10
7373.581942831719
 20
1242.964423573404
 10
7411.960966455845
 20
1242.964423573404
 97
        0
 92
        7
 72
     0
 73
     1
 93
        4
 10
7603.33744912209
 20
1634.534191630302
 10
7590.890198216962
 20
1634.534191630301
 10
7590.890198216962
 20
1242.964423573404
 10
7603.33744912209
 20
1242.964423573404
 97
        0
 92
        7
 72
     0
 73
     1
 93
        4
 10
7641.716472746215
 20
1634.534191630303
 10
7603.33744912209
 20
1634.534191630301
 10
7603.33744912209
 20
1242.964423573404
 10
7641.716472746215
 20
1242.964423573404
 97
        0
 92
        7
 72
     0
 73
     1
 93
        4
 10
7833.092955412459
 20
1634.534191630309
 10
7820.645704507341
 20
1634.534191630309
 10
7820.645704507334
 20
1242.964423573404
 10
7833.092955412459
 20
1242.964423573404
 97
        0
 92
        7
 72
     0
 73
     1
 93
        4
 10
7871.471979036584
 20
1634.534191630311
 10
7833.092955412459
 20
1634.53419163031
 10
7833.092955412459
 20
1242.964423573404
 10
7871.471979036584
 20
1242.964423573404
 97
        0
 92
        7
 72
     0
 73
     1
 93
        4
 10
8062.848461702831
 20
1634.534191630317
 10
8050.401210797703
 20
1634.534191630317
 10
8050.401210797703
 20
1242.964423573404
 10
8062.848461702831
 20
1242.964423573404
 97
        0
 92
        7
 72
     0
 73
     1
 93
        4
 10
8101.227485326957
 20
1634.534191630317
 10
8062.848461702831
 20
1634.534191630315
 10
8062.848461702831
 20
1242.964423573404
 10
8101.227485326957
 20
1242.964423573406
 97
        0
 92
        7
 72
     0
 73
     1
 93
        4
 10
8292.603967993199
 20
1634.534191630324
 10
8280.156717088074
 20
1634.534191630324
 10
8280.156717088074
 20
1242.964423573404
 10
8292.603967993199
 20
1242.964423573404
 97
        0
 92
        7
 72
     0
 73
     1
 93
        4
 10
8330.982991617318
 20
1634.534191630326
 10
8292.603967993199
 20
1634.534191630324
 10
8292.603967993199
 20
1242.964423573404
 10
8330.982991617318
 20
1242.964423573404
 97
        0
 92
        7
 72
     0
 73
     1
 93
        4
 10
6952.449953875104
 20
2046.330742408128
 10
6914.070930250979
 20
2046.330742408128
 10
6914.070930250979
 20
1654.760974351241
 10
6952.449953875104
 20
1654.760974351239
 97
        0
 92
        7
 72
     0
 73
     1
 93
        4
 10
6914.070930250979
 20
1634.53419163028
 10
6901.623679345852
 20
1634.53419163028
 10
6901.623679345859
 20
1242.964423573404
 10
6914.070930250979
 20
1242.964423573404
 97
        0
 92
        7
 72
     0
 73
     1
 93
        4
 10
6952.449953875104
 20
1634.534191630282
 10
6914.070930250979
 20
1634.53419163028
 10
6914.070930250979
 20
1242.964423573406
 10
6952.449953875104
 20
1242.964423573406
 97
        0
 92
        7
 72
     0
 73
     1
 93
        4
 10
6914.070930250979
 20
2046.330742408127
 10
6901.623679345852
 20
2046.330742408126
 10
6901.623679345859
 20
1654.760974351242
 10
6914.070930250979
 20
1654.760974351242
 97
        0
 75
     0
 76
     1
 47
4.502924710596121
 98
       30
 10
8314.992098226197
 20
1790.062203239811
 10
8274.922054238166
 20
1763.360092032881
 10
8299.300882888644
 20
1810.64138812063
 10
8288.586217494085
 20
1803.501280386152
 10
8081.435482287226
 20
1789.221023631291
 10
8056.43457014324
 20
1789.221023631291
 10
7849.283834936381
 20
1767.800659141949
 10
7824.28288345736
 20
1764.230605274709
 10
7599.274359481227
 20
1760.660530764516
 10
7609.989064210815
 20
1753.520402387088
 10
7370.694293485256
 20
1767.800659141949
 10
7388.55208225453
 20
1753.520402387088
 10
7134.971064779536
 20
1760.660530764516
 10
7170.686720988138
 20
1742.810220142417
 10
7138.542646134411
 20
1460.775386627841
 10
7163.543558278398
 20
1450.06520438317
 10
7370.694293485256
 20
1425.074765383638
 10
7402.838368338992
 20
1421.504711516399
 10
7595.702817461388
 20
1421.504711516399
 10
7624.275310960249
 20
1417.934637006206
 10
7827.854464812233
 20
1432.214893761067
 10
7856.426958311094
 20
1428.644819250878
 10
8056.43457014324
 20
1428.644819250878
 10
8077.863940267381
 20
1428.644819250878
 10
8285.01463613921
 20
1432.214893761067
 10
8306.444045598386
 20
1432.214893761067
 10
6922.32282649733
 20
1708.647478101511
 10
6908.074970736816
 20
1466.337794906628
 10
6940.252283690584
 20
1459.905038529619
 10
6908.074970736816
 20
1733.296895551242
  0
LWPOLYLINE
  5
6E9
330
5BB
100
AcDbEntity
  8
0
100
AcDbPolyline
 90
        4
 70
     0
 43
0.0
 10
8330.982991617318
 20
1634.534191630326
 10
8330.982991617318
 20
1242.964423573404
 10
8292.603967993199
 20
1242.964423573404
 10
8292.603967993199
 20
1634.534191630324
  0
LWPOLYLINE
  5
6EA
330
5BB
100
AcDbEntity
  8
0
100
AcDbPolyline
 90
        4
 70
     0
 43
0.0
 10
8292.603967993199
 20
1634.534191630324
 10
8292.603967993199
 20
1242.964423573404
 10
8280.156717088074
 20
1242.964423573404
 10
8280.156717088074
 20
1634.534191630324
  0
LWPOLYLINE
  5
6EB
330
5BB
100
AcDbEntity
  8
0
100
AcDbPolyline
 90
        4
 70
     0
 43
0.0
 10
8101.227485326957
 20
1634.534191630318
 10
8101.227485326957
 20
1242.964423573404
 10
8062.848461702831
 20
1242.964423573404
 10
8062.848461702831
 20
1634.534191630317
  0
LWPOLYLINE
  5
6EC
330
5BB
100
AcDbEntity
  8
0
100
AcDbPolyline
 90
        4
 70
     0
 43
0.0
 10
7871.471979036584
 20
1634.534191630311
 10
7871.471979036584
 20
1242.964423573404
 10
7833.092955412459
 20
1242.964423573404
 10
7833.092955412459
 20
1634.534191630309
  0
LWPOLYLINE
  5
6ED
330
5BB
100
AcDbEntity
  8
0
100
AcDbPolyline
 90
        4
 70
     0
 43
0.0
 10
7833.092955412459
 20
1634.534191630309
 10
7833.092955412459
 20
1242.964423573404
 10
7820.645704507334
 20
1242.964423573404
 10
7820.645704507334
 20
1634.534191630309
  0
LWPOLYLINE
  5
6EE
330
5BB
100
AcDbEntity
  8
0
100
AcDbPolyline
 90
        4
 70
     0
 43
0.0
 10
7641.716472746215
 20
1634.534191630304
 10
7641.716472746215
 20
1242.964423573404
 10
7603.33744912209
 20
1242.964423573404
 10
7603.33744912209
 20
1634.534191630302
  0
LWPOLYLINE
  5
6EF
330
5BB
100
AcDbEntity
  8
0
100
AcDbPolyline
 90
        4
 70
     0
 43
0.0
 10
7411.960966455845
 20
1634.534191630296
 10
7411.960966455845
 20
1242.964423573404
 10
7373.581942831719
 20
1242.964423573404
 10
7373.581942831719
 20
1634.534191630295
  0
LWPOLYLINE
  5
6F0
330
5BB
100
AcDbEntity
  8
0
100
AcDbPolyline
 90
        4
 70
     0
 43
0.0
 10
7373.581942831719
 20
1634.534191630295
 10
7373.581942831719
 20
1242.964423573404
 10
7361.134691926593
 20
1242.964423573404
 10
7361.134691926593
 20
1634.534191630295
  0
LWPOLYLINE
  5
6F1
330
5BB
100
AcDbEntity
  8
0
100
AcDbPolyline
 90
        4
 70
     0
 43
0.0
 10
7182.205460165474
 20
1634.534191630289
 10
7182.205460165474
 20
1242.964423573404
 10
7143.826436541349
 20
1242.964423573404
 10
7143.826436541349
 20
1634.534191630288
  0
LWPOLYLINE
  5
6F2
330
5BB
100
AcDbEntity
  8
0
100
AcDbPolyline
 90
        4
 70
     0
 43
0.0
 10
7143.826436541349
 20
1634.534191630288
 10
7143.826436541349
 20
1242.964423573404
 10
7131.37918563623
 20
1242.964423573404
 10
7131.37918563623
 20
1634.534191630288
  0
LWPOLYLINE
  5
6F3
330
5BB
100
AcDbEntity
  8
0
100
AcDbPolyline
 90
        4
 70
     0
 43
0.0
 10
6952.449953875104
 20
1634.534191630282
 10
6952.449953875104
 20
1242.964423573404
 10
6914.070930250979
 20
1242.964423573404
 10
6914.070930250979
 20
1634.53419163028
  0
LWPOLYLINE
  5
6F4
330
5BB
100
AcDbEntity
  8
0
100
AcDbPolyline
 90
        4
 70
     0
 43
0.0
 10
6914.070930250979
 20
1634.53419163028
 10
6914.070930250979
 20
1242.964423573404
 10
6901.623679345859
 20
1242.964423573404
 10
6901.623679345859
 20
1634.53419163028
  0
LINE
  5
6F5
102
{ACAD_REACTORS
330
5C5
102
}
330
5BB
100
AcDbEntity
  8
0
100
AcDbLine
 10
6751.219397575638
 20
1941.566380623355
 30
0.0
 11
6751.219397575638
 21
908.0004759788744
 31
0.0
  0
LWPOLYLINE
  5
6F6
330
5BB
100
AcDbEntity
  8
0
100
AcDbPolyline
 90
        4
 70
     0
 43
0.0
 10
8062.848461702831
 20
1634.534191630317
 10
8062.848461702831
 20
1242.964423573404
 10
8050.401210797703
 20
1242.964423573404
 10
8050.401210797703
 20
1634.534191630317
  0
LWPOLYLINE
  5
6F7
330
5BB
100
AcDbEntity
  8
0
100
AcDbPolyline
 90
        4
 70
     0
 43
0.0
 10
7603.33744912209
 20
1634.534191630302
 10
7603.33744912209
 20
1242.964423573404
 10
7590.890198216962
 20
1242.964423573404
 10
7590.890198216962
 20
1634.534191630302
  0
LWPOLYLINE
  5
6F8
330
5BB
100
AcDbEntity
  8
0
100
AcDbPolyline
 90
        3
 70
     0
 43
0.0
 10
8519.247661557288
 20
1634.534191630331
 10
8519.247661557288
 20
1242.964423573404
 10
6869.986916628673
 20
1242.964423573404
  0
LWPOLYLINE
  5
6F9
102
{ACAD_REACTORS
330
5C5
102
}
330
5BB
100
AcDbEntity
  8
0
100
AcDbPolyline
 90
        8
 70
     0
 43
0.0
 10
6629.933243068226
 20
801.0124605065948
 10
6665.774673510926
 20
765.1710300638942
 10
6732.048843490615
 20
765.1710300638942
 10
6778.91175850077
 20
812.0339450740466
 10
6778.91175850077
 20
878.3081150537418
 10
6732.048843490615
 20
925.1710300638942
 10
6665.774673510926
 20
925.1710300638942
 10
6629.933243068226
 20
889.3295996211936
  0
HATCH
  5
6FA
330
5BB
100
AcDbEntity
  8
0
 62
    10
100
AcDbHatch
 10
0.0
 20
0.0
 30
0.0
210
0.0
220
0.0
230
1.0
  2
SOLID
 70
     1
 71
     0
 91
        1
 92
        7
 72
     0
 73
     1
 93
        4
 10
6890.213699349494
 20
1052.10657636154
 10
6869.986916628673
 20
1052.10657636154
 10
6869.986916628673
 20
638.7541192206271
 10
6890.213699349494
 20
638.7541192206263
 97
        0
 75
     0
 76
     1
 47
1.310757625227954
 98
        1
 10
6883.130150345074
 20
832.9203842213555
  0
HATCH
  5
6FB
330
5BB
100
AcDbEntity
  8
0
 62
    50
100
AcDbHatch
 10
0.0
 20
0.0
 30
0.0
210
0.0
220
0.0
230
1.0
  2
SOLID
 70
     1
 71
     0
 91
        1
 92
        7
 72
     0
 73
     1
 93
        5
 10
6869.986916628673
 20
1245.557600845305
 10
6850.797404816607
 20
1245.557600845305
 10
6850.797404816607
 20
1242.964423573404
 10
6850.797404816607
 20
444.7844592824822
 10
6869.986916628673
 20
444.7844592824822
 97
        0
 75
     0
 76
     1
 47
1.817543700912418
 98
        1
 10
6854.941016044934
 20
907.2958217976465
  0
LWPOLYLINE
  5
6FC
102
{ACAD_REACTORS
330
5C5
102
}
330
5BB
100
AcDbEntity
  8
0
100
AcDbPolyline
 90
        8
 70
     1
 43
0.0
 10
6658.911758500924
 20
825.1710300638897
 42
-0.2360679774997897
 10
6666.911758500923
 20
821.1710300638896
 42
3.000000000000124
 10
6666.911758500923
 20
869.1710300638879
 42
-0.2360679774997897
 10
6658.911758500924
 20
865.1710300638878
 10
6538.799329464265
 20
865.1710300638896
 42
0.4142135623730951
 10
6528.799329464266
 20
855.1710300638896
 10
6528.799329464266
 20
835.1710300638897
 42
0.4142135623730951
 10
6538.799329464265
 20
825.1710300638897
  0
CIRCLE
  5
6FD
102
{ACAD_REACTORS
330
703
102
}
330
5BB
100
AcDbEntity
  8
0
100
AcDbCircle
 10
6549.026112184932
 20
845.1710300638943
 30
0.0
 40
18.1522409033023
  0
CIRCLE
  5
6FE
102
{ACAD_REACTORS
330
703
102
}
330
5BB
100
AcDbEntity
  8
0
100
AcDbCircle
 10
6639.268681247064
 20
845.1710300638943
 30
0.0
 40
17.63360544892202
  0
CIRCLE
  5
6FF
102
{ACAD_REACTORS
330
703
102
}
330
5BB
100
AcDbEntity
  8
0
100
AcDbCircle
 10
6698.91175850077
 20
845.1710300638943
 30
0.0
 40
17.63360544892111
  0
LWPOLYLINE
  5
700
330
5BB
100
AcDbEntity
  8
0
100
AcDbPolyline
 90
        4
 70
     1
 43
0.0
 10
6909.921846615937
 20
640.3100255837671
 10
6890.213699349494
 20
640.3100255837671
 10
6890.213699349494
 20
972.7553518413905
 10
6909.921846615937
 20
972.7553518413905
  0
LWPOLYLINE
  5
701
330
5BB
100
AcDbEntity
  8
0
100
AcDbPolyline
 90
        4
 70
     1
 43
0.0
 10
6890.213699349494
 20
638.7541192206271
 10
6869.986916628673
 20
638.7541192206271
 10
6869.986916628673
 20
1052.10657636154
 10
6890.213699349494
 20
1052.10657636154
  0
LWPOLYLINE
  5
702
330
5BB
100
AcDbEntity
  8
0
100
AcDbPolyline
 90
        4
 70
     1
 43
0.0
 10
6869.986916628673
 20
444.7844592824822
 10
6850.797404816607
 20
444.7844592824822
 10
6850.797404816607
 20
1245.557600845305
 10
6869.986916628673
 20
1245.557600845305
  0
HATCH
  5
703
330
5BB
100
AcDbEntity
  8
0
 62
    50
100
AcDbHatch
 10
0.0
 20
0.0
 30
0.0
210
0.0
220
0.0
230
1.0
  2
SOLID
 70
     1
 71
     1
 91
        6
 92
        7
 72
     1
 73
     1
 93
        2
 10
6567.178353088235
 20
845.1710300638943
 42
1.0
 10
6530.873871281631
 20
845.1710300638943
 42
1.0
 97
        1
330
6FD
 92
       22
 72
     1
 73
     1
 93
        2
 10
6560.276112184933
 20
845.1710300638943
 42
1.0
 10
6537.776112184933
 20
845.1710300638943
 42
1.0
 97
        1
330
70D
 92
        7
 72
     1
 73
     1
 93
        2
 10
6656.902286695985
 20
845.1710300638943
 42
1.0
 10
6621.635075798142
 20
845.1710300638943
 42
1.0
 97
        1
330
6FE
 92
       22
 72
     1
 73
     1
 93
        2
 10
6650.518681247064
 20
845.1710300638943
 42
-1.0
 10
6628.018681247064
 20
845.1710300638943
 42
-1.0
 97
        1
330
70E
 92
        7
 72
     1
 73
     1
 93
        2
 10
6716.545363949691
 20
845.1710300638943
 42
1.0
 10
6681.278153051849
 20
845.1710300638943
 42
1.0
 97
        1
330
6FF
 92
       22
 72
     1
 73
     1
 93
        2
 10
6710.16175850077
 20
845.1710300638943
 42
-1.0
 10
6687.66175850077
 20
845.1710300638943
 42
-1.0
 97
        1
330
70B
 75
     0
 76
     1
 47
0.4567424018285859
 98
        6
 10
6559.150315226739
 20
833.5094927557456
 10
6559.150315226739
 20
833.5094927557456
 10
6628.190372523015
 20
837.6201855085328
 10
6628.190372523015
 20
837.6201855085328
 10
6691.743783212129
 20
833.0527674658387
 10
6691.743783212129
 20
833.0527674658387
  0
HATCH
  5
704
330
5BB
100
AcDbEntity
  8
0
 62
    70
100
AcDbHatch
 10
0.0
 20
0.0
 30
0.0
210
0.0
220
0.0
230
1.0
  2
SOLID
 70
     1
 71
     0
 91
        4
 92
        7
 72
     1
 73
     1
 93
        8
 10
6666.911758500923
 20
821.1710300638896
 42
3.000000000000124
 10
6666.911758500923
 20
869.1710300638879
 42
-0.2360679774997898
 10
6658.911758500924
 20
865.1710300638878
 42
0.0
 10
6538.799329464265
 20
865.1710300638896
 42
0.4142135623730951
 10
6528.799329464266
 20
855.1710300638896
 42
0.0
 10
6528.799329464266
 20
835.1710300638897
 42
0.4142135623730951
 10
6538.799329464265
 20
825.1710300638897
 42
0.0
 10
6658.911758500924
 20
825.1710300638897
 42
-0.2360679774998136
 97
        0
 92
       22
 72
     1
 73
     1
 93
        2
 10
6681.278153051855
 20
845.1710300638943
 42
-1.0
 10
6716.545363949691
 20
845.1710300638943
 42
-1.0
 97
        0
 92
       22
 72
     1
 73
     1
 93
        2
 10
6621.635075798142
 20
845.1710300638943
 42
-1.0
 10
6656.902286695985
 20
845.1710300638943
 42
-1.0
 97
        0
 92
       22
 72
     1
 73
     1
 93
        2
 10
6530.873871281626
 20
845.1710300638943
 42
-1.0
 10
6567.178353088237
 20
845.1710300638943
 42
-1.0
 97
        0
 75
     0
 76
     1
 47
2.97881942578715
 98
        4
 10
6669.246978389063
 20
833.3812587444063
 10
6669.246978389063
 20
833.3812587444063
 10
6669.246978389063
 20
833.3812587444063
 10
6669.246978389063
 20
833.3812587444063
  0
HATCH
  5
705
330
5BB
100
AcDbEntity
  8
0
 62
    70
100
AcDbHatch
 10
0.0
 20
0.0
 30
0.0
210
0.0
220
0.0
230
1.0
  2
SOLID
 70
     1
 71
     0
 91
        6
 92
        7
 72
     0
 73
     1
 93
        4
 10
6592.072854898477
 20
920.373170949003
 10
6572.883343086418
 20
920.3731709490039
 10
6572.883343086418
 20
865.1710300638896
 10
6592.072854898477
 20
865.1710300638896
 97
        0
 92
        7
 72
     0
 73
     1
 93
        4
 10
6592.072854898477
 20
825.1710300638897
 10
6572.883343086418
 20
825.1710300638897
 10
6572.883343086418
 20
770.4875246331648
 10
6592.072854898477
 20
770.4875246331648
 97
        0
 92
        7
 72
     0
 73
     1
 93
        5
 10
6629.933243068226
 20
875.2518864179373
 10
6629.933243068226
 20
1145.460958149952
 10
6611.262366710537
 20
1145.460958149952
 10
6611.262366710537
 20
865.1710300638878
 10
6629.933243068226
 20
865.1710300638878
 97
        0
 92
        7
 72
     0
 73
     1
 93
        4
 10
6629.933243068226
 20
825.1710300638897
 10
6611.262366710537
 20
825.1710300638897
 10
6611.262366710544
 20
544.8811019778349
 10
6629.933243068226
 20
544.8811019778349
 97
        0
 92
        7
 72
     0
 73
     1
 93
        4
 10
6643.911758500769
 20
825.1710300638887
 10
6629.933243068226
 20
825.1710300638887
 10
6629.933243068226
 20
815.0901737098502
 10
6643.911758500777
 20
815.0901737098502
 97
        0
 92
        7
 72
     0
 73
     1
 93
        4
 10
6643.911758500769
 20
875.2518864179382
 10
6629.933243068226
 20
875.2518864179382
 10
6629.933243068226
 20
865.1710300638869
 10
6643.911758500769
 20
865.1710300638878
 97
        0
 75
     0
 76
     1
 47
0.5473984107829015
 98
        6
 10
6586.353949694668
 20
878.8365000335089
 10
6581.425270482722
 20
812.6013005225813
 10
6615.925906961253
 20
874.4573250605844
 10
6620.854546838171
 20
807.6747157761984
 10
6631.807149826927
 20
819.7174624339513
 10
6635.09292285655
 20
872.2677272526471
  0
HATCH
  5
706
330
5BB
100
AcDbEntity
  8
0
 62
    30
100
AcDbHatch
 10
0.0
 20
0.0
 30
0.0
210
0.0
220
0.0
230
1.0
  2
SOLID
 70
     1
 71
     0
 91
        1
 92
        7
 72
     1
 73
     1
 93
       18
 10
6778.91175850077
 20
878.3081150537427
 42
0.0
 10
6732.048843490615
 20
925.1710300638942
 42
0.0
 10
6665.774673510926
 20
925.1710300638933
 42
0.0
 10
6629.933243068226
 20
889.3295996211918
 42
0.0
 10
6629.933243068226
 20
875.2518864179382
 42
0.0
 10
6643.911758500769
 20
875.2518864179364
 42
0.0
 10
6643.911758500769
 20
865.1710300638878
 42
0.0
 10
6658.911758500924
 20
865.1710300638878
 42
0.2360679774997898
 10
6666.911758500923
 20
869.1710300638879
 42
-3.000000000000124
 10
6666.911758500923
 20
821.1710300638896
 42
0.2360679774997896
 10
6658.911758500924
 20
825.1710300638897
 42
0.0
 10
6643.911758500769
 20
825.1710300638897
 42
0.0
 10
6643.911758500769
 20
815.0901737098502
 42
0.0
 10
6629.933243068226
 20
815.0901737098502
 42
0.0
 10
6629.933243068226
 20
801.0124605065948
 42
0.0
 10
6665.774673510926
 20
765.1710300638942
 42
0.0
 10
6732.048843490615
 20
765.1710300638942
 42
0.0
 10
6778.91175850077
 20
812.0339450740457
 42
0.0
 97
        0
 75
     0
 76
     1
 47
0.5614233379203239
 98
        1
 10
6765.516446958369
 20
857.6407911536144
  0
HATCH
  5
707
330
5BB
100
AcDbEntity
  8
0
 62
    50
100
AcDbHatch
 10
0.0
 20
0.0
 30
0.0
210
0.0
220
0.0
230
1.0
  2
SOLID
 70
     1
 71
     0
 91
        4
 92
        7
 72
     0
 73
     1
 93
        5
 10
6613.262366710536
 20
1145.460958149952
 10
6613.262366710536
 20
1247.632142662826
 10
6594.072854898477
 20
1247.632142662825
 10
6594.072854898477
 20
865.1710300638896
 10
6613.262366710536
 20
865.1710300638887
 97
        0
 92
        7
 72
     0
 73
     1
 93
        4
 10
6613.262366710543
 20
825.1710300638897
 10
6594.072854898477
 20
825.1710300638897
 10
6594.072854898477
 20
442.709917464962
 10
6613.262366710536
 20
442.709917464962
 97
        0
 92
        7
 72
     0
 73
     1
 93
        4
 10
6530.799329464265
 20
855.5437391514942
 10
6261.10889318648
 20
855.5437391514942
 10
6261.108893186473
 20
835.3169564306726
 10
6530.799329464265
 20
835.3169564306726
 97
        0
 92
        7
 72
     0
 73
     1
 93
        4
 10
6909.921846615937
 20
972.7553518413914
 10
6890.213699349494
 20
972.7553518413905
 10
6890.213699349494
 20
640.3100255837671
 10
6909.921846615937
 20
640.3100255837671
 97
        0
 75
     0
 76
     1
 47
2.451662650696921
 98
        4
 10
6606.892116471354
 20
989.8494598261077
 10
6601.758383749977
 20
767.4800208940487
 10
6500.794370425741
 20
841.032981375387
 10
6902.939074588809
 20
834.1908546379618
  0
LWPOLYLINE
  5
708
102
{ACAD_REACTORS
330
5C5
102
}
330
5BB
100
AcDbEntity
  8
0
100
AcDbPolyline
 90
        4
 70
     0
 43
0.0
 10
6629.933243068226
 20
825.1710300638897
 10
6629.933243068226
 20
544.8811019778349
 10
6611.262366710537
 20
544.8811019778349
 10
6611.262366710537
 20
825.1710300638897
  0
LWPOLYLINE
  5
709
102
{ACAD_REACTORS
330
5C5
102
}
330
5BB
100
AcDbEntity
  8
0
100
AcDbPolyline
 90
        4
 70
     0
 43
0.0
 10
6611.262366710537
 20
825.1710300638897
 10
6611.262366710537
 20
442.709917464962
 10
6592.072854898477
 20
442.709917464962
 10
6592.072854898477
 20
825.1710300638897
  0
LWPOLYLINE
  5
70A
102
{ACAD_REACTORS
330
5C5
102
}
330
5BB
100
AcDbEntity
  8
0
100
AcDbPolyline
 90
        4
 70
     1
 43
0.0
 10
6528.799329464106
 20
835.3169564306726
 10
6259.108893186479
 20
835.3169564306726
 10
6259.108893186479
 20
855.5437391514951
 10
6528.799329464106
 20
855.5437391514951
  0
CIRCLE
  5
70B
102
{ACAD_REACTORS
330
703
330
70C
102
}
330
5BB
100
AcDbEntity
  8
0
100
AcDbCircle
 10
6698.91175850077
 20
845.1710300638943
 30
0.0
 40
11.25
  0
HATCH
  5
70C
330
5BB
100
AcDbEntity
  8
0
 62
    10
100
AcDbHatch
 10
0.0
 20
0.0
 30
0.0
210
0.0
220
0.0
230
1.0
  2
SOLID
 70
     1
 71
     1
 91
        3
 92
        7
 72
     1
 73
     1
 93
        2
 10
6710.16175850077
 20
845.1710300638943
 42
1.0
 10
6687.66175850077
 20
845.1710300638943
 42
1.0
 97
        1
330
70B
 92
        7
 72
     1
 73
     1
 93
        2
 10
6650.518681247064
 20
845.1710300638943
 42
1.0
 10
6628.018681247064
 20
845.1710300638943
 42
1.0
 97
        1
330
70E
 92
        7
 72
     1
 73
     1
 93
        2
 10
6560.276112184933
 20
845.1710300638943
 42
1.0
 10
6537.776112184933
 20
845.1710300638943
 42
1.0
 97
        1
330
70D
 75
     0
 76
     1
 47
0.8635476039693889
 98
        3
 10
6700.049492722428
 20
849.4769185352179
 10
6642.995880998518
 20
845.1591769843416
 10
6553.093232019957
 20
846.0227335516956
  0
CIRCLE
  5
70D
102
{ACAD_REACTORS
330
703
330
70C
102
}
330
5BB
100
AcDbEntity
  8
0
100
AcDbCircle
 10
6549.026112184932
 20
845.1710300638943
 30
0.0
 40
11.25
  0
CIRCLE
  5
70E
102
{ACAD_REACTORS
330
703
330
70C
102
}
330
5BB
100
AcDbEntity
  8
0
100
AcDbCircle
 10
6639.268681247064
 20
845.1710300638943
 30
0.0
 40
11.25
  0
LWPOLYLINE
  5
70F
330
5BB
100
AcDbEntity
  8
0
100
AcDbPolyline
 90
        4
 70
     0
 43
0.0
 10
6643.911758500769
 20
825.1710300638897
 10
6643.911758500769
 20
815.0901737098502
 10
6629.933243068226
 20
815.0901737098502
 10
6629.933243068226
 20
825.1710300638897
  0
LWPOLYLINE
  5
710
102
{ACAD_REACTORS
330
5C5
102
}
330
5BB
100
AcDbEntity
  8
0
100
AcDbPolyline
 90
        4
 70
     0
 43
0.0
 10
6592.072854898477
 20
825.1710300638897
 10
6592.072854898477
 20
770.4875246331648
 10
6572.883343086418
 20
770.4875246331648
 10
6572.883343086418
 20
825.1710300638897
  0
LWPOLYLINE
  5
711
102
{ACAD_REACTORS
330
5C5
102
}
330
5BB
100
AcDbEntity
  8
0
100
AcDbPolyline
 90
        4
 70
     0
 43
0.0
 10
6592.072854898477
 20
865.1710300638887
 10
6592.072854898477
 20
1247.632142662825
 10
6611.262366710537
 20
1247.632142662825
 10
6611.262366710537
 20
865.1710300638887
  0
LWPOLYLINE
  5
712
102
{ACAD_REACTORS
330
5C5
102
}
330
5BB
100
AcDbEntity
  8
0
100
AcDbPolyline
 90
        4
 70
     0
 43
0.0
 10
6611.262366710537
 20
865.1710300638887
 10
6611.262366710537
 20
1145.460958149952
 10
6629.933243068226
 20
1145.460958149952
 10
6629.933243068226
 20
865.1710300638878
  0
LWPOLYLINE
  5
713
102
{ACAD_REACTORS
330
5C5
102
}
330
5BB
100
AcDbEntity
  8
0
100
AcDbPolyline
 90
        4
 70
     0
 43
0.0
 10
6572.883343086418
 20
865.1710300638887
 10
6572.883343086418
 20
920.3731709490039
 10
6592.072854898477
 20
920.3731709490039
 10
6592.072854898477
 20
865.1710300638887
  0
LWPOLYLINE
  5
714
330
5BB
100
AcDbEntity
  8
0
100
AcDbPolyline
 90
        4
 70
     0
 43
0.0
 10
6629.933243068226
 20
865.1710300638878
 10
6629.933243068226
 20
875.2518864179373
 10
6643.911758500769
 20
875.2518864179373
 10
6643.911758500769
 20
865.1710300638878
  0
LWPOLYLINE
  5
715
330
5BB
100
AcDbEntity
  8
0
100
AcDbPolyline
 90
        3
 70
     0
 43
0.0
 10
6856.008401196122
 20
2046.330742408128
 10
8519.247661557288
 20
2046.330742408128
 10
8519.247661557288
 20
1654.760974351191
  0
LWPOLYLINE
  5
716
102
{ACAD_REACTORS
330
5C5
102
}
330
5BB
100
AcDbEntity
  8
0
100
AcDbPolyline
 90
        8
 70
     1
 43
0.0
 10
6751.008401196123
 20
1941.541738787644
 10
6851.008401196122
 20
1941.541738787643
 42
0.4142135623730951
 10
6856.008401196122
 20
1946.541738787643
 10
6856.008401196122
 20
2046.541738787642
 42
0.4142135623730951
 10
6851.008401196122
 20
2051.541738787642
 10
6751.008401196123
 20
2051.541738787642
 42
0.4142135623730951
 10
6746.008401196123
 20
2046.541738787642
 10
6746.008401196123
 20
1946.541738787644
 42
0.4142135623730977
  0
ARC
  5
717
330
5BB
100
AcDbEntity
  8
0
100
AcDbCircle
 10
6751.219397575638
 20
1996.541738787642
 30
0.0
 40
24.89450181024313
100
AcDbArc
 50
102.0826920484418
 51
135.3345086951397
  0
CIRCLE
  5
718
330
5BB
100
AcDbEntity
  8
0
100
AcDbCircle
 10
6801.008401196122
 20
1996.541738787642
 30
0.0
 40
45.0
  0
LWPOLYLINE
  5
719
330
5BB
100
AcDbEntity
  8
0
100
AcDbPolyline
 90
        4
 70
     0
 43
0.0
 10
7373.581942831719
 20
1654.760974351227
 10
7373.581942831719
 20
2046.330742408128
 10
7411.960966455845
 20
2046.330742408128
 10
7411.960966455845
 20
1654.760974351225
  0
LWPOLYLINE
  5
71A
330
5BB
100
AcDbEntity
  8
0
100
AcDbPolyline
 90
        4
 70
     0
 43
0.0
 10
7361.134691926593
 20
1654.760974351227
 10
7361.134691926593
 20
2046.330742408128
 10
7373.581942831719
 20
2046.330742408128
 10
7373.581942831719
 20
1654.760974351227
  0
LWPOLYLINE
  5
71B
330
5BB
100
AcDbEntity
  8
0
100
AcDbPolyline
 90
        4
 70
     0
 43
0.0
 10
7143.826436541349
 20
1654.760974351234
 10
7143.826436541349
 20
2046.330742408128
 10
7182.205460165474
 20
2046.330742408128
 10
7182.205460165474
 20
1654.760974351233
  0
LWPOLYLINE
  5
71C
330
5BB
100
AcDbEntity
  8
0
100
AcDbPolyline
 90
        4
 70
     0
 43
0.0
 10
7131.37918563623
 20
1654.760974351234
 10
7131.37918563623
 20
2046.330742408128
 10
7143.826436541349
 20
2046.330742408128
 10
7143.826436541349
 20
1654.760974351234
  0
LWPOLYLINE
  5
71D
330
5BB
100
AcDbEntity
  8
0
100
AcDbPolyline
 90
        4
 70
     0
 43
0.0
 10
6901.623679345859
 20
1654.760974351242
 10
6901.623679345859
 20
2046.330742408128
 10
6914.070930250979
 20
2046.330742408128
 10
6914.070930250979
 20
1654.760974351242
  0
LWPOLYLINE
  5
71E
330
5BB
100
AcDbEntity
  8
0
100
AcDbPolyline
 90
        4
 70
     0
 43
0.0
 10
6914.070930250979
 20
1654.760974351242
 10
6914.070930250979
 20
2046.330742408128
 10
6952.449953875104
 20
2046.330742408128
 10
6952.449953875104
 20
1654.76097435124
  0
ARC
  5
71F
102
{ACAD_REACTORS
330
5C5
102
}
330
5BB
100
AcDbEntity
  8
0
100
AcDbCircle
 10
6751.219397575638
 20
1996.541738787642
 30
0.0
 40
24.89450181024313
100
AcDbArc
 50
224.6654913048601
 51
257.9173079515581
  0
LINE
  5
720
330
5BB
100
AcDbEntity
  8
0
100
AcDbLine
 10
6733.513855494689
 20
2014.041738787642
 30
0.0
 11
6733.513855494689
 21
1979.041738787642
 31
0.0
  0
LINE
  5
721
330
5BB
100
AcDbEntity
  8
0
100
AcDbLine
 10
6746.033043031842
 20
1979.041738787642
 30
0.0
 11
6746.008401196123
 21
1979.041738787642
 31
0.0
  0
LINE
  5
722
330
5BB
100
AcDbEntity
  8
0
100
AcDbLine
 10
6746.033043031842
 20
2014.041738787642
 30
0.0
 11
6746.008401196123
 21
2014.041738787642
 31
0.0
  0
HATCH
  5
723
330
5BB
100
AcDbEntity
  8
0
 62
    10
100
AcDbHatch
 10
0.0
 20
0.0
 30
0.0
210
0.0
220
0.0
230
1.0
  2
SOLID
 70
     1
 71
     0
 91
        2
 92
        7
 72
     1
 73
     1
 93
        2
 10
6815.107829961918
 20
2100.784307849768
 42
0.0
 10
6837.735246959884
 20
2100.784307849768
 42
0.3535533905932775
 97
        0
 92
        7
 72
     1
 73
     1
 93
        2
 10
6864.896833582403
 20
2100.784307849768
 42
0.0
 10
6887.524250580376
 20
2100.784307849768
 42
0.3535533905932591
 97
        0
 75
     0
 76
     1
 47
0.1879651142468997
 98
        2
 10
6827.428798269597
 20
2103.212012230198
 10
6873.716451720312
 20
2102.648108738927
  0
HATCH
  5
724
330
5BB
100
AcDbEntity
  8
0
 62
    50
100
AcDbHatch
 10
0.0
 20
0.0
 30
0.0
210
0.0
220
0.0
230
1.0
  2
SOLID
 70
     1
 71
     0
 91
        3
 92
        7
 72
     1
 73
     1
 93
        4
 10
6887.524250580376
 20
2100.784307849768
 42
0.0
 10
6864.896833582403
 20
2100.784307849768
 42
0.2265409196609858
 10
6858.210542081391
 20
2086.784307849768
 42
0.0
 10
6894.21054208139
 20
2086.784307849768
 42
0.2265409196609794
 97
        0
 92
        7
 72
     1
 73
     1
 93
        4
 10
6837.735246959884
 20
2100.784307849768
 42
0.0
 10
6815.107829961918
 20
2100.784307849768
 42
0.2265409196609858
 10
6808.421538460898
 20
2086.784307849768
 42
0.0
 10
6844.421538460898
 20
2086.784307849768
 42
0.2265409196610048
 97
        0
 92
        7
 72
     0
 73
     1
 93
        4
 10
6913.552294796755
 20
2086.784307849767
 10
6788.561150291156
 20
2086.784307849768
 10
6788.561150291156
 20
2066.557525128945
 10
6913.552294796755
 20
2066.557525128946
 97
        0
 75
     0
 76
     1
 47
0.2916884280439662
 98
        3
 10
6871.220368745432
 20
2094.411839665716
 10
6831.801358832716
 20
2091.494949409681
 10
6831.217351647879
 20
2077.785594106472
  0
LWPOLYLINE
  5
725
330
5BB
100
AcDbEntity
  8
0
100
AcDbPolyline
 90
        4
 70
     1
 43
0.0
 10
6913.552294796755
 20
2066.557525128946
 10
6788.561150291156
 20
2066.557525128946
 10
6788.561150291156
 20
2086.784307849768
 10
6913.552294796755
 20
2086.784307849768
  0
LWPOLYLINE
  5
726
330
5BB
100
AcDbEntity
  8
0
100
AcDbPolyline
 90
        2
 70
     0
 43
0.0
 10
6864.896833582403
 20
2100.784307849768
 10
6887.524250580376
 20
2100.784307849768
  0
ARC
  5
727
330
5BB
100
AcDbEntity
  8
0
100
AcDbCircle
 10
6876.210542081389
 20
2086.784307849768
 30
0.0
 40
18.0
100
AcDbArc
 50
0.0
 51
180.0
  0
ARC
  5
728
330
5BB
100
AcDbEntity
  8
0
100
AcDbCircle
 10
6530.799329464265
 20
2066.557525128946
 30
0.0
 40
39.93492998726469
100
AcDbArc
 50
0.0
 51
180.0
  0
ARC
  5
729
330
5BB
100
AcDbEntity
  8
0
100
AcDbCircle
 10
6372.615515878344
 20
2066.557525128946
 30
0.0
 40
39.93492998726469
100
AcDbArc
 50
0.0
 51
180.0
  0
ARC
  5
72A
330
5BB
100
AcDbEntity
  8
0
100
AcDbCircle
 10
6324.382418620997
 20
2066.557525128946
 30
0.0
 40
39.93492998726469
100
AcDbArc
 50
52.85055187837502
 51
180.0
  0
ARC
  5
72B
330
5BB
100
AcDbEntity
  8
0
100
AcDbCircle
 10
6665.125912148702
 20
2066.557525128946
 30
0.0
 40
39.93492998726469
100
AcDbArc
 50
0.0
 51
107.3796168076875
  0
ARC
  5
72C
330
5BB
100
AcDbEntity
  8
0
100
AcDbCircle
 10
6641.268681247225
 20
2066.557525128946
 30
0.0
 40
39.93492998726469
100
AcDbArc
 50
0.0
 51
180.0
  0
LINE
  5
72D
330
5BB
100
AcDbEntity
  8
0
100
AcDbLine
 10
6856.008401196122
 20
2046.330742408123
 30
0.0
 11
6856.008401196122
 21
2066.557525128946
 31
0.0
  0
LWPOLYLINE
  5
72E
330
5BB
100
AcDbEntity
  8
0
100
AcDbPolyline
 90
        2
 70
     0
 43
0.0
 10
6815.107829961918
 20
2100.784307849768
 10
6837.735246959884
 20
2100.784307849768
  0
ARC
  5
72F
330
5BB
100
AcDbEntity
  8
0
100
AcDbCircle
 10
6826.421538460897
 20
2086.784307849768
 30
0.0
 40
18.0
100
AcDbArc
 50
0.0
 51
180.0
  0
LWPOLYLINE
  5
730
330
5BB
100
AcDbEntity
  8
0
100
AcDbPolyline
 90
        4
 70
     0
 43
0.0
 10
8050.401210797703
 20
1654.760974351205
 10
8050.401210797703
 20
2046.330742408128
 10
8062.848461702831
 20
2046.330742408128
 10
8062.848461702831
 20
1654.760974351205
  0
LWPOLYLINE
  5
731
330
5BB
100
AcDbEntity
  8
0
100
AcDbPolyline
 90
        4
 70
     0
 43
0.0
 10
7590.890198216962
 20
1654.76097435122
 10
7590.890198216962
 20
2046.330742408128
 10
7603.33744912209
 20
2046.330742408128
 10
7603.33744912209
 20
1654.76097435122
  0
LWPOLYLINE
  5
732
330
5BB
100
AcDbEntity
  8
0
100
AcDbPolyline
 90
        4
 70
     0
 43
0.0
 10
8292.603967993199
 20
1654.760974351198
 10
8292.603967993199
 20
2046.330742408128
 10
8330.982991617318
 20
2046.330742408128
 10
8330.982991617318
 20
1654.760974351196
  0
LWPOLYLINE
  5
733
330
5BB
100
AcDbEntity
  8
0
100
AcDbPolyline
 90
        4
 70
     0
 43
0.0
 10
8280.156717088074
 20
1654.760974351198
 10
8280.156717088074
 20
2046.330742408128
 10
8292.603967993199
 20
2046.330742408128
 10
8292.603967993199
 20
1654.760974351198
  0
LWPOLYLINE
  5
734
330
5BB
100
AcDbEntity
  8
0
100
AcDbPolyline
 90
        4
 70
     0
 43
0.0
 10
8062.848461702831
 20
1654.760974351205
 10
8062.848461702831
 20
2046.330742408128
 10
8101.227485326957
 20
2046.330742408128
 10
8101.227485326957
 20
1654.760974351204
  0
LWPOLYLINE
  5
735
330
5BB
100
AcDbEntity
  8
0
100
AcDbPolyline
 90
        4
 70
     0
 43
0.0
 10
7833.092955412459
 20
1654.760974351213
 10
7833.092955412459
 20
2046.330742408128
 10
7871.471979036584
 20
2046.330742408128
 10
7871.471979036584
 20
1654.760974351211
  0
LWPOLYLINE
  5
736
330
5BB
100
AcDbEntity
  8
0
100
AcDbPolyline
 90
        4
 70
     0
 43
0.0
 10
7820.645704507334
 20
1654.760974351213
 10
7820.645704507334
 20
2046.330742408128
 10
7833.092955412459
 20
2046.330742408128
 10
7833.092955412459
 20
1654.760974351213
  0
LWPOLYLINE
  5
737
330
5BB
100
AcDbEntity
  8
0
100
AcDbPolyline
 90
        4
 70
     0
 43
0.0
 10
7603.33744912209
 20
1654.76097435122
 10
7603.33744912209
 20
2046.330742408128
 10
7641.716472746215
 20
2046.330742408128
 10
7641.716472746215
 20
1654.760974351218
  0
HATCH
  5
738
330
5BB
100
AcDbEntity
  8
0
 62
    10
100
AcDbHatch
 10
0.0
 20
0.0
 30
0.0
210
0.0
220
0.0
230
1.0
  2
SOLID
 70
     1
 71
     0
 91
        2
 92
        7
 72
     1
 73
     1
 93
        2
 10
8024.565709576229
 20
2100.784307849768
 42
0.0
 10
8047.193126574203
 20
2100.784307849768
 42
0.353553390593314
 97
        0
 92
        7
 72
     1
 73
     1
 93
        2
 10
8074.35471319672
 20
2100.784307849768
 42
0.0
 10
8096.982130194694
 20
2100.784307849768
 42
0.3535533905932775
 97
        0
 75
     0
 76
     1
 47
0.2238664201036204
 98
        2
 10
8035.873560133085
 20
2102.969313055806
 10
8081.814042612327
 20
2102.969313055806
  0
HATCH
  5
739
330
5BB
100
AcDbEntity
  8
0
 62
    50
100
AcDbHatch
 10
0.0
 20
0.0
 30
0.0
210
0.0
220
0.0
230
1.0
  2
SOLID
 70
     1
 71
     0
 91
        3
 92
        7
 72
     0
 73
     1
 93
        4
 10
8123.010174411072
 20
2086.784307849768
 10
7998.019029905474
 20
2086.784307849767
 10
7998.019029905474
 20
2066.557525128945
 10
8123.010174411072
 20
2066.557525128945
 97
        0
 92
        7
 72
     1
 73
     1
 93
        4
 10
8096.982130194687
 20
2100.784307849768
 42
0.0
 10
8074.35471319672
 20
2100.784307849768
 42
0.2265409196609858
 10
8067.668421695707
 20
2086.784307849768
 42
0.0
 10
8103.668421695706
 20
2086.784307849768
 42
0.2265409196610238
 97
        0
 92
        7
 72
     1
 73
     1
 93
        4
 10
8047.193126574203
 20
2100.784307849768
 42
0.0
 10
8024.565709576236
 20
2100.784307849768
 42
0.2265409196609985
 10
8017.879418075215
 20
2086.784307849768
 42
0.0
 10
8053.879418075217
 20
2086.784307849768
 42
0.2265409196609858
 97
        0
 75
     0
 76
     1
 47
0.3896237933881422
 98
        3
 10
8058.502097970363
 20
2078.307220834185
 10
8076.833519831344
 20
2089.995940883038
 10
8040.170676109374
 20
2092.333693149988
  0
LWPOLYLINE
  5
73A
330
5BB
100
AcDbEntity
  8
0
100
AcDbPolyline
 90
        2
 70
     0
 43
0.0
 10
8074.35471319672
 20
2100.784307849768
 10
8096.982130194694
 20
2100.784307849768
  0
ARC
  5
73B
330
5BB
100
AcDbEntity
  8
0
100
AcDbCircle
 10
8085.668421695707
 20
2086.784307849768
 30
0.0
 40
18.0
100
AcDbArc
 50
0.0
 51
180.0
  0
LWPOLYLINE
  5
73C
330
5BB
100
AcDbEntity
  8
0
100
AcDbPolyline
 90
        4
 70
     1
 43
0.0
 10
8123.010174411072
 20
2066.557525128946
 10
7998.019029905474
 20
2066.557525128946
 10
7998.019029905474
 20
2086.784307849768
 10
8123.010174411072
 20
2086.784307849768
  0
LWPOLYLINE
  5
73D
330
5BB
100
AcDbEntity
  8
0
100
AcDbPolyline
 90
        2
 70
     0
 43
0.0
 10
8024.565709576236
 20
2100.784307849768
 10
8047.193126574203
 20
2100.784307849768
  0
ARC
  5
73E
330
5BB
100
AcDbEntity
  8
0
100
AcDbCircle
 10
8035.879418075216
 20
2086.784307849768
 30
0.0
 40
18.0
100
AcDbArc
 50
0.0
 51
180.0
  0
CIRCLE
  5
73F
102
{ACAD_REACTORS
330
743
330
7F4
102
}
330
5BB
100
AcDbEntity
  8
0
100
AcDbCircle
 10
14050.23620654724
 20
144.4264129768716
 30
0.0
 40
200.5382969224647
  0
LWPOLYLINE
  5
740
330
5BB
100
AcDbEntity
  8
0
100
AcDbPolyline
 90
        5
 70
     0
 43
0.0
 10
16239.20360883923
 20
835.3169564306718
 10
16252.16949519874
 20
821.83243461679
 10
14882.97189563536
 20
-369.4732040942235
 10
14870.00600927586
 20
-355.9886822803418
 10
16239.20360883923
 20
835.3169564306718
  0
LWPOLYLINE
  5
741
330
5BB
100
AcDbEntity
  8
0
100
AcDbPolyline
 90
       58
 70
     0
 43
0.0
 10
14785.98706566628
 20
-1.760666938756003
 10
14778.20753385058
 20
-58.81056692056336
 10
14777.68889839621
 20
-60.36647328370418
 10
14752.79439658596
 20
-116.3791023567509
 10
14752.79439658596
 20
-119.4909150830317
 10
14754.3503029491
 20
-120.5281859917913
 10
14840.96242383057
 20
-112.7486541760909
 10
14843.03696564809
 20
-113.7859250848514
 10
14841.99969473933
 20
-116.8977378111312
 10
14810.88156747653
 20
-180.6898986998794
 10
14809.84429656777
 20
-182.7644405173996
 10
14810.36293202215
 20
-184.3203468805395
 10
14839.40651746743
 20
-216.994380506484
 10
14841.99969473933
 20
-217.5130159608643
 10
14846.66741382875
 20
-214.9198386889638
 10
14951.95041106791
 20
-141.7922396213743
 10
14955.58085924857
 20
-140.2363332582335
 10
15065.53157557714
 20
-103.4132159972496
 10
15069.1620237578
 20
-101.3386741797294
 10
15072.79247193846
 20
-98.2268614534496
 10
15188.9668137196
 20
23.13383487148712
 10
15190.52272008273
 20
24.17110578024676
 10
15192.07862644588
 20
25.72701214338667
 10
15279.20938278173
 20
92.11235030403532
 10
15281.28392459925
 20
94.18689212155641
 10
15283.87710187115
 20
96.78006939345596
 10
15409.90551728551
 20
260.1502375231775
 10
15411.98005910303
 20
262.743414795078
 10
15413.01733001179
 20
263.7806857038376
 10
15481.99584544434
 20
326.0169402294459
 10
15486.66356453375
 20
331.7219302276262
 10
15487.18219998814
 20
335.3523784082872
 10
15469.54859453921
 20
362.3214220360505
 10
15469.54859453921
 20
365.4332347623312
 10
15472.66040726549
 20
370.1009538517519
 10
15503.7785345283
 20
404.3308938408363
 10
15505.33444089144
 20
405.8868002039762
 10
15508.36041050803
 20
408.5765509742795
 10
15575.35022723274
 20
453.6012620069422
 10
15579.93841117262
 20
457.8365087206657
 10
15583.12975904845
 20
461.8994292770239
 10
15620.99014721819
 20
538.6574765252735
 10
15652.62690993538
 20
579.6296774212987
 10
15654.65509327653
 20
584.7001357741764
 10
15652.62690993538
 20
586.8905737826199
 10
15603.35654176927
 20
583.2601256019589
 10
15601.80063540613
 20
583.2601256019589
 10
15601.28199995175
 20
584.8160319650997
 10
15602.83790631489
 20
614.3782528647625
 10
15599.72609358861
 20
613.8596174103831
 10
15526.59849452102
 20
584.2973965107193
 10
15523.48668179474
 20
583.7787610563391
 10
15522.44941088598
 20
585.334667419479
 10
15519.33759815971
 20
629.4186810417849
 10
15518.81896270532
 20
630.4559519505455
 10
15516.7444208878
 20
630.9745874049249
 10
15448.80317636401
 20
619.0459719541832
 10
15679.59595356314
 20
835.3169564306718
  0
HATCH
  5
742
330
5BB
100
AcDbEntity
  8
0
 62
    30
100
AcDbHatch
 10
0.0
 20
0.0
 30
0.0
210
0.0
220
0.0
230
1.0
  2
SOLID
 70
     1
 71
     0
 91
        9
 92
        7
 72
     0
 73
     1
 93
       11
 10
14870.00600927586
 20
2046.330742408121
 10
14408.42045487775
 20
2046.330742408121
 10
15679.59595356314
 20
855.5437391516353
 10
15679.59595356314
 20
1016.680347791083
 10
15719.59595356314
 20
1016.680347791081
 10
15846.76026752338
 20
906.0859292862696
 10
15846.76026752338
 20
1016.680347791083
 10
15886.76026752337
 20
1016.680347791082
 10
16013.92458148361
 20
906.0859292862714
 10
16013.92458148361
 20
1016.680347791082
 10
16053.92458148361
 20
1016.680347791083
 97
        0
 92
        7
 72
     0
 73
     1
 93
        4
 10
14882.97189563536
 20
2060.333899676389
 10
14870.00600927586
 20
2046.330742408129
 10
16239.20360883923
 20
855.5437391514951
 10
16252.16949519874
 20
869.0282609653769
 97
        0
 92
        7
 72
     0
 73
     1
 93
       68
 10
15620.99014721819
 20
538.6574765252771
 10
15583.12975904845
 20
461.8994292770285
 10
15579.93841117262
 20
457.8365087206657
 10
15575.35022723274
 20
453.6012620069413
 10
15508.36041050803
 20
408.5765509742759
 10
15505.33444089144
 20
405.8868002039871
 10
15503.77853452831
 20
404.3308938408491
 10
15472.66040726549
 20
370.1009538517519
 10
15469.54859453921
 20
365.4332347623312
 10
15469.54859453921
 20
362.3214220360496
 10
15487.18219998814
 20
335.3523784082908
 10
15486.66356453375
 20
331.7219302276244
 10
15481.99584544433
 20
326.0169402294432
 10
15413.01733001176
 20
263.7806857038258
 10
15411.98005910301
 20
262.7434147950716
 10
15409.90551728543
 20
260.150237523152
 10
15283.87710187115
 20
96.78006939346051
 10
15281.28392459925
 20
94.18689212155641
 10
15279.20938278173
 20
92.11235030403804
 10
15192.07862644589
 20
25.72701214338849
 10
15190.52272008273
 20
24.17110578024494
 10
15188.9668137196
 20
23.13383487148985
 10
15072.79247193846
 20
-98.22686145344505
 10
15069.1620237578
 20
-101.3386741797294
 10
15065.53157557714
 20
-103.4132159972505
 10
14955.58085924856
 20
-140.2363332582362
 10
14951.95041106791
 20
-141.7922396213753
 10
14846.66741382875
 20
-214.9198386889665
 10
14841.99969473933
 20
-217.5130159608643
 10
14839.40651746743
 20
-216.9943805064831
 10
14810.36293202215
 20
-184.3203468805359
 10
14809.84429656777
 20
-182.7644405173987
 10
14810.88156747659
 20
-180.6898986998076
 10
14841.99969473932
 20
-116.8977378111421
 10
14843.03696564809
 20
-113.7859250848496
 10
14840.96242383057
 20
-112.7486541760909
 10
14754.3503029491
 20
-120.5281859917904
 10
14752.79439658596
 20
-119.4909150830299
 10
14752.79439658596
 20
-116.3791023567528
 10
14777.68889839621
 20
-60.36647328369418
 10
14778.20753385058
 20
-58.81056692056791
 10
14785.98706566629
 20
-1.760666938755093
 10
14408.42045487744
 20
-355.9886822805028
 10
14870.00600927567
 20
-355.9886822805028
 10
16054.00524279286
 20
674.1803477910825
 10
16013.92458148361
 20
674.1803477910835
 10
16013.92458148361
 20
784.7527531468804
 10
15886.84092883263
 20
674.1803477910835
 10
15846.76026752338
 20
674.1803477910825
 10
15846.76026752337
 20
784.7527531468804
 10
15719.67661487239
 20
674.1803477910835
 10
15679.59595356314
 20
674.1803477910825
 10
15679.59595356314
 20
835.3169564306709
 10
15448.80317636401
 20
619.0459719541832
 10
15516.7444208878
 20
630.9745874049249
 10
15518.81896270532
 20
630.4559519505446
 10
15519.33759815971
 20
629.4186810417841
 10
15522.44941088598
 20
585.3346674194845
 10
15523.48668179473
 20
583.7787610563391
 10
15526.59849452102
 20
584.2973965107193
 10
15599.72609358861
 20
613.8596174103831
 10
15602.83790631489
 20
614.3782528647616
 10
15601.28199995175
 20
584.8160319650987
 10
15601.80063540613
 20
583.2601256019589
 10
15603.35654176927
 20
583.2601256019579
 10
15652.62690993538
 20
586.8905737826189
 10
15654.65509327653
 20
584.7001357741755
 10
15652.62690993537
 20
579.6296774212969
 97
        0
 92
        7
 72
     0
 73
     1
 93
        5
 10
14870.00600927586
 20
-355.9886822803428
 10
14882.97189563536
 20
-369.4732040942226
 10
16252.16949519874
 20
821.83243461679
 10
16239.23106456166
 20
835.2884024793539
 10
16239.17078115391
 20
835.2883938574969
 97
        0
 92
       23
 72
     0
 73
     1
 93
        6
 10
15520.32745675658
 20
615.395684252725
 10
15519.33759815971
 20
629.4186810417786
 10
15518.81896270532
 20
630.4559519505455
 10
15516.7444208878
 20
630.974587404924
 10
15448.80317636401
 20
619.0459719541823
 10
15461.76906272351
 20
605.5614501403024
 97
        0
 92
       23
 72
     0
 73
     1
 93
        7
 10
15601.87231353595
 20
596.0319900648573
 10
15602.83790631489
 20
614.3782528647625
 10
15599.72609358861
 20
613.8596174103831
 10
15526.59849452102
 20
584.2973965107193
 10
15523.48668179474
 20
583.7787610563391
 10
15536.45256815424
 20
570.2942392424574
 10
15539.04574542613
 20
570.8128746968368
 97
        0
 92
       23
 72
     0
 73
     1
 93
        8
 10
15646.32458789084
 20
571.4676537898513
 10
15652.62690993538
 20
579.6296774212996
 10
15654.65509327653
 20
584.7001357741755
 10
15652.62690993538
 20
586.8905737826199
 10
15603.35654176926
 20
583.2601256019589
 10
15601.80063540613
 20
583.2601256019589
 10
15614.76652176563
 20
569.775603788079
 10
15616.32242812877
 20
569.2569683336968
 97
        0
 92
       22
 72
     0
 73
     1
 93
       10
 10
14752.79439658596
 20
-116.3791023567528
 10
14752.79439658596
 20
-119.490915083029
 10
14754.3503029491
 20
-120.5281859917913
 10
14770.68721502351
 20
-119.0607986797194
 10
14790.13614930132
 20
-74.36963055196156
 10
14790.65478475571
 20
-72.29508873442409
 10
14798.93321969759
 20
-15.78228435493656
 10
14785.96525248689
 20
-1.920630254345269
 10
14778.20753385059
 20
-58.81056692055699
 10
14777.68889839621
 20
-60.366473283696
 97
        0
 92
       22
 72
     0
 73
     1
 93
       11
 10
14810.88156747653
 20
-180.6898986997375
 10
14809.84429656777
 20
-182.7644405173987
 10
14810.36293202215
 20
-184.3203468805395
 10
14839.40651746743
 20
-216.994380506484
 10
14840.34126741427
 20
-217.1813304958532
 10
14822.81018292727
 20
-197.8048686944202
 10
14823.32881838165
 20
-194.1744205137647
 10
14854.96558109883
 20
-130.3822596250147
 10
14855.48421655322
 20
-127.2704468987349
 10
14843.03696564809
 20
-113.7859250848514
 10
14841.99969473933
 20
-116.897737811123
 97
        0
 75
     0
 76
     1
 47
0.9305908837466775
 98
        9
 10
15381.13574938705
 20
1378.4542914419
 10
15580.82187602208
 20
1443.702159251538
 10
15717.93328684007
 20
522.442867161114
 10
15843.94242488159
 20
479.7707498058416
 10
15487.76676042929
 20
615.1737070835052
 10
15561.19928181367
 20
586.1994056218618
 10
15621.10472252038
 20
576.5412913726804
 10
14775.01563028357
 20
-84.56985595461356
 10
14829.04886242272
 20
-161.8040945229431
  0
HATCH
  5
743
330
5BB
100
AcDbEntity
  8
0
 62
    30
100
AcDbHatch
 10
0.0
 20
0.0
 30
0.0
210
0.0
220
0.0
230
1.0
  2
SOLID
 70
     1
 71
     1
 91
        2
 92
        7
 72
     1
 73
     1
 93
        4
 10
14049.99542052844
 20
1345.662147842838
 42
-0.0002405497283718
 10
14050.47699256604
 20
1345.662147842838
 42
0.4138609282492725
 10
14250.20499528736
 20
1545.630791615511
 42
1.0
 10
13850.26741780712
 20
1545.630791615511
 42
0.4138609282492725
 97
        2
330
7E6
330
7F3
 92
        7
 72
     1
 73
     1
 93
        4
 10
14250.77450346971
 20
144.4264129768716
 42
0.4010816334145062
 10
14059.2658866891
 20
344.7613160993639
 42
-0.0090215527182557
 10
14041.20652640538
 20
344.7613160993639
 42
0.4010816334145062
 10
13849.69790962478
 20
144.4264129768716
 42
1.0
 97
        2
330
73F
330
7F3
 75
     0
 76
     1
 47
8.639641952389887
 98
        2
 10
14038.11260987724
 20
1531.716255593423
 10
14046.76126554282
 20
114.8149717098785
  0
LWPOLYLINE
  5
744
102
{ACAD_REACTORS
330
771
102
}
330
5BB
100
AcDbEntity
  8
0
100
AcDbPolyline
 90
        5
 70
     0
 43
0.0
 10
13669.45848867159
 20
-361.2150440278701
 10
13669.45848867159
 20
-375.6968295467895
 10
14870.00600927586
 20
-375.6968295467895
 10
14870.00600927586
 20
-355.9886822803418
 10
13705.58389037932
 20
-355.9886822803418
  0
LWPOLYLINE
  5
745
330
5BB
100
AcDbEntity
  8
0
100
AcDbPolyline
 90
        2
 70
     0
 43
0.0
 10
14785.98706566628
 20
-1.760666938756003
 10
14408.4204548776
 20
-355.9886822803482
  0
LWPOLYLINE
  5
746
102
{ACAD_REACTORS
330
75C
102
}
330
5BB
100
AcDbEntity
  8
0
100
AcDbPolyline
 90
        2
 70
     0
 43
0.0
 10
12475.81678071709
 20
-355.9886822805028
 10
11466.04967105486
 20
-355.9886822805028
  0
LWPOLYLINE
  5
747
330
5BB
100
AcDbEntity
  8
0
100
AcDbPolyline
 90
        2
 70
     0
 43
0.0
 10
9171.515451730412
 20
-375.6968295467886
 10
12940.53192041579
 20
-375.6968295467895
  0
LWPOLYLINE
  5
748
102
{ACAD_REACTORS
330
74A
102
}
330
5BB
100
AcDbEntity
  8
0
100
AcDbPolyline
 90
        2
 70
     0
 43
0.0
 10
11356.04967105486
 20
-355.9886822805028
 10
10346.28256139264
 20
-355.9886822805028
  0
HATCH
  5
749
330
5BB
100
AcDbEntity
  8
0
 62
    30
100
AcDbHatch
 10
0.0
 20
0.0
 30
0.0
210
0.0
220
0.0
230
1.0
  2
SOLID
 70
     1
 71
     1
 91
        1
 92
        7
 72
     1
 73
     1
 93
        9
 10
9226.515451730412
 20
-256.2150440278712
 42
0.4142135623731049
 10
9221.515451730411
 20
-251.215044027871
 42
0.0
 10
9121.515451730411
 20
-251.215044027871
 42
0.4142135623730951
 10
9116.515451730412
 20
-256.215044027871
 42
0.0
 10
9116.515451730412
 20
-356.2150440278692
 42
0.4142135623730977
 10
9121.515451730411
 20
-361.2150440278692
 42
0.0
 10
9221.515451730411
 20
-361.2150440278701
 42
2.33895624241484
 10
9216.520578322672
 20
-355.9886822805028
 42
0.0
 10
9226.515451730412
 20
-355.9886822805028
 42
0.0
 97
        2
330
74C
330
74D
 75
     0
 76
     1
 47
1.397069185521471
 98
        1
 10
9199.292548337057
 20
-314.4971498926797
  0
HATCH
  5
74A
330
5BB
100
AcDbEntity
  8
0
 62
    30
100
AcDbHatch
 10
0.0
 20
0.0
 30
0.0
210
0.0
220
0.0
230
1.0
  2
SOLID
 70
     1
 71
     1
 91
        1
 92
        7
 72
     1
 73
     1
 93
        9
 10
10241.28256139263
 20
-251.215044027871
 42
0.4142135623730951
 10
10236.28256139264
 20
-256.215044027871
 42
0.0
 10
10236.28256139264
 20
-356.2150440278692
 42
0.4142135623730977
 10
10241.28256139263
 20
-361.2150440278692
 42
0.0
 10
10341.28256139263
 20
-361.2150440278701
 42
2.33895624241484
 10
10336.2876879849
 20
-355.9886822805028
 42
0.0
 10
10346.28256139263
 20
-355.9886822805028
 42
0.0
 10
10346.28256139264
 20
-256.2150440278711
 42
0.4142135623731017
 10
10341.28256139263
 20
-251.215044027871
 42
0.0
 97
        2
330
74B
330
748
 75
     0
 76
     1
 47
0.6664528283696248
 98
        1
 10
10283.56691781393
 20
-292.3322593457533
  0
LWPOLYLINE
  5
74B
102
{ACAD_REACTORS
330
74A
102
}
330
5BB
100
AcDbEntity
  8
0
100
AcDbPolyline
 90
        8
 70
     1
 43
0.0
 10
10241.28256139263
 20
-361.2150440278692
 10
10341.28256139263
 20
-361.2150440278701
 42
0.4142135623730951
 10
10346.28256139264
 20
-356.2150440278701
 10
10346.28256139264
 20
-256.215044027871
 42
0.4142135623730951
 10
10341.28256139263
 20
-251.215044027871
 10
10241.28256139263
 20
-251.215044027871
 42
0.4142135623730951
 10
10236.28256139264
 20
-256.215044027871
 10
10236.28256139264
 20
-356.2150440278692
 42
0.4142135623730977
  0
LWPOLYLINE
  5
74C
102
{ACAD_REACTORS
330
749
102
}
330
5BB
100
AcDbEntity
  8
0
100
AcDbPolyline
 90
        8
 70
     1
 43
0.0
 10
9121.515451730411
 20
-361.2150440278692
 10
9221.515451730411
 20
-361.2150440278701
 42
0.4142135623730951
 10
9226.515451730412
 20
-356.2150440278701
 10
9226.515451730412
 20
-256.215044027871
 42
0.4142135623730951
 10
9221.515451730411
 20
-251.215044027871
 10
9121.515451730411
 20
-251.215044027871
 42
0.4142135623730951
 10
9116.515451730412
 20
-256.215044027871
 10
9116.515451730412
 20
-356.2150440278692
 42
0.4142135623730977
  0
LWPOLYLINE
  5
74D
102
{ACAD_REACTORS
330
749
102
}
330
5BB
100
AcDbEntity
  8
0
100
AcDbPolyline
 90
        2
 70
     0
 43
0.0
 10
10236.28256139264
 20
-355.9886822805028
 10
9226.515451730412
 20
-355.9886822805028
  0
HATCH
  5
74E
330
5BB
100
AcDbEntity
  8
0
 62
    10
100
AcDbHatch
 10
0.0
 20
0.0
 30
0.0
210
0.0
220
0.0
230
1.0
  2
SOLID
 70
     1
 71
     0
 91
        2
 92
        7
 72
     1
 73
     1
 93
        2
 10
9157.67534069212
 20
-410.4576130900086
 42
0.0
 10
9135.047923694147
 20
-410.4576130900086
 42
0.3535533905932957
 97
        0
 92
        7
 72
     1
 73
     1
 93
        2
 10
9207.464344312604
 20
-410.4576130900086
 42
0.0
 10
9184.836927314639
 20
-410.4576130900086
 42
0.3535533905932775
 97
        0
 75
     0
 76
     1
 47
0.2550873442576774
 98
        2
 10
9146.744832864388
 20
-412.9495889827166
 10
9193.729857055318
 20
-412.4393984498319
  0
HATCH
  5
74F
330
5BB
100
AcDbEntity
  8
0
 62
    50
100
AcDbHatch
 10
0.0
 20
0.0
 30
0.0
210
0.0
220
0.0
230
1.0
  2
SOLID
 70
     1
 71
     0
 91
        3
 92
        7
 72
     0
 73
     1
 93
        4
 10
9234.011023983359
 20
-396.4576130900086
 10
9234.011023983359
 20
-376.2308303691852
 10
9109.019879477768
 20
-376.2308303691852
 10
9109.019879477768
 20
-396.4576130900086
 97
        0
 92
        7
 72
     1
 73
     1
 93
        4
 10
9157.67534069212
 20
-410.4576130900086
 42
0.2265409196609858
 10
9164.361632193132
 20
-396.4576130900086
 42
0.0
 10
9128.361632193133
 20
-396.4576130900086
 42
0.2265409196609858
 10
9135.047923694147
 20
-410.4576130900086
 42
0.0
 97
        0
 92
        7
 72
     1
 73
     1
 93
        4
 10
9184.836927314639
 20
-410.4576130900086
 42
0.0
 10
9207.464344312604
 20
-410.4576130900086
 42
0.2265409196609858
 10
9214.150635813625
 20
-396.4576130900086
 42
0.0
 10
9178.150635813626
 20
-396.4576130900086
 42
0.2265409196609794
 97
        0
 75
     0
 76
     1
 47
0.4907601742194315
 98
        3
 10
9133.437516997219
 20
-390.2556163482231
 10
9142.280425007099
 20
-403.5061407805305
 10
9186.494886386427
 20
-403.0153752644955
  0
LWPOLYLINE
  5
750
330
5BB
100
AcDbEntity
  8
0
100
AcDbPolyline
 90
        2
 70
     0
 43
0.0
 10
9157.67534069212
 20
-410.4576130900086
 10
9135.047923694147
 20
-410.4576130900086
  0
ARC
  5
751
330
5BB
100
AcDbEntity
  8
0
100
AcDbCircle
 10
9146.361632193132
 20
-396.4576130900086
 30
0.0
 40
18.0
100
AcDbArc
 50
180.0
 51
0.0
  0
LWPOLYLINE
  5
752
330
5BB
100
AcDbEntity
  8
0
100
AcDbPolyline
 90
        4
 70
     1
 43
0.0
 10
9234.011023983359
 20
-396.4576130900086
 10
9109.019879477768
 20
-396.4576130900086
 10
9109.019879477768
 20
-376.2308303691852
 10
9234.011023983359
 20
-376.2308303691852
  0
LWPOLYLINE
  5
753
330
5BB
100
AcDbEntity
  8
0
100
AcDbPolyline
 90
        2
 70
     0
 43
0.0
 10
9207.464344312604
 20
-410.4576130900086
 10
9184.836927314639
 20
-410.4576130900086
  0
ARC
  5
754
330
5BB
100
AcDbEntity
  8
0
100
AcDbCircle
 10
9196.150635813625
 20
-396.4576130900086
 30
0.0
 40
18.0
100
AcDbArc
 50
180.0
 51
0.0
  0
HATCH
  5
755
330
5BB
100
AcDbEntity
  8
0
 62
    10
100
AcDbHatch
 10
0.0
 20
0.0
 30
0.0
210
0.0
220
0.0
230
1.0
  2
SOLID
 70
     1
 71
     0
 91
        2
 92
        7
 72
     1
 73
     1
 93
        2
 10
10277.44245035434
 20
-410.4576130900086
 42
0.0
 10
10254.81503335637
 20
-410.4576130900086
 42
0.3535533905932957
 97
        0
 92
        7
 72
     1
 73
     1
 93
        2
 10
10327.23145397483
 20
-410.4576130900086
 42
0.0
 10
10304.60403697686
 20
-410.4576130900086
 42
0.3535533905932775
 97
        0
 75
     0
 76
     1
 47
0.2550873442576774
 98
        2
 10
10266.51194252661
 20
-412.9495889827166
 10
10313.49696671754
 20
-412.4393984498319
  0
HATCH
  5
756
330
5BB
100
AcDbEntity
  8
0
 62
    50
100
AcDbHatch
 10
0.0
 20
0.0
 30
0.0
210
0.0
220
0.0
230
1.0
  2
SOLID
 70
     1
 71
     0
 91
        3
 92
        7
 72
     0
 73
     1
 93
        4
 10
10353.77813364558
 20
-396.4576130900086
 10
10353.77813364558
 20
-376.2308303691852
 10
10228.78698913999
 20
-376.2308303691852
 10
10228.78698913999
 20
-396.4576130900086
 97
        0
 92
        7
 72
     1
 73
     1
 93
        4
 10
10277.44245035434
 20
-410.4576130900086
 42
0.2265409196609858
 10
10284.12874185536
 20
-396.4576130900086
 42
0.0
 10
10248.12874185536
 20
-396.4576130900086
 42
0.2265409196609858
 10
10254.81503335637
 20
-410.4576130900086
 42
0.0
 97
        0
 92
        7
 72
     1
 73
     1
 93
        4
 10
10304.60403697686
 20
-410.4576130900086
 42
0.0
 10
10327.23145397483
 20
-410.4576130900086
 42
0.2265409196609858
 10
10333.91774547585
 20
-396.4576130900086
 42
0.0
 10
10297.91774547585
 20
-396.4576130900086
 42
0.2265409196609794
 97
        0
 75
     0
 76
     1
 47
0.4907601742194315
 98
        3
 10
10253.20462665944
 20
-390.2556163482231
 10
10262.04753466932
 20
-403.5061407805305
 10
10306.26199604865
 20
-403.0153752644955
  0
LWPOLYLINE
  5
757
330
5BB
100
AcDbEntity
  8
0
100
AcDbPolyline
 90
        2
 70
     0
 43
0.0
 10
10277.44245035434
 20
-410.4576130900086
 10
10254.81503335637
 20
-410.4576130900086
  0
ARC
  5
758
330
5BB
100
AcDbEntity
  8
0
100
AcDbCircle
 10
10266.12874185536
 20
-396.4576130900086
 30
0.0
 40
18.0
100
AcDbArc
 50
180.0
 51
0.0
  0
LWPOLYLINE
  5
759
330
5BB
100
AcDbEntity
  8
0
100
AcDbPolyline
 90
        2
 70
     0
 43
0.0
 10
10327.23145397483
 20
-410.4576130900086
 10
10304.60403697686
 20
-410.4576130900086
  0
ARC
  5
75A
330
5BB
100
AcDbEntity
  8
0
100
AcDbCircle
 10
10315.91774547585
 20
-396.4576130900086
 30
0.0
 40
18.0
100
AcDbArc
 50
180.0
 51
0.0
  0
LWPOLYLINE
  5
75B
330
5BB
100
AcDbEntity
  8
0
100
AcDbPolyline
 90
        4
 70
     1
 43
0.0
 10
10353.77813364558
 20
-396.4576130900086
 10
10228.78698913999
 20
-396.4576130900086
 10
10228.78698913999
 20
-376.2308303691852
 10
10353.77813364558
 20
-376.2308303691852
  0
HATCH
  5
75C
330
5BB
100
AcDbEntity
  8
0
 62
    30
100
AcDbHatch
 10
0.0
 20
0.0
 30
0.0
210
0.0
220
0.0
230
1.0
  2
SOLID
 70
     1
 71
     1
 91
        1
 92
        7
 72
     1
 73
     1
 93
        9
 10
11466.04967105486
 20
-256.215044027871
 42
0.4142135623730951
 10
11461.04967105486
 20
-251.215044027871
 42
0.0
 10
11361.04967105487
 20
-251.215044027871
 42
0.4142135623730951
 10
11356.04967105486
 20
-256.215044027871
 42
0.0
 10
11356.04967105486
 20
-356.2150440278692
 42
0.4142135623730977
 10
11361.04967105487
 20
-361.2150440278692
 42
0.0
 10
11461.04967105486
 20
-361.2150440278701
 42
2.33895624241484
 10
11456.05479764713
 20
-355.9886822805028
 42
0.0
 10
11466.04967105486
 20
-355.9886822805028
 42
0.0
 97
        2
330
75D
330
746
 75
     0
 76
     1
 47
0.6664528283696248
 98
        1
 10
11434.93074149725
 20
-303.6619623272354
  0
LWPOLYLINE
  5
75D
102
{ACAD_REACTORS
330
75C
102
}
330
5BB
100
AcDbEntity
  8
0
100
AcDbPolyline
 90
        8
 70
     1
 43
0.0
 10
11361.04967105487
 20
-361.2150440278692
 10
11461.04967105486
 20
-361.2150440278701
 42
0.4142135623730951
 10
11466.04967105486
 20
-356.2150440278701
 10
11466.04967105486
 20
-256.215044027871
 42
0.4142135623730951
 10
11461.04967105486
 20
-251.215044027871
 10
11361.04967105487
 20
-251.215044027871
 42
0.4142135623730951
 10
11356.04967105486
 20
-256.215044027871
 10
11356.04967105486
 20
-356.2150440278692
 42
0.4142135623730977
  0
HATCH
  5
75E
330
5BB
100
AcDbEntity
  8
0
 62
    10
100
AcDbHatch
 10
0.0
 20
0.0
 30
0.0
210
0.0
220
0.0
230
1.0
  2
SOLID
 70
     1
 71
     0
 91
        2
 92
        7
 72
     1
 73
     1
 93
        2
 10
11397.20956001657
 20
-410.4576130900086
 42
0.0
 10
11374.5821430186
 20
-410.4576130900086
 42
0.3535533905932957
 97
        0
 92
        7
 72
     1
 73
     1
 93
        2
 10
11446.99856363706
 20
-410.4576130900086
 42
0.0
 10
11424.37114663909
 20
-410.4576130900086
 42
0.3535533905932775
 97
        0
 75
     0
 76
     1
 47
0.2550873442576774
 98
        2
 10
11386.27905218884
 20
-412.9495889827166
 10
11433.26407637977
 20
-412.4393984498319
  0
HATCH
  5
75F
330
5BB
100
AcDbEntity
  8
0
 62
    50
100
AcDbHatch
 10
0.0
 20
0.0
 30
0.0
210
0.0
220
0.0
230
1.0
  2
SOLID
 70
     1
 71
     0
 91
        3
 92
        7
 72
     0
 73
     1
 93
        4
 10
11473.54524330781
 20
-396.4576130900086
 10
11473.54524330781
 20
-376.2308303691852
 10
11348.55409880222
 20
-376.2308303691852
 10
11348.55409880222
 20
-396.4576130900086
 97
        0
 92
        7
 72
     1
 73
     1
 93
        4
 10
11397.20956001657
 20
-410.4576130900086
 42
0.2265409196609858
 10
11403.89585151759
 20
-396.4576130900086
 42
0.0
 10
11367.89585151759
 20
-396.4576130900086
 42
0.2265409196609858
 10
11374.5821430186
 20
-410.4576130900086
 42
0.0
 97
        0
 92
        7
 72
     1
 73
     1
 93
        4
 10
11424.37114663909
 20
-410.4576130900086
 42
0.0
 10
11446.99856363706
 20
-410.4576130900086
 42
0.2265409196609858
 10
11453.68485513808
 20
-396.4576130900086
 42
0.0
 10
11417.68485513808
 20
-396.4576130900086
 42
0.2265409196609794
 97
        0
 75
     0
 76
     1
 47
0.4907601742194315
 98
        3
 10
11372.97173632167
 20
-390.2556163482231
 10
11381.81464433155
 20
-403.5061407805305
 10
11426.02910571088
 20
-403.0153752644955
  0
ARC
  5
760
330
5BB
100
AcDbEntity
  8
0
100
AcDbCircle
 10
11435.68485513808
 20
-396.4576130900086
 30
0.0
 40
18.0
100
AcDbArc
 50
180.0
 51
0.0
  0
LWPOLYLINE
  5
761
330
5BB
100
AcDbEntity
  8
0
100
AcDbPolyline
 90
        4
 70
     1
 43
0.0
 10
11473.54524330781
 20
-396.4576130900086
 10
11348.55409880222
 20
-396.4576130900086
 10
11348.55409880222
 20
-376.2308303691852
 10
11473.54524330781
 20
-376.2308303691852
  0
LWPOLYLINE
  5
762
330
5BB
100
AcDbEntity
  8
0
100
AcDbPolyline
 90
        2
 70
     0
 43
0.0
 10
11397.20956001657
 20
-410.4576130900086
 10
11374.5821430186
 20
-410.4576130900086
  0
ARC
  5
763
330
5BB
100
AcDbEntity
  8
0
100
AcDbCircle
 10
11385.89585151759
 20
-396.4576130900086
 30
0.0
 40
18.0
100
AcDbArc
 50
180.0
 51
0.0
  0
LWPOLYLINE
  5
764
330
5BB
100
AcDbEntity
  8
0
100
AcDbPolyline
 90
        2
 70
     0
 43
0.0
 10
11446.99856363706
 20
-410.4576130900086
 10
11424.37114663909
 20
-410.4576130900086
  0
HATCH
  5
765
330
5BB
100
AcDbEntity
  8
0
 62
   250
100
AcDbHatch
 10
0.0
 20
0.0
 30
0.0
210
0.0
220
0.0
230
1.0
  2
SOLID
 70
     1
 71
     0
 91
        1
 92
        7
 72
     0
 73
     1
 93
        4
 10
13240.86875068063
 20
-235.9886822805028
 10
12940.53192041579
 20
-235.9886822805028
 10
12940.53192041579
 20
-1312.742606097144
 10
13240.86875068064
 20
-1312.742606097144
 97
        0
 75
     0
 76
     1
 47
5.115718727807402
 98
        1
 10
13138.02073628214
 20
-720.4584990361045
  0
LWPOLYLINE
  5
766
330
5BB
100
AcDbEntity
  8
0
100
AcDbPolyline
 90
        4
 70
     1
 43
0.0
 10
13240.86875068063
 20
-1312.742606097144
 10
12940.53192041579
 20
-1312.742606097144
 10
12940.53192041579
 20
-235.9886822805028
 10
13240.86875068063
 20
-235.9886822805028
  0
HATCH
  5
767
330
5BB
100
AcDbEntity
  8
0
 62
    30
100
AcDbHatch
 10
0.0
 20
0.0
 30
0.0
210
0.0
220
0.0
230
1.0
  2
SOLID
 70
     1
 71
     1
 91
        1
 92
        7
 72
     1
 73
     1
 93
        9
 10
12585.81678071709
 20
-256.2150440278708
 42
0.4142135623730851
 10
12580.81678071709
 20
-251.215044027871
 42
0.0
 10
12480.81678071709
 20
-251.215044027871
 42
0.4142135623730951
 10
12475.81678071709
 20
-256.215044027871
 42
0.0
 10
12475.81678071709
 20
-356.2150440278692
 42
0.4142135623730977
 10
12480.81678071709
 20
-361.2150440278692
 42
0.0
 10
12580.81678071709
 20
-361.2150440278701
 42
2.33895624241484
 10
12575.82190730935
 20
-355.9886822805028
 42
0.0
 10
12585.8167807171
 20
-355.9886822805029
 42
0.0
 97
        2
330
768
330
76B
 75
     0
 76
     1
 47
0.6664528283696248
 98
        1
 10
12560.40933613216
 20
-308.327127226622
  0
LWPOLYLINE
  5
768
102
{ACAD_REACTORS
330
767
102
}
330
5BB
100
AcDbEntity
  8
0
100
AcDbPolyline
 90
        8
 70
     1
 43
0.0
 10
12480.81678071709
 20
-361.2150440278692
 10
12580.81678071709
 20
-361.2150440278701
 42
0.4142135623730951
 10
12585.81678071709
 20
-356.2150440278701
 10
12585.81678071709
 20
-256.215044027871
 42
0.4142135623730951
 10
12580.81678071709
 20
-251.215044027871
 10
12480.81678071709
 20
-251.215044027871
 42
0.4142135623730951
 10
12475.81678071709
 20
-256.215044027871
 10
12475.81678071709
 20
-356.2150440278692
 42
0.4142135623730977
  0
HATCH
  5
769
330
5BB
100
AcDbEntity
  8
0
 62
    50
100
AcDbHatch
 10
0.0
 20
0.0
 30
0.0
210
0.0
220
0.0
230
1.0
  2
SOLID
 70
     1
 71
     0
 91
        3
 92
        7
 72
     0
 73
     1
 93
        4
 10
12593.31235297004
 20
-396.4576130900086
 10
12593.31235297004
 20
-376.2308303691852
 10
12468.32120846445
 20
-376.2308303691852
 10
12468.32120846445
 20
-396.4576130900086
 97
        0
 92
        7
 72
     1
 73
     1
 93
        4
 10
12516.9766696788
 20
-410.4576130900086
 42
0.2265409196609858
 10
12523.66296117982
 20
-396.4576130900086
 42
0.0
 10
12487.66296117981
 20
-396.4576130900086
 42
0.2265409196609858
 10
12494.34925268083
 20
-410.4576130900086
 42
0.0
 97
        0
 92
        7
 72
     1
 73
     1
 93
        4
 10
12544.13825630132
 20
-410.4576130900086
 42
0.0
 10
12566.76567329929
 20
-410.4576130900086
 42
0.2265409196609858
 10
12573.45196480031
 20
-396.4576130900086
 42
0.0
 10
12537.45196480031
 20
-396.4576130900086
 42
0.2265409196609794
 97
        0
 75
     0
 76
     1
 47
0.4907601742194315
 98
        3
 10
12492.7388459839
 20
-390.2556163482231
 10
12501.58175399378
 20
-403.5061407805305
 10
12545.79621537311
 20
-403.0153752644955
  0
LWPOLYLINE
  5
76A
330
5BB
100
AcDbEntity
  8
0
100
AcDbPolyline
 90
        4
 70
     1
 43
0.0
 10
12593.31235297004
 20
-396.4576130900086
 10
12468.32120846445
 20
-396.4576130900086
 10
12468.32120846445
 20
-376.2308303691852
 10
12593.31235297004
 20
-376.2308303691852
  0
LWPOLYLINE
  5
76B
102
{ACAD_REACTORS
330
767
102
}
330
5BB
100
AcDbEntity
  8
0
100
AcDbPolyline
 90
        2
 70
     0
 43
0.0
 10
12940.53192041579
 20
-355.9886822805028
 10
12585.81678071709
 20
-355.9886822805028
  0
HATCH
  5
76C
330
5BB
100
AcDbEntity
  8
0
 62
    10
100
AcDbHatch
 10
0.0
 20
0.0
 30
0.0
210
0.0
220
0.0
230
1.0
  2
SOLID
 70
     1
 71
     0
 91
        2
 92
        7
 72
     1
 73
     1
 93
        2
 10
12516.9766696788
 20
-410.4576130900086
 42
0.0
 10
12494.34925268083
 20
-410.4576130900086
 42
0.3535533905932957
 97
        0
 92
        7
 72
     1
 73
     1
 93
        2
 10
12566.76567329929
 20
-410.4576130900086
 42
0.0
 10
12544.13825630132
 20
-410.4576130900086
 42
0.3535533905932775
 97
        0
 75
     0
 76
     1
 47
0.2550873442576774
 98
        2
 10
12506.04616185107
 20
-412.9495889827166
 10
12553.031186042
 20
-412.4393984498319
  0
LWPOLYLINE
  5
76D
330
5BB
100
AcDbEntity
  8
0
100
AcDbPolyline
 90
        2
 70
     0
 43
0.0
 10
12516.9766696788
 20
-410.4576130900086
 10
12494.34925268083
 20
-410.4576130900086
  0
ARC
  5
76E
330
5BB
100
AcDbEntity
  8
0
100
AcDbCircle
 10
12505.66296117981
 20
-396.4576130900086
 30
0.0
 40
18.0
100
AcDbArc
 50
180.0
 51
0.0
  0
LWPOLYLINE
  5
76F
330
5BB
100
AcDbEntity
  8
0
100
AcDbPolyline
 90
        2
 70
     0
 43
0.0
 10
12566.76567329929
 20
-410.4576130900086
 10
12544.13825630132
 20
-410.4576130900086
  0
ARC
  5
770
330
5BB
100
AcDbEntity
  8
0
100
AcDbCircle
 10
12555.45196480031
 20
-396.4576130900086
 30
0.0
 40
18.0
100
AcDbArc
 50
180.0
 51
0.0
  0
HATCH
  5
771
330
5BB
100
AcDbEntity
  8
0
 62
    30
100
AcDbHatch
 10
0.0
 20
0.0
 30
0.0
210
0.0
220
0.0
230
1.0
  2
SOLID
 70
     1
 71
     1
 91
        1
 92
        7
 72
     1
 73
     1
 93
        9
 10
13705.58389037932
 20
-256.2150440278701
 42
0.4142135623730977
 10
13700.58389037932
 20
-251.2150440278701
 42
0.0
 10
13600.58389037932
 20
-251.215044027871
 42
0.4142135623730926
 10
13595.58389037932
 20
-256.215044027871
 42
0.0
 10
13595.58389037932
 20
-356.215044027871
 42
0.4142135623730951
 10
13600.58389037932
 20
-361.215044027871
 42
0.0
 10
13700.58389037932
 20
-361.2150440278701
 42
2.338956242362697
 10
13695.58901697159
 20
-355.9886822803418
 42
0.0
 10
13705.58389037932
 20
-355.9886822803418
 42
0.0
 97
        2
330
772
330
744
 75
     0
 76
     1
 47
1.984506224025321
 98
        1
 10
13667.49626913633
 20
-307.3739738825215
  0
LWPOLYLINE
  5
772
102
{ACAD_REACTORS
330
771
102
}
330
5BB
100
AcDbEntity
  8
0
100
AcDbPolyline
 90
        8
 70
     1
 43
0.0
 10
13600.58389037932
 20
-361.215044027871
 10
13700.58389037932
 20
-361.2150440278701
 42
0.4142135623730951
 10
13705.58389037932
 20
-356.2150440278701
 10
13705.58389037932
 20
-256.2150440278701
 42
0.4142135623730977
 10
13700.58389037932
 20
-251.2150440278701
 10
13600.58389037932
 20
-251.215044027871
 42
0.4142135623730925
 10
13595.58389037932
 20
-256.215044027871
 10
13595.58389037932
 20
-356.215044027871
 42
0.4142135623730951
  0
LWPOLYLINE
  5
773
330
5BB
100
AcDbEntity
  8
0
100
AcDbPolyline
 90
        3
 70
     0
 43
0.0
 10
13240.86875068063
 20
-375.6968295467895
 10
13669.45848867159
 20
-375.6968295467895
 10
13669.45848867159
 20
-361.2150440278701
  0
LWPOLYLINE
  5
774
330
5BB
100
AcDbEntity
  8
0
100
AcDbPolyline
 90
        2
 70
     0
 43
0.0
 10
13595.58389037932
 20
-355.9886822805028
 10
13240.86875068063
 20
-355.9886822805028
  0
LWPOLYLINE
  5
775
330
5BB
100
AcDbEntity
  8
0
100
AcDbPolyline
 90
        4
 70
     1
 43
0.0
 10
13713.07946263228
 20
-396.4576130900095
 10
13588.08831812669
 20
-396.4576130900095
 10
13588.08831812669
 20
-376.2308303691861
 10
13713.07946263228
 20
-376.2308303691861
  0
HATCH
  5
776
330
5BB
100
AcDbEntity
  8
0
 62
    50
100
AcDbHatch
 10
0.0
 20
0.0
 30
0.0
210
0.0
220
0.0
230
1.0
  2
SOLID
 70
     1
 71
     0
 91
        3
 92
        7
 72
     0
 73
     1
 93
        4
 10
13713.07946263228
 20
-396.4576130900095
 10
13713.07946263228
 20
-376.2308303691861
 10
13588.08831812669
 20
-376.2308303691861
 10
13588.08831812669
 20
-396.4576130900104
 97
        0
 92
        7
 72
     1
 73
     1
 93
        4
 10
13636.74377934104
 20
-410.4576130900095
 42
0.2265409196609985
 10
13643.43007084205
 20
-396.4576130900095
 42
0.0
 10
13607.43007084205
 20
-396.4576130900095
 42
0.2265409196609985
 10
13614.11636234307
 20
-410.4576130900095
 42
0.0
 97
        0
 92
        7
 72
     1
 73
     1
 93
        4
 10
13663.90536596354
 20
-410.4576130900095
 42
0.0
 10
13686.53278296151
 20
-410.4576130900095
 42
0.2265409196609985
 10
13693.21907446253
 20
-396.4576130900095
 42
0.0
 10
13657.21907446253
 20
-396.4576130900095
 42
0.2265409196609731
 97
        0
 75
     0
 76
     1
 47
0.4907601742194315
 98
        3
 10
13612.50595564612
 20
-390.255616348224
 10
13621.34886365601
 20
-403.5061407805314
 10
13665.56332503533
 20
-403.0153752644964
  0
HATCH
  5
777
330
5BB
100
AcDbEntity
  8
0
 62
    10
100
AcDbHatch
 10
0.0
 20
0.0
 30
0.0
210
0.0
220
0.0
230
1.0
  2
SOLID
 70
     1
 71
     0
 91
        2
 92
        7
 72
     1
 73
     1
 93
        2
 10
13636.74377934104
 20
-410.4576130900095
 42
0.0
 10
13614.11636234306
 20
-410.4576130900095
 42
0.3535533905933505
 97
        0
 92
        7
 72
     1
 73
     1
 93
        2
 10
13686.53278296152
 20
-410.4576130900095
 42
0.0
 10
13663.90536596354
 20
-410.4576130900095
 42
0.3535533905933505
 97
        0
 75
     0
 76
     1
 47
0.2550873442576774
 98
        2
 10
13625.8132715133
 20
-412.9495889827175
 10
13672.79829570423
 20
-412.4393984498328
  0
LWPOLYLINE
  5
778
330
5BB
100
AcDbEntity
  8
0
100
AcDbPolyline
 90
        2
 70
     0
 43
0.0
 10
13636.74377934102
 20
-410.4576130900095
 10
13614.11636234306
 20
-410.4576130900095
  0
ARC
  5
779
330
5BB
100
AcDbEntity
  8
0
100
AcDbCircle
 10
13625.43007084205
 20
-396.4576130900095
 30
0.0
 40
18.0
100
AcDbArc
 50
180.0
 51
0.0
  0
LWPOLYLINE
  5
77A
330
5BB
100
AcDbEntity
  8
0
100
AcDbPolyline
 90
        2
 70
     0
 43
0.0
 10
13686.53278296152
 20
-410.4576130900095
 10
13663.90536596354
 20
-410.4576130900095
  0
ARC
  5
77B
330
5BB
100
AcDbEntity
  8
0
100
AcDbCircle
 10
13675.21907446253
 20
-396.4576130900095
 30
0.0
 40
18.0
100
AcDbArc
 50
180.0
 51
0.0
  0
LINE
  5
77C
330
5BB
100
AcDbEntity
  8
0
100
AcDbLine
 10
14785.89575004288
 20
-1.846338052470855
 30
0.0
 11
14798.93321969759
 21
-15.78228435493565
 31
0.0
  0
LWPOLYLINE
  5
77D
330
5BB
100
AcDbEntity
  8
0
100
AcDbPolyline
 90
        6
 70
     0
 43
0.0
 10
14843.03696564809
 20
-113.7859250848514
 10
14855.48421655322
 20
-127.2704468987331
 10
14854.96558109883
 20
-130.3822596250129
 10
14823.32881838165
 20
-194.174420513762
 10
14822.81018292727
 20
-197.8048686944211
 10
14840.34126741428
 20
-217.1813304958532
  0
LWPOLYLINE
  5
77E
330
5BB
100
AcDbEntity
  8
0
100
AcDbPolyline
 90
        4
 70
     0
 43
0.0
 10
14798.93321969759
 20
-15.78228435493565
 10
14790.65478475571
 20
-72.29508873444501
 10
14790.13614930132
 20
-74.36963055196611
 10
14770.68721502351
 20
-119.0607986797194
  0
LWPOLYLINE
  5
77F
330
5BB
100
AcDbEntity
  8
0
100
AcDbPolyline
 90
        2
 70
     0
 43
0.0
 10
14785.96527755278
 20
-1.920446437833561
 10
14785.89575004288
 20
-1.846338052471764
  0
LWPOLYLINE
  5
780
330
5BB
100
AcDbEntity
  8
0
100
AcDbPolyline
 90
        6
 70
     0
 43
0.0
 10
13595.43395123857
 20
2046.330742408127
 10
13587.76539128626
 20
2046.330742408127
 10
13587.76539128626
 20
2066.557525128945
 10
14870.00600927586
 20
2066.557525128945
 10
14870.00600927586
 20
2046.330742408127
 10
13705.43326691051
 20
2046.330742408127
  0
LWPOLYLINE
  5
781
330
5BB
100
AcDbEntity
  8
0
100
AcDbPolyline
 90
        2
 70
     0
 43
0.0
 10
14408.42045487775
 20
2046.330742408122
 10
15679.59595356314
 20
855.5437391516333
  0
HATCH
  5
782
330
5BB
100
AcDbEntity
  8
0
 62
    30
100
AcDbHatch
 10
0.0
 20
0.0
 30
0.0
210
0.0
220
0.0
230
1.0
  2
SOLID
 70
     1
 71
     1
 91
        2
 92
        7
 72
     1
 73
     1
 93
        8
 10
13595.43360907454
 20
1946.272248620254
 42
0.4142135623731045
 10
13600.43360907454
 20
1941.272248620253
 42
0.0
 10
13700.43360907454
 20
1941.272248620252
 42
0.4142135623730951
 10
13705.43360907454
 20
1946.272248620251
 42
0.0
 10
13705.43360907454
 20
2046.272248620252
 42
0.4142135623730951
 10
13700.43360907454
 20
2051.272248620253
 42
0.0
 10
13600.43360907454
 20
2051.272248620253
 42
0.4142135623730951
 10
13595.43360907454
 20
2046.272248620252
 42
0.0
 97
        1
330
7FD
 92
        7
 72
     1
 73
     1
 93
        8
 10
9116.515451730412
 20
1946.557104155659
 42
0.4142135623731084
 10
9121.515451730411
 20
1941.557104155659
 42
0.0
 10
9221.515451730411
 20
1941.557104155659
 42
0.4142135623730951
 10
9226.515451730412
 20
1946.557104155659
 42
0.0
 10
9226.515451730412
 20
2046.557104155658
 42
0.4142135623730951
 10
9221.515451730411
 20
2051.557104155658
 42
0.0
 10
9121.515451730411
 20
2051.557104155657
 42
0.4142135623730977
 10
9116.515451730412
 20
2046.557104155657
 42
0.0
 97
        1
330
7AD
 75
     0
 76
     1
 47
14.5823950958895
 98
        2
 10
13630.60840856892
 20
1986.819361999888
 10
9149.142920720114
 20
1986.819361999888
  0
HATCH
  5
783
330
5BB
100
AcDbEntity
  8
0
 62
   250
100
AcDbHatch
 10
0.0
 20
0.0
 30
0.0
210
0.0
220
0.0
230
1.0
  2
SOLID
 70
     1
 71
     0
 91
        4
 92
        7
 72
     1
 73
     1
 93
        5
 10
11760.96792083442
 20
2540.993898461989
 42
0.0
 10
11661.42482809574
 20
2540.993898461989
 42
0.0
 10
11661.42482809574
 20
1606.252421035837
 42
-0.023094941084904
 10
11699.60166936141
 20
1581.374205658038
 42
0.0
 10
11760.96792083442
 20
1581.374205658038
 42
0.0
 97
        0
 92
        7
 72
     1
 73
     1
 93
        5
 10
11161.28148409166
 20
2540.993898461989
 42
0.0
 10
11061.13142127531
 20
2540.993898461989
 42
0.0
 10
11061.13142127531
 20
1581.374205658038
 42
0.0
 10
11123.10464282599
 20
1581.374205658038
 42
-0.0230949410849043
 10
11161.28148409166
 20
1606.252421035838
 42
0.0
 97
        0
 92
        7
 72
     1
 73
     1
 93
        4
 10
11001.04138358549
 20
1581.374205658038
 42
0.0
 10
11001.04138358549
 20
1481.224142841687
 42
0.0
 10
11019.82097226218
 20
1481.224142841687
 42
-0.0732680677005724
 10
11123.10464282598
 20
1581.374205658038
 42
0.0
 97
        0
 92
        7
 72
     1
 73
     1
 93
        4
 10
11821.05795852423
 20
1581.374205658038
 42
0.0
 10
11699.60166936141
 20
1581.374205658038
 42
-0.0732680677005751
 10
11802.88533992522
 20
1481.224142841687
 42
0.0
 10
11821.05795852423
 20
1481.224142841686
 42
0.0
 97
        0
 75
     0
 76
     1
 47
5.050205862247597
 98
        4
 10
11736.81580181871
 20
1969.531449213263
 10
11125.10343084397
 20
1934.179990888139
 10
11034.10488898949
 20
1565.514976042092
 10
11797.48149638837
 20
1530.163517716954
  0
HATCH
  5
784
330
5BB
100
AcDbEntity
  8
0
 62
    30
100
AcDbHatch
 10
0.0
 20
0.0
 30
0.0
210
0.0
220
0.0
230
1.0
  2
SOLID
 70
     1
 71
     0
 91
        3
 92
        7
 72
     1
 73
     1
 93
        7
 10
11154.2816338822
 20
855.5437391514979
 42
0.0
 10
11240.9441900353
 20
855.5437391514979
 42
-0.4033363128414419
 10
11250.93724201835
 20
865.1710300638924
 42
0.0
 10
11311.20309327735
 20
865.1710300638907
 42
0.0
 10
11311.20309327735
 20
965.2995768180581
 42
0.0
 10
11510.89624883238
 20
965.2995768180572
 42
0.0
 10
11510.89624883238
 20
778.3418071603928
 42
4.312812521617288
 97
        0
 92
        7
 72
     0
 73
     1
 93
        4
 10
11841.0879710875
 20
1586.229966279435
 10
11821.05795852423
 20
1586.229966279436
 10
11821.05795852423
 20
1476.368382220286
 10
11841.0879710875
 20
1476.368382220288
 97
        0
 92
        7
 72
     0
 73
     1
 93
        4
 10
11001.04138358549
 20
1586.229966279436
 10
10981.01137102222
 20
1586.229966279435
 10
10981.01137102222
 20
1476.368382220286
 10
11001.04138358549
 20
1476.368382220286
 97
        0
 75
     0
 76
     1
 47
5.050205862247597
 98
        3
 10
11590.20708921134
 20
1277.653192121465
 10
11832.86986748998
 20
1520.063123805771
 10
10993.66109260972
 20
1520.063123805771
  0
HATCH
  5
785
330
5BB
100
AcDbEntity
  8
0
 62
   150
100
AcDbHatch
 10
0.0
 20
0.0
 30
0.0
210
0.0
220
0.0
230
1.0
  2
SOLID
 70
     1
 71
     0
 91
       16
 92
        7
 72
     1
 73
     1
 93
        2
 10
11807.49551448514
 20
1424.16895554025
 42
1.0
 10
11771.49551448514
 20
1424.16895554025
 42
1.0
 97
        0
 92
        7
 72
     1
 73
     1
 93
        2
 10
11860.90888132053
 20
1307.630700626677
 42
1.0
 10
11824.90888132053
 20
1307.630700626677
 42
1.0
 97
        0
 92
        7
 72
     1
 73
     1
 93
        2
 10
11879.11798365077
 20
1180.773954392631
 42
1.0
 10
11843.11798365077
 20
1180.773954392631
 42
1.0
 97
        0
 92
        7
 72
     1
 73
     1
 93
        2
 10
11860.90888132053
 20
1053.917208158586
 42
1.0
 10
11824.90888132053
 20
1053.917208158586
 42
1.0
 97
        0
 92
        7
 72
     1
 73
     1
 93
        2
 10
11807.49551448514
 20
937.3789532450128
 42
1.0
 10
11771.49551448514
 20
937.3789532450128
 42
1.0
 97
        0
 92
        7
 72
     1
 73
     1
 93
        2
 10
11723.73364376601
 20
840.2637408170358
 42
1.0
 10
11687.73364376601
 20
840.2637408170358
 42
1.0
 97
        0
 92
        7
 72
     1
 73
     1
 93
        2
 10
11580.29994001756
 20
771.0691519621023
 42
1.0
 10
11616.29994001756
 20
771.0691519621023
 42
1.0
 97
        0
 92
        7
 72
     1
 73
     1
 93
        2
 10
11493.08501424956
 20
734.6509473016103
 42
1.0
 10
11457.08501424957
 20
734.6509473016103
 42
1.0
 97
        0
 92
        7
 72
     1
 73
     1
 93
        2
 10
11365.01432786016
 20
734.6509473016103
 42
1.0
 10
11329.01432786016
 20
734.6509473016103
 42
1.0
 97
        0
 92
        7
 72
     1
 73
     1
 93
        2
 10
11242.40637216984
 20
771.0691519621023
 42
1.0
 10
11206.40637216984
 20
771.0691519621023
 42
1.0
 97
        0
 92
        7
 72
     1
 73
     1
 93
        2
 10
11133.67261384692
 20
835.3169564306753
 42
0.0
 10
11099.05878284052
 20
835.3169564306753
 42
0.7542196419244734
 97
        0
 92
        7
 72
     1
 73
     1
 93
        2
 10
11050.60382762459
 20
937.3789532450128
 42
1.0
 10
11014.60382762459
 20
937.3789532450128
 42
1.0
 97
        0
 92
        7
 72
     1
 73
     1
 93
        2
 10
10961.1904607892
 20
1053.917208158586
 42
1.0
 10
10997.1904607892
 20
1053.917208158586
 42
1.0
 97
        0
 92
        7
 72
     1
 73
     1
 93
        2
 10
10978.98135845896
 20
1180.773954392631
 42
1.0
 10
10942.98135845896
 20
1180.773954392631
 42
1.0
 97
        0
 92
        7
 72
     1
 73
     1
 93
        2
 10
10961.1904607892
 20
1307.630700626677
 42
1.0
 10
10997.1904607892
 20
1307.630700626677
 42
1.0
 97
        0
 92
        7
 72
     1
 73
     1
 93
        2
 10
11014.60382762459
 20
1424.16895554025
 42
1.0
 10
11050.60382762459
 20
1424.16895554025
 42
1.0
 97
        0
 75
     0
 76
     1
 47
2.267477919474817
 98
       16
 10
11787.71050552689
 20
1418.052983758362
 10
11846.72646654737
 20
1306.946580199251
 10
11862.61532607055
 20
1175.432813018257
 10
11842.18679239789
 20
1055.256505465414
 10
11789.98034260163
 20
937.3475942750109
 10
11701.45640107092
 20
837.5785707080385
 10
11601.58337270511
 20
774.0891631159784
 10
11469.93242821571
 20
731.0071191457855
 10
11347.36083202527
 20
731.0071191457855
 10
11224.78933437345
 20
769.5542111191198
 10
11120.37653331955
 20
828.5086667143215
 10
11038.66210301305
 20
935.0801182765744
 10
10979.64624053118
 20
1059.791457462287
 10
10961.48744539464
 20
1182.235241013552
 10
10977.37640345644
 20
1313.749008194546
 10
11029.58275471408
 20
1427.122887752094
  0
HATCH
  5
786
330
5BB
100
AcDbEntity
  8
0
 62
    50
100
AcDbHatch
 10
0.0
 20
0.0
 30
0.0
210
0.0
220
0.0
230
1.0
  2
SOLID
 70
     1
 71
     1
 91
       13
 92
        7
 72
     1
 73
     1
 93
        6
 10
11510.89624883238
 20
778.341807160393
 42
0.0
 10
11510.89624883238
 20
697.3911460481767
 42
3.705321243576375
 10
11040.14826144769
 20
855.5437391514979
 42
0.0
 10
11106.85141167057
 20
855.5437391514979
 42
-0.2858860321304463
 10
11125.87998501687
 20
855.5437391514979
 42
0.0
 10
11154.2816338822
 20
855.5437391514979
 42
-4.312812521617261
 97
        5
330
79A
330
79E
330
78A
330
796
330
78B
 92
       22
 72
     1
 73
     1
 93
        2
 10
11807.49551448514
 20
1424.16895554025
 42
-1.0
 10
11771.49551448514
 20
1424.16895554025
 42
-1.0
 97
        1
330
788
 92
       22
 72
     1
 73
     1
 93
        2
 10
11860.90888132053
 20
1307.630700626677
 42
-1.0
 10
11824.90888132053
 20
1307.630700626677
 42
-1.0
 97
        1
330
7E8
 92
       22
 72
     1
 73
     1
 93
        2
 10
11879.11798365077
 20
1180.773954392631
 42
-1.0
 10
11843.11798365077
 20
1180.773954392631
 42
-1.0
 97
        1
330
7E9
 92
       22
 72
     1
 73
     1
 93
        2
 10
11014.60382762459
 20
1424.16895554025
 42
-1.0
 10
11050.60382762459
 20
1424.16895554025
 42
-1.0
 97
        1
330
78C
 92
       22
 72
     1
 73
     1
 93
        2
 10
11860.90888132053
 20
1053.917208158586
 42
-1.0
 10
11824.90888132053
 20
1053.917208158586
 42
-1.0
 97
        1
330
7E7
 92
       22
 72
     1
 73
     1
 93
        2
 10
10961.1904607892
 20
1307.630700626677
 42
-1.0
 10
10997.1904607892
 20
1307.630700626677
 42
-1.0
 97
        1
330
7AA
 92
       22
 72
     1
 73
     1
 93
        2
 10
11807.49551448514
 20
937.3789532450128
 42
-1.0
 10
11771.49551448514
 20
937.3789532450128
 42
-1.0
 97
        1
330
789
 92
       22
 72
     1
 73
     1
 93
        2
 10
10942.98135845896
 20
1180.773954392631
 42
-1.0
 10
10978.98135845896
 20
1180.773954392631
 42
-1.0
 97
        1
330
7AB
 92
       22
 72
     1
 73
     1
 93
        2
 10
11723.73364376601
 20
840.2637408170358
 42
-1.0
 10
11687.73364376601
 20
840.2637408170358
 42
-1.0
 97
        1
330
7A7
 92
       22
 72
     1
 73
     1
 93
        2
 10
10961.1904607892
 20
1053.917208158586
 42
-1.0
 10
10997.1904607892
 20
1053.917208158586
 42
-1.0
 97
        1
330
7A9
 92
       22
 72
     1
 73
     1
 93
        2
 10
11616.29994001756
 20
771.0691519621023
 42
-1.0
 10
11580.29994001756
 20
771.0691519621023
 42
-1.0
 97
        1
330
7A5
 92
       22
 72
     1
 73
     1
 93
        2
 10
11014.60382762459
 20
937.3789532450128
 42
-1.0
 10
11050.60382762459
 20
937.3789532450128
 42
-1.0
 97
        1
330
7A8
 75
     0
 76
     1
 47
2.267477919474817
 98
       13
 10
11551.64675998359
 20
1608.521126898561
 10
11551.64675998359
 20
1608.521126898561
 10
11551.64675998359
 20
1608.521126898561
 10
11551.64675998359
 20
1608.521126898561
 10
11551.64675998359
 20
1608.521126898561
 10
11551.64675998359
 20
1608.521126898561
 10
11551.64675998359
 20
1608.521126898561
 10
11551.64675998359
 20
1608.521126898561
 10
11551.64675998359
 20
1608.521126898561
 10
11551.64675998359
 20
1608.521126898561
 10
11551.64675998359
 20
1608.521126898561
 10
11551.64675998359
 20
1608.521126898561
 10
11551.64675998359
 20
1608.521126898561
  0
LWPOLYLINE
  5
787
330
5BB
100
AcDbEntity
  8
0
 62
     0
100
AcDbPolyline
 90
        4
 70
     0
 43
0.0
 10
11699.60166936141
 20
1581.374205658038
 10
11821.05795852423
 20
1581.374205658038
 10
11821.05795852423
 20
1481.224142841687
 10
11802.88533992522
 20
1481.224142841687
  0
CIRCLE
  5
788
102
{ACAD_REACTORS
330
786
102
}
330
5BB
100
AcDbEntity
  8
0
 62
     0
100
AcDbCircle
 10
11789.49551448514
 20
1424.16895554025
 30
0.0
 40
18.0
  0
CIRCLE
  5
789
102
{ACAD_REACTORS
330
786
102
}
330
5BB
100
AcDbEntity
  8
0
 62
     0
100
AcDbCircle
 10
11789.49551448514
 20
937.3789532450128
 30
0.0
 40
18.0
  0
ARC
  5
78A
102
{ACAD_REACTORS
330
786
102
}
330
5BB
100
AcDbEntity
  8
0
 62
     0
100
AcDbCircle
 10
11411.3531560937
 20
1180.773954392631
 30
0.0
 40
414.5605630519275
100
AcDbArc
 50
283.8934535885817
 51
231.6761191995157
  0
ARC
  5
78B
102
{ACAD_REACTORS
330
786
102
}
330
5BB
100
AcDbEntity
  8
0
 62
     0
100
AcDbCircle
 10
11411.3531560937
 20
1180.773954392631
 30
0.0
 40
493.5258521242358
100
AcDbArc
 50
281.6362610132444
 51
221.2231389832333
  0
CIRCLE
  5
78C
102
{ACAD_REACTORS
330
786
102
}
330
5BB
100
AcDbEntity
  8
0
 62
     0
100
AcDbCircle
 10
11032.60382762459
 20
1424.16895554025
 30
0.0
 40
18.0
  0
HATCH
  5
78D
330
5BB
100
AcDbEntity
  8
0
 62
    50
100
AcDbHatch
 10
0.0
 20
0.0
 30
0.0
210
0.0
220
0.0
230
1.0
  2
SOLID
 70
     1
 71
     1
 91
        3
 92
        7
 72
     0
 73
     1
 93
       16
 10
11510.89624883238
 20
681.2375804662224
 10
11510.89624883238
 20
965.2995768180572
 10
11311.20309327735
 20
965.2995768180572
 10
11311.20309327735
 20
865.1710300638914
 10
11317.91258606502
 20
865.1710300638912
 10
11377.91258606503
 20
925.171030063897
 10
11411.04967105487
 20
925.171030063897
 10
11444.18675604472
 20
925.171030063897
 10
11491.04967105487
 20
878.3081150537425
 10
11491.04967105486
 20
812.033945074048
 10
11444.18675604472
 20
765.171030063897
 10
11411.04967105486
 20
765.171030063897
 10
11377.91258606502
 20
765.171030063897
 10
11317.91258606503
 20
825.1710300638922
 10
11311.20309327735
 20
825.1710300638924
 10
11311.20309327735
 20
681.2375804662224
 97
        5
330
796
330
790
330
7AC
330
78F
330
7A1
 92
       22
 72
     1
 73
     1
 93
        2
 10
11493.08501424956
 20
734.6509473016103
 42
-1.0
 10
11457.08501424957
 20
734.6509473016103
 42
-1.0
 97
        1
330
7A6
 92
       22
 72
     1
 73
     1
 93
        2
 10
11329.01432786016
 20
734.6509473016103
 42
-1.0
 10
11365.01432786016
 20
734.6509473016103
 42
-1.0
 97
        1
330
7A4
 75
     0
 76
     1
 47
5.050205862247597
 98
        3
 10
11423.37637987548
 20
722.1305713745996
 10
11423.37637987548
 20
722.1305713745996
 10
11423.37637987548
 20
722.1305713745996
  0
HATCH
  5
78E
330
5BB
100
AcDbEntity
  8
0
 62
    30
100
AcDbHatch
 10
0.0
 20
0.0
 30
0.0
210
0.0
220
0.0
230
1.0
  2
SOLID
 70
     1
 71
     0
 91
        1
 92
        7
 72
     1
 73
     1
 93
       16
 10
11379.04967105502
 20
821.1710300638923
 42
0.2360679774997896
 10
11371.04967105502
 20
825.1710300638924
 42
0.0
 10
11331.04967105487
 20
825.1710300638924
 42
0.0
 10
11331.04967105487
 20
812.0339450740493
 42
0.0
 10
11377.91258606503
 20
765.171030063897
 42
0.0
 10
11411.04967105487
 20
765.171030063897
 42
0.0
 10
11444.18675604472
 20
765.171030063897
 42
0.0
 10
11491.04967105486
 20
812.0339450740484
 42
0.0
 10
11491.04967105487
 20
878.3081150537437
 42
0.0
 10
11444.18675604472
 20
925.171030063897
 42
0.0
 10
11411.04967105486
 20
925.171030063897
 42
0.0
 10
11377.91258606503
 20
925.171030063896
 42
0.0
 10
11331.04967105487
 20
878.3081150537446
 42
0.0
 10
11331.04967105487
 20
865.1710300638915
 42
0.0
 10
11371.04967105502
 20
865.1710300638907
 42
0.2360679774997898
 10
11379.04967105502
 20
869.1710300638906
 42
-3.000000000000124
 97
        0
 75
     0
 76
     1
 47
0.8991001038431768
 98
        1
 10
11432.28824233414
 20
893.70164374055
  0
LWPOLYLINE
  5
78F
102
{ACAD_REACTORS
330
78D
102
}
330
5BB
100
AcDbEntity
  8
0
100
AcDbPolyline
 90
        6
 70
     0
 43
0.0
 10
11411.04967105486
 20
765.171030063897
 10
11444.18675604472
 20
765.171030063897
 10
11491.04967105486
 20
812.0339450740493
 10
11491.04967105486
 20
878.3081150537446
 10
11444.18675604472
 20
925.171030063897
 10
11411.04967105486
 20
925.171030063897
  0
LWPOLYLINE
  5
790
102
{ACAD_REACTORS
330
78D
102
}
330
5BB
100
AcDbEntity
  8
0
100
AcDbPolyline
 90
        8
 70
     1
 43
0.0
 10
11371.04967105502
 20
825.1710300638924
 42
-0.2360679774997897
 10
11379.04967105502
 20
821.1710300638923
 42
3.000000000000124
 10
11379.04967105502
 20
869.1710300638906
 42
-0.2360679774997897
 10
11371.04967105502
 20
865.1710300638907
 10
11250.93724201835
 20
865.1710300638924
 42
0.4142135623730951
 10
11240.93724201835
 20
855.1710300638925
 10
11240.93724201835
 20
835.1710300638924
 42
0.4142135623730951
 10
11250.93724201835
 20
825.1710300638924
  0
CIRCLE
  5
791
102
{ACAD_REACTORS
330
794
102
}
330
5BB
100
AcDbEntity
  8
0
100
AcDbCircle
 10
11261.16402473902
 20
845.1710300638969
 30
0.0
 40
18.1522409033023
  0
CIRCLE
  5
792
102
{ACAD_REACTORS
330
794
102
}
330
5BB
100
AcDbEntity
  8
0
100
AcDbCircle
 10
11351.40659380116
 20
845.1710300638969
 30
0.0
 40
17.63360544892202
  0
CIRCLE
  5
793
102
{ACAD_REACTORS
330
794
102
}
330
5BB
100
AcDbEntity
  8
0
100
AcDbCircle
 10
11411.04967105486
 20
845.1710300638969
 30
0.0
 40
17.63360544892111
  0
HATCH
  5
794
330
5BB
100
AcDbEntity
  8
0
 62
    50
100
AcDbHatch
 10
0.0
 20
0.0
 30
0.0
210
0.0
220
0.0
230
1.0
  2
SOLID
 70
     1
 71
     1
 91
        6
 92
        7
 72
     1
 73
     1
 93
        2
 10
11279.31626564232
 20
845.1710300638969
 42
1.0
 10
11243.01178383572
 20
845.1710300638969
 42
1.0
 97
        1
330
791
 92
       22
 72
     1
 73
     1
 93
        2
 10
11272.41402473902
 20
845.1710300638969
 42
1.0
 10
11249.91402473902
 20
845.1710300638969
 42
1.0
 97
        1
330
7A2
 92
        7
 72
     1
 73
     1
 93
        2
 10
11369.04019925008
 20
845.1710300638969
 42
1.0
 10
11333.77298835224
 20
845.1710300638969
 42
1.0
 97
        1
330
792
 92
       22
 72
     1
 73
     1
 93
        2
 10
11362.65659380116
 20
845.1710300638969
 42
-1.0
 10
11340.15659380116
 20
845.1710300638969
 42
-1.0
 97
        1
330
7A3
 92
        7
 72
     1
 73
     1
 93
        2
 10
11428.68327650379
 20
845.1710300638964
 42
1.0
 10
11393.41606560594
 20
845.1710300638969
 42
1.0
 97
        1
330
793
 92
       22
 72
     1
 73
     1
 93
        2
 10
11422.29967105486
 20
845.1710300638969
 42
-1.0
 10
11399.79967105486
 20
845.1710300638969
 42
-1.0
 97
        1
330
79B
 75
     0
 76
     1
 47
0.4567424018285859
 98
        6
 10
11271.28822778083
 20
833.5094927557484
 10
11271.28822778083
 20
833.5094927557484
 10
11340.32828507711
 20
837.6201855085355
 10
11340.32828507711
 20
837.6201855085355
 10
11403.88169576622
 20
833.0527674658414
 10
11403.88169576622
 20
833.0527674658414
  0
HATCH
  5
795
330
5BB
100
AcDbEntity
  8
0
 62
    70
100
AcDbHatch
 10
0.0
 20
0.0
 30
0.0
210
0.0
220
0.0
230
1.0
  2
SOLID
 70
     1
 71
     0
 91
        4
 92
        7
 72
     1
 73
     1
 93
        8
 10
11379.04967105502
 20
821.1710300638923
 42
3.000000000000124
 10
11379.04967105502
 20
869.1710300638906
 42
-0.2360679774997898
 10
11371.04967105502
 20
865.1710300638907
 42
0.0
 10
11250.93724201835
 20
865.1710300638924
 42
0.4142135623730951
 10
11240.93724201835
 20
855.1710300638925
 42
0.0
 10
11240.93724201835
 20
835.1710300638924
 42
0.4142135623730951
 10
11250.93724201835
 20
825.1710300638924
 42
0.0
 10
11371.04967105502
 20
825.1710300638924
 42
-0.2360679774997896
 97
        0
 92
       22
 72
     1
 73
     1
 93
        2
 10
11393.41606560594
 20
845.1710300638969
 42
-1.0
 10
11428.68327650379
 20
845.1710300638969
 42
-1.0
 97
        0
 92
       22
 72
     1
 73
     1
 93
        2
 10
11333.77298835224
 20
845.1710300638969
 42
-1.0
 10
11369.04019925008
 20
845.1710300638969
 42
-1.0
 97
        0
 92
       22
 72
     1
 73
     1
 93
        2
 10
11243.01178383571
 20
845.1710300638969
 42
-1.0
 10
11279.31626564232
 20
845.1710300638969
 42
-1.0
 97
        0
 75
     0
 76
     1
 47
2.97881942578715
 98
        4
 10
11381.38489094316
 20
833.3812587444089
 10
11381.38489094316
 20
833.3812587444089
 10
11381.38489094316
 20
833.3812587444089
 10
11381.38489094316
 20
833.3812587444089
  0
LWPOLYLINE
  5
796
102
{ACAD_REACTORS
330
786
330
797
330
78D
102
}
330
5BB
100
AcDbEntity
  8
0
 62
     0
100
AcDbPolyline
 90
        6
 70
     0
 43
0.0
 10
11311.20309327735
 20
865.1710300638915
 10
11311.20309327735
 20
965.2995768180572
 10
11510.89624883238
 20
965.2995768180572
 10
11510.89624883238
 20
681.2375804662224
 10
11311.20309327735
 20
681.2375804662224
 10
11311.20309327735
 20
825.1710300638924
  0
HATCH
  5
797
330
5BB
100
AcDbEntity
  8
0
 62
    50
100
AcDbHatch
 10
0.0
 20
0.0
 30
0.0
210
0.0
220
0.0
230
1.0
  2
SOLID
 70
     1
 71
     1
 91
        2
 92
        7
 72
     1
 73
     1
 93
        6
 10
11311.20309327735
 20
697.5165368263471
 42
0.0
 10
11311.20309327735
 20
778.4924293932691
 42
-0.0856421503562451
 10
11182.18089992589
 20
835.3169564306753
 42
0.0
 10
11133.67261384692
 20
835.3169564306753
 42
-0.7542196419245546
 10
11099.05878284052
 20
835.3169564306753
 42
0.0
 10
11058.89432264777
 20
835.3169564306753
 42
0.1488559188356511
 97
        5
330
79D
330
79A
330
7A0
330
799
330
796
 92
       22
 72
     1
 73
     1
 93
        2
 10
11206.40637216984
 20
771.0691519621023
 42
-1.0
 10
11242.40637216984
 20
771.0691519621023
 42
-1.0
 97
        1
330
79F
 75
     0
 76
     1
 47
2.267477919474817
 98
        2
 10
11265.64650025738
 20
733.2745951442221
 10
11265.64650025738
 20
733.2745951442221
  0
HATCH
  5
798
330
5BB
100
AcDbEntity
  8
0
 62
    50
100
AcDbHatch
 10
0.0
 20
0.0
 30
0.0
210
0.0
220
0.0
230
1.0
  2
SOLID
 70
     1
 71
     0
 91
        1
 92
        7
 72
     0
 73
     1
 93
        4
 10
11240.93724201835
 20
855.5437391514969
 10
10971.24680574057
 20
855.5437391514979
 10
10971.24680574057
 20
835.3169564306744
 10
11240.93724201835
 20
835.3169564306753
 97
        0
 75
     0
 76
     1
 47
1.426741568484111
 98
        1
 10
11157.88279494633
 20
842.2898368221531
  0
ARC
  5
799
102
{ACAD_REACTORS
330
797
102
}
330
5BB
100
AcDbEntity
  8
0
 62
     0
100
AcDbCircle
 10
11411.3531560937
 20
1180.773954392631
 30
0.0
 40
493.5258521242358
100
AcDbArc
 50
224.4251997945237
 51
258.2917849786464
  0
LWPOLYLINE
  5
79A
102
{ACAD_REACTORS
330
786
330
797
102
}
330
5BB
100
AcDbEntity
  8
0
100
AcDbPolyline
 90
        4
 70
     1
 43
0.0
 10
11240.93724201821
 20
835.3169564306753
 10
10971.24680574057
 20
835.3169564306753
 10
10971.24680574057
 20
855.5437391514979
 10
11240.93724201821
 20
855.5437391514979
  0
CIRCLE
  5
79B
102
{ACAD_REACTORS
330
794
330
79C
102
}
330
5BB
100
AcDbEntity
  8
0
100
AcDbCircle
 10
11411.04967105486
 20
845.1710300638969
 30
0.0
 40
11.25
  0
HATCH
  5
79C
330
5BB
100
AcDbEntity
  8
0
 62
    10
100
AcDbHatch
 10
0.0
 20
0.0
 30
0.0
210
0.0
220
0.0
230
1.0
  2
SOLID
 70
     1
 71
     1
 91
        3
 92
        7
 72
     1
 73
     1
 93
        2
 10
11422.29967105486
 20
845.1710300638969
 42
1.0
 10
11399.79967105486
 20
845.1710300638969
 42
1.0
 97
        1
330
79B
 92
        7
 72
     1
 73
     1
 93
        2
 10
11362.65659380116
 20
845.1710300638969
 42
1.0
 10
11340.15659380116
 20
845.1710300638969
 42
1.0
 97
        1
330
7A3
 92
        7
 72
     1
 73
     1
 93
        2
 10
11272.41402473902
 20
845.1710300638969
 42
1.0
 10
11249.91402473902
 20
845.1710300638969
 42
1.0
 97
        1
330
7A2
 75
     0
 76
     1
 47
0.8635476039693889
 98
        3
 10
11412.18740527652
 20
849.4769185352206
 10
11355.13379355261
 20
845.1591769843444
 10
11265.23114457405
 20
846.0227335516984
  0
ARC
  5
79D
102
{ACAD_REACTORS
330
797
102
}
330
5BB
100
AcDbEntity
  8
0
 62
     0
100
AcDbCircle
 10
11411.3531560937
 20
1180.773954392631
 30
0.0
 40
414.5605630519275
100
AcDbArc
 50
236.4401555547075
 51
256.0201136382495
  0
ARC
  5
79E
102
{ACAD_REACTORS
330
786
102
}
330
5BB
100
AcDbEntity
  8
0
 62
     0
100
AcDbCircle
 10
11116.36569834372
 20
840.2637408170358
 30
0.0
 40
18.0
100
AcDbArc
 50
58.09101366936946
 51
121.9089863306305
  0
CIRCLE
  5
79F
102
{ACAD_REACTORS
330
797
102
}
330
5BB
100
AcDbEntity
  8
0
 62
     0
100
AcDbCircle
 10
11224.40637216984
 20
771.0691519621023
 30
0.0
 40
18.0
  0
ARC
  5
7A0
102
{ACAD_REACTORS
330
797
102
}
330
5BB
100
AcDbEntity
  8
0
 62
     0
100
AcDbCircle
 10
11116.36569834372
 20
840.2637408170358
 30
0.0
 40
18.0
100
AcDbArc
 50
195.9513683615803
 51
344.0486316384196
  0
LWPOLYLINE
  5
7A1
102
{ACAD_REACTORS
330
78D
102
}
330
5BB
100
AcDbEntity
  8
0
100
AcDbPolyline
 90
        4
 70
     0
 43
0.0
 10
11411.04967105487
 20
765.171030063897
 10
11377.91258606503
 20
765.171030063897
 10
11331.04967105487
 20
812.0339450740493
 10
11331.04967105487
 20
825.1710300638924
  0
CIRCLE
  5
7A2
102
{ACAD_REACTORS
330
794
330
79C
102
}
330
5BB
100
AcDbEntity
  8
0
100
AcDbCircle
 10
11261.16402473902
 20
845.1710300638969
 30
0.0
 40
11.25
  0
CIRCLE
  5
7A3
102
{ACAD_REACTORS
330
794
330
79C
102
}
330
5BB
100
AcDbEntity
  8
0
100
AcDbCircle
 10
11351.40659380116
 20
845.1710300638969
 30
0.0
 40
11.25
  0
CIRCLE
  5
7A4
102
{ACAD_REACTORS
330
78D
102
}
330
5BB
100
AcDbEntity
  8
0
 62
     0
100
AcDbCircle
 10
11347.01432786016
 20
734.6509473016103
 30
0.0
 40
18.0
  0
CIRCLE
  5
7A5
102
{ACAD_REACTORS
330
786
102
}
330
5BB
100
AcDbEntity
  8
0
 62
     0
100
AcDbCircle
 10
11598.29994001756
 20
771.0691519621023
 30
0.0
 40
18.0
  0
CIRCLE
  5
7A6
102
{ACAD_REACTORS
330
78D
102
}
330
5BB
100
AcDbEntity
  8
0
 62
     0
100
AcDbCircle
 10
11475.08501424957
 20
734.6509473016103
 30
0.0
 40
18.0
  0
CIRCLE
  5
7A7
102
{ACAD_REACTORS
330
786
102
}
330
5BB
100
AcDbEntity
  8
0
 62
     0
100
AcDbCircle
 10
11705.73364376601
 20
840.2637408170358
 30
0.0
 40
18.0
  0
CIRCLE
  5
7A8
102
{ACAD_REACTORS
330
786
102
}
330
5BB
100
AcDbEntity
  8
0
 62
     0
100
AcDbCircle
 10
11032.60382762459
 20
937.3789532450128
 30
0.0
 40
18.0
  0
CIRCLE
  5
7A9
102
{ACAD_REACTORS
330
786
102
}
330
5BB
100
AcDbEntity
  8
0
 62
     0
100
AcDbCircle
 10
10979.1904607892
 20
1053.917208158586
 30
0.0
 40
18.0
  0
CIRCLE
  5
7AA
102
{ACAD_REACTORS
330
786
102
}
330
5BB
100
AcDbEntity
  8
0
 62
     0
100
AcDbCircle
 10
10979.1904607892
 20
1307.630700626677
 30
0.0
 40
18.0
  0
CIRCLE
  5
7AB
102
{ACAD_REACTORS
330
786
102
}
330
5BB
100
AcDbEntity
  8
0
 62
     0
100
AcDbCircle
 10
10960.98135845896
 20
1180.773954392631
 30
0.0
 40
18.0
  0
LWPOLYLINE
  5
7AC
102
{ACAD_REACTORS
330
78D
102
}
330
5BB
100
AcDbEntity
  8
0
100
AcDbPolyline
 90
        4
 70
     0
 43
0.0
 10
11331.04967105487
 20
865.1710300638915
 10
11331.04967105487
 20
878.3081150537446
 10
11377.91258606503
 20
925.171030063897
 10
11411.04967105487
 20
925.171030063897
  0
LWPOLYLINE
  5
7AD
102
{ACAD_REACTORS
330
782
102
}
330
5BB
100
AcDbEntity
  8
0
100
AcDbPolyline
 90
        8
 70
     1
 43
0.0
 10
9121.515451730411
 20
2051.557104155657
 10
9221.515451730411
 20
2051.557104155658
 42
-0.4142135623730951
 10
9226.515451730412
 20
2046.557104155658
 10
9226.515451730412
 20
1946.557104155659
 42
-0.4142135623730951
 10
9221.515451730411
 20
1941.557104155659
 10
9121.515451730411
 20
1941.557104155659
 42
-0.4142135623730951
 10
9116.515451730412
 20
1946.557104155659
 10
9116.515451730412
 20
2046.557104155657
 42
-0.4142135623730977
  0
LINE
  5
7AE
102
{ACAD_REACTORS
330
5C0
102
}
330
5BB
100
AcDbEntity
  8
0
100
AcDbLine
 10
9093.895745010552
 20
1644.906900717951
 30
0.0
 11
9090.783932284278
 21
1634.534191630349
 31
0.0
  0
LINE
  5
7AF
102
{ACAD_REACTORS
330
5C0
102
}
330
5BB
100
AcDbEntity
  8
0
100
AcDbLine
 10
9090.783932284278
 20
1654.760974351173
 30
0.0
 11
9093.895745010552
 21
1644.906900717951
 31
0.0
  0
HATCH
  5
7B0
330
5BB
100
AcDbEntity
  8
0
 62
    10
100
AcDbHatch
 10
0.0
 20
0.0
 30
0.0
210
0.0
220
0.0
230
1.0
  2
SOLID
 70
     1
 71
     0
 91
        2
 92
        7
 72
     1
 73
     1
 93
        2
 10
9135.047923694147
 20
2100.799673217797
 42
0.0
 10
9157.67534069212
 20
2100.799673217797
 42
0.3535533905933505
 97
        0
 92
        7
 72
     1
 73
     1
 93
        2
 10
9184.836927314639
 20
2100.799673217797
 42
0.0
 10
9207.464344312612
 20
2100.799673217797
 42
0.3535533905933505
 97
        0
 75
     0
 76
     1
 47
0.2550873442576774
 98
        2
 10
9146.744832864388
 20
2103.291649110505
 10
9193.729857055318
 20
2102.78145857762
  0
HATCH
  5
7B1
330
5BB
100
AcDbEntity
  8
0
 62
    50
100
AcDbHatch
 10
0.0
 20
0.0
 30
0.0
210
0.0
220
0.0
230
1.0
  2
SOLID
 70
     1
 71
     0
 91
        3
 92
        7
 72
     0
 73
     1
 93
        4
 10
9109.019879477761
 20
2086.799673217797
 10
9109.019879477768
 20
2066.572890496973
 10
9234.011023983359
 20
2066.572890496973
 10
9234.011023983359
 20
2086.799673217797
 97
        0
 92
        7
 72
     1
 73
     1
 93
        4
 10
9135.047923694147
 20
2100.799673217797
 42
0.226540919660973
 10
9128.361632193133
 20
2086.799673217797
 42
0.0
 10
9164.361632193132
 20
2086.799673217797
 42
0.2265409196609731
 10
9157.67534069212
 20
2100.799673217797
 42
0.0
 97
        0
 92
        7
 72
     1
 73
     1
 93
        4
 10
9178.150635813619
 20
2086.799673217797
 42
0.0
 10
9214.150635813625
 20
2086.799673217797
 42
0.2265409196609731
 10
9207.464344312612
 20
2100.799673217797
 42
0.0
 10
9184.836927314639
 20
2100.799673217797
 42
0.2265409196610238
 97
        0
 75
     0
 76
     1
 47
0.4907601742194315
 98
        3
 10
9133.437516997219
 20
2080.597676476011
 10
9142.280425007099
 20
2093.848200908319
 10
9186.494886386427
 20
2093.357435392284
  0
LWPOLYLINE
  5
7B2
330
5BB
100
AcDbEntity
  8
0
100
AcDbPolyline
 90
        2
 70
     0
 43
0.0
 10
9157.67534069212
 20
2100.799673217797
 10
9135.047923694147
 20
2100.799673217797
  0
ARC
  5
7B3
330
5BB
100
AcDbEntity
  8
0
100
AcDbCircle
 10
9146.361632193132
 20
2086.799673217797
 30
0.0
 40
18.0
100
AcDbArc
 50
0.0
 51
180.0
  0
LWPOLYLINE
  5
7B4
330
5BB
100
AcDbEntity
  8
0
100
AcDbPolyline
 90
        4
 70
     1
 43
0.0
 10
9234.011023983359
 20
2086.799673217797
 10
9109.019879477768
 20
2086.799673217797
 10
9109.019879477768
 20
2066.572890496973
 10
9234.011023983359
 20
2066.572890496973
  0
LWPOLYLINE
  5
7B5
330
5BB
100
AcDbEntity
  8
0
100
AcDbPolyline
 90
        2
 70
     0
 43
0.0
 10
9207.464344312604
 20
2100.799673217797
 10
9184.836927314639
 20
2100.799673217797
  0
ARC
  5
7B6
330
5BB
100
AcDbEntity
  8
0
100
AcDbCircle
 10
9196.150635813625
 20
2086.799673217797
 30
0.0
 40
18.0
100
AcDbArc
 50
0.0
 51
180.0
  0
HATCH
  5
7B7
330
5BB
100
AcDbEntity
  8
0
 62
    50
100
AcDbHatch
 10
0.0
 20
0.0
 30
0.0
210
0.0
220
0.0
230
1.0
  2
SOLID
 70
     1
 71
     0
 91
        5
 92
        7
 72
     0
 73
     1
 93
        4
 10
11643.5712570244
 20
2264.9246453725
 10
11643.57125702438
 20
2299.924645372498
 10
11179.13505516301
 20
2299.924645372498
 10
11179.13505516301
 20
2264.924645372499
 97
        0
 92
        7
 72
     0
 73
     1
 93
        4
 10
11179.13505516301
 20
2150.003036186808
 10
11179.13505516301
 20
2115.003036186808
 10
11643.57125702439
 20
2115.003036186809
 10
11643.57125702439
 20
2150.003036186808
 97
        0
 92
        7
 72
     0
 73
     1
 93
        4
 10
11643.57125702439
 20
1965.081427001118
 10
11643.57125702439
 20
2000.081427001118
 10
11179.13505516301
 20
2000.081427001118
 10
11179.13505516301
 20
1965.081427001119
 97
        0
 92
        7
 72
     0
 73
     1
 93
        4
 10
11178.97929425432
 20
1849.552847737754
 10
11179.28809119057
 20
1814.552847737753
 10
11643.57125702439
 20
1814.552847737754
 10
11643.57125702439
 20
1849.552847737754
 97
        0
 92
        7
 72
     1
 73
     1
 93
        6
 10
11508.56372795093
 20
1664.631238552065
 42
0.0
 10
11643.5712570244
 20
1664.631238552064
 42
0.0
 10
11643.57125702438
 20
1699.631238552065
 42
0.0
 10
11179.13505516301
 20
1699.631238552064
 42
0.0
 10
11179.13505516301
 20
1664.631238552065
 42
0.0
 10
11314.14258423647
 20
1664.631238552065
 42
-0.0994600461665975
 97
        0
 75
     0
 76
     1
 47
5.050205862247597
 98
        5
 10
11438.5428527872
 20
2272.543824000651
 10
11433.48732897043
 20
2136.18826729173
 10
11398.09905640743
 20
1979.631843124446
 10
11387.98810731249
 20
1833.175892504342
 10
11377.87715821754
 20
1681.66966529265
  0
HATCH
  5
7B8
330
5BB
100
AcDbEntity
  8
0
 62
   150
100
AcDbHatch
 10
0.0
 20
0.0
 30
0.0
210
0.0
220
0.0
230
1.0
  2
SOLID
 70
     1
 71
     0
 91
       10
 92
        7
 72
     1
 73
     1
 93
        4
 10
11161.28148409166
 20
2257.424645372499
 42
0.2015127546239403
 10
11179.13505516301
 20
2264.924645372489
 42
0.0
 10
11179.13505516301
 20
2299.924645372501
 42
0.2015127546239749
 10
11161.28148409166
 20
2307.4246453725
 42
0.0
 97
        0
 92
        7
 72
     1
 73
     1
 93
        4
 10
11179.13505516301
 20
2150.00303618681
 42
0.2015127546239856
 10
11161.28148409166
 20
2157.503036186809
 42
0.0
 10
11161.28148409166
 20
2107.503036186809
 42
0.2015127546239403
 10
11179.13505516301
 20
2115.0030361868
 42
0.0
 97
        0
 92
        7
 72
     1
 73
     1
 93
        4
 10
11161.28148409166
 20
1957.581427001119
 42
0.2015127546239403
 10
11179.13505516301
 20
1965.08142700111
 42
0.0
 10
11179.13505516301
 20
2000.081427001122
 42
0.2015127546239749
 10
11161.28148409166
 20
2007.58142700112
 42
0.0
 97
        0
 92
        7
 72
     1
 73
     1
 93
        4
 10
11161.28148409166
 20
1806.895341814025
 42
0.2037990455936889
 10
11179.28809119057
 20
1814.552847737756
 42
0.0
 10
11178.97929425432
 20
1849.552847737754
 42
0.1992086543644783
 10
11161.28148409166
 20
1856.895341814025
 42
0.0
 97
        0
 92
        7
 72
     1
 73
     1
 93
        4
 10
11179.13505516301
 20
1699.631238552066
 42
0.2015127546239788
 10
11161.28148409166
 20
1707.131238552066
 42
0.0
 10
11161.28148409166
 20
1657.131238552064
 42
0.2015127546239748
 10
11179.13505516301
 20
1664.631238552062
 42
0.0
 97
        0
 92
        7
 72
     1
 73
     1
 93
        4
 10
11661.42482809574
 20
2307.4246453725
 42
0.2015127546238991
 10
11643.57125702439
 20
2299.924645372501
 42
0.0
 10
11643.5712570244
 20
2264.924645372491
 42
0.2015127546238781
 10
11661.42482809574
 20
2257.424645372499
 42
0.0
 97
        0
 92
        7
 72
     1
 73
     1
 93
        4
 10
11643.57125702439
 20
2115.0030361868
 42
0.2015127546239403
 10
11661.42482809574
 20
2107.503036186809
 42
0.0
 10
11661.42482809574
 20
2157.503036186809
 42
0.2015127546239856
 10
11643.57125702439
 20
2150.00303618681
 42
0.0
 97
        0
 92
        7
 72
     1
 73
     1
 93
        4
 10
11643.57125702439
 20
1965.081427001117
 42
0.2015127546239856
 10
11661.42482809574
 20
1957.581427001119
 42
0.0
 10
11661.42482809574
 20
2007.581427001118
 42
0.2015127546239403
 10
11643.57125702439
 20
2000.081427001128
 42
0.0
 97
        0
 92
        7
 72
     1
 73
     1
 93
        4
 10
11661.42482809574
 20
1857.052847737754
 42
0.2015127546238964
 10
11643.57125702439
 20
1849.552847737755
 42
0.0
 10
11643.5712570244
 20
1814.552847737745
 42
0.2015127546238781
 10
11661.42482809574
 20
1807.052847737754
 42
0.0
 97
        0
 92
        7
 72
     1
 73
     1
 93
        4
 10
11643.5712570244
 20
1664.631238552056
 42
0.2015127546238781
 10
11661.42482809574
 20
1657.131238552064
 42
0.0
 10
11661.42482809574
 20
1707.131238552064
 42
0.2015127546239403
 10
11643.57125702439
 20
1699.631238552073
 42
0.0
 97
        0
 75
     0
 76
     1
 47
2.576635722413827
 98
       10
 10
11170.01309594805
 20
2275.223495966059
 10
11172.59234428455
 20
2130.931892716634
 10
11170.01309594805
 20
1989.216912440885
 10
11167.43374907293
 20
1824.312166130114
 10
11172.59234428455
 20
1674.867316933366
 10
11654.92597277147
 20
2280.376741913397
 10
11649.76727902123
 20
2128.355190106961
 10
11649.76727902123
 20
1976.333717936536
 10
11654.92597277147
 20
1834.618737660787
 10
11649.76727902123
 20
1682.597185854366
  0
LWPOLYLINE
  5
7B9
330
5BB
100
AcDbEntity
  8
0
 62
     0
100
AcDbPolyline
 90
        4
 70
     0
 43
0.0
 10
11661.42482809574
 20
1606.25242103584
 10
11661.42482809574
 20
2540.993898461989
 10
11760.96792083442
 20
2540.993898461989
 10
11760.96792083442
 20
1581.374205658038
  0
LWPOLYLINE
  5
7BA
330
5BB
100
AcDbEntity
  8
0
 62
     0
100
AcDbPolyline
 90
        4
 70
     0
 43
0.0
 10
11061.13142127531
 20
1581.374205658038
 10
11061.13142127531
 20
2540.993898461989
 10
11161.28148409166
 20
2540.993898461989
 10
11161.28148409166
 20
1606.25242103584
  0
LWPOLYLINE
  5
7BB
330
5BB
100
AcDbEntity
  8
0
 62
     0
100
AcDbPolyline
 90
        4
 70
     0
 43
0.0
 10
11019.82097226218
 20
1481.224142841687
 10
11001.04138358549
 20
1481.224142841687
 10
11001.04138358549
 20
1581.374205658038
 10
11123.10464282599
 20
1581.374205658038
  0
LWPOLYLINE
  5
7BC
330
5BB
100
AcDbEntity
  8
0
 62
     0
100
AcDbPolyline
 90
        4
 70
     1
 43
0.0
 10
11001.04138358549
 20
1476.368382220287
 10
10981.01137102222
 20
1476.368382220287
 10
10981.01137102222
 20
1586.229966279436
 10
11001.04138358549
 20
1586.229966279436
  0
LINE
  5
7BD
330
5BB
100
AcDbEntity
  8
0
 62
     0
100
AcDbLine
 10
11179.13505516301
 20
1699.631238552064
 30
0.0
 11
11643.57125702439
 21
1699.631238552065
 31
0.0
  0
LINE
  5
7BE
330
5BB
100
AcDbEntity
  8
0
 62
     0
100
AcDbLine
 10
11179.13505516301
 20
1664.631238552065
 30
0.0
 11
11314.14258423647
 21
1664.631238552065
 31
0.0
  0
ARC
  5
7BF
330
5BB
100
AcDbEntity
  8
0
 62
     0
100
AcDbCircle
 10
11161.28148409166
 20
1682.131238552065
 30
0.0
 40
25.0
100
AcDbArc
 50
44.42700400090933
 51
90.0
  0
LINE
  5
7C0
330
5BB
100
AcDbEntity
  8
0
 62
     0
100
AcDbLine
 10
11179.13505516301
 20
1699.631238552065
 30
0.0
 11
11179.13505516301
 21
1664.631238552065
 31
0.0
  0
ARC
  5
7C1
330
5BB
100
AcDbEntity
  8
0
 62
     0
100
AcDbCircle
 10
11161.28148409166
 20
1682.131238552065
 30
0.0
 40
25.0
100
AcDbArc
 50
270.0
 51
315.5729959990906
  0
LINE
  5
7C2
330
5BB
100
AcDbEntity
  8
0
 62
     0
100
AcDbLine
 10
11508.56372795094
 20
1664.631238552065
 30
0.0
 11
11643.57125702439
 21
1664.631238552065
 31
0.0
  0
ARC
  5
7C3
330
5BB
100
AcDbEntity
  8
0
 62
     0
100
AcDbCircle
 10
11661.42482809574
 20
1682.131238552064
 30
0.0
 40
25.0
100
AcDbArc
 50
90.0
 51
135.5729959990629
  0
LINE
  5
7C4
330
5BB
100
AcDbEntity
  8
0
 62
     0
100
AcDbLine
 10
11643.57125702439
 20
1699.631238552065
 30
0.0
 11
11643.5712570244
 21
1664.631238552065
 31
0.0
  0
ARC
  5
7C5
330
5BB
100
AcDbEntity
  8
0
 62
     0
100
AcDbCircle
 10
11661.42482809574
 20
1682.131238552064
 30
0.0
 40
25.0
100
AcDbArc
 50
224.4270040009093
 51
270.0
  0
LINE
  5
7C6
330
5BB
100
AcDbEntity
  8
0
 62
     0
100
AcDbLine
 10
11179.28809119057
 20
1814.552847737754
 30
0.0
 11
11643.57125702439
 21
1814.552847737754
 31
0.0
  0
LINE
  5
7C7
330
5BB
100
AcDbEntity
  8
0
 62
     0
100
AcDbLine
 10
11179.13505516301
 20
1965.081427001118
 30
0.0
 11
11643.57125702439
 21
1965.081427001119
 31
0.0
  0
LINE
  5
7C8
330
5BB
100
AcDbEntity
  8
0
 62
     0
100
AcDbLine
 10
11178.97929425432
 20
1849.552847737754
 30
0.0
 11
11643.57125702439
 21
1849.552847737754
 31
0.0
  0
LINE
  5
7C9
330
5BB
100
AcDbEntity
  8
0
 62
     0
100
AcDbLine
 10
11179.13505516301
 20
2000.081427001118
 30
0.0
 11
11643.57125702439
 21
2000.081427001118
 31
0.0
  0
ARC
  5
7CA
330
5BB
100
AcDbEntity
  8
0
 62
     0
100
AcDbCircle
 10
11161.28148409166
 20
1831.895341814025
 30
0.0
 40
25.0
100
AcDbArc
 50
44.93468417082754
 51
90.0
  0
LINE
  5
7CB
330
5BB
100
AcDbEntity
  8
0
 62
     0
100
AcDbLine
 10
11178.97929425432
 20
1849.552847737754
 30
0.0
 11
11179.28809119057
 21
1814.552847737754
 31
0.0
  0
ARC
  5
7CC
330
5BB
100
AcDbEntity
  8
0
 62
     0
100
AcDbCircle
 10
11161.28148409166
 20
1831.895341814025
 30
0.0
 40
25.0
100
AcDbArc
 50
270.0
 51
316.0763045216713
  0
ARC
  5
7CD
330
5BB
100
AcDbEntity
  8
0
 62
     0
100
AcDbCircle
 10
11161.28148409166
 20
1982.581427001119
 30
0.0
 40
25.0
100
AcDbArc
 50
44.42700400090933
 51
90.0
  0
LINE
  5
7CE
330
5BB
100
AcDbEntity
  8
0
 62
     0
100
AcDbLine
 10
11179.13505516301
 20
2000.08142700112
 30
0.0
 11
11179.13505516301
 21
1965.081427001118
 31
0.0
  0
ARC
  5
7CF
330
5BB
100
AcDbEntity
  8
0
 62
     0
100
AcDbCircle
 10
11161.28148409166
 20
1982.581427001119
 30
0.0
 40
25.0
100
AcDbArc
 50
270.0
 51
315.5729959990629
  0
ARC
  5
7D0
330
5BB
100
AcDbEntity
  8
0
 62
     0
100
AcDbCircle
 10
11661.42482809574
 20
1832.052847737753
 30
0.0
 40
25.0
100
AcDbArc
 50
90.0
 51
135.5729959990629
  0
LINE
  5
7D1
330
5BB
100
AcDbEntity
  8
0
 62
     0
100
AcDbLine
 10
11643.57125702439
 20
1849.552847737754
 30
0.0
 11
11643.5712570244
 21
1814.552847737754
 31
0.0
  0
ARC
  5
7D2
330
5BB
100
AcDbEntity
  8
0
 62
     0
100
AcDbCircle
 10
11661.42482809574
 20
1832.052847737753
 30
0.0
 40
25.0
100
AcDbArc
 50
224.4270040009093
 51
270.0
  0
ARC
  5
7D3
330
5BB
100
AcDbEntity
  8
0
 62
     0
100
AcDbCircle
 10
11661.42482809574
 20
1982.581427001118
 30
0.0
 40
25.0
100
AcDbArc
 50
90.0
 51
135.5729959990629
  0
LINE
  5
7D4
330
5BB
100
AcDbEntity
  8
0
 62
     0
100
AcDbLine
 10
11643.57125702439
 20
2000.08142700112
 30
0.0
 11
11643.57125702439
 21
1965.081427001118
 31
0.0
  0
ARC
  5
7D5
330
5BB
100
AcDbEntity
  8
0
 62
     0
100
AcDbCircle
 10
11661.42482809574
 20
1982.581427001118
 30
0.0
 40
25.0
100
AcDbArc
 50
224.4270040009093
 51
270.0
  0
ARC
  5
7D6
330
5BB
100
AcDbEntity
  8
0
 62
     0
100
AcDbCircle
 10
11661.42482809574
 20
2282.424645372499
 30
0.0
 40
25.0
100
AcDbArc
 50
90.0
 51
135.5729959990906
  0
ARC
  5
7D7
330
5BB
100
AcDbEntity
  8
0
 62
     0
100
AcDbCircle
 10
11161.28148409166
 20
2282.424645372499
 30
0.0
 40
25.0
100
AcDbArc
 50
44.42700400090933
 51
90.0
  0
LINE
  5
7D8
330
5BB
100
AcDbEntity
  8
0
 62
     0
100
AcDbLine
 10
11179.13505516301
 20
2115.003036186808
 30
0.0
 11
11643.57125702439
 21
2115.003036186809
 31
0.0
  0
LINE
  5
7D9
330
5BB
100
AcDbEntity
  8
0
 62
     0
100
AcDbLine
 10
11179.13505516301
 20
2264.924645372498
 30
0.0
 11
11643.57125702439
 21
2264.9246453725
 31
0.0
  0
LINE
  5
7DA
330
5BB
100
AcDbEntity
  8
0
 62
     0
100
AcDbLine
 10
11179.13505516301
 20
2150.003036186809
 30
0.0
 11
11643.57125702439
 21
2150.003036186808
 31
0.0
  0
LINE
  5
7DB
330
5BB
100
AcDbEntity
  8
0
 62
     0
100
AcDbLine
 10
11179.13505516301
 20
2299.924645372498
 30
0.0
 11
11643.57125702439
 21
2299.924645372498
 31
0.0
  0
ARC
  5
7DC
330
5BB
100
AcDbEntity
  8
0
 62
     0
100
AcDbCircle
 10
11161.28148409166
 20
2132.503036186809
 30
0.0
 40
25.0
100
AcDbArc
 50
44.42700400090933
 51
90.0
  0
LINE
  5
7DD
330
5BB
100
AcDbEntity
  8
0
 62
     0
100
AcDbLine
 10
11179.13505516301
 20
2150.003036186809
 30
0.0
 11
11179.13505516301
 21
2115.003036186809
 31
0.0
  0
ARC
  5
7DE
330
5BB
100
AcDbEntity
  8
0
 62
     0
100
AcDbCircle
 10
11161.28148409166
 20
2132.503036186809
 30
0.0
 40
25.0
100
AcDbArc
 50
270.0
 51
315.5729959990629
  0
LINE
  5
7DF
330
5BB
100
AcDbEntity
  8
0
 62
     0
100
AcDbLine
 10
11179.13505516301
 20
2299.924645372498
 30
0.0
 11
11179.13505516301
 21
2264.924645372499
 31
0.0
  0
ARC
  5
7E0
330
5BB
100
AcDbEntity
  8
0
 62
     0
100
AcDbCircle
 10
11161.28148409166
 20
2282.424645372499
 30
0.0
 40
25.0
100
AcDbArc
 50
270.0
 51
315.5729959990629
  0
ARC
  5
7E1
330
5BB
100
AcDbEntity
  8
0
 62
     0
100
AcDbCircle
 10
11661.42482809574
 20
2132.503036186809
 30
0.0
 40
25.0
100
AcDbArc
 50
90.0
 51
135.5729959990906
  0
LINE
  5
7E2
330
5BB
100
AcDbEntity
  8
0
 62
     0
100
AcDbLine
 10
11643.57125702439
 20
2150.003036186809
 30
0.0
 11
11643.57125702439
 21
2115.003036186808
 31
0.0
  0
ARC
  5
7E3
330
5BB
100
AcDbEntity
  8
0
 62
     0
100
AcDbCircle
 10
11661.42482809574
 20
2132.503036186809
 30
0.0
 40
25.0
100
AcDbArc
 50
224.427004000937
 51
270.0
  0
LINE
  5
7E4
330
5BB
100
AcDbEntity
  8
0
 62
     0
100
AcDbLine
 10
11643.57125702439
 20
2299.924645372498
 30
0.0
 11
11643.5712570244
 21
2264.924645372499
 31
0.0
  0
ARC
  5
7E5
330
5BB
100
AcDbEntity
  8
0
 62
     0
100
AcDbCircle
 10
11661.42482809574
 20
2282.424645372499
 30
0.0
 40
25.0
100
AcDbArc
 50
224.4270040009093
 51
270.0
  0
CIRCLE
  5
7E6
102
{ACAD_REACTORS
330
743
330
7F4
102
}
330
5BB
100
AcDbEntity
  8
0
100
AcDbCircle
 10
14050.23620654724
 20
1545.630791615511
 30
0.0
 40
199.9687887401155
  0
CIRCLE
  5
7E7
102
{ACAD_REACTORS
330
786
102
}
330
5BB
100
AcDbEntity
  8
0
 62
     0
100
AcDbCircle
 10
11842.90888132053
 20
1053.917208158586
 30
0.0
 40
18.0
  0
CIRCLE
  5
7E8
102
{ACAD_REACTORS
330
786
102
}
330
5BB
100
AcDbEntity
  8
0
 62
     0
100
AcDbCircle
 10
11842.90888132053
 20
1307.630700626677
 30
0.0
 40
18.0
  0
CIRCLE
  5
7E9
102
{ACAD_REACTORS
330
786
102
}
330
5BB
100
AcDbEntity
  8
0
 62
     0
100
AcDbCircle
 10
11861.11798365077
 20
1180.773954392631
 30
0.0
 40
18.0
  0
HATCH
  5
7EA
330
5BB
100
AcDbEntity
  8
0
 62
    50
100
AcDbHatch
 10
0.0
 20
0.0
 30
0.0
210
0.0
220
0.0
230
1.0
  2
SOLID
 70
     1
 71
     0
 91
        1
 92
        7
 72
     1
 73
     1
 93
       11
 10
13890.12377751059
 20
825.1710300638878
 42
-0.4142135623730951
 10
13880.12377751059
 20
835.1710300638879
 42
0.0
 10
13880.12377751059
 20
835.3169564306709
 42
0.0
 10
13610.43334123294
 20
835.3169564306709
 42
0.0
 10
13610.43334123295
 20
855.5437391514933
 42
0.0
 10
13880.13072552768
 20
855.5437391514933
 42
-0.4033363128414419
 10
13890.12377751073
 20
865.1710300638878
 42
0.0
 10
14010.2362065474
 20
865.171030063886
 42
0.2360679774997898
 10
14018.2362065474
 20
869.171030063886
 42
-3.000000000000124
 10
14018.2362065474
 20
821.1710300638879
 42
0.2360679774997896
 10
14010.2362065474
 20
825.1710300638878
 42
0.0
 97
        0
 75
     0
 76
     1
 47
1.827935264127427
 98
        9
 10
13794.28446446067
 20
856.891455181476
 10
13794.28446446067
 20
856.891455181476
 10
13794.28446446067
 20
856.891455181476
 10
13794.28446446067
 20
856.891455181476
 10
13794.28446446067
 20
856.891455181476
 10
13794.28446446067
 20
856.891455181476
 10
13794.28446446067
 20
856.891455181476
 10
13794.28446446067
 20
856.891455181476
 10
13788.7949355565
 20
845.9238439631572
  0
HATCH
  5
7EB
330
5BB
100
AcDbEntity
  8
0
 62
    30
100
AcDbHatch
 10
0.0
 20
0.0
 30
0.0
210
0.0
220
0.0
230
1.0
  2
SOLID
 70
     1
 71
     0
 91
        1
 92
        7
 72
     1
 73
     1
 93
       16
 10
14018.2362065474
 20
821.1710300638879
 42
0.2360679774997896
 10
14010.2362065474
 20
825.1710300638878
 42
0.0
 10
13970.23620654725
 20
825.1710300638878
 42
0.0
 10
13970.23620654725
 20
812.0339450740448
 42
0.0
 10
14017.0991215574
 20
765.1710300638924
 42
0.0
 10
14050.23620654725
 20
765.1710300638924
 42
0.0
 10
14083.37329153709
 20
765.1710300638924
 42
0.0
 10
14130.23620654724
 20
812.033945074044
 42
0.0
 10
14130.23620654725
 20
878.3081150537391
 42
0.0
 10
14083.37329153709
 20
925.1710300638924
 42
0.0
 10
14050.23620654724
 20
925.1710300638924
 42
0.0
 10
14017.0991215574
 20
925.1710300638915
 42
0.0
 10
13970.23620654725
 20
878.30811505374
 42
0.0
 10
13970.23620654725
 20
865.1710300638869
 42
0.0
 10
14010.2362065474
 20
865.171030063886
 42
0.2360679774997898
 10
14018.2362065474
 20
869.171030063886
 42
-3.000000000000124
 97
        0
 75
     0
 76
     1
 47
0.8991001038431768
 98
        1
 10
14071.47477782651
 20
893.7016437405455
  0
LWPOLYLINE
  5
7EC
102
{ACAD_REACTORS
330
7F4
102
}
330
5BB
100
AcDbEntity
  8
0
100
AcDbPolyline
 90
        6
 70
     0
 43
0.0
 10
14050.23620654724
 20
765.1710300638924
 10
14083.37329153709
 20
765.1710300638924
 10
14130.23620654724
 20
812.0339450740448
 10
14130.23620654724
 20
878.30811505374
 10
14083.37329153709
 20
925.1710300638924
 10
14050.23620654724
 20
925.1710300638924
  0
LWPOLYLINE
  5
7ED
102
{ACAD_REACTORS
330
7F4
102
}
330
5BB
100
AcDbEntity
  8
0
100
AcDbPolyline
 90
        8
 70
     1
 43
0.0
 10
14010.2362065474
 20
825.1710300638878
 42
-0.2360679774997897
 10
14018.2362065474
 20
821.1710300638879
 42
3.000000000000124
 10
14018.2362065474
 20
869.171030063886
 42
-0.2360679774997897
 10
14010.2362065474
 20
865.171030063886
 10
13890.12377751073
 20
865.1710300638878
 42
0.4142135623730951
 10
13880.12377751073
 20
855.1710300638879
 10
13880.12377751073
 20
835.1710300638879
 42
0.4142135623730951
 10
13890.12377751073
 20
825.1710300638878
  0
CIRCLE
  5
7EE
102
{ACAD_REACTORS
330
7F1
330
7F4
102
}
330
5BB
100
AcDbEntity
  8
0
100
AcDbCircle
 10
13900.3505602314
 20
845.1710300638923
 30
0.0
 40
18.1522409033023
  0
CIRCLE
  5
7EF
102
{ACAD_REACTORS
330
7F1
330
7F4
102
}
330
5BB
100
AcDbEntity
  8
0
100
AcDbCircle
 10
13990.59312929353
 20
845.1710300638923
 30
0.0
 40
17.63360544892202
  0
CIRCLE
  5
7F0
102
{ACAD_REACTORS
330
7F1
330
7F4
102
}
330
5BB
100
AcDbEntity
  8
0
100
AcDbCircle
 10
14050.23620654724
 20
845.1710300638923
 30
0.0
 40
17.63360544892111
  0
HATCH
  5
7F1
330
5BB
100
AcDbEntity
  8
0
 62
    50
100
AcDbHatch
 10
0.0
 20
0.0
 30
0.0
210
0.0
220
0.0
230
1.0
  2
SOLID
 70
     1
 71
     1
 91
        6
 92
        7
 72
     1
 73
     1
 93
        2
 10
13918.5028011347
 20
845.1710300638923
 42
1.0
 10
13882.1983193281
 20
845.1710300638923
 42
1.0
 97
        1
330
7EE
 92
       22
 72
     1
 73
     1
 93
        2
 10
13911.6005602314
 20
845.1710300638923
 42
1.0
 10
13889.1005602314
 20
845.1710300638923
 42
1.0
 97
        1
330
7F9
 92
        7
 72
     1
 73
     1
 93
        2
 10
14008.22673474246
 20
845.1710300638923
 42
1.0
 10
13972.95952384461
 20
845.1710300638923
 42
1.0
 97
        1
330
7EF
 92
       22
 72
     1
 73
     1
 93
        2
 10
14001.84312929353
 20
845.1710300638923
 42
-1.0
 10
13979.34312929353
 20
845.1710300638923
 42
-1.0
 97
        1
330
7FA
 92
        7
 72
     1
 73
     1
 93
        2
 10
14067.86981199616
 20
845.171030063892
 42
1.0
 10
14032.60260109832
 20
845.1710300638923
 42
1.0
 97
        1
330
7F0
 92
       22
 72
     1
 73
     1
 93
        2
 10
14061.48620654724
 20
845.1710300638923
 42
-1.0
 10
14038.98620654724
 20
845.1710300638923
 42
-1.0
 97
        1
330
7F7
 75
     0
 76
     1
 47
0.4567424018285859
 98
        6
 10
13910.47476327321
 20
833.5094927557438
 10
13910.47476327321
 20
833.5094927557438
 10
13979.51482056948
 20
837.6201855085309
 10
13979.51482056948
 20
837.6201855085309
 10
14043.0682312586
 20
833.052767465837
 10
14043.0682312586
 20
833.052767465837
  0
HATCH
  5
7F2
330
5BB
100
AcDbEntity
  8
0
 62
    70
100
AcDbHatch
 10
0.0
 20
0.0
 30
0.0
210
0.0
220
0.0
230
1.0
  2
SOLID
 70
     1
 71
     0
 91
        4
 92
        7
 72
     1
 73
     1
 93
        8
 10
14018.2362065474
 20
821.1710300638879
 42
3.000000000000124
 10
14018.2362065474
 20
869.171030063886
 42
-0.2360679774997898
 10
14010.2362065474
 20
865.171030063886
 42
0.0
 10
13890.12377751073
 20
865.1710300638878
 42
0.4142135623730951
 10
13880.12377751073
 20
855.1710300638879
 42
0.0
 10
13880.12377751073
 20
835.1710300638879
 42
0.4142135623730951
 10
13890.12377751073
 20
825.1710300638878
 42
0.0
 10
14010.2362065474
 20
825.1710300638878
 42
-0.2360679774997896
 97
        0
 92
       22
 72
     1
 73
     1
 93
        2
 10
14032.60260109832
 20
845.1710300638923
 42
-1.0
 10
14067.86981199616
 20
845.1710300638923
 42
-1.0
 97
        0
 92
       22
 72
     1
 73
     1
 93
        2
 10
13972.95952384461
 20
845.1710300638923
 42
-1.0
 10
14008.22673474246
 20
845.1710300638923
 42
-1.0
 97
        0
 92
       22
 72
     1
 73
     1
 93
        2
 10
13882.1983193281
 20
845.1710300638923
 42
-1.0
 10
13918.5028011347
 20
845.1710300638923
 42
-1.0
 97
        0
 75
     0
 76
     1
 47
2.97881942578715
 98
        4
 10
14020.57142643553
 20
833.3812587444045
 10
14020.57142643553
 20
833.3812587444045
 10
14020.57142643553
 20
833.3812587444045
 10
14020.57142643553
 20
833.3812587444045
  0
CIRCLE
  5
7F3
102
{ACAD_REACTORS
330
743
330
7F4
102
}
330
5BB
100
AcDbEntity
  8
0
100
AcDbCircle
 10
14050.23620654724
 20
845.1710300638923
 30
0.0
 40
500.4911756999572
  0
HATCH
  5
7F4
330
5BB
100
AcDbEntity
  8
0
 62
    50
100
AcDbHatch
 10
0.0
 20
0.0
 30
0.0
210
0.0
220
0.0
230
1.0
  2
SOLID
 70
     1
 71
     1
 91
        8
 92
        7
 72
     1
 73
     1
 93
        6
 10
13549.74503084728
 20
845.1710300638923
 42
0.4089388219234885
 10
14041.20652640538
 20
344.7613160993639
 42
-0.0225250282155168
 10
14059.2658866891
 20
344.7613160993639
 42
0.4089388219234885
 10
14550.7273822472
 20
845.1710300638923
 42
0.4140726586264298
 10
14050.47699256604
 20
1345.662147842838
 42
-0.0006020592203349
 10
14049.99542052844
 20
1345.662147842838
 42
0.4140726586264298
 97
        3
330
7E6
330
7F3
330
73F
 92
       22
 72
     1
 73
     1
 93
       16
 10
13880.13072552768
 20
855.5437391514933
 42
-0.4033363128414948
 10
13890.12377751073
 20
865.1710300638878
 42
0.0
 10
13957.09912155739
 20
865.1710300638869
 42
0.0
 10
14017.0991215574
 20
925.1710300638924
 42
0.0
 10
14050.23620654725
 20
925.1710300638924
 42
0.0
 10
14083.37329153709
 20
925.1710300638926
 42
0.0
 10
14130.23620654724
 20
878.3081150537396
 42
0.0
 10
14130.23620654724
 20
812.0339450740457
 42
0.0
 10
14083.37329153709
 20
765.1710300638924
 42
0.0
 10
14050.23620654724
 20
765.1710300638924
 42
0.0
 10
14017.0991215574
 20
765.1710300638925
 42
0.0
 10
13957.09912155741
 20
825.171030063888
 42
0.0
 10
13880.12377751073
 20
825.1710300638878
 42
0.0
 10
13880.12377751073
 20
835.3169564306709
 42
0.0
 10
13610.43334123295
 20
835.3169564306709
 42
0.0
 10
13610.43334123295
 20
855.5437391514933
 42
0.0
 97
        5
330
7ED
330
7FB
330
7EC
330
7F6
330
7F5
 92
        6
 72
     1
 73
     1
 93
        2
 10
13918.5028011347
 20
845.1710300638923
 42
-1.0
 10
13882.1983193281
 20
845.1710300638923
 42
-1.0
 97
        1
330
7EE
 92
        6
 72
     1
 73
     1
 93
        2
 10
13889.1005602314
 20
845.1710300638923
 42
-1.0
 10
13911.6005602314
 20
845.1710300638923
 42
-1.0
 97
        1
330
7F9
 92
        6
 72
     1
 73
     1
 93
        2
 10
14008.22673474246
 20
845.1710300638923
 42
-1.0
 10
13972.95952384461
 20
845.1710300638923
 42
-1.0
 97
        1
330
7EF
 92
        6
 72
     1
 73
     1
 93
        2
 10
14001.84312929353
 20
845.1710300638923
 42
-1.0
 10
13979.34312929353
 20
845.1710300638923
 42
-1.0
 97
        1
330
7FA
 92
        6
 72
     1
 73
     1
 93
        2
 10
14067.86981199616
 20
845.1710300638923
 42
-1.0
 10
14032.60260109832
 20
845.1710300638923
 42
-1.0
 97
        1
330
7F0
 92
        6
 72
     1
 73
     1
 93
        2
 10
14061.48620654724
 20
845.1710300638923
 42
-1.0
 10
14038.98620654724
 20
845.1710300638923
 42
-1.0
 97
        1
330
7F7
 75
     0
 76
     1
 47
5.759172852800718
 98
        8
 10
13802.38264772753
 20
1049.907243219228
 10
13802.38264772753
 20
1049.907243219228
 10
13802.38264772753
 20
1049.907243219228
 10
13802.38264772753
 20
1049.907243219228
 10
13802.38264772753
 20
1049.907243219228
 10
13802.38264772753
 20
1049.907243219228
 10
13802.38264772753
 20
1049.907243219228
 10
13802.38264772753
 20
1049.907243219228
  0
LWPOLYLINE
  5
7F5
102
{ACAD_REACTORS
330
7F4
102
}
330
5BB
100
AcDbEntity
  8
0
100
AcDbPolyline
 90
        4
 70
     1
 43
0.0
 10
13880.12377751059
 20
835.3169564306709
 10
13610.43334123295
 20
835.3169564306709
 10
13610.43334123295
 20
855.5437391514933
 10
13880.12377751059
 20
855.5437391514933
  0
LWPOLYLINE
  5
7F6
102
{ACAD_REACTORS
330
7F4
102
}
330
5BB
100
AcDbEntity
  8
0
100
AcDbPolyline
 90
        4
 70
     0
 43
0.0
 10
14050.23620654725
 20
765.1710300638924
 10
14017.0991215574
 20
765.1710300638924
 10
13970.23620654725
 20
812.0339450740448
 10
13970.23620654725
 20
825.1710300638878
  0
CIRCLE
  5
7F7
102
{ACAD_REACTORS
330
7F1
330
7F8
330
7F4
102
}
330
5BB
100
AcDbEntity
  8
0
100
AcDbCircle
 10
14050.23620654724
 20
845.1710300638923
 30
0.0
 40
11.25
  0
HATCH
  5
7F8
330
5BB
100
AcDbEntity
  8
0
 62
    10
100
AcDbHatch
 10
0.0
 20
0.0
 30
0.0
210
0.0
220
0.0
230
1.0
  2
SOLID
 70
     1
 71
     1
 91
        3
 92
        7
 72
     1
 73
     1
 93
        2
 10
14061.48620654724
 20
845.1710300638923
 42
1.0
 10
14038.98620654724
 20
845.1710300638923
 42
1.0
 97
        1
330
7F7
 92
        7
 72
     1
 73
     1
 93
        2
 10
14001.84312929353
 20
845.1710300638923
 42
1.0
 10
13979.34312929353
 20
845.1710300638923
 42
1.0
 97
        1
330
7FA
 92
        7
 72
     1
 73
     1
 93
        2
 10
13911.6005602314
 20
845.1710300638923
 42
1.0
 10
13889.1005602314
 20
845.1710300638923
 42
1.0
 97
        1
330
7F9
 75
     0
 76
     1
 47
0.8635476039693889
 98
        3
 10
14051.3739407689
 20
849.4769185352161
 10
13994.32032904499
 20
845.1591769843398
 10
13904.41768006643
 20
846.0227335516938
  0
CIRCLE
  5
7F9
102
{ACAD_REACTORS
330
7F1
330
7F8
330
7F4
102
}
330
5BB
100
AcDbEntity
  8
0
100
AcDbCircle
 10
13900.3505602314
 20
845.1710300638923
 30
0.0
 40
11.25
  0
CIRCLE
  5
7FA
102
{ACAD_REACTORS
330
7F1
330
7F8
330
7F4
102
}
330
5BB
100
AcDbEntity
  8
0
100
AcDbCircle
 10
13990.59312929353
 20
845.1710300638923
 30
0.0
 40
11.25
  0
LWPOLYLINE
  5
7FB
102
{ACAD_REACTORS
330
7F4
102
}
330
5BB
100
AcDbEntity
  8
0
100
AcDbPolyline
 90
        4
 70
     0
 43
0.0
 10
13970.23620654725
 20
865.1710300638869
 10
13970.23620654725
 20
878.30811505374
 10
14017.0991215574
 20
925.1710300638924
 10
14050.23620654725
 20
925.1710300638924
  0
LWPOLYLINE
  5
7FC
330
5BB
100
AcDbEntity
  8
0
 62
     0
100
AcDbPolyline
 90
        4
 70
     1
 43
0.0
 10
11841.0879710875
 20
1476.368382220287
 10
11821.05795852423
 20
1476.368382220287
 10
11821.05795852423
 20
1586.229966279436
 10
11841.0879710875
 20
1586.229966279436
  0
LWPOLYLINE
  5
7FD
102
{ACAD_REACTORS
330
782
102
}
330
5BB
100
AcDbEntity
  8
0
100
AcDbPolyline
 90
        8
 70
     1
 43
0.0
 10
13600.43360907454
 20
1941.272248620253
 10
13700.43360907454
 20
1941.272248620252
 42
0.4142135623730951
 10
13705.43360907454
 20
1946.272248620251
 10
13705.43360907454
 20
2046.272248620252
 42
0.4142135623730951
 10
13700.43360907454
 20
2051.272248620253
 10
13600.43360907454
 20
2051.272248620253
 42
0.4142135623730951
 10
13595.43360907454
 20
2046.272248620252
 10
13595.43360907454
 20
1946.272248620253
 42
0.4142135623730912
  0
HATCH
  5
7FE
330
5BB
100
AcDbEntity
  8
0
 62
    50
100
AcDbHatch
 10
0.0
 20
0.0
 30
0.0
210
0.0
220
0.0
230
1.0
  2
SOLID
 70
     1
 71
     0
 91
        3
 92
        7
 72
     0
 73
     1
 93
        4
 10
13587.76539128626
 20
2086.784307849767
 10
13587.76539128626
 20
2066.557525128945
 10
13712.75653579186
 20
2066.557525128945
 10
13712.75653579186
 20
2086.784307849766
 97
        0
 92
        7
 72
     1
 73
     1
 93
        4
 10
13643.62577945601
 20
2086.784307849766
 42
0.2265409196609863
 10
13636.939487955
 20
2100.784307849767
 42
0.0
 10
13614.31207095702
 20
2100.784307849767
 42
0.226540919660973
 10
13607.62577945601
 20
2086.784307849767
 42
0.0
 97
        0
 92
        7
 72
     1
 73
     1
 93
        4
 10
13693.41478307649
 20
2086.784307849767
 42
0.2265409196609731
 10
13686.72849157547
 20
2100.784307849767
 42
0.0
 10
13664.1010745775
 20
2100.784307849767
 42
0.226540919660973
 10
13657.41478307649
 20
2086.784307849767
 42
0.0
 97
        0
 75
     0
 76
     1
 47
0.5204411613939188
 98
        3
 10
13631.5509286973
 20
2078.881672873395
 10
13629.46695882779
 20
2091.89269778871
 10
13674.27160299161
 20
2088.770059240495
  0
LWPOLYLINE
  5
7FF
330
5BB
100
AcDbEntity
  8
0
100
AcDbPolyline
 90
        4
 70
     1
 43
0.0
 10
13712.75653579185
 20
2066.557525128945
 10
13587.76539128626
 20
2066.557525128945
 10
13587.76539128626
 20
2086.784307849767
 10
13712.75653579185
 20
2086.784307849767
  0
HATCH
  5
800
330
5BB
100
AcDbEntity
  8
0
 62
    10
100
AcDbHatch
 10
0.0
 20
0.0
 30
0.0
210
0.0
220
0.0
230
1.0
  2
SOLID
 70
     1
 71
     0
 91
        2
 92
        7
 72
     1
 73
     1
 93
        2
 10
13614.31207095702
 20
2100.784307849767
 42
0.0
 10
13636.939487955
 20
2100.784307849767
 42
0.3535533905933505
 97
        0
 92
        7
 72
     1
 73
     1
 93
        2
 10
13686.72849157547
 20
2100.784307849767
 42
0.3535533905933505
 10
13664.1010745775
 20
2100.784307849767
 42
0.0
 97
        0
 75
     0
 76
     1
 47
0.2924887950898186
 98
        2
 10
13627.77275976684
 20
2103.942545621591
 10
13674.61979667384
 20
2102.772585733191
  0
LWPOLYLINE
  5
801
330
5BB
100
AcDbEntity
  8
0
100
AcDbPolyline
 90
        2
 70
     0
 43
0.0
 10
13664.10107457752
 20
2100.784307849767
 10
13686.72849157547
 20
2100.784307849767
  0
ARC
  5
802
330
5BB
100
AcDbEntity
  8
0
100
AcDbCircle
 10
13675.41478307649
 20
2086.784307849767
 30
0.0
 40
18.0
100
AcDbArc
 50
0.0
 51
180.0
  0
LWPOLYLINE
  5
803
330
5BB
100
AcDbEntity
  8
0
100
AcDbPolyline
 90
        2
 70
     0
 43
0.0
 10
13614.31207095702
 20
2100.784307849767
 10
13636.939487955
 20
2100.784307849767
  0
ARC
  5
804
330
5BB
100
AcDbEntity
  8
0
100
AcDbCircle
 10
13625.62577945601
 20
2086.784307849767
 30
0.0
 40
18.0
100
AcDbArc
 50
0.0
 51
180.0
  0
HATCH
  5
805
330
5BB
100
AcDbEntity
  8
0
 62
   250
100
AcDbHatch
 10
0.0
 20
0.0
 30
0.0
210
0.0
220
0.0
230
1.0
  2
SOLID
 70
     1
 71
     0
 91
       12
 92
        7
 72
     1
 73
     1
 93
        4
 10
15562.81622142702
 20
2087.350824189502
 42
-0.2087121525220857
 10
15551.89214181151
 20
2075.660465574212
 42
0.0
 10
15754.07302924809
 20
1886.732120108196
 42
-0.2087121525220573
 10
15764.9971088636
 20
1898.422478723484
 42
0.0
 97
        0
 92
        7
 72
     1
 73
     1
 93
        4
 10
15509.63582962385
 20
1975.882748008766
 42
-0.2087121525220632
 10
15498.69393076122
 20
1964.20906610117
 42
0.0
 10
15687.37253728938
 20
1787.358073713567
 42
-0.2087121525220254
 10
15698.31443615202
 20
1799.03175562116
 42
0.0
 97
        0
 92
        7
 72
     1
 73
     1
 93
        4
 10
15619.92576014061
 20
1686.80556558653
 42
-0.2087161333675561
 10
15630.79888162665
 20
1698.543716186082
 42
0.0
 10
15455.5021919355
 20
1862.85861141496
 42
-0.2087121525220758
 10
15444.56004659108
 20
1851.185160542934
 42
0.0
 97
        0
 92
        7
 72
     1
 73
     1
 93
        4
 10
15401.59228691763
 20
1750.087892687389
 42
-0.2087121525220784
 10
15390.65166905249
 20
1738.413010215645
 42
0.0
 10
15614.87640756776
 20
1528.290365645756
 42
-0.2087121550133252
 10
15625.81529850651
 20
1539.966866432867
 42
0.0
 97
        0
 92
        7
 72
     1
 73
     1
 93
        4
 10
15960.46570573217
 20
1693.868059717379
 42
-0.2087121525220125
 10
15971.38978534767
 20
1705.558418332666
 42
0.0
 10
15791.78308549147
 20
1873.392267855593
 42
-0.2087121525220409
 10
15780.85900587597
 20
1861.701909240304
 42
0.0
 97
        0
 92
        7
 72
     1
 73
     1
 93
        4
 10
15725.06220164222
 20
1773.960715728856
 42
-0.2087121525220608
 10
15714.12030277958
 20
1762.287033821263
 42
0.0
 10
15865.26656581118
 20
1620.615611158812
 42
-0.2087121525220608
 10
15876.20846467382
 20
1632.289293066405
 42
0.0
 97
        0
 92
        7
 72
     1
 73
     1
 93
        4
 10
15657.6145849861
 20
1673.407933555153
 42
-0.2087161333675065
 10
15646.6034157833
 20
1661.799182410655
 42
0.0
 10
15695.81044682674
 20
1615.674819396883
 42
-0.2087121525220475
 10
15706.75259217115
 20
1627.348270268906
 42
0.0
 97
        0
 92
        7
 72
     1
 73
     1
 93
        4
 10
15733.49982829236
 20
1602.276665615899
 42
-0.2087121525220569
 10
15722.55768294794
 20
1590.603214743875
 42
0.0
 10
15769.34933089873
 20
1546.742918555924
 42
-0.2087134813186324
 10
15780.25159764316
 20
1558.453749757213
 42
0.0
 97
        0
 92
        7
 72
     1
 73
     1
 93
        4
 10
15865.86901076173
 20
1293.083359051329
 42
-0.2087121525220146
 10
15876.80962862686
 20
1304.75824152307
 42
0.0
 10
15652.56754141275
 20
1514.897143685691
 42
-0.2087121550133258
 10
15641.62519662123
 20
1503.223879529315
 42
0.0
 97
        0
 92
        7
 72
     1
 73
     1
 93
        4
 10
15973.8080831836
 20
1355.092873597819
 42
-0.2087121525220948
 10
15984.75022852802
 20
1366.766324469847
 42
0.0
 10
15807.03852656364
 20
1533.344938935813
 42
-0.2087134813186323
 10
15796.05650261923
 20
1521.708868393047
 42
0.0
 97
        0
 92
        7
 72
     1
 73
     1
 93
        4
 10
15902.95623016401
 20
1607.218253174101
 42
-0.2087121525220254
 10
15892.01433130138
 20
1595.544571266508
 42
0.0
 10
16082.14756875535
 20
1417.330133772336
 42
-0.2087121525220797
 10
16093.08946761799
 20
1429.003815679931
 42
0.0
 97
        0
 92
        7
 72
     1
 73
     1
 93
        4
 10
15998.17576197554
 20
1680.528207464774
 42
-0.2087121525220125
 10
15987.25168236004
 20
1668.837848849487
 42
0.0
 10
16189.9815712151
 20
1479.396487880538
 42
-0.2087121525220314
 10
16200.9056508306
 20
1491.086846495826
 42
0.0
 97
        0
 75
     0
 76
     1
 47
1.994006238398413
 98
       12
 10
15680.57181760045
 20
1970.154812718062
 10
15602.72445606256
 20
1878.430536581546
 10
15538.84966484467
 20
1772.748185833927
 10
15488.94749995918
 20
1663.077847363359
 10
15852.23528049001
 20
1802.658299522406
 10
15784.36831832178
 20
1708.940000129216
 10
15680.57181760045
 20
1645.131785029313
 10
15742.45049533698
 20
1583.317593186076
 10
15780.37614737143
 20
1383.916972440468
 10
15886.16870556174
 20
1443.737141027032
 10
15987.96914881409
 20
1519.509378086172
 10
16089.76953605405
 20
1587.305610304222
  0
HATCH
  5
806
330
5BB
100
AcDbEntity
  8
0
 62
    50
100
AcDbHatch
 10
0.0
 20
0.0
 30
0.0
210
0.0
220
0.0
230
1.0
  2
SOLID
 70
     1
 71
     0
 91
       18
 92
        7
 72
     1
 73
     1
 93
        4
 10
15621.22360023046
 20
2237.09332764186
 42
0.0
 10
15606.78824620039
 20
2243.994092384006
 42
0.0
 10
15544.64933548628
 20
2114.00890831845
 42
-0.2087121525220811
 10
15559.08468951636
 20
2107.108143576302
 42
0.0
 97
        0
 92
        7
 72
     1
 73
     1
 93
        4
 10
15543.27305112437
 20
2074.032592313155
 42
-0.2087121525220811
 10
15528.8376970943
 20
2080.933357055302
 42
0.0
 10
15491.37774688738
 20
2002.572818275731
 42
-0.2087150754612487
 10
15505.84806475267
 20
1995.745192578095
 42
0.0
 97
        0
 92
        7
 72
     1
 73
     1
 93
        4
 10
15437.34564338365
 20
1889.545846308097
 42
-0.2087121525220978
 10
15451.78099741372
 20
1882.645081565947
 42
0.0
 10
15490.00170412909
 20
1962.597007668607
 42
-0.2087150754613151
 10
15475.60131393423
 20
1969.570911455265
 42
0.0
 97
        0
 92
        7
 72
     1
 73
     1
 93
        4
 10
15435.96935902173
 20
1849.569530302803
 42
-0.2087121525221166
 10
15421.53400499166
 20
1856.470295044949
 42
0.0
 10
15383.4348620019
 20
1776.772661833307
 42
-0.2087121525220978
 10
15397.87021603197
 20
1769.871897091156
 42
0.0
 97
        0
 92
        7
 72
     1
 73
     1
 93
        4
 10
15382.05857763999
 20
1736.796345828013
 42
-0.2087121525221222
 10
15367.62322360991
 20
1743.697110570159
 42
0.0
 10
15332.15756855682
 20
1669.508335017072
 42
0.0
 10
15344.68231095244
 20
1658.610860288754
 42
0.0
 97
        0
 92
        7
 72
     1
 73
     1
 93
        4
 10
15776.49996907611
 20
1899.740645312275
 42
-0.2087121525220493
 10
15789.78543617504
 20
1890.824571963361
 42
0.0
 10
15862.22274767949
 20
1998.760372967604
 42
0.0
 10
15848.93728058056
 20
2007.676446316518
 42
0.0
 97
        0
 92
        7
 72
     1
 73
     1
 93
        4
 10
15769.35614566346
 20
1860.383742651512
 42
-0.2087121525220418
 10
15756.07067856453
 20
1869.299816000419
 42
0.0
 10
15709.78928117213
 20
1800.337846051593
 42
-0.2087121525220493
 10
15723.07474827106
 20
1791.42177270268
 42
0.0
 97
        0
 92
        7
 72
     1
 73
     1
 93
        4
 10
15642.38169364767
 20
1699.896625883325
 42
-0.2087121525221425
 10
15655.66716074661
 20
1690.98055253441
 42
0.0
 10
15702.64545775948
 20
1760.98094339083
 42
-0.2087121525220635
 10
15689.35999066055
 20
1769.89701673974
 42
0.0
 97
        0
 92
        7
 72
     1
 73
     1
 93
        4
 10
15988.96708684246
 20
1704.718061502435
 42
-0.2087121525220987
 10
15998.72607721794
 20
1692.03886173071
 42
0.0
 10
16101.42663015468
 20
1771.085940861151
 42
0.0
 10
16091.6676397792
 20
1783.765140632877
 42
0.0
 97
        0
 92
        7
 72
     1
 73
     1
 93
        4
 10
15969.67438086525
 20
1669.678205679718
 42
-0.2087121525220987
 10
15959.91539048977
 20
1682.357405451443
 42
0.0
 10
15893.75775097621
 20
1631.436860077814
 42
-0.2087121525220876
 10
15903.51674135168
 20
1618.757660306088
 42
0.0
 97
        0
 92
        7
 72
     1
 73
     1
 93
        4
 10
15874.46504499899
 20
1596.397004255097
 42
-0.2087121525220987
 10
15864.70605462351
 20
1609.076204026822
 42
0.0
 10
15797.86316666941
 20
1557.628233180256
 42
-0.2087121525220671
 10
15807.62215704488
 20
1544.949033408532
 42
0.0
 97
        0
 92
        7
 72
     1
 73
     1
 93
        4
 10
15708.12825759855
 20
1590.070721004824
 42
-0.2087137403583678
 10
15696.35541934433
 20
1600.906026697041
 42
0.0
 10
15640.32045431432
 20
1540.477038426907
 42
-0.2087121525221051
 10
15652.05266619704
 20
1529.597920616203
 42
0.0
 97
        0
 92
        7
 72
     1
 73
     1
 93
        4
 10
15627.12547576609
 20
1502.71604610531
 42
-0.2087121525220759
 10
15615.39326388338
 20
1513.595163916014
 42
0.0
 10
15568.93509806514
 20
1463.493946653201
 42
0.0
 10
15581.01178395233
 20
1452.986315030898
 42
0.0
 97
        0
 92
        7
 72
     1
 73
     1
 93
        4
 10
16345.14107195445
 20
1541.660977123831
 42
0.0
 10
16337.17108058536
 20
1555.53466580336
 42
0.0
 10
16220.85345798157
 20
1488.713903882034
 42
-0.2087172944595315
 10
16228.73021669576
 20
1474.786656017769
 42
0.0
 97
        0
 92
        7
 72
     1
 73
     1
 93
        4
 10
16197.0356895573
 20
1456.579161704184
 42
-0.2087172944595536
 10
16188.9724655333
 20
1470.399291198986
 42
0.0
 10
16112.90171238277
 20
1426.699071303999
 42
-0.20871215252209
 10
16120.87170375186
 20
1412.825382624466
 42
0.0
 97
        0
 92
        7
 72
     1
 73
     1
 93
        4
 10
16004.56208536742
 20
1364.461413231349
 42
-0.2087121525221012
 10
16012.53207673651
 20
1350.587724551815
 42
0.0
 10
16089.08308948076
 20
1394.56383825596
 42
-0.2087121525221158
 10
16081.11309811167
 20
1408.437526935493
 42
0.0
 97
        0
 92
        7
 72
     1
 73
     1
 93
        4
 10
15896.62388930942
 20
1302.454364432074
 42
-0.20871215252209
 10
15904.59388067851
 20
1288.580675752541
 42
0.0
 10
15980.74346246541
 20
1332.32618018331
 42
-0.2087121525221158
 10
15972.77347109631
 20
1346.199868862843
 42
0.0
 97
        0
 92
        7
 72
     1
 73
     1
 93
        4
 10
15810.73207529605
 20
1253.1122585095
 42
0.0
 10
15823.50579237852
 20
1241.99815694191
 42
0.0
 10
15872.80526640741
 20
1270.319131384036
 42
-0.20871215252209
 10
15864.83527503831
 20
1284.192820063569
 42
0.0
 97
        0
 75
     0
 76
     1
 47
2.425620357571811
 98
       18
 10
15563.23737008419
 20
2132.029037971108
 10
15526.81503325976
 20
2044.70672395968
 10
15456.39864678402
 20
1921.000072625481
 10
15398.12310494215
 20
1787.59088886602
 10
15364.12895675223
 20
1709.971027643871
 10
15803.62430043237
 20
1925.851259202115
 10
15728.35163522623
 20
1811.847140293205
 10
15679.78855230653
 20
1743.929731860306
 10
16046.43932087641
 20
1739.078545283672
 10
15917.7473925588
 20
1637.202432634339
 10
15840.04653871818
 20
1574.136290414085
 10
15667.64780621125
 20
1557.156938305867
 10
15597.23141973551
 20
1481.962710190027
 10
16279.54188239831
 20
1511.070148193831
 10
16150.84985554209
 20
1438.301553184313
 10
16029.44229605076
 20
1372.809777857736
 10
15917.7473925588
 20
1309.743635637482
 10
15844.90281744856
 20
1263.656845525461
  0
HATCH
  5
807
330
5BB
100
AcDbEntity
  8
0
 62
   250
100
AcDbHatch
 10
0.0
 20
0.0
 30
0.0
210
0.0
220
0.0
230
1.0
  2
SOLID
 70
     1
 71
     1
 91
       16
 92
        7
 72
     1
 73
     1
 93
        2
 10
15563.96119330533
 20
2094.020750315802
 42
1.0
 10
15523.96119330533
 20
2094.020750315802
 42
1.0
 97
        1
330
85C
 92
        7
 72
     1
 73
     1
 93
        2
 10
15510.79099744743
 20
1982.581427001117
 42
1.0
 10
15470.79099744743
 20
1982.581427001117
 42
1.0
 97
        1
330
852
 92
        7
 72
     1
 73
     1
 93
        2
 10
15456.65750120269
 20
1869.557688305451
 42
1.0
 10
15416.65750120269
 20
1869.557688305451
 42
1.0
 97
        1
330
84C
 92
        7
 72
     1
 73
     1
 93
        2
 10
15402.74671982094
 20
1756.78450383066
 42
1.0
 10
15362.74671982094
 20
1756.78450383066
 42
1.0
 97
        1
330
84F
 92
        7
 72
     1
 73
     1
 93
        2
 10
15792.92805736978
 20
1880.062193981894
 42
1.0
 10
15752.92805736978
 20
1880.062193981894
 42
1.0
 97
        1
330
853
 92
        7
 72
     1
 73
     1
 93
        2
 10
15726.2173694658
 20
1780.659394721212
 42
1.0
 10
15686.2173694658
 20
1780.659394721212
 42
1.0
 97
        1
330
856
 92
        7
 72
     1
 73
     1
 93
        2
 10
15658.80978194135
 20
1680.218174552943
 42
1.0
 10
15618.80978194135
 20
1680.218174552943
 42
1.0
 97
        1
330
83A
 92
        7
 72
     1
 73
     1
 93
        2
 10
15653.72296504021
 20
1521.596542266107
 42
1.0
 10
15613.72296504021
 20
1521.596542266107
 42
1.0
 97
        1
330
839
 92
        7
 72
     1
 73
     1
 93
        2
 10
15734.65513755955
 20
1608.97574250639
 42
1.0
 10
15694.65513755955
 20
1608.97574250639
 42
1.0
 97
        1
330
845
 92
        7
 72
     1
 73
     1
 93
        2
 10
15808.21681368079
 20
1540.1083052689
 42
1.0
 10
15768.21681368079
 20
1540.1083052689
 42
1.0
 97
        1
330
842
 92
        7
 72
     1
 73
     1
 93
        2
 10
15904.11139798759
 20
1613.916932166456
 42
1.0
 10
15864.11139798759
 20
1613.916932166456
 42
1.0
 97
        1
330
848
 92
        7
 72
     1
 73
     1
 93
        2
 10
15999.32073385386
 20
1687.198133591076
 42
1.0
 10
15959.32073385386
 20
1687.198133591076
 42
1.0
 97
        1
330
826
 92
        7
 72
     1
 73
     1
 93
        2
 10
16228.83659933679
 20
1472.726561754237
 42
1.0
 10
16188.83659933679
 20
1472.726561754237
 42
1.0
 97
        1
330
864
 92
        7
 72
     1
 73
     1
 93
        2
 10
16120.99240093177
 20
1410.631454779981
 42
1.0
 10
16080.99240093177
 20
1410.631454779981
 42
1.0
 97
        1
330
825
 92
        7
 72
     1
 73
     1
 93
        2
 10
16012.65277391641
 20
1348.393796707331
 42
1.0
 10
15972.65277391641
 20
1348.393796707331
 42
1.0
 97
        1
330
813
 92
        7
 72
     1
 73
     1
 93
        2
 10
15904.71457785841
 20
1286.386747908055
 42
1.0
 10
15864.71457785841
 20
1286.386747908055
 42
1.0
 97
        1
330
81C
 75
     0
 76
     1
 47
2.653858897130448
 98
       16
 10
15549.91622987917
 20
2098.374861841542
 10
15494.12711299529
 20
1986.912803879692
 10
15427.71139442639
 20
1870.143006118903
 10
15382.54878068889
 20
1763.988608319997
 10
15773.07299303055
 20
1872.796796382377
 10
15709.31397415222
 20
1785.219487879775
 10
15632.27175243694
 20
1681.718959980354
 10
15637.58495474083
 20
1522.487403099993
 10
15711.97057530417
 20
1607.410921339121
 10
15789.01279701944
 20
1538.410622496828
 10
15879.33812303305
 20
1607.410921339121
 10
15980.28995219304
 20
1692.334439578248
 10
16208.75991764831
 20
1480.025723616433
 10
16105.15148733638
 20
1411.025345138144
 10
15990.91645533943
 20
1344.678916195335
 10
15889.96462617943
 20
1286.294017314941
  0
LINE
  5
808
330
5BB
100
AcDbEntity
  8
0
100
AcDbLine
 10
16120.87170375186
 20
1412.825382624467
 30
0.0
 11
16197.0356895573
 21
1456.579161704184
 31
0.0
  0
LINE
  5
809
330
5BB
100
AcDbEntity
  8
0
100
AcDbLine
 10
16112.90171238277
 20
1426.699071303999
 30
0.0
 11
16188.9724655333
 21
1470.399291198986
 31
0.0
  0
LINE
  5
80A
330
5BB
100
AcDbEntity
  8
0
100
AcDbLine
 10
15807.03852656364
 20
1533.344938935812
 30
0.0
 11
15984.75022852802
 21
1366.766324469847
 31
0.0
  0
LINE
  5
80B
330
5BB
100
AcDbEntity
  8
0
100
AcDbLine
 10
15796.05650261923
 20
1521.708868393047
 30
0.0
 11
15973.8080831836
 21
1355.092873597818
 31
0.0
  0
LINE
  5
80C
330
5BB
100
AcDbEntity
  8
0
100
AcDbLine
 10
15641.62519662123
 20
1503.223879529315
 30
0.0
 11
15865.86901076173
 21
1293.083359051328
 31
0.0
  0
LINE
  5
80D
330
5BB
100
AcDbEntity
  8
0
100
AcDbLine
 10
15652.56754141275
 20
1514.897143685691
 30
0.0
 11
15876.80962862686
 21
1304.75824152307
 31
0.0
  0
LINE
  5
80E
330
5BB
100
AcDbEntity
  8
0
100
AcDbLine
 10
16093.08946761799
 20
1429.003815679931
 30
0.0
 11
15902.95623016401
 21
1607.218253174101
 31
0.0
  0
LINE
  5
80F
330
5BB
100
AcDbEntity
  8
0
100
AcDbLine
 10
16082.14756875535
 20
1417.330133772336
 30
0.0
 11
15892.01433130138
 21
1595.544571266508
 31
0.0
  0
LINE
  5
810
330
5BB
100
AcDbEntity
  8
0
100
AcDbLine
 10
16082.14756875535
 20
1417.330133772336
 30
0.0
 11
15892.01433130138
 21
1595.544571266508
 31
0.0
  0
LWPOLYLINE
  5
811
102
{ACAD_REACTORS
330
816
102
}
330
5BB
100
AcDbEntity
  8
0
100
AcDbPolyline
 90
        5
 70
     0
 43
0.0
 10
16252.16949519874
 20
869.028260965376
 10
16239.20360883923
 20
855.5437391514942
 10
14870.00600927586
 20
2046.330742408127
 10
14882.97189563536
 20
2060.333899676389
 10
16252.16949519874
 20
869.028260965376
  0
LINE
  5
812
330
5BB
100
AcDbEntity
  8
0
100
AcDbLine
 10
15904.59388067851
 20
1288.580675752542
 30
0.0
 11
15980.74346246541
 21
1332.32618018331
 31
0.0
  0
CIRCLE
  5
813
102
{ACAD_REACTORS
330
807
102
}
330
5BB
100
AcDbEntity
  8
0
100
AcDbCircle
 10
15992.65277391641
 20
1348.393796707331
 30
0.0
 40
20.0
  0
LWPOLYLINE
  5
814
102
{ACAD_REACTORS
330
816
102
}
330
5BB
100
AcDbEntity
  8
0
100
AcDbPolyline
 90
        2
 70
     0
 43
0.0
 10
16013.92458148361
 20
906.0859292862714
 10
15886.76026752338
 20
1016.680347791082
  0
LWPOLYLINE
  5
815
102
{ACAD_REACTORS
330
816
102
}
330
5BB
100
AcDbEntity
  8
0
100
AcDbPolyline
 90
        5
 70
     0
 43
0.0
 10
15886.76026752338
 20
1016.680347791082
 10
15846.76026752338
 20
1016.680347791082
 10
15846.76026752338
 20
674.1803477910825
 10
15886.84092883263
 20
674.1803477910825
 10
16013.92458148361
 20
784.7527531468813
  0
HATCH
  5
816
330
5BB
100
AcDbEntity
  8
0
 62
    50
100
AcDbHatch
 10
0.0
 20
0.0
 30
0.0
210
0.0
220
0.0
230
1.0
  2
SOLID
 70
     1
 71
     1
 91
        3
 92
        7
 72
     0
 73
     1
 93
        6
 10
16053.92458148361
 20
1016.680347791082
 10
16013.92458148361
 20
1016.680347791082
 10
16013.92458148361
 20
674.1803477910825
 10
16054.00524279286
 20
674.1803477910825
 10
16223.70550801701
 20
821.8324346167888
 10
16223.6987579731
 20
869.0282609653738
 97
        2
330
811
330
820
 92
        7
 72
     0
 73
     1
 93
        6
 10
15846.76026752338
 20
674.1803477910825
 10
15886.84092883263
 20
674.1803477910825
 10
16013.92458148361
 20
784.7527531468799
 10
16013.92458148361
 20
906.0859292862712
 10
15886.76026752338
 20
1016.680347791082
 10
15846.76026752338
 20
1016.680347791082
 97
        3
330
814
330
815
330
820
 92
        7
 72
     0
 73
     1
 93
        6
 10
15679.59595356314
 20
674.1803477910825
 10
15719.67661487239
 20
674.1803477910825
 10
15846.76026752338
 20
784.7527531468816
 10
15846.76026752338
 20
906.0859292862707
 10
15719.59595356314
 20
1016.680347791082
 10
15679.59595356314
 20
1016.680347791082
 97
        3
330
81B
330
817
330
815
 75
     0
 76
     1
 47
3.437035263509865
 98
        3
 10
16135.4226647297
 20
854.3847801250858
 10
15925.67526687722
 20
850.9477494338071
 10
15719.36637997438
 20
837.1996060257451
  0
LWPOLYLINE
  5
817
102
{ACAD_REACTORS
330
816
102
}
330
5BB
100
AcDbEntity
  8
0
100
AcDbPolyline
 90
        5
 70
     0
 43
0.0
 10
15719.59595356314
 20
1016.680347791082
 10
15679.59595356314
 20
1016.680347791082
 10
15679.59595356314
 20
674.1803477910825
 10
15719.67661487239
 20
674.1803477910825
 10
15846.76026752338
 20
784.7527531468813
  0
LWPOLYLINE
  5
818
330
5BB
100
AcDbEntity
  8
0
100
AcDbPolyline
 90
        4
 70
     0
 43
0.0
 10
15601.87231353595
 20
596.0319900648592
 10
15539.04574542614
 20
570.8128746968377
 10
15536.45256815424
 20
570.2942392424574
 10
15523.48668179474
 20
583.7787610563391
  0
LWPOLYLINE
  5
819
330
5BB
100
AcDbEntity
  8
0
100
AcDbPolyline
 90
        4
 70
     0
 43
0.0
 10
15646.32458789084
 20
571.4676537898504
 10
15616.32242812877
 20
569.2569683336978
 10
15614.76652176563
 20
569.7756037880772
 10
15601.80063540613
 20
583.2601256019589
  0
LWPOLYLINE
  5
81A
330
5BB
100
AcDbEntity
  8
0
100
AcDbPolyline
 90
        3
 70
     0
 43
0.0
 10
15520.32745675657
 20
615.395684252724
 10
15461.76906272351
 20
605.5614501403024
 10
15448.80317636401
 20
619.0459719541832
  0
LWPOLYLINE
  5
81B
102
{ACAD_REACTORS
330
816
102
}
330
5BB
100
AcDbEntity
  8
0
100
AcDbPolyline
 90
        2
 70
     0
 43
0.0
 10
15846.76026752338
 20
906.0859292862714
 10
15719.59595356314
 20
1016.680347791082
  0
CIRCLE
  5
81C
102
{ACAD_REACTORS
330
807
102
}
330
5BB
100
AcDbEntity
  8
0
100
AcDbCircle
 10
15884.71457785841
 20
1286.386747908055
 30
0.0
 40
20.0
  0
LINE
  5
81D
330
5BB
100
AcDbEntity
  8
0
100
AcDbLine
 10
15821.10392952183
 20
1240.618363385938
 30
0.0
 11
15872.80526640741
 21
1270.319131384036
 31
0.0
  0
LINE
  5
81E
330
5BB
100
AcDbEntity
  8
0
100
AcDbLine
 10
15810.73207529604
 20
1253.112258509499
 30
0.0
 11
15864.83527503831
 21
1284.192820063568
 31
0.0
  0
LINE
  5
81F
330
5BB
100
AcDbEntity
  8
0
100
AcDbLine
 10
15896.62388930942
 20
1302.454364432074
 30
0.0
 11
15972.77347109631
 21
1346.199868862842
 31
0.0
  0
LWPOLYLINE
  5
820
102
{ACAD_REACTORS
330
816
102
}
330
5BB
100
AcDbEntity
  8
0
100
AcDbPolyline
 90
        7
 70
     0
 43
0.0
 10
16053.92458148361
 20
1016.680347791082
 10
16013.92458148361
 20
1016.680347791082
 10
16013.92458148361
 20
674.1803477910825
 10
16054.00524279286
 20
674.1803477910825
 10
16223.70550801701
 20
821.83243461679
 10
16223.6987579731
 20
869.028260965376
 10
16053.92458148361
 20
1016.680347791082
  0
HATCH
  5
821
330
5BB
100
AcDbEntity
  8
0
 62
    70
100
AcDbHatch
 10
0.0
 20
0.0
 30
0.0
210
0.0
220
0.0
230
1.0
  2
SOLID
 70
     1
 71
     0
 91
        1
 92
        7
 72
     0
 73
     1
 93
        7
 10
16438.87825877556
 20
835.3169564306726
 10
16438.87825877556
 20
855.5437391514942
 10
16223.70068655707
 20
855.5437391514951
 10
16223.7035838345
 20
835.2861817072025
 10
16239.17078115391
 20
835.288393857496
 10
16239.20360883923
 20
835.31695643067
 10
16239.23106456164
 20
835.2884024793539
 97
        0
 75
     0
 76
     1
 47
1.474100497564657
 98
        1
 10
16370.33216967758
 20
842.9467274296921
  0
LWPOLYLINE
  5
822
330
5BB
100
AcDbEntity
  8
0
100
AcDbPolyline
 90
        4
 70
     0
 43
0.0
 10
16223.70068655707
 20
855.5437391514942
 10
16438.87825877556
 20
855.5437391514942
 10
16438.87825877556
 20
835.3169564306718
 10
16223.7035838345
 20
835.2861817072035
  0
LINE
  5
823
330
5BB
100
AcDbEntity
  8
0
100
AcDbLine
 10
16012.53207673651
 20
1350.587724551815
 30
0.0
 11
16089.08308948076
 21
1394.563838255961
 31
0.0
  0
LINE
  5
824
330
5BB
100
AcDbEntity
  8
0
100
AcDbLine
 10
16004.56208536742
 20
1364.461413231349
 30
0.0
 11
16081.11309811167
 21
1408.437526935492
 31
0.0
  0
CIRCLE
  5
825
102
{ACAD_REACTORS
330
807
102
}
330
5BB
100
AcDbEntity
  8
0
100
AcDbCircle
 10
16100.99240093177
 20
1410.631454779981
 30
0.0
 40
20.0
  0
CIRCLE
  5
826
102
{ACAD_REACTORS
330
807
102
}
330
5BB
100
AcDbEntity
  8
0
100
AcDbCircle
 10
15979.32073385386
 20
1687.198133591076
 30
0.0
 40
20.0
  0
LINE
  5
827
330
5BB
100
AcDbEntity
  8
0
100
AcDbLine
 10
15491.37774688738
 20
2002.572818275731
 30
0.0
 11
15528.8376970943
 21
2080.933357055303
 31
0.0
  0
LINE
  5
828
330
5BB
100
AcDbEntity
  8
0
100
AcDbLine
 10
15505.84806475267
 20
1995.745192578094
 30
0.0
 11
15543.27305112437
 21
2074.032592313156
 31
0.0
  0
LINE
  5
829
330
5BB
100
AcDbEntity
  8
0
100
AcDbLine
 10
15562.81622142702
 20
2087.350824189503
 30
0.0
 11
15764.9971088636
 21
1898.422478723485
 31
0.0
  0
LINE
  5
82A
330
5BB
100
AcDbEntity
  8
0
100
AcDbLine
 10
15551.89214181151
 20
2075.660465574211
 30
0.0
 11
15754.07302924809
 21
1886.732120108196
 31
0.0
  0
LINE
  5
82B
330
5BB
100
AcDbEntity
  8
0
100
AcDbLine
 10
15876.20846467382
 20
1632.289293066405
 30
0.0
 11
15725.06220164222
 21
1773.960715728855
 31
0.0
  0
LINE
  5
82C
330
5BB
100
AcDbEntity
  8
0
100
AcDbLine
 10
15865.26656581118
 20
1620.615611158813
 30
0.0
 11
15714.12030277958
 21
1762.287033821263
 31
0.0
  0
LINE
  5
82D
330
5BB
100
AcDbEntity
  8
0
100
AcDbLine
 10
15865.26656581118
 20
1620.615611158813
 30
0.0
 11
15714.12030277958
 21
1762.287033821263
 31
0.0
  0
LINE
  5
82E
330
5BB
100
AcDbEntity
  8
0
100
AcDbLine
 10
15780.85900587597
 20
1861.701909240304
 30
0.0
 11
15960.46570573217
 21
1693.868059717379
 31
0.0
  0
LINE
  5
82F
330
5BB
100
AcDbEntity
  8
0
100
AcDbLine
 10
15791.78308549147
 20
1873.392267855594
 30
0.0
 11
15971.38978534767
 21
1705.558418332666
 31
0.0
  0
LINE
  5
830
330
5BB
100
AcDbEntity
  8
0
100
AcDbLine
 10
15655.66716074661
 20
1690.980552534411
 30
0.0
 11
15702.64545775948
 21
1760.98094339083
 31
0.0
  0
LINE
  5
831
330
5BB
100
AcDbEntity
  8
0
100
AcDbLine
 10
15642.38169364767
 20
1699.896625883325
 30
0.0
 11
15689.35999066055
 21
1769.89701673974
 31
0.0
  0
LINE
  5
832
330
5BB
100
AcDbEntity
  8
0
100
AcDbLine
 10
15455.5021919355
 20
1862.85861141496
 30
0.0
 11
15630.79888162665
 21
1698.543716186081
 31
0.0
  0
LINE
  5
833
330
5BB
100
AcDbEntity
  8
0
100
AcDbLine
 10
15401.59228691763
 20
1750.087892687388
 30
0.0
 11
15625.81529850651
 21
1539.966866432867
 31
0.0
  0
LINE
  5
834
330
5BB
100
AcDbEntity
  8
0
100
AcDbLine
 10
15390.65166905249
 20
1738.413010215645
 30
0.0
 11
15614.87640756776
 21
1528.290365645757
 31
0.0
  0
LINE
  5
835
330
5BB
100
AcDbEntity
  8
0
100
AcDbLine
 10
15444.56004659108
 20
1851.185160542934
 30
0.0
 11
15619.92576014061
 21
1686.805565586531
 31
0.0
  0
LINE
  5
836
330
5BB
100
AcDbEntity
  8
0
100
AcDbLine
 10
15344.68231095245
 20
1658.610860288758
 30
0.0
 11
15382.05857763999
 21
1736.796345828013
 31
0.0
  0
LINE
  5
837
330
5BB
100
AcDbEntity
  8
0
100
AcDbLine
 10
15331.2022627396
 20
1667.50998002399
 30
0.0
 11
15367.62322360991
 21
1743.697110570159
 31
0.0
  0
LINE
  5
838
330
5BB
100
AcDbEntity
  8
0
100
AcDbLine
 10
15580.8395469501
 20
1452.800571936702
 30
0.0
 11
15627.12547576609
 21
1502.71604610531
 31
0.0
  0
CIRCLE
  5
839
102
{ACAD_REACTORS
330
807
102
}
330
5BB
100
AcDbEntity
  8
0
100
AcDbCircle
 10
15633.72296504021
 20
1521.596542266107
 30
0.0
 40
20.0
  0
CIRCLE
  5
83A
102
{ACAD_REACTORS
330
807
102
}
330
5BB
100
AcDbEntity
  8
0
100
AcDbCircle
 10
15638.80978194135
 20
1680.218174552943
 30
0.0
 40
20.0
  0
LINE
  5
83B
330
5BB
100
AcDbEntity
  8
0
100
AcDbLine
 10
15569.10733506738
 20
1463.679689747404
 30
0.0
 11
15615.39326388338
 21
1513.595163916015
 31
0.0
  0
LINE
  5
83C
330
5BB
100
AcDbEntity
  8
0
100
AcDbLine
 10
15722.55768294794
 20
1590.603214743875
 30
0.0
 11
15769.34933089873
 21
1546.742918555924
 31
0.0
  0
LINE
  5
83D
330
5BB
100
AcDbEntity
  8
0
100
AcDbLine
 10
15733.49982829236
 20
1602.276665615899
 30
0.0
 11
15780.25159764316
 21
1558.453749757213
 31
0.0
  0
LINE
  5
83E
330
5BB
100
AcDbEntity
  8
0
100
AcDbLine
 10
15640.32045431432
 20
1540.477038426907
 30
0.0
 11
15696.35541934433
 21
1600.90602669704
 31
0.0
  0
LINE
  5
83F
330
5BB
100
AcDbEntity
  8
0
100
AcDbLine
 10
15652.05266619704
 20
1529.597920616204
 30
0.0
 11
15708.12825759855
 21
1590.070721004824
 31
0.0
  0
LINE
  5
840
330
5BB
100
AcDbEntity
  8
0
100
AcDbLine
 10
15807.62215704488
 20
1544.949033408531
 30
0.0
 11
15874.46504499899
 21
1596.397004255097
 31
0.0
  0
LINE
  5
841
330
5BB
100
AcDbEntity
  8
0
100
AcDbLine
 10
15797.86316666941
 20
1557.628233180256
 30
0.0
 11
15864.70605462351
 21
1609.076204026822
 31
0.0
  0
CIRCLE
  5
842
102
{ACAD_REACTORS
330
807
102
}
330
5BB
100
AcDbEntity
  8
0
100
AcDbCircle
 10
15788.21681368079
 20
1540.1083052689
 30
0.0
 40
20.0
  0
LINE
  5
843
330
5BB
100
AcDbEntity
  8
0
100
AcDbLine
 10
15646.6034157833
 20
1661.799182410655
 30
0.0
 11
15695.81044682674
 21
1615.674819396884
 31
0.0
  0
LINE
  5
844
330
5BB
100
AcDbEntity
  8
0
100
AcDbLine
 10
15657.6145849861
 20
1673.407933555154
 30
0.0
 11
15706.75259217115
 21
1627.348270268906
 31
0.0
  0
CIRCLE
  5
845
102
{ACAD_REACTORS
330
807
102
}
330
5BB
100
AcDbEntity
  8
0
100
AcDbCircle
 10
15714.65513755955
 20
1608.97574250639
 30
0.0
 40
20.0
  0
LINE
  5
846
330
5BB
100
AcDbEntity
  8
0
100
AcDbLine
 10
15903.51674135168
 20
1618.757660306086
 30
0.0
 11
15969.67438086525
 21
1669.678205679718
 31
0.0
  0
LINE
  5
847
330
5BB
100
AcDbEntity
  8
0
100
AcDbLine
 10
15893.75775097621
 20
1631.436860077814
 30
0.0
 11
15959.91539048977
 21
1682.357405451443
 31
0.0
  0
CIRCLE
  5
848
102
{ACAD_REACTORS
330
807
102
}
330
5BB
100
AcDbEntity
  8
0
100
AcDbCircle
 10
15884.11139798759
 20
1613.916932166456
 30
0.0
 40
20.0
  0
LINE
  5
849
330
5BB
100
AcDbEntity
  8
0
100
AcDbLine
 10
15698.31443615202
 20
1799.03175562116
 30
0.0
 11
15509.63582962385
 21
1975.882748008767
 31
0.0
  0
LINE
  5
84A
330
5BB
100
AcDbEntity
  8
0
100
AcDbLine
 10
15687.37253728938
 20
1787.358073713567
 30
0.0
 11
15498.69393076122
 21
1964.209066101169
 31
0.0
  0
LINE
  5
84B
330
5BB
100
AcDbEntity
  8
0
100
AcDbLine
 10
15687.37253728938
 20
1787.358073713567
 30
0.0
 11
15498.69393076122
 21
1964.209066101169
 31
0.0
  0
CIRCLE
  5
84C
102
{ACAD_REACTORS
330
807
102
}
330
5BB
100
AcDbEntity
  8
0
100
AcDbCircle
 10
15436.65750120269
 20
1869.557688305451
 30
0.0
 40
20.0
  0
LINE
  5
84D
330
5BB
100
AcDbEntity
  8
0
100
AcDbLine
 10
15397.87021603197
 20
1769.871897091156
 30
0.0
 11
15435.96935902173
 21
1849.569530302803
 31
0.0
  0
LINE
  5
84E
330
5BB
100
AcDbEntity
  8
0
100
AcDbLine
 10
15383.4348620019
 20
1776.772661833307
 30
0.0
 11
15421.53400499166
 21
1856.470295044949
 31
0.0
  0
CIRCLE
  5
84F
102
{ACAD_REACTORS
330
807
102
}
330
5BB
100
AcDbEntity
  8
0
100
AcDbCircle
 10
15382.74671982094
 20
1756.78450383066
 30
0.0
 40
20.0
  0
LINE
  5
850
330
5BB
100
AcDbEntity
  8
0
100
AcDbLine
 10
15437.34564338365
 20
1889.545846308097
 30
0.0
 11
15475.60131393423
 21
1969.570911455264
 31
0.0
  0
LINE
  5
851
330
5BB
100
AcDbEntity
  8
0
100
AcDbLine
 10
15451.78099741372
 20
1882.645081565947
 30
0.0
 11
15490.00170412909
 21
1962.597007668607
 31
0.0
  0
CIRCLE
  5
852
102
{ACAD_REACTORS
330
807
102
}
330
5BB
100
AcDbEntity
  8
0
100
AcDbCircle
 10
15490.79099744743
 20
1982.581427001117
 30
0.0
 40
20.0
  0
CIRCLE
  5
853
102
{ACAD_REACTORS
330
807
102
}
330
5BB
100
AcDbEntity
  8
0
100
AcDbCircle
 10
15772.92805736978
 20
1880.062193981894
 30
0.0
 40
20.0
  0
LINE
  5
854
330
5BB
100
AcDbEntity
  8
0
100
AcDbLine
 10
15723.07474827106
 20
1791.42177270268
 30
0.0
 11
15769.35614566346
 21
1860.383742651512
 31
0.0
  0
LINE
  5
855
330
5BB
100
AcDbEntity
  8
0
100
AcDbLine
 10
15709.78928117213
 20
1800.337846051593
 30
0.0
 11
15756.07067856453
 21
1869.299816000418
 31
0.0
  0
CIRCLE
  5
856
102
{ACAD_REACTORS
330
807
102
}
330
5BB
100
AcDbEntity
  8
0
100
AcDbCircle
 10
15706.2173694658
 20
1780.659394721212
 30
0.0
 40
20.0
  0
LINE
  5
857
330
5BB
100
AcDbEntity
  8
0
100
AcDbLine
 10
15789.78543617504
 20
1890.824571963362
 30
0.0
 11
15862.22274767949
 21
1998.760372967606
 31
0.0
  0
LINE
  5
858
330
5BB
100
AcDbEntity
  8
0
100
AcDbLine
 10
15776.49996907611
 20
1899.740645312275
 30
0.0
 11
15848.93728058056
 21
2007.676446316518
 31
0.0
  0
LINE
  5
859
330
5BB
100
AcDbEntity
  8
0
100
AcDbLine
 10
15848.93728058056
 20
2007.676446316518
 30
0.0
 11
15862.22274767949
 21
1998.760372967606
 31
0.0
  0
LINE
  5
85A
330
5BB
100
AcDbEntity
  8
0
100
AcDbLine
 10
15559.08468951636
 20
2107.108143576301
 30
0.0
 11
15621.22360023046
 21
2237.093327641858
 31
0.0
  0
LINE
  5
85B
330
5BB
100
AcDbEntity
  8
0
100
AcDbLine
 10
15544.64933548628
 20
2114.008908318449
 30
0.0
 11
15606.78824620039
 21
2243.994092384006
 31
0.0
  0
CIRCLE
  5
85C
102
{ACAD_REACTORS
330
807
102
}
330
5BB
100
AcDbEntity
  8
0
100
AcDbCircle
 10
15543.96119330533
 20
2094.020750315802
 30
0.0
 40
20.0
  0
LINE
  5
85D
330
5BB
100
AcDbEntity
  8
0
100
AcDbLine
 10
15606.78824620039
 20
2243.994092384006
 30
0.0
 11
15621.22360023046
 21
2237.093327641858
 31
0.0
  0
LINE
  5
85E
330
5BB
100
AcDbEntity
  8
0
100
AcDbLine
 10
15998.72607721794
 20
1692.03886173071
 30
0.0
 11
16101.42663015468
 21
1771.085940861153
 31
0.0
  0
LINE
  5
85F
330
5BB
100
AcDbEntity
  8
0
100
AcDbLine
 10
15988.96708684246
 20
1704.718061502435
 30
0.0
 11
16091.6676397792
 21
1783.765140632877
 31
0.0
  0
LINE
  5
860
330
5BB
100
AcDbEntity
  8
0
100
AcDbLine
 10
16228.73021669576
 20
1474.786656017769
 30
0.0
 11
16345.14107195445
 21
1541.660977123828
 31
0.0
  0
LINE
  5
861
330
5BB
100
AcDbEntity
  8
0
100
AcDbLine
 10
16220.85345798157
 20
1488.713903882034
 30
0.0
 11
16337.17108058536
 21
1555.53466580336
 31
0.0
  0
LINE
  5
862
330
5BB
100
AcDbEntity
  8
0
100
AcDbLine
 10
15998.17576197554
 20
1680.528207464774
 30
0.0
 11
16200.9056508306
 21
1491.086846495826
 31
0.0
  0
LINE
  5
863
330
5BB
100
AcDbEntity
  8
0
100
AcDbLine
 10
15987.25168236004
 20
1668.837848849487
 30
0.0
 11
16189.9815712151
 21
1479.396487880537
 31
0.0
  0
CIRCLE
  5
864
102
{ACAD_REACTORS
330
807
102
}
330
5BB
100
AcDbEntity
  8
0
100
AcDbCircle
 10
16208.83659933679
 20
1472.726561754237
 30
0.0
 40
20.0
  0
LINE
  5
865
330
5BB
100
AcDbEntity
  8
0
100
AcDbLine
 10
16337.17108058536
 20
1555.53466580336
 30
0.0
 11
16345.14107195446
 21
1541.660977123827
 31
0.0
  0
LINE
  5
866
330
5BB
100
AcDbEntity
  8
0
100
AcDbLine
 10
16091.6676397792
 20
1783.765140632877
 30
0.0
 11
16101.42663015468
 21
1771.085940861153
 31
0.0
  0
LINE
  5
867
330
5BB
100
AcDbEntity
  8
0
 62
    30
100
AcDbLine
 10
17938.87825877556
 20
855.5437391514942
 30
0.0
 11
17938.88115165146
 21
835.3169568444164
 31
0.0
  0
ENDBLK
  5
5BD
330
5BB
100
AcDbEntity
  8
0
100
AcDbBlockEnd
  0
ENDSEC
  0
SECTION
  2
ENTITIES
  0
INSERT
  5
868
330
1F
100
AcDbEntity
  8
0
100
AcDbBlockReference
  2
FBKB_3
 10
-0.0000127993553178
 20
3412.501413911662
 30
0.0
  0
MTEXT
  5
869
330
1F
100
AcDbEntity
  8
0
100
AcDbMText
 10
6925.505209814874
 20
6646.119966733968
 30
0.0
 40
250.0
 41
4078.289999999999
 71
     1
 72
     5
  1
{\Fisocp.shx;Hoogte: 435cm\PVrije Valhoogte: 180cm}
1001
ACAD
1000
MTEXTBEGIN
1070
    73
1070
     1
1070
    44
1040
1.0
1070
    74
1070
     0
1000
MTEXTEND
  0
ENDSEC
  0
SECTION
  2
OBJECTS
  0
DICTIONARY
  5
C
330
0
100
AcDbDictionary
  3
ACAD_GROUP
350
D
  3
ACAD_LAYOUT
350
1A
  3
ACAD_MLINESTYLE
350
17
  3
ACAD_PLOTSETTINGS
350
19
  3
ACAD_PLOTSTYLENAME
350
E
  3
ACDBHEADERROUNDTRIPXREC
350
86C
  0
DICTIONARY
  5
5D
330
2
100
AcDbDictionary
280
     1
  3
ACAD_LAYERSTATES
360
5E
  0
DICTIONARY
  5
88D
330
1F
100
AcDbDictionary
280
     1
  3
ACAD_LAYOUTSELFREF
360
88E
  0
DICTIONARY
  5
88F
330
50
100
AcDbDictionary
280
     1
  3
ACAD_LAYOUTSELFREF
360
890
  0
DICTIONARY
  5
D
102
{ACAD_REACTORS
330
C
102
}
330
C
100
AcDbDictionary
  0
DICTIONARY
  5
1A
102
{ACAD_REACTORS
330
C
102
}
330
C
100
AcDbDictionary
  0
DICTIONARY
  5
17
102
{ACAD_REACTORS
330
C
102
}
330
C
100
AcDbDictionary
  3
STANDARD
350
18
  0
DICTIONARY
  5
19
102
{ACAD_REACTORS
330
C
102
}
330
C
100
AcDbDictionary
  0
ACDBDICTIONARYWDFLT
  5
E
102
{ACAD_REACTORS
330
C
102
}
330
C
100
AcDbDictionary
281
     1
  3
Normal
350
F
100
AcDbDictionaryWithDefault
340
F
  0
DICTIONARY
  5
86C
102
{ACAD_REACTORS
330
C
102
}
330
C
100
AcDbDictionary
  3
CEPSNTYPE
350
876
  3
DIMSTYLEDATA
350
87A
  3
FINGERPRINTGUID
350
877
  3
HYPERLINKBASE
350
86F
  3
INSUNITS
350
875
  3
LAYOUTDICT
350
871
  3
LWETCUNION
350
874
  3
PLOTSETDICT
350
872
  3
PLOTSTYLNAMDICT
350
873
  3
PSVPSCALE
350
879
  3
PUCSBASE
350
87D
  3
PUCSORGBACK
350
883
  3
PUCSORGBOTTOM
350
87F
  3
PUCSORGFRONT
350
882
  3
PUCSORGLEFT
350
880
  3
PUCSORGRIGHT
350
881
  3
PUCSORGTOP
350
87E
  3
PUCSORTHOREF
350
87B
  3
PUCSORTHOVIEW
350
87C
  3
STYLESHEET
350
870
  3
TSTACKALIGN
350
86D
  3
TSTACKSIZE
350
86E
  3
UCSBASE
350
886
  3
UCSORGBACK
350
88C
  3
UCSORGBOTTOM
350
888
  3
UCSORGFRONT
350
88B
  3
UCSORGLEFT
350
889
  3
UCSORGRIGHT
350
88A
  3
UCSORGTOP
350
887
  3
UCSORTHOREF
350
884
  3
UCSORTHOVIEW
350
885
  3
VERSIONGUID
350
878
  0
DICTIONARY
  5
5E
102
{ACAD_REACTORS
330
5D
102
}
330
5D
100
AcDbDictionary
  0
XRECORD
  5
88E
102
{ACAD_REACTORS
330
88D
102
}
330
88D
100
AcDbXrecord
340
1F
  0
XRECORD
  5
890
102
{ACAD_REACTORS
330
88F
102
}
330
88F
100
AcDbXrecord
340
50
  0
MLINESTYLE
  5
18
102
{ACAD_REACTORS
330
17
102
}
330
17
100
AcDbMlineStyle
  2
STANDARD
 70
     0
  3

 62
   256
 51
90.0
 52
90.0
 71
     2
 49
0.5
 62
   256
  6
BYLAYER
 49
-0.5
 62
   256
  6
BYLAYER
  0
ACDBPLACEHOLDER
  5
F
102
{ACAD_REACTORS
330
E
102
}
330
E
100
AcDbPlaceHolder
280
     0
  0
XRECORD
  5
876
102
{ACAD_REACTORS
330
86C
102
}
330
86C
100
AcDbXrecord
 90
        0
  0
XRECORD
  5
87A
102
{ACAD_REACTORS
330
86C
102
}
330
86C
100
AcDbXrecord
1000
DSTYLE
1002
{
1070
   278
 70
    44
1002
}
  0
XRECORD
  5
877
102
{ACAD_REACTORS
330
86C
102
}
330
86C
100
AcDbXrecord
  1
{FDEAD578-A652-11D2-9A35-0060089B3A3F}
  0
XRECORD
  5
86F
102
{ACAD_REACTORS
330
86C
102
}
330
86C
100
AcDbXrecord
  1

  0
XRECORD
  5
875
102
{ACAD_REACTORS
330
86C
102
}
330
86C
100
AcDbXrecord
 90
        4
  0
XRECORD
  5
871
102
{ACAD_REACTORS
330
86C
102
}
330
86C
100
AcDbXrecord
340
1A
  0
XRECORD
  5
874
102
{ACAD_REACTORS
330
86C
102
}
330
86C
100
AcDbXrecord
 90
    10781
  0
XRECORD
  5
872
102
{ACAD_REACTORS
330
86C
102
}
330
86C
100
AcDbXrecord
340
19
  0
XRECORD
  5
873
102
{ACAD_REACTORS
330
86C
102
}
330
86C
100
AcDbXrecord
340
E
  0
XRECORD
  5
879
102
{ACAD_REACTORS
330
86C
102
}
330
86C
100
AcDbXrecord
 40
0.0
  0
XRECORD
  5
87D
102
{ACAD_REACTORS
330
86C
102
}
330
86C
100
AcDbXrecord
340
0
  0
XRECORD
  5
883
102
{ACAD_REACTORS
330
86C
102
}
330
86C
100
AcDbXrecord
 10
0.0
 20
0.0
 30
0.0
  0
XRECORD
  5
87F
102
{ACAD_REACTORS
330
86C
102
}
330
86C
100
AcDbXrecord
 10
0.0
 20
0.0
 30
0.0
  0
XRECORD
  5
882
102
{ACAD_REACTORS
330
86C
102
}
330
86C
100
AcDbXrecord
 10
0.0
 20
0.0
 30
0.0
  0
XRECORD
  5
880
102
{ACAD_REACTORS
330
86C
102
}
330
86C
100
AcDbXrecord
 10
0.0
 20
0.0
 30
0.0
  0
XRECORD
  5
881
102
{ACAD_REACTORS
330
86C
102
}
330
86C
100
AcDbXrecord
 10
0.0
 20
0.0
 30
0.0
  0
XRECORD
  5
87E
102
{ACAD_REACTORS
330
86C
102
}
330
86C
100
AcDbXrecord
 10
0.0
 20
0.0
 30
0.0
  0
XRECORD
  5
87B
102
{ACAD_REACTORS
330
86C
102
}
330
86C
100
AcDbXrecord
340
0
  0
XRECORD
  5
87C
102
{ACAD_REACTORS
330
86C
102
}
330
86C
100
AcDbXrecord
 70
     0
  0
XRECORD
  5
870
102
{ACAD_REACTORS
330
86C
102
}
330
86C
100
AcDbXrecord
  1

  0
XRECORD
  5
86D
102
{ACAD_REACTORS
330
86C
102
}
330
86C
100
AcDbXrecord
 90
        1
  0
XRECORD
  5
86E
102
{ACAD_REACTORS
330
86C
102
}
330
86C
100
AcDbXrecord
 90
       70
  0
XRECORD
  5
886
102
{ACAD_REACTORS
330
86C
102
}
330
86C
100
AcDbXrecord
340
0
  0
XRECORD
  5
88C
102
{ACAD_REACTORS
330
86C
102
}
330
86C
100
AcDbXrecord
 10
0.0
 20
0.0
 30
0.0
  0
XRECORD
  5
888
102
{ACAD_REACTORS
330
86C
102
}
330
86C
100
AcDbXrecord
 10
0.0
 20
0.0
 30
0.0
  0
XRECORD
  5
88B
102
{ACAD_REACTORS
330
86C
102
}
330
86C
100
AcDbXrecord
 10
0.0
 20
0.0
 30
0.0
  0
XRECORD
  5
889
102
{ACAD_REACTORS
330
86C
102
}
330
86C
100
AcDbXrecord
 10
0.0
 20
0.0
 30
0.0
  0
XRECORD
  5
88A
102
{ACAD_REACTORS
330
86C
102
}
330
86C
100
AcDbXrecord
 10
0.0
 20
0.0
 30
0.0
  0
XRECORD
  5
887
102
{ACAD_REACTORS
330
86C
102
}
330
86C
100
AcDbXrecord
 10
0.0
 20
0.0
 30
0.0
  0
XRECORD
  5
884
102
{ACAD_REACTORS
330
86C
102
}
330
86C
100
AcDbXrecord
340
0
  0
XRECORD
  5
885
102
{ACAD_REACTORS
330
86C
102
}
330
86C
100
AcDbXrecord
 70
     0
  0
XRECORD
  5
878
102
{ACAD_REACTORS
330
86C
102
}
330
86C
100
AcDbXrecord
  1
{D089B3D7-B279-495F-B786-8A98B3C71298}
  0
ENDSEC
  0
EOF
