  0
SECTION
  2
HEADER
  9
$ACADVER
  1
AC1012
  9
$DWGCODEPAGE
  3
ANSI_1252
  9
$INSBASE
 10
0.0
 20
0.0
 30
0.0
  9
$EXTMIN
 10
-310.8897095609918
 20
-0.2380241835999186
 30
-0.0015258207003583
  9
$EXTMAX
 10
7211.789473725879
 20
7800.238050035705
 30
0.0000000349246037
  9
$LIMMIN
 10
0.0
 20
0.0
  9
$LIMMAX
 10
420.0
 20
297.0
  9
$ORTHOMODE
 70
     1
  9
$REGENMODE
 70
     1
  9
$FILLMODE
 70
     1
  9
$QTEXTMODE
 70
     0
  9
$MIRRTEXT
 70
     1
  9
$DRAGMODE
 70
     2
  9
$LTSCALE
 40
1.0
  9
$OSMODE
 70
  3071
  9
$ATTMODE
 70
     1
  9
$TEXTSIZE
 40
2.5
  9
$TRACEWID
 40
1.0
  9
$TEXTSTYLE
  7
STANDARD
  9
$CLAYER
  8
HATCH
  9
$CELTYPE
  6
BYLAYER
  9
$CECOLOR
 62
   256
  9
$CELTSCALE
 40
1.0
  9
$DELOBJ
 70
     1
  9
$DISPSILH
 70
     0
  9
$DIMSCALE
 40
1.0
  9
$DIMASZ
 40
2.5
  9
$DIMEXO
 40
0.625
  9
$DIMDLI
 40
3.75
  9
$DIMRND
 40
0.0
  9
$DIMDLE
 40
0.0
  9
$DIMEXE
 40
1.25
  9
$DIMTP
 40
0.0
  9
$DIMTM
 40
0.0
  9
$DIMTXT
 40
2.5
  9
$DIMCEN
 40
2.5
  9
$DIMTSZ
 40
0.0
  9
$DIMTOL
 70
     0
  9
$DIMLIM
 70
     0
  9
$DIMTIH
 70
     0
  9
$DIMTOH
 70
     0
  9
$DIMSE1
 70
     0
  9
$DIMSE2
 70
     0
  9
$DIMTAD
 70
     1
  9
$DIMZIN
 70
     8
  9
$DIMBLK
  1

  9
$DIMASO
 70
     1
  9
$DIMSHO
 70
     1
  9
$DIMPOST
  1

  9
$DIMAPOST
  1

  9
$DIMALT
 70
     0
  9
$DIMALTD
 70
     3
  9
$DIMALTF
 40
0.03937007874016
  9
$DIMLFAC
 40
1.0
  9
$DIMTOFL
 70
     1
  9
$DIMTVP
 40
0.0
  9
$DIMTIX
 70
     0
  9
$DIMSOXD
 70
     0
  9
$DIMSAH
 70
     0
  9
$DIMBLK1
  1

  9
$DIMBLK2
  1

  9
$DIMSTYLE
  2
ISO-25
  9
$DIMCLRD
 70
     0
  9
$DIMCLRE
 70
     0
  9
$DIMCLRT
 70
     0
  9
$DIMTFAC
 40
1.0
  9
$DIMGAP
 40
0.625
  9
$DIMJUST
 70
     0
  9
$DIMSD1
 70
     0
  9
$DIMSD2
 70
     0
  9
$DIMTOLJ
 70
     0
  9
$DIMTZIN
 70
     8
  9
$DIMALTZ
 70
     0
  9
$DIMALTTZ
 70
     0
  9
$DIMFIT
 70
     3
  9
$DIMUPT
 70
     0
  9
$DIMUNIT
 70
     2
  9
$DIMDEC
 70
     2
  9
$DIMTDEC
 70
     2
  9
$DIMALTU
 70
     2
  9
$DIMALTTD
 70
     3
  9
$DIMTXSTY
  7
STANDARD
  9
$DIMAUNIT
 70
     0
  9
$LUNITS
 70
     2
  9
$LUPREC
 70
     4
  9
$SKETCHINC
 40
1.0
  9
$FILLETRAD
 40
10.0
  9
$AUNITS
 70
     0
  9
$AUPREC
 70
     0
  9
$MENU
  1
.
  9
$ELEVATION
 40
0.0
  9
$PELEVATION
 40
0.0
  9
$THICKNESS
 40
0.0
  9
$LIMCHECK
 70
     0
  9
$BLIPMODE
 70
     0
  9
$CHAMFERA
 40
10.0
  9
$CHAMFERB
 40
10.0
  9
$CHAMFERC
 40
20.0
  9
$CHAMFERD
 40
0.0
  9
$SKPOLY
 70
     0
  9
$TDCREATE
 40
2452626.583183449
  9
$TDUPDATE
 40
2452773.360770833
  9
$TDINDWG
 40
0.0118718750
  9
$TDUSRTIMER
 40
0.0118718750
  9
$USRTIMER
 70
     1
  9
$ANGBASE
 50
0.0
  9
$ANGDIR
 70
     0
  9
$PDMODE
 70
     0
  9
$PDSIZE
 40
0.0
  9
$PLINEWID
 40
0.0
  9
$COORDS
 70
     2
  9
$SPLFRAME
 70
     0
  9
$SPLINETYPE
 70
     6
  9
$SPLINESEGS
 70
     8
  9
$ATTDIA
 70
     0
  9
$ATTREQ
 70
     1
  9
$HANDLING
 70
-16383
  9
$HANDSEED
  5
2E6
  9
$SURFTAB1
 70
     6
  9
$SURFTAB2
 70
     6
  9
$SURFTYPE
 70
     6
  9
$SURFU
 70
     6
  9
$SURFV
 70
     6
  9
$UCSNAME
  2

  9
$UCSORG
 10
0.0
 20
0.0
 30
0.0
  9
$UCSXDIR
 10
1.0
 20
0.0
 30
0.0
  9
$UCSYDIR
 10
0.0
 20
1.0
 30
0.0
  9
$PUCSNAME
  2

  9
$PUCSORG
 10
0.0
 20
0.0
 30
0.0
  9
$PUCSXDIR
 10
1.0
 20
0.0
 30
0.0
  9
$PUCSYDIR
 10
0.0
 20
1.0
 30
0.0
  9
$USERI1
 70
     0
  9
$USERI2
 70
     0
  9
$USERI3
 70
     0
  9
$USERI4
 70
     0
  9
$USERI5
 70
     0
  9
$USERR1
 40
0.0
  9
$USERR2
 40
0.0
  9
$USERR3
 40
0.0
  9
$USERR4
 40
0.0
  9
$USERR5
 40
0.0
  9
$WORLDVIEW
 70
     1
  9
$SHADEDGE
 70
     3
  9
$SHADEDIF
 70
    70
  9
$TILEMODE
 70
     1
  9
$MAXACTVP
 70
    64
  9
$PINSBASE
 10
0.0
 20
0.0
 30
0.0
  9
$PLIMCHECK
 70
     0
  9
$PEXTMIN
 10
0.0
 20
0.0
 30
0.0
  9
$PEXTMAX
 10
0.0
 20
0.0
 30
0.0
  9
$PLIMMIN
 10
0.0
 20
0.0
  9
$PLIMMAX
 10
12.0
 20
9.0
  9
$UNITMODE
 70
     0
  9
$VISRETAIN
 70
     1
  9
$PLINEGEN
 70
     0
  9
$PSLTSCALE
 70
     1
  9
$TREEDEPTH
 70
  3020
  9
$PICKSTYLE
 70
     1
  9
$CMLSTYLE
  2
STANDARD
  9
$CMLJUST
 70
     0
  9
$CMLSCALE
 40
20.0
  9
$SAVEIMAGES
 70
     1
  0
ENDSEC
  0
SECTION
  2
CLASSES
  0
CLASS
  1
ACDBDICTIONARYWDFLT
  2
AcDbDictionaryWithDefault
  3
AutoCAD 2000
 90
    32768
280
     0
281
     0
  0
CLASS
  1
ACDBPLACEHOLDER
  2
AcDbPlaceHolder
  3
AutoCAD 2000
 90
    32768
280
     0
281
     0
  0
CLASS
  1
LAYOUT
  2
AcDbLayout
  3
AutoCAD 2000
 90
    32768
280
     0
281
     0
  0
CLASS
  1
LONG_TRANSACTION
  2
AcDbLongTransaction
  3
AutoCAD 2000
 90
    32768
280
     0
281
     0
  0
CLASS
  1
LWPOLYLINE
  2
AcDbPolyline
  3
AutoCAD 2000
 90
    32768
280
     0
281
     1
  0
CLASS
  1
HATCH
  2
AcDbHatch
  3
AutoCAD 2000
 90
    32768
280
     0
281
     1
  0
CLASS
  1
XRECORD
  2
AcDbXrecord
  3
AutoCAD 2000
 90
    32768
280
     0
281
     0
  0
CLASS
  1
LONG_TRANSACTION
  2
AcDbLongTransaction
  3
AutoCAD 2000
 90
    32768
280
     0
281
     0
  0
CLASS
  1
LWPOLYLINE
  2
AcDbPolyline
  3
AutoCAD 2000
 90
    32768
280
     0
281
     1
  0
CLASS
  1
HATCH
  2
AcDbHatch
  3
AutoCAD 2000
 90
    32768
280
     0
281
     1
  0
CLASS
  1
XRECORD
  2
AcDbXrecord
  3
AutoCAD 2000
 90
    32768
280
     0
281
     0
  0
CLASS
  1
LONG_TRANSACTION
  2
AcDbLongTransaction
  3
AutoCAD 2000
 90
    32768
280
     0
281
     0
  0
CLASS
  1
LWPOLYLINE
  2
AcDbPolyline
  3
AutoCAD 2000
 90
    32768
280
     0
281
     1
  0
CLASS
  1
HATCH
  2
AcDbHatch
  3
AutoCAD 2000
 90
    32768
280
     0
281
     1
  0
CLASS
  1
XRECORD
  2
AcDbXrecord
  3
AutoCAD 2000
 90
    32768
280
     0
281
     0
  0
CLASS
  1
DICTIONARYVAR
  2
AcDbDictionaryVar
  3
AutoCAD 2000
 90
    32768
280
     0
281
     0
  0
CLASS
  1
LONG_TRANSACTION
  2
AcDbLongTransaction
  3
AutoCAD 2000
 90
    32768
280
     0
281
     0
  0
CLASS
  1
LWPOLYLINE
  2
AcDbPolyline
  3
AutoCAD 2000
 90
    32768
280
     0
281
     1
  0
CLASS
  1
HATCH
  2
AcDbHatch
  3
AutoCAD 2000
 90
    32768
280
     0
281
     1
  0
CLASS
  1
XRECORD
  2
AcDbXrecord
  3
AutoCAD 2000
 90
    32768
280
     0
281
     0
  0
ENDSEC
  0
SECTION
  2
TABLES
  0
TABLE
  2
VPORT
  5
8
330
0
100
AcDbSymbolTable
 70
     2
  0
VPORT
  5
2A2
330
8
100
AcDbSymbolTableRecord
100
AcDbViewportTableRecord
  2
*ACTIVE
 70
     0
 10
0.0
 20
0.0
 11
1.0
 21
1.0
 12
-1436.79574124977
 22
1744.369845888949
 13
0.0
 23
0.0
 14
10.0
 24
10.0
 15
10.0
 25
10.0
 16
0.0
 26
0.0
 36
1.0
 17
0.0
 27
0.0
 37
0.0
 40
15474.25337131784
 41
1.558704453441295
 42
50.0
 43
0.0
 44
0.0
 50
0.0
 51
0.0
 71
     0
 72
   100
 73
     1
 74
     3
 75
     0
 76
     0
 77
     0
 78
     0
  0
ENDTAB
  0
TABLE
  2
LTYPE
  5
5
330
0
100
AcDbSymbolTable
 70
     2
  0
LTYPE
  5
14
330
5
100
AcDbSymbolTableRecord
100
AcDbLinetypeTableRecord
  2
BYBLOCK
 70
     0
  3

 72
    65
 73
     0
 40
0.0
  0
LTYPE
  5
15
330
5
100
AcDbSymbolTableRecord
100
AcDbLinetypeTableRecord
  2
BYLAYER
 70
     0
  3

 72
    65
 73
     0
 40
0.0
  0
LTYPE
  5
16
330
5
100
AcDbSymbolTableRecord
100
AcDbLinetypeTableRecord
  2
CONTINUOUS
 70
     0
  3
Solid line
 72
    65
 73
     0
 40
0.0
  0
LTYPE
  5
5D
330
5
100
AcDbSymbolTableRecord
100
AcDbLinetypeTableRecord
  2
DASHED
 70
     0
  3
Dashed __ __ __ __ __ __ __ __ __ __ __ __ __ _
 72
    65
 73
     2
 40
0.75
 49
0.5
 74
     0
 49
-0.25
 74
     0
  0
ENDTAB
  0
TABLE
  2
LAYER
  5
2
330
0
100
AcDbSymbolTable
 70
     6
  0
LAYER
  5
10
330
2
100
AcDbSymbolTableRecord
100
AcDbLayerTableRecord
  2
0
 70
     0
 62
     7
  6
CONTINUOUS
  0
LAYER
  5
5E
330
2
100
AcDbSymbolTableRecord
100
AcDbLayerTableRecord
  2
SAFETY
 70
     0
 62
     7
  6
CONTINUOUS
  0
LAYER
  5
5F
330
2
100
AcDbSymbolTableRecord
100
AcDbLayerTableRecord
  2
OBJECT
 70
     0
 62
     7
  6
CONTINUOUS
  0
LAYER
  5
1A6
330
2
100
AcDbSymbolTableRecord
100
AcDbLayerTableRecord
  2
TEKST
 70
     0
 62
     7
  6
CONTINUOUS
  0
LAYER
  5
20A
330
2
100
AcDbSymbolTableRecord
100
AcDbLayerTableRecord
  2
HATCH
 70
     0
 62
     7
  6
CONTINUOUS
  0
ENDTAB
  0
TABLE
  2
STYLE
  5
3
330
0
100
AcDbSymbolTable
 70
     3
  0
STYLE
  5
11
330
3
100
AcDbSymbolTableRecord
100
AcDbTextStyleTableRecord
  2
STANDARD
 70
     0
 40
0.0
 41
1.0
 50
0.0
 71
     0
 42
2.5
  3
txt
  4

  0
STYLE
  5
60
330
3
100
AcDbSymbolTableRecord
100
AcDbTextStyleTableRecord
  2
STYLE1
 70
     0
 40
100.0
 41
1.0
 50
0.0
 71
     0
 42
75.0
  3
romans.shx
  4

  0
STYLE
  5
61
330
3
100
AcDbSymbolTableRecord
100
AcDbTextStyleTableRecord
  2
STYLE4
 70
     0
 40
3.0
 41
1.0
 50
0.0
 71
     0
 42
3.0
  3
romant.shx
  4

  0
ENDTAB
  0
TABLE
  2
VIEW
  5
6
330
0
100
AcDbSymbolTable
 70
     0
  0
ENDTAB
  0
TABLE
  2
UCS
  5
7
330
0
100
AcDbSymbolTable
 70
     0
  0
ENDTAB
  0
TABLE
  2
APPID
  5
9
330
0
100
AcDbSymbolTable
 70
     3
  0
APPID
  5
12
330
9
100
AcDbSymbolTableRecord
100
AcDbRegAppTableRecord
  2
ACAD
 70
     0
  0
APPID
  5
63
330
9
100
AcDbSymbolTableRecord
100
AcDbRegAppTableRecord
  2
AVE_FINISH
 70
     0
  0
APPID
  5
19D
330
9
100
AcDbSymbolTableRecord
100
AcDbRegAppTableRecord
  2
CONTENTBLOCKICON
 70
     0
  0
ENDTAB
  0
TABLE
  2
DIMSTYLE
  5
A
330
0
100
AcDbSymbolTable
 70
     2
  0
DIMSTYLE
105
27
330
A
100
AcDbSymbolTableRecord
100
AcDbDimStyleTableRecord
  2
ISO-25
 70
     0
  3

  4

  5

  6

  7

 40
1.0
 41
2.5
 42
0.625
 43
3.75
 44
1.25
 45
0.0
 46
0.0
 47
0.0
 48
0.0
140
2.5
141
2.5
142
0.0
143
0.03937007874016
144
1.0
145
0.0
146
1.0
147
0.625
 71
     0
 72
     0
 73
     0
 74
     0
 75
     0
 76
     0
 77
     1
 78
     8
170
     0
171
     3
172
     1
173
     0
174
     0
175
     0
176
     0
177
     0
178
     0
270
     2
271
     2
272
     2
273
     2
274
     3
340
11
275
     0
280
     0
281
     0
282
     0
283
     0
284
     8
285
     0
286
     0
287
     3
288
     0
  0
DIMSTYLE
105
62
330
A
100
AcDbSymbolTableRecord
100
AcDbDimStyleTableRecord
  2
STAND-1
 70
     0
  3

  4

  5

  6

  7

 40
10.0
 41
10.0
 42
2.0
 43
7.0
 44
2.0
 45
0.0
 46
0.0
 47
0.0
 48
0.0
140
100.0
141
0.09
142
0.0
143
25.4
144
1.0
145
0.0
146
1.0
147
3.0
 71
     0
 72
     0
 73
     0
 74
     0
 75
     0
 76
     0
 77
     1
 78
     8
170
     0
171
     2
172
     1
173
     0
174
     0
175
     0
176
     1
177
     1
178
     1
270
     2
271
     1
272
     0
273
     2
274
     2
340
60
275
     0
280
     0
281
     0
282
     0
283
     1
284
     0
285
     0
286
     0
287
     3
288
     0
  0
ENDTAB
  0
TABLE
  2
BLOCK_RECORD
  5
1
330
0
100
AcDbSymbolTable
 70
     5
  0
BLOCK_RECORD
  5
1F
102
{ACAD_XDICTIONARY
360
11E
102
}
330
1
100
AcDbSymbolTableRecord
100
AcDbBlockTableRecord
  2
*MODEL_SPACE
  0
BLOCK_RECORD
  5
50
102
{ACAD_XDICTIONARY
360
120
102
}
330
1
100
AcDbSymbolTableRecord
100
AcDbBlockTableRecord
  2
*PAPER_SPACE
  0
BLOCK_RECORD
  5
12C
330
1
100
AcDbSymbolTableRecord
100
AcDbBlockTableRecord
  2
AEKE
1001
ACAD
1000
DesignCenter Data
1002
{
1070
     1
1070
     4
1002
}
1001
CONTENTBLOCKICON
1071
        0
1004
28000000200000002000000001000800000000000004000000000000000000000000000000000000000000004000000080000000FF000000002000004020000080200000FF200000004000004040000080400000FF400000006000004060000080600000FF600000008000004080000080800000FF80000000A0000040A000
1004
0080A00000FFA0000000C0000040C0000080C00000FFC0000000FF000040FF000080FF0000FFFF0000000020004000200080002000FF002000002020004020200080202000FF202000004020004040200080402000FF402000006020004060200080602000FF602000008020004080200080802000FF80200000A0200040A0
1004
200080A02000FFA0200000C0200040C0200080C02000FFC0200000FF200040FF200080FF2000FFFF2000000040004000400080004000FF004000002040004020400080204000FF204000004040004040400080404000FF404000006040004060400080604000FF604000008040004080400080804000FF80400000A0400040
1004
A0400080A04000FFA0400000C0400040C0400080C04000FFC0400000FF400040FF400080FF4000FFFF4000000060004000600080006000FF006000002060004020600080206000FF206000004060004040600080406000FF406000006060004060600080606000FF606000008060004080600080806000FF80600000A06000
1004
40A0600080A06000FFA0600000C0600040C0600080C06000FFC0600000FF600040FF600080FF6000FFFF6000000080004000800080008000FF008000002080004020800080208000FF208000004080004040800080408000FF408000006080004060800080608000FF608000008080004080800080808000FF80800000A080
1004
0040A0800080A08000FFA0800000C0800040C0800080C08000FFC0800000FF800040FF800080FF8000FFFF80000000A0004000A0008000A000FF00A0000020A0004020A0008020A000FF20A0000040A0004040A0008040A000FF40A0000060A0004060A0008060A000FF60A0000080A0004080A0008080A000FF80A00000A0
1004
A00040A0A00080A0A000FFA0A00000C0A00040C0A00080C0A000FFC0A00000FFA00040FFA00080FFA000FFFFA0000000C0004000C0008000C000FF00C0000020C0004020C0008020C000FF20C0000040C0004040C0008040C000FF40C0000060C0004060C0008060C000FF60C0000080C0004080C0008080C000FF80C00000
1004
A0C00040A0C00080A0C000FFA0C00000C0C00040C0C00080C0C000FFC0C00000FFC00040FFC00080FFC000FFFFC0000000FF004000FF008000FF00FF00FF000020FF004020FF008020FF00FF20FF000040FF004040FF008040FF00FF40FF000060FF004060FF008060FF00FF60FF000080FF004080FF008080FF00FF80FF00
1004
00A0FF0040A0FF0080A0FF00FFA0FF0000C0FF0040C0FF0080C0FF00FFC0FF0000FFFF0040FFFF0080FFFF00FFFFFF000000000000000000000000000000000000000000000000000000000000000000000000000000000000FFFFFFFFFFFFFFFFFFFFFFFFFFFF000000000000000000000000000000000000FF0000000000
1004
00000000000000FF000000000000000000000000000000000000FF000000000000000000000000FF000000000000000000000000000000000000FF000000000000000000000000FF000000000000000000000000000000000000FF000000000000000000000000FF00000000000000000000000000000000FFFFFF00000000
1004
0000000000000000FFFFFF00000000000000000000000000FF000000000000000000000000000000000000FFFF00000000000000000000FF000000000000000000000000000000000000000000FF0000000000000000FF00000000000000000000000000000000000000000000FF00000000000000FF000000000000000000
1004
000000000000000000000000000000FF000000000000FF0000000000FF000000000000000000000000FF0000000000FF000000000000FF00000000FFFFFF00000000000000000000FFFFFF00000000FF000000000000FF0000000000FFFFFF000000000000000000FFFF0000000000FF000000000000FF0000000000FFFFFF
1004
0000000000000000FFFFFF0000000000FF000000000000FF0000000000FFFFFFFFFFFFFFFFFFFFFFFFFFFF0000000000FF000000000000FF0000000000FFFFFFFFFFFFFFFFFFFFFF00FFFF0000000000FF000000000000FF0000000000FFFFFF0000000000000000FFFFFF0000000000FF000000000000FF0000000000FFFF
1004
FF000000000000000000FFFF0000000000FF000000000000FF00000000FFFFFF00000000000000000000FFFFFF00000000FF000000000000FF0000000000FF000000000000000000000000FF0000000000FF000000000000FF000000000000000000000000000000000000000000000000FF00000000000000FF0000000000
1004
0000000000000000000000000000000000FF000000000000000000FF000000000000000000000000000000000000000000FF00000000000000000000FF0000000000FFFFFFFFFFFFFF000000000000FFFF000000000000000000000000FFFFFF0000FFFFFFFFFFFF00000000FFFFFF00000000000000000000000000000000
1004
FF000000000000000000000000FF000000000000000000000000000000000000FF000000000000000000000000FF000000000000000000000000000000000000FF000000000000000000000000FF000000000000000000000000000000000000FF000000000000000000000000FF0000000000000000000000000000000000
1004
00FFFFFFFFFFFFFFFFFFFFFFFFFFFF0000000000000000000000000000000000000000000000000000000000000000000000000000000000
  0
BLOCK_RECORD
  5
2A6
330
1
100
AcDbSymbolTableRecord
100
AcDbBlockTableRecord
  2
*U1
  0
BLOCK_RECORD
  5
2B1
330
1
100
AcDbSymbolTableRecord
100
AcDbBlockTableRecord
  2
*U2
  0
BLOCK_RECORD
  5
2B6
330
1
100
AcDbSymbolTableRecord
100
AcDbBlockTableRecord
  2
*U3
  0
BLOCK_RECORD
  5
2C3
330
1
100
AcDbSymbolTableRecord
100
AcDbBlockTableRecord
  2
*U4
  0
ENDTAB
  0
ENDSEC
  0
SECTION
  2
BLOCKS
  0
BLOCK
  5
20
330
1F
100
AcDbEntity
  8
0
100
AcDbBlockBegin
  2
*MODEL_SPACE
 70
     0
 10
0.0
 20
0.0
 30
0.0
  3
*MODEL_SPACE
  1

  0
ENDBLK
  5
21
330
1F
100
AcDbEntity
  8
0
100
AcDbBlockEnd
  0
BLOCK
  5
52
330
50
100
AcDbEntity
 67
     1
  8
0
100
AcDbBlockBegin
  2
*PAPER_SPACE
 70
     0
 10
0.0
 20
0.0
 30
0.0
  3
*PAPER_SPACE
  1

  0
ENDBLK
  5
53
330
50
100
AcDbEntity
 67
     1
  8
0
100
AcDbBlockEnd
  0
BLOCK
  5
12D
330
12C
100
AcDbEntity
  8
0
100
AcDbBlockBegin
  2
AEKE
 70
     0
 10
0.0
 20
0.0
 30
0.0
  3
AEKE
  1

  0
INSERT
  5
265
330
12C
100
AcDbEntity
  8
HATCH
  6
CONTINUOUS
100
AcDbBlockReference
  2
*U1
 10
0.0
 20
0.0
 30
0.0
1001
ACAD
1002
{
1000
R14_HATCH_DATA
1000
265
1011
1.0
1021
0.0
1031
0.0
1011
0.0
1021
1.0
1031
0.0
1011
0.0
1021
0.0
1031
1.0
1040
0.0
1010
0.0
1020
0.0
1030
1.0
1000
SOLID
1070
     1
1070
     0
1071
        4
1071
        7
1070
     0
1070
     1
1071
        4
1040
4297.435345424442
1040
4018.376926864688
1040
3887.200339470988
1040
4018.376926864688
1040
3856.432728889775
1040
3982.503590076931
1040
4332.124541439004
1040
3982.503590076931
1071
        0
1071
        7
1070
     0
1070
     1
1071
        4
1040
3010.323066274023
1040
4018.376926864688
1040
2600.088060320571
1040
4018.376926864688
1040
2565.398864306012
1040
3982.503590076931
1040
3041.090676855237
1040
3982.503590076931
1071
        0
1071
        7
1070
     0
1070
     1
1071
        4
1040
3041.66417793656
1040
3829.218961383695
1040
2566.029198177846
1040
3829.218961383694
1040
2600.088060320575
1040
3794.629959704046
1040
3012.444464175553
1040
3794.629959704046
1071
        0
1071
        7
1070
     0
1070
     1
1071
        4
1040
4331.494207567169
1040
3829.218961383695
1040
3855.859227808455
1040
3829.218961383695
1040
3885.07894156946
1040
3794.629959704046
1040
4297.435345424438
1040
3794.629959704046
1071
        0
1070
     0
1070
     1
1040
2.520348145830388
1071
        4
1040
4042.488155208658
1040
3998.294587929652
1040
0.0
1040
2642.681257231932
1040
3990.733540093533
1040
0.0
1040
2728.435204873603
1040
3814.309184046345
1040
0.0
1040
4097.976063668567
1040
3809.268485488937
1040
0.0
1002
}
  0
INSERT
  5
266
330
12C
100
AcDbEntity
  8
HATCH
  6
CONTINUOUS
 62
     2
100
AcDbBlockReference
  2
*U2
 10
0.0
 20
0.0
 30
0.0
1001
ACAD
1002
{
1000
R14_HATCH_DATA
1000
266
1011
1.0
1021
0.0
1031
0.0
1011
0.0
1021
1.0
1031
0.0
1011
0.0
1021
0.0
1031
1.0
1040
0.0
1010
0.0
1020
0.0
1030
1.0
1000
SOLID
1070
     1
1070
     0
1071
        2
1071
        7
1070
     0
1070
     1
1071
        3
1040
4556.596122854485
1040
4057.824676199888
1040
4406.596122854483
1040
3905.489867414893
1040
4556.596122854482
1040
3750.369509021318
1071
        0
1071
        7
1070
     0
1070
     1
1071
        3
1040
2490.92728289053
1040
3905.489867414893
1040
2340.92728289053
1040
4057.824676199887
1040
2340.92728289053
1040
3750.366840647446
1071
        0
1070
     0
1070
     1
1040
5.665272384253434
1071
        2
1040
4503.884749793694
1040
3897.033353270272
1040
0.0
1040
2355.190596364438
1040
3885.70278669391
1040
0.0
1002
}
  0
INSERT
  5
267
330
12C
100
AcDbEntity
  8
HATCH
  6
CONTINUOUS
 62
     1
100
AcDbBlockReference
  2
*U3
 10
0.0
 20
0.0
 30
0.0
1001
ACAD
1002
{
1000
R14_HATCH_DATA
1000
267
1011
1.0
1021
0.0
1031
0.0
1011
0.0
1021
1.0
1031
0.0
1011
0.0
1021
0.0
1031
1.0
1040
0.0
1010
0.0
1020
0.0
1030
1.0
1000
SOLID
1070
     1
1070
     1
1071
        1
1071
        7
1070
     0
1070
     1
1071
       12
1040
3448.761702872507
1040
3982.503590076931
1040
3041.090676855237
1040
3982.503590076931
1040
2565.398864306011
1040
3982.503590076931
1040
2490.927282890531
1040
3905.489867414893
1040
2566.029198177844
1040
3829.218961383695
1040
3041.66417793656
1040
3829.218961383695
1040
3448.761702872507
1040
3829.218961383696
1040
3855.859227808455
1040
3829.218961383695
1040
4331.494207567168
1040
3829.218961383694
1040
4406.596122854483
1040
3905.489867414894
1040
4332.124541439003
1040
3982.503590076931
1040
3856.432728889776
1040
3982.503590076931
1071
       12
1005
298
1005
268
1005
286
1005
285
1005
27C
1005
26D
1005
278
1005
27A
1005
269
1005
28C
1005
288
1005
296
1070
     0
1070
     1
1040
2.890445178779849
1071
        1
1040
3663.354724171993
1040
3908.880672527251
1040
0.0
1002
}
  0
LINE
  5
268
330
12C
100
AcDbEntity
  8
OBJECT
 62
     7
100
AcDbLine
 10
3856.432728889776
 20
3982.503590076931
 30
0.0
 11
3448.761702872507
 21
3982.503590076931
 31
0.0
  0
LINE
  5
269
330
12C
100
AcDbEntity
  8
OBJECT
 62
     7
100
AcDbLine
 10
3855.859227808455
 20
3829.218961383695
 30
0.0
 11
3448.761702872507
 21
3829.218961383696
 31
0.0
  0
INSERT
  5
26A
330
12C
100
AcDbEntity
  8
HATCH
  6
CONTINUOUS
 62
   251
100
AcDbBlockReference
  2
*U4
 10
0.0
 20
0.0
 30
0.0
1001
ACAD
1002
{
1000
R14_HATCH_DATA
1000
26A
1011
1.0
1021
0.0
1031
0.0
1011
0.0
1021
1.0
1031
0.0
1011
0.0
1021
0.0
1031
1.0
1040
0.0
1010
0.0
1020
0.0
1030
1.0
1000
SOLID
1070
     1
1070
     1
1071
        4
1071
        7
1070
     0
1070
     1
1071
        4
1040
5456.349222377641
1040
4971.582785330326
1040
5343.53458087516
1040
5084.327571189585
1040
4297.435345424441
1040
4018.37692686469
1040
4406.596122854483
1040
3905.489867414893
1071
        1
1005
296
1071
        7
1070
     0
1070
     1
1071
        4
1040
5334.674805547816
1040
2716.29825865207
1040
5448.329926471881
1040
2828.195727629347
1040
4406.596122854485
1040
3905.489867414894
1040
4297.435345424441
1040
3794.629959704049
1071
        1
1005
288
1071
        7
1070
     0
1070
     1
1071
        4
1040
2600.088060320573
1040
3794.629959704049
1040
2490.927282890531
1040
3905.489867414893
1040
1449.202659276058
1040
2828.186689593186
1040
1562.848600197197
1040
2716.29825865207
1071
        1
1005
26D
1071
        7
1070
     0
1070
     1
1071
        4
1040
2490.92728289053
1040
3905.489867414893
1040
2600.088060320572
1040
4018.376926864689
1040
1553.988824869855
1040
5084.327571189585
1040
1440.344665066574
1040
4972.425215408565
1071
        1
1005
27C
1070
     0
1070
     1
1040
13.84182113023858
1071
        4
1040
4681.142488887184
1040
4287.008348161005
1040
0.0
1040
4639.586905481104
1040
3511.866335979314
1040
0.0
1040
1869.216547968957
1040
3124.295376619586
1040
0.0
1040
2160.105486131535
1040
4328.533804754465
1040
0.0
1002
}
  0
REGION
  5
26B
330
12C
100
AcDbEntity
  8
SAFETY
  6
DASHED
 62
     7
 48
5.0
100
AcDbModelerGeometry
 70
     1
  1
noi gi n o          
  1
=0;& {rn {n {rn {rn |
  1
3*2/ {rn {rn {m {o |
  1
,7:33 {rn {rn {rn {l {n |
  1
9><: {rn {rn {k {m {rn {j 90-(>-; ;0*=3: 0*+ |
  1
300/ {rn {rn {i {l |
  1
/3>1:r,*-9><: {rn lkkfqimhjihffnmoif lgffqfffffkhijmilm o o o n n o o o V V V V |
  1
<0:;8: {rn {h {g {rn {f n {k {rn |
  1
<0:;8: {rn {no {i {rn {nn n {k {rn |
  1
<0:;8: {rn {i {nm {rn {nl n {k {rn |
  1
:;8: {rn {nk {nj {i {ni o |
  1
<0:;8: {rn {nh {h {rn {ng n {k {rn |
  1
:;8: {rn {nf {nk {h {mo o |
  1
<0:;8: {rn {g {mn {rn {mm n {k {rn |
  1
:;8: {rn {nj {ml {g {mk o |
  1
):-+:' {rn {f {mj |
  1
):-+:' {rn {f {mi |
  1
,+->687+r<*-): {rn jmjnqgkfjhilkfghmm rjqmlkhlhmhmfgjjnmk:rooi o rn lqflfgfimlfnlnfokm:rong o V V |
  1
<0:;8: {rn {mh {no {rn {mg n {k {rn |
  1
:;8: {rn {mf {nf {no {lo o |
  1
):-+:' {rn {nn {ln |
  1
,+->687+r<*-): {rn jmjnqgkfjhilkfghmm nlnlqihffhklkfkmgk o o rn o V V |
  1
<0:;8: {rn {nm {lm {rn {ll n {k {rn |
  1
:;8: {rn {ml {lk {nm {lj o |
  1
):-+:' {rn {mm {li |
  1
,+->687+r<*-): {rn nikkqflgiiffoofllh rjqmlkhlhmhmfgjjnmk:rooi o rgqijkohkonmjhiiggi:ronh n o V V |
  1
/061+ {rn jmjnqgkfjhilkfghmm rjqmlkhlhmhmfgjjnmk:rooi o |
  1
/061+ {rn nikkqflgiiffoofllh rjqmlkhlhmhmfgjjnmk:rooi o |
  1
<0:;8: {rn {lh {nh {rn {lg n {k {rn |
  1
:;8: {rn {lf {mf {nh {ko o |
  1
):-+:' {rn {ng {kn |
  1
,+->687+r<*-): {rn jkooqgffhmkkflmfg nlnlqihffhklkfkmgk o rn o o V V |
  1
/061+ {rn jmjnqgkfjhilkfghmm nlnlqihffhklkfkmgk o |
  1
<0:;8: {rn {mn {km {rn {kl n {k {rn |
  1
:;8: {rn {lk {kk {mn {kj o |
  1
):-+:' {rn {ll {ki |
  1
,+->687+r<*-): {rn nikkqflgiiffoofllh nlnlqihffhklkfkmgk o rn o o V V |
  1
/061+ {rn nikkqflgiiffoofllh nlnlqihffhklkfkmgk o |
  1
<0:;8: {rn {kh {mh {rn {kg n {k {rn |
  1
:;8: {rn {kf {lf {mh {jo o |
  1
):-+:' {rn {mg {jn |
  1
:336/,:r<*-): {rn jkooqgffhmkkflmfg mgnlqihffhklkfkmgk o o o rn noioqiionhnhhfgmnm rnoioqiionhnhhfgmnm o n Y roqhgjlfgnillfhkkgmg Y oqhgjlfgnillfhkkgmg |
  1
/061+ {rn jkooqgffhmkkflmfg nlnlqihffhklkfkmgk o |
  1
<0:;8: {rn {lm {jm {rn {jl n {k {rn |
  1
:;8: {rn {kk {jk {lm {jj o |
  1
):-+:' {rn {kl {ji |
  1
:336/,:r<*-): {rn njooqoooookikljmlk mgnlqihffhklkfkmgk o o o rn rnoioqiionhnhhfgmnk rnoioqiionhnhhfgmnk o n Y roqhgjlfgnillfhkkgoi Y oqhgjlfgnillfhkkgoi |
  1
/061+ {rn njooqoooookikljmlk nlnlqihffhklkfkmgk o |
  1
<0:;8: {rn {jh {lh {rn {jg n {k {rn |
  1
:;8: {rn {jf {kf {lh {io o |
  1
):-+:' {rn {lg {in |
  1
,+->687+r<*-): {rn ifooqgffhmkkflmfg kfgiqlmoonjngnofhf o kqnginmifkjkigjmll:roni rn o V V |
  1
/061+ {rn ifooqgffhmkkflmfg mgnlqihffhklkfkmgk o |
  1
<0:;8: {rn {km {im {rn {il n {k {rn |
  1
:;8: {rn {jk {ik {km {ij o |
  1
):-+:' {rn {jl {ii |
  1
,+->687+r<*-): {rn kqikljmlkmjlmfkhii:rooi mgnlqihffhklkfkmgk o rnqjifhfhiokjjoifig:roni n o V V |
  1
/061+ {rn kqikljmlkmjlmfkhii:rooi mgnlqihffhklkfkmgk o |
  1
<0:;8: {rn {ih {kh {rn {ig n {k {rn |
  1
:;8: {rn {if {jf {kh {ho o |
  1
):-+:' {rn {kg {hn |
  1
:336/,:r<*-): {rn jkooqgffhmkkflmfg kfgiqlmoonjngnofhf o o o rn noioqiionhnhhfgmn noioqiionhnhhfgmnh o n Y roqhgjlfgnillfhkkgoi Y oqhgjlfgnillfhkkgin |
  1
/061+ {rn ifooqgffhmkkflmfg kfgiqlmoonjngnofhf o |
  1
<0:;8: {rn {jm {ih {rn {hm n {k {rn |
  1
:;8: {rn {ik {hl {jm {hk o |
  1
):-+:' {rn {il {hj |
  1
:336/,:r<*-): {rn njooqoooookikljmlk kfgiqlmoonjngnofin o o o rn rnoioqiionhnhhfgmnm noioqiionhnhhfgmnm o n Y roqhgjlfgnillfhkkgmg Y oqhgjlfgnillfhkkgj |
  1
/061+ {rn kqikljmlkmjlmfkhii:rooi kfgiqlmoonjngnofin o |
  1
<0:;8: {rn {im {jh {rn {hi n {k {rn |
  1
:;8: {rn {hh {if {jh {hg o |
  1
):-+:' {rn {jg {hf |
  1
,+->687+r<*-): {rn jmjnqgkfjhilkfghmm ikgiqlmoonjngnofin o n iqnonflhjfonkknokh:ronj o V V |
  1
/061+ {rn jkooqgffhmkkflmfg ikgiqlmoonjngnofin o |
  1
:;8: {rn {hl {go {im {gn o |
  1
):-+:' {rn {hm {gm |
  1
,+->687+r<*-): {rn njooqoooookikljmlk ikgiqlmoonjngnofin o n o o V V |
  1
/061+ {rn njooqoooookikljmlk ikgiqlmoonjngnofin o |
  1
:;8: {rn {go {hh {ih {gl o |
  1
):-+:' {rn {ig {gk |
  1
,+->687+r<*-): {rn jmjnqgkfjhilkfghmm hhffqfffffkhijmink o o rn o V V |
  1
/061+ {rn jmjnqgkfjhilkfghmm ikgiqlmoonjngnofin o |
  1
):-+:' {rn {hi {gj |
  1
,+->687+r<*-): {rn nikkqflgiiffoofllh ikgiqlmoonjngnofin o gqijkohkonmjhiigkf:ronh n o V V |
  1
/061+ {rn nikkqflgiiffoofllh ikgiqlmoonjngnofin o |
  1
,+->687+r<*-): {rn nikkqflgiiffoofllh hhffqfffffkhijmilm o n rmqjmnjlljflokkkngh:roni o V V |
  1
/061+ {rn jmjnqgkfjhilkfghmm hhffqfffffkhijmink o |
  1
/061+ {rn nikkqflgiiffoofllh hhffqfffffkhijmilm o |
1001
AVE_FINISH
1002
{
1070
     0
1005
0
1002
}
  0
MTEXT
  5
26C
330
12C
100
AcDbEntity
  8
TEKST
100
AcDbMText
 10
2355.298947886788
 20
6665.82223342371
 30
0.0
 40
150.0
 41
1991.156099999999
 71
     1
 72
     1
  1
{\FIMPACT.TTF;Hoogte: 325 cm\PMax. valhoogte: 165 cm}
1001
ACAD
1000
MTEXTBEGIN
1070
    73
1070
     1
1070
    44
1040
1.0
1070
    74
1070
     0
1000
MTEXTEND
1000
MTEXTBEGIN
1070
    73
1070
     1
1070
    44
1040
1.0
1070
    74
1070
     0
1000
MTEXTEND
  0
POLYLINE
  5
26D
330
12C
100
AcDbEntity
  8
OBJECT
100
AcDb2dPolyline
 66
     1
 10
0.0
 20
0.0
 30
0.0
  0
VERTEX
  5
2CE
330
26D
100
AcDbEntity
  8
OBJECT
100
AcDbVertex
100
AcDb2dVertex
 10
2490.92728289053
 20
3905.489867414893
 30
0.0
  0
VERTEX
  5
2CF
330
26D
100
AcDbEntity
  8
OBJECT
100
AcDbVertex
100
AcDb2dVertex
 10
2600.088060320573
 20
3794.629959704048
 30
0.0
  0
VERTEX
  5
2D0
330
26D
100
AcDbEntity
  8
OBJECT
100
AcDbVertex
100
AcDb2dVertex
 10
1562.848600197197
 20
2716.29825865207
 30
0.0
  0
VERTEX
  5
2D1
330
26D
100
AcDbEntity
  8
OBJECT
100
AcDbVertex
100
AcDb2dVertex
 10
1449.202659276058
 20
2828.186689593186
 30
0.0
  0
VERTEX
  5
2D2
330
26D
100
AcDbEntity
  8
OBJECT
100
AcDbVertex
100
AcDb2dVertex
 10
2490.92728289053
 20
3905.489867414893
 30
0.0
  0
SEQEND
  5
2D3
330
26D
100
AcDbEntity
  8
OBJECT
  0
LINE
  5
26E
330
12C
100
AcDbEntity
  8
0
100
AcDbLine
 10
2340.92728289053
 20
4057.824676199888
 30
0.0
 11
2340.92728289053
 21
3750.366840647447
 31
0.0
  0
LINE
  5
26F
330
12C
100
AcDbEntity
  8
OBJECT
 62
     0
100
AcDbLine
 10
1610.396115890528
 20
4799.726847109378
 30
0.0
 11
1610.396115890528
 21
2994.901132736549
 31
0.0
  0
LINE
  5
270
330
12C
100
AcDbEntity
  8
OBJECT
 62
     0
100
AcDbLine
 10
1910.39611589052
 20
4495.057229539393
 30
0.0
 11
1910.396115890527
 21
3305.141849523705
 31
0.0
  0
LINE
  5
271
330
12C
100
AcDbEntity
  8
OBJECT
 62
     0
100
AcDbLine
 10
1910.396115890527
 20
3305.141849523705
 30
0.0
 11
1610.39611589052
 21
3305.141849523705
 31
0.0
  0
LINE
  5
272
330
12C
100
AcDbEntity
  8
OBJECT
 62
     0
100
AcDbLine
 10
1910.396115890527
 20
3405.141849523705
 30
0.0
 11
1610.39611589052
 21
3405.141849523705
 31
0.0
  0
LINE
  5
273
330
12C
100
AcDbEntity
  8
OBJECT
 62
     0
100
AcDbLine
 10
1910.396115890527
 20
3505.141849523705
 30
0.0
 11
1610.39611589052
 21
3505.141849523705
 31
0.0
  0
LINE
  5
274
330
12C
100
AcDbEntity
  8
OBJECT
 62
     0
100
AcDbLine
 10
1910.396115890527
 20
3605.141849523705
 30
0.0
 11
1610.39611589052
 21
3605.141849523705
 31
0.0
  0
LINE
  5
275
330
12C
100
AcDbEntity
  8
OBJECT
 62
     0
100
AcDbLine
 10
1910.396115890527
 20
3705.141849523705
 30
0.0
 11
1610.39611589052
 21
3705.141849523705
 31
0.0
  0
LINE
  5
276
330
12C
100
AcDbEntity
  8
OBJECT
 62
     0
100
AcDbLine
 10
1910.396115890527
 20
3805.141849523705
 30
0.0
 11
1610.39611589052
 21
3805.141849523705
 31
0.0
  0
LINE
  5
277
330
12C
100
AcDbEntity
  8
OBJECT
 62
     0
100
AcDbLine
 10
1910.39611589052
 20
3897.313989922963
 30
0.0
 11
1610.39611589052
 21
3897.313989922963
 31
0.0
  0
LINE
  5
278
330
12C
100
AcDbEntity
  8
OBJECT
 62
     0
100
AcDbLine
 10
3041.66417793656
 20
3829.218961383695
 30
0.0
 11
2566.029198177843
 21
3829.218961383695
 31
0.0
  0
LINE
  5
279
330
12C
100
AcDbEntity
  8
OBJECT
 62
     0
100
AcDbLine
 10
3012.444464175554
 20
3794.629959704046
 30
0.0
 11
2600.088060320573
 21
3794.629959704046
 31
0.0
  0
LINE
  5
27A
330
12C
100
AcDbEntity
  8
OBJECT
 62
     7
100
AcDbLine
 10
3041.66417793656
 20
3829.218961383695
 30
0.0
 11
3448.761702872507
 21
3829.218961383696
 31
0.0
  0
LINE
  5
27B
330
12C
100
AcDbEntity
  8
OBJECT
 62
     7
100
AcDbLine
 10
3012.444464175554
 20
3794.629959704046
 30
0.0
 11
3041.66417793656
 21
3829.218961383695
 31
0.0
  0
POLYLINE
  5
27C
330
12C
100
AcDbEntity
  8
OBJECT
100
AcDb2dPolyline
 66
     1
 10
0.0
 20
0.0
 30
0.0
 70
     1
  0
VERTEX
  5
2D4
330
27C
100
AcDbEntity
  8
OBJECT
100
AcDbVertex
100
AcDb2dVertex
 10
1553.988824869855
 20
5084.327571189584
 30
0.0
  0
VERTEX
  5
2D5
330
27C
100
AcDbEntity
  8
OBJECT
100
AcDbVertex
100
AcDb2dVertex
 10
1440.344665066575
 20
4972.425215408565
 30
0.0
  0
VERTEX
  5
2D6
330
27C
100
AcDbEntity
  8
OBJECT
100
AcDbVertex
100
AcDb2dVertex
 10
2490.92728289053
 20
3905.489867414893
 30
0.0
  0
VERTEX
  5
2D7
330
27C
100
AcDbEntity
  8
OBJECT
100
AcDbVertex
100
AcDb2dVertex
 10
2600.088060320573
 20
4018.37692686469
 30
0.0
  0
VERTEX
  5
2D8
330
27C
100
AcDbEntity
  8
OBJECT
100
AcDbVertex
100
AcDb2dVertex
 10
1553.988824869855
 20
5084.327571189584
 30
0.0
  0
SEQEND
  5
2D9
330
27C
100
AcDbEntity
  8
OBJECT
  0
LINE
  5
27D
330
12C
100
AcDbEntity
  8
OBJECT
 62
     0
100
AcDbLine
 10
1910.39611589052
 20
3995.057229539394
 30
0.0
 11
1610.39611589052
 21
3995.057229539394
 31
0.0
  0
LINE
  5
27E
330
12C
100
AcDbEntity
  8
OBJECT
 62
     0
100
AcDbLine
 10
1910.39611589052
 20
4195.057229539393
 30
0.0
 11
1610.39611589052
 21
4195.057229539393
 31
0.0
  0
LINE
  5
27F
330
12C
100
AcDbEntity
  8
OBJECT
 62
     0
100
AcDbLine
 10
1910.39611589052
 20
4095.057229539395
 30
0.0
 11
1610.39611589052
 21
4095.057229539395
 31
0.0
  0
LINE
  5
280
330
12C
100
AcDbEntity
  8
OBJECT
 62
     0
100
AcDbLine
 10
1910.39611589052
 20
4395.057229539395
 30
0.0
 11
1610.39611589052
 21
4395.057229539395
 31
0.0
  0
LINE
  5
281
330
12C
100
AcDbEntity
  8
OBJECT
 62
     0
100
AcDbLine
 10
1910.39611589052
 20
4295.057229539394
 30
0.0
 11
1610.39611589052
 21
4295.057229539394
 31
0.0
  0
LINE
  5
282
330
12C
100
AcDbEntity
  8
OBJECT
 62
     0
100
AcDbLine
 10
1910.39611589052
 20
4495.057229539393
 30
0.0
 11
1610.39611589052
 21
4495.057229539393
 31
0.0
  0
LINE
  5
283
330
12C
100
AcDbEntity
  8
OBJECT
 62
     7
100
AcDbLine
 10
1610.396115890528
 20
3900.507383846274
 30
0.0
 11
1610.396115890528
 21
4799.726847109378
 31
0.0
  0
LINE
  5
284
330
12C
100
AcDbEntity
  8
OBJECT
 62
     7
100
AcDbLine
 10
2600.088060320573
 20
4018.376926864688
 30
0.0
 11
3010.323066274024
 21
4018.376926864688
 31
0.0
  0
LINE
  5
285
330
12C
100
AcDbEntity
  8
OBJECT
 62
     0
100
AcDbLine
 10
3041.090676855237
 20
3982.503590076931
 30
0.0
 11
2565.398864306013
 21
3982.503590076931
 31
0.0
  0
LINE
  5
286
330
12C
100
AcDbEntity
  8
OBJECT
 62
     7
100
AcDbLine
 10
3041.090676855237
 20
3982.503590076931
 30
0.0
 11
3448.761702872507
 21
3982.503590076931
 31
0.0
  0
LINE
  5
287
330
12C
100
AcDbEntity
  8
OBJECT
 62
     7
100
AcDbLine
 10
3010.323066274024
 20
4018.376926864688
 30
0.0
 11
3041.090676855237
 21
3982.503590076931
 31
0.0
  0
POLYLINE
  5
288
330
12C
100
AcDbEntity
  8
OBJECT
100
AcDb2dPolyline
 66
     1
 10
0.0
 20
0.0
 30
0.0
  0
VERTEX
  5
2DA
330
288
100
AcDbEntity
  8
OBJECT
100
AcDbVertex
100
AcDb2dVertex
 10
4297.435345424441
 20
3794.629959704048
 30
0.0
  0
VERTEX
  5
2DB
330
288
100
AcDbEntity
  8
OBJECT
100
AcDbVertex
100
AcDb2dVertex
 10
4406.596122854483
 20
3905.489867414893
 30
0.0
  0
VERTEX
  5
2DC
330
288
100
AcDbEntity
  8
OBJECT
100
AcDbVertex
100
AcDb2dVertex
 10
5448.329926471881
 20
2828.195727629347
 30
0.0
  0
VERTEX
  5
2DD
330
288
100
AcDbEntity
  8
OBJECT
100
AcDbVertex
100
AcDb2dVertex
 10
5334.674805547816
 20
2716.29825865207
 30
0.0
  0
VERTEX
  5
2DE
330
288
100
AcDbEntity
  8
OBJECT
100
AcDbVertex
100
AcDb2dVertex
 10
4297.435345424441
 20
3794.629959704048
 30
0.0
  0
SEQEND
  5
2DF
330
288
100
AcDbEntity
  8
OBJECT
  0
LINE
  5
289
330
12C
100
AcDbEntity
  8
0
100
AcDbLine
 10
4556.596122854483
 20
4057.824676199888
 30
0.0
 11
4556.596122854483
 21
3750.369509021319
 31
0.0
  0
LINE
  5
28A
330
12C
100
AcDbEntity
  8
OBJECT
 62
     0
100
AcDbLine
 10
4987.127289854492
 20
4495.057229539393
 30
0.0
 11
4987.127289854485
 21
3305.141849523705
 31
0.0
  0
LINE
  5
28B
330
12C
100
AcDbEntity
  8
OBJECT
 62
     0
100
AcDbLine
 10
5287.127289854485
 20
4799.726847109378
 30
0.0
 11
5287.127289854485
 21
2994.901132736549
 31
0.0
  0
LINE
  5
28C
330
12C
100
AcDbEntity
  8
OBJECT
 62
     0
100
AcDbLine
 10
3855.859227808455
 20
3829.218961383695
 30
0.0
 11
4331.494207567171
 21
3829.218961383695
 31
0.0
  0
LINE
  5
28D
330
12C
100
AcDbEntity
  8
OBJECT
 62
     0
100
AcDbLine
 10
3885.07894156946
 20
3794.629959704046
 30
0.0
 11
4297.435345424441
 21
3794.629959704046
 31
0.0
  0
LINE
  5
28E
330
12C
100
AcDbEntity
  8
OBJECT
 62
     7
100
AcDbLine
 10
3885.07894156946
 20
3794.629959704046
 30
0.0
 11
3855.859227808455
 21
3829.218961383695
 31
0.0
  0
LINE
  5
28F
330
12C
100
AcDbEntity
  8
OBJECT
 62
     0
100
AcDbLine
 10
4987.127289854485
 20
3305.141849523705
 30
0.0
 11
5287.127289854492
 21
3305.141849523705
 31
0.0
  0
LINE
  5
290
330
12C
100
AcDbEntity
  8
OBJECT
 62
     0
100
AcDbLine
 10
4987.127289854485
 20
3405.141849523705
 30
0.0
 11
5287.127289854492
 21
3405.141849523705
 31
0.0
  0
LINE
  5
291
330
12C
100
AcDbEntity
  8
OBJECT
 62
     0
100
AcDbLine
 10
4987.127289854485
 20
3605.141849523705
 30
0.0
 11
5287.127289854492
 21
3605.141849523705
 31
0.0
  0
LINE
  5
292
330
12C
100
AcDbEntity
  8
OBJECT
 62
     0
100
AcDbLine
 10
4987.127289854485
 20
3505.141849523705
 30
0.0
 11
5287.127289854492
 21
3505.141849523705
 31
0.0
  0
LINE
  5
293
330
12C
100
AcDbEntity
  8
OBJECT
 62
     0
100
AcDbLine
 10
4987.127289854485
 20
3805.141849523705
 30
0.0
 11
5287.127289854492
 21
3805.141849523705
 31
0.0
  0
LINE
  5
294
330
12C
100
AcDbEntity
  8
OBJECT
 62
     0
100
AcDbLine
 10
4987.127289854485
 20
3705.141849523705
 30
0.0
 11
5287.127289854492
 21
3705.141849523705
 31
0.0
  0
LINE
  5
295
330
12C
100
AcDbEntity
  8
OBJECT
 62
     0
100
AcDbLine
 10
4987.127289854492
 20
3897.313989922963
 30
0.0
 11
5287.127289854492
 21
3897.313989922963
 31
0.0
  0
POLYLINE
  5
296
330
12C
100
AcDbEntity
  8
OBJECT
100
AcDb2dPolyline
 66
     1
 10
0.0
 20
0.0
 30
0.0
 70
     1
  0
VERTEX
  5
2E0
330
296
100
AcDbEntity
  8
OBJECT
100
AcDbVertex
100
AcDb2dVertex
 10
4297.435345424441
 20
4018.37692686469
 30
0.0
  0
VERTEX
  5
2E1
330
296
100
AcDbEntity
  8
OBJECT
100
AcDbVertex
100
AcDb2dVertex
 10
4406.596122854483
 20
3905.489867414893
 30
0.0
  0
VERTEX
  5
2E2
330
296
100
AcDbEntity
  8
OBJECT
100
AcDbVertex
100
AcDb2dVertex
 10
5456.349222377641
 20
4971.582785330327
 30
0.0
  0
VERTEX
  5
2E3
330
296
100
AcDbEntity
  8
OBJECT
100
AcDbVertex
100
AcDb2dVertex
 10
5343.534580875159
 20
5084.327571189584
 30
0.0
  0
VERTEX
  5
2E4
330
296
100
AcDbEntity
  8
OBJECT
100
AcDbVertex
100
AcDb2dVertex
 10
4297.435345424441
 20
4018.37692686469
 30
0.0
  0
SEQEND
  5
2E5
330
296
100
AcDbEntity
  8
OBJECT
  0
LINE
  5
297
330
12C
100
AcDbEntity
  8
OBJECT
 62
     7
100
AcDbLine
 10
4297.435345424441
 20
4018.376926864688
 30
0.0
 11
3887.200339470988
 21
4018.376926864688
 31
0.0
  0
LINE
  5
298
330
12C
100
AcDbEntity
  8
OBJECT
 62
     0
100
AcDbLine
 10
3856.432728889776
 20
3982.503590076931
 30
0.0
 11
4332.124541439003
 21
3982.50359007693
 31
0.0
  0
LINE
  5
299
330
12C
100
AcDbEntity
  8
OBJECT
 62
     7
100
AcDbLine
 10
3887.200339470988
 20
4018.376926864688
 30
0.0
 11
3856.432728889776
 21
3982.503590076931
 31
0.0
  0
LINE
  5
29A
330
12C
100
AcDbEntity
  8
OBJECT
 62
     0
100
AcDbLine
 10
4987.127289854492
 20
3995.057229539394
 30
0.0
 11
5287.127289854492
 21
3995.057229539394
 31
0.0
  0
LINE
  5
29B
330
12C
100
AcDbEntity
  8
OBJECT
 62
     0
100
AcDbLine
 10
4987.127289854492
 20
4095.057229539395
 30
0.0
 11
5287.127289854492
 21
4095.057229539395
 31
0.0
  0
LINE
  5
29C
330
12C
100
AcDbEntity
  8
OBJECT
 62
     0
100
AcDbLine
 10
4987.127289854492
 20
4195.057229539393
 30
0.0
 11
5287.127289854492
 21
4195.057229539393
 31
0.0
  0
LINE
  5
29D
330
12C
100
AcDbEntity
  8
OBJECT
 62
     0
100
AcDbLine
 10
4987.127289854492
 20
4295.057229539394
 30
0.0
 11
5287.127289854492
 21
4295.057229539394
 31
0.0
  0
LINE
  5
29E
330
12C
100
AcDbEntity
  8
OBJECT
 62
     0
100
AcDbLine
 10
4987.127289854492
 20
4395.057229539395
 30
0.0
 11
5287.127289854492
 21
4395.057229539395
 31
0.0
  0
LINE
  5
29F
330
12C
100
AcDbEntity
  8
OBJECT
 62
     0
100
AcDbLine
 10
4987.127289854492
 20
4495.057229539393
 30
0.0
 11
5287.127289854492
 21
4495.057229539393
 31
0.0
  0
LINE
  5
2A0
330
12C
100
AcDbEntity
  8
OBJECT
 62
     7
100
AcDbLine
 10
5287.127289854485
 20
3900.507383846274
 30
0.0
 11
5287.127289854485
 21
4799.726847109378
 31
0.0
  0
ENDBLK
  5
12E
330
12C
100
AcDbEntity
  8
0
100
AcDbBlockEnd
  0
BLOCK
  5
2AF
330
2A6
100
AcDbEntity
  8
0
100
AcDbBlockBegin
  2
*U1
 70
     1
 10
0.0
 20
0.0
 30
0.0
  3
*U1
  1

  0
SOLID
  5
2A7
330
2A6
100
AcDbEntity
  8
HATCH
  6
CONTINUOUS
100
AcDbTrace
 10
2566.029198177846
 20
3829.218961383694
 30
0.0
 11
2600.088060320575
 21
3794.629959704046
 31
0.0
 12
3012.444464175553
 22
3794.629959704046
 32
0.0
 13
3012.444464175553
 23
3794.629959704046
 33
0.0
210
0.0
220
0.0
230
1.0
  0
SOLID
  5
2A8
330
2A6
100
AcDbEntity
  8
HATCH
  6
CONTINUOUS
100
AcDbTrace
 10
3041.66417793656
 20
3829.218961383695
 30
0.0
 11
2566.029198177846
 21
3829.218961383694
 31
0.0
 12
3012.444464175553
 22
3794.629959704046
 32
0.0
 13
3012.444464175553
 23
3794.629959704046
 33
0.0
  0
SOLID
  5
2A9
330
2A6
100
AcDbEntity
  8
HATCH
  6
CONTINUOUS
100
AcDbTrace
 10
3855.859227808455
 20
3829.218961383695
 30
0.0
 11
3885.07894156946
 21
3794.629959704046
 31
0.0
 12
4297.435345424438
 22
3794.629959704046
 32
0.0
 13
4297.435345424438
 23
3794.629959704046
 33
0.0
  0
SOLID
  5
2AA
330
2A6
100
AcDbEntity
  8
HATCH
  6
CONTINUOUS
100
AcDbTrace
 10
4331.494207567169
 20
3829.218961383695
 30
0.0
 11
3855.859227808455
 21
3829.218961383695
 31
0.0
 12
4297.435345424438
 22
3794.629959704046
 32
0.0
 13
4297.435345424438
 23
3794.629959704046
 33
0.0
  0
SOLID
  5
2AB
330
2A6
100
AcDbEntity
  8
HATCH
  6
CONTINUOUS
100
AcDbTrace
 10
3010.323066274023
 20
4018.376926864688
 30
0.0
 11
2565.398864306012
 21
3982.503590076931
 31
0.0
 12
3041.090676855237
 22
3982.503590076931
 32
0.0
 13
3041.090676855237
 23
3982.503590076931
 33
0.0
210
0.0
220
0.0
230
1.0
  0
SOLID
  5
2AC
330
2A6
100
AcDbEntity
  8
HATCH
  6
CONTINUOUS
100
AcDbTrace
 10
3856.432728889775
 20
3982.503590076931
 30
0.0
 11
4297.435345424442
 21
4018.376926864688
 31
0.0
 12
3887.200339470988
 22
4018.376926864688
 32
0.0
 13
3887.200339470988
 23
4018.376926864688
 33
0.0
210
0.0
220
0.0
230
1.0
  0
SOLID
  5
2AD
330
2A6
100
AcDbEntity
  8
HATCH
  6
CONTINUOUS
100
AcDbTrace
 10
4297.435345424442
 20
4018.376926864688
 30
0.0
 11
3856.432728889775
 21
3982.503590076931
 31
0.0
 12
4332.124541439004
 22
3982.503590076931
 32
0.0
 13
4332.124541439004
 23
3982.503590076931
 33
0.0
210
0.0
220
0.0
230
1.0
  0
SOLID
  5
2AE
330
2A6
100
AcDbEntity
  8
HATCH
  6
CONTINUOUS
100
AcDbTrace
 10
2600.088060320571
 20
4018.376926864688
 30
0.0
 11
2565.398864306012
 21
3982.503590076931
 31
0.0
 12
3010.323066274023
 22
4018.376926864688
 32
0.0
 13
3010.323066274023
 23
4018.376926864688
 33
0.0
210
0.0
220
0.0
230
1.0
  0
ENDBLK
  5
2B0
330
2A6
100
AcDbEntity
  8
0
100
AcDbBlockEnd
  0
BLOCK
  5
2B4
330
2B1
100
AcDbEntity
  8
0
100
AcDbBlockBegin
  2
*U2
 70
     1
 10
0.0
 20
0.0
 30
0.0
  3
*U2
  1

  0
SOLID
  5
2B2
330
2B1
100
AcDbEntity
  8
HATCH
  6
CONTINUOUS
 62
     2
100
AcDbTrace
 10
2340.92728289053
 20
4057.824676199887
 30
0.0
 11
2340.92728289053
 21
3750.366840647446
 31
0.0
 12
2490.92728289053
 22
3905.489867414893
 32
0.0
 13
2490.92728289053
 23
3905.489867414893
 33
0.0
210
0.0
220
0.0
230
1.0
  0
SOLID
  5
2B3
330
2B1
100
AcDbEntity
  8
HATCH
  6
CONTINUOUS
 62
     2
100
AcDbTrace
 10
4556.596122854485
 20
4057.824676199888
 30
0.0
 11
4406.596122854483
 21
3905.489867414893
 31
0.0
 12
4556.596122854482
 22
3750.369509021318
 32
0.0
 13
4556.596122854482
 23
3750.369509021318
 33
0.0
210
0.0
220
0.0
230
1.0
  0
ENDBLK
  5
2B5
330
2B1
100
AcDbEntity
  8
0
100
AcDbBlockEnd
  0
BLOCK
  5
2C1
330
2B6
100
AcDbEntity
  8
0
100
AcDbBlockBegin
  2
*U3
 70
     1
 10
0.0
 20
0.0
 30
0.0
  3
*U3
  1

  0
SOLID
  5
2B7
330
2B6
100
AcDbEntity
  8
HATCH
  6
CONTINUOUS
 62
     1
100
AcDbTrace
 10
3448.761702872507
 20
3829.218961383696
 30
0.0
 11
2566.029198177844
 21
3829.218961383695
 31
0.0
 12
3041.66417793656
 22
3829.218961383695
 32
0.0
 13
3041.66417793656
 23
3829.218961383695
 33
0.0
210
0.0
220
0.0
230
1.0
  0
SOLID
  5
2B8
330
2B6
100
AcDbEntity
  8
HATCH
  6
CONTINUOUS
 62
     1
100
AcDbTrace
 10
3448.761702872507
 20
3829.218961383696
 30
0.0
 11
3855.859227808455
 21
3829.218961383695
 31
0.0
 12
4331.494207567168
 22
3829.218961383694
 32
0.0
 13
4331.494207567168
 23
3829.218961383694
 33
0.0
210
0.0
220
0.0
230
1.0
  0
SOLID
  5
2B9
330
2B6
100
AcDbEntity
  8
HATCH
  6
CONTINUOUS
 62
     1
100
AcDbTrace
 10
2490.927282890531
 20
3905.489867414893
 30
0.0
 11
2566.029198177844
 21
3829.218961383695
 31
0.0
 12
3448.761702872507
 22
3829.218961383696
 32
0.0
 13
3448.761702872507
 23
3829.218961383696
 33
0.0
210
0.0
220
0.0
230
1.0
  0
SOLID
  5
2BA
330
2B6
100
AcDbEntity
  8
HATCH
  6
CONTINUOUS
 62
     1
100
AcDbTrace
 10
4406.596122854483
 20
3905.489867414894
 30
0.0
 11
2490.927282890531
 21
3905.489867414893
 31
0.0
 12
3448.761702872507
 22
3829.218961383696
 32
0.0
 13
3448.761702872507
 23
3829.218961383696
 33
0.0
210
0.0
220
0.0
230
1.0
  0
SOLID
  5
2BB
330
2B6
100
AcDbEntity
  8
HATCH
  6
CONTINUOUS
 62
     1
100
AcDbTrace
 10
4406.596122854483
 20
3905.489867414894
 30
0.0
 11
3448.761702872507
 21
3829.218961383696
 31
0.0
 12
4331.494207567168
 22
3829.218961383694
 32
0.0
 13
4331.494207567168
 23
3829.218961383694
 33
0.0
210
0.0
220
0.0
230
1.0
  0
SOLID
  5
2BC
330
2B6
100
AcDbEntity
  8
HATCH
  6
CONTINUOUS
 62
     1
100
AcDbTrace
 10
4332.124541439003
 20
3982.503590076931
 30
0.0
 11
2490.927282890531
 21
3905.489867414893
 31
0.0
 12
4406.596122854483
 22
3905.489867414894
 32
0.0
 13
4406.596122854483
 23
3905.489867414894
 33
0.0
210
0.0
220
0.0
230
1.0
  0
SOLID
  5
2BD
330
2B6
100
AcDbEntity
  8
HATCH
  6
CONTINUOUS
 62
     1
100
AcDbTrace
 10
2490.927282890531
 20
3905.489867414893
 30
0.0
 11
4332.124541439003
 21
3982.503590076931
 31
0.0
 12
3856.432728889776
 22
3982.503590076931
 32
0.0
 13
3856.432728889776
 23
3982.503590076931
 33
0.0
210
0.0
220
0.0
230
1.0
  0
SOLID
  5
2BE
330
2B6
100
AcDbEntity
  8
HATCH
  6
CONTINUOUS
 62
     1
100
AcDbTrace
 10
2490.927282890531
 20
3905.489867414893
 30
0.0
 11
3856.432728889776
 21
3982.503590076931
 31
0.0
 12
3448.761702872507
 22
3982.503590076931
 32
0.0
 13
3448.761702872507
 23
3982.503590076931
 33
0.0
210
0.0
220
0.0
230
1.0
  0
SOLID
  5
2BF
330
2B6
100
AcDbEntity
  8
HATCH
  6
CONTINUOUS
 62
     1
100
AcDbTrace
 10
2490.927282890531
 20
3905.489867414893
 30
0.0
 11
3448.761702872507
 21
3982.503590076931
 31
0.0
 12
3041.090676855237
 22
3982.503590076931
 32
0.0
 13
3041.090676855237
 23
3982.503590076931
 33
0.0
210
0.0
220
0.0
230
1.0
  0
SOLID
  5
2C0
330
2B6
100
AcDbEntity
  8
HATCH
  6
CONTINUOUS
 62
     1
100
AcDbTrace
 10
2565.398864306011
 20
3982.503590076931
 30
0.0
 11
2490.927282890531
 21
3905.489867414893
 31
0.0
 12
3041.090676855237
 22
3982.503590076931
 32
0.0
 13
3041.090676855237
 23
3982.503590076931
 33
0.0
210
0.0
220
0.0
230
1.0
  0
ENDBLK
  5
2C2
330
2B6
100
AcDbEntity
  8
0
100
AcDbBlockEnd
  0
BLOCK
  5
2CC
330
2C3
100
AcDbEntity
  8
0
100
AcDbBlockBegin
  2
*U4
 70
     1
 10
0.0
 20
0.0
 30
0.0
  3
*U4
  1

  0
SOLID
  5
2C4
330
2C3
100
AcDbEntity
  8
HATCH
  6
CONTINUOUS
 62
   251
100
AcDbTrace
 10
5456.349222377641
 20
4971.582785330326
 30
0.0
 11
5343.53458087516
 21
5084.327571189585
 31
0.0
 12
4406.596122854483
 22
3905.489867414893
 32
0.0
 13
4406.596122854483
 23
3905.489867414893
 33
0.0
210
0.0
220
0.0
230
1.0
  0
SOLID
  5
2C5
330
2C3
100
AcDbEntity
  8
HATCH
  6
CONTINUOUS
 62
   251
100
AcDbTrace
 10
4297.435345424441
 20
4018.37692686469
 30
0.0
 11
4406.596122854483
 21
3905.489867414893
 31
0.0
 12
5343.53458087516
 22
5084.327571189585
 32
0.0
 13
5343.53458087516
 23
5084.327571189585
 33
0.0
  0
SOLID
  5
2C6
330
2C3
100
AcDbEntity
  8
HATCH
  6
CONTINUOUS
 62
   251
100
AcDbTrace
 10
2600.088060320573
 20
3794.629959704049
 30
0.0
 11
1449.202659276058
 21
2828.186689593186
 31
0.0
 12
1562.848600197197
 22
2716.29825865207
 32
0.0
 13
1562.848600197197
 23
2716.29825865207
 33
0.0
210
0.0
220
0.0
230
1.0
  0
SOLID
  5
2C7
330
2C3
100
AcDbEntity
  8
HATCH
  6
CONTINUOUS
 62
   251
100
AcDbTrace
 10
4297.435345424441
 20
3794.629959704049
 30
0.0
 11
5334.674805547816
 21
2716.29825865207
 31
0.0
 12
5448.329926471881
 22
2828.195727629347
 32
0.0
 13
5448.329926471881
 23
2828.195727629347
 33
0.0
210
0.0
220
0.0
230
1.0
  0
SOLID
  5
2C8
330
2C3
100
AcDbEntity
  8
HATCH
  6
CONTINUOUS
 62
   251
100
AcDbTrace
 10
2490.927282890531
 20
3905.489867414893
 30
0.0
 11
1449.202659276058
 21
2828.186689593186
 31
0.0
 12
2600.088060320573
 22
3794.629959704049
 32
0.0
 13
2600.088060320573
 23
3794.629959704049
 33
0.0
210
0.0
220
0.0
230
1.0
  0
SOLID
  5
2C9
330
2C3
100
AcDbEntity
  8
HATCH
  6
CONTINUOUS
 62
   251
100
AcDbTrace
 10
4406.596122854485
 20
3905.489867414894
 30
0.0
 11
4297.435345424441
 21
3794.629959704049
 31
0.0
 12
5448.329926471881
 22
2828.195727629347
 32
0.0
 13
5448.329926471881
 23
2828.195727629347
 33
0.0
210
0.0
220
0.0
230
1.0
  0
SOLID
  5
2CA
330
2C3
100
AcDbEntity
  8
HATCH
  6
CONTINUOUS
 62
   251
100
AcDbTrace
 10
2490.92728289053
 20
3905.489867414893
 30
0.0
 11
2600.088060320572
 21
4018.376926864689
 31
0.0
 12
1440.344665066574
 22
4972.425215408565
 32
0.0
 13
1440.344665066574
 23
4972.425215408565
 33
0.0
210
0.0
220
0.0
230
1.0
  0
SOLID
  5
2CB
330
2C3
100
AcDbEntity
  8
HATCH
  6
CONTINUOUS
 62
   251
100
AcDbTrace
 10
1553.988824869855
 20
5084.327571189585
 30
0.0
 11
1440.344665066574
 21
4972.425215408565
 31
0.0
 12
2600.088060320572
 22
4018.376926864689
 32
0.0
 13
2600.088060320572
 23
4018.376926864689
 33
0.0
210
0.0
220
0.0
230
1.0
  0
ENDBLK
  5
2CD
330
2C3
100
AcDbEntity
  8
0
100
AcDbBlockEnd
  0
ENDSEC
  0
SECTION
  2
ENTITIES
  0
INSERT
  5
2A1
330
1F
100
AcDbEntity
  8
HATCH
100
AcDbBlockReference
  2
AEKE
 10
0.0
 20
0.0
 30
0.0
  0
ENDSEC
  0
SECTION
  2
OBJECTS
  0
DICTIONARY
  5
C
330
0
100
AcDbDictionary
  3
ACAD_GROUP
350
D
  3
ACAD_LAYOUT
350
1A
  3
ACAD_MLINESTYLE
350
17
  3
ACAD_PLOTSETTINGS
350
19
1001
ACAD
1000
TREAT_AS_HARD
1070
     0
1000
TREAT_AS_HARD
1070
     0
  0
DICTIONARY
  5
11E
330
1F
100
AcDbDictionary
  3
ACAD_LAYOUTSELFREF
350
2A3
1001
ACAD
1000
TREAT_AS_HARD
1070
     1
1000
TREAT_AS_HARD
1070
     0
  0
DICTIONARY
  5
120
330
50
100
AcDbDictionary
  3
ACAD_LAYOUTSELFREF
350
2A4
1001
ACAD
1000
TREAT_AS_HARD
1070
     1
1000
TREAT_AS_HARD
1070
     0
  0
DICTIONARY
  5
D
102
{ACAD_REACTORS
330
C
102
}
330
C
100
AcDbDictionary
1001
ACAD
1000
TREAT_AS_HARD
1070
     0
1000
TREAT_AS_HARD
1070
     0
  0
DICTIONARY
  5
1A
102
{ACAD_REACTORS
330
C
102
}
330
C
100
AcDbDictionary
1001
ACAD
1000
TREAT_AS_HARD
1070
     0
1000
TREAT_AS_HARD
1070
     0
  0
DICTIONARY
  5
17
102
{ACAD_REACTORS
330
C
102
}
330
C
100
AcDbDictionary
  3
STANDARD
350
18
1001
ACAD
1000
TREAT_AS_HARD
1070
     0
1000
TREAT_AS_HARD
1070
     0
  0
DICTIONARY
  5
19
102
{ACAD_REACTORS
330
C
102
}
330
C
100
AcDbDictionary
1001
ACAD
1000
TREAT_AS_HARD
1070
     0
1000
TREAT_AS_HARD
1070
     0
  0
XRECORD
  5
2A3
102
{ACAD_REACTORS
330
11E
102
}
330
11E
100
AcDbXrecord
340
1F
  0
XRECORD
  5
2A4
102
{ACAD_REACTORS
330
120
102
}
330
120
100
AcDbXrecord
340
50
  0
MLINESTYLE
  5
18
102
{ACAD_REACTORS
330
17
102
}
330
17
100
AcDbMlineStyle
  2
STANDARD
 70
     0
  3

 62
   256
 51
90.0
 52
90.0
 71
     2
 49
0.5
 62
   256
  6
BYLAYER
 49
-0.5
 62
   256
  6
BYLAYER
  0
ENDSEC
  0
EOF
