  0
SECTION
  2
HEADER
  9
$ACADVER
  1
AC1012
  9
$DWGCODEPAGE
  3
ANSI_1252
  9
$INSBASE
 10
0.0
 20
0.0
 30
0.0
  9
$EXTMIN
 10
-293.8059085960846
 20
16.84408508447774
 30
-122.4854927001338
  9
$EXTMAX
 10
5394.480774888827
 20
7116.844085084477
 30
0.0
  9
$LIMMIN
 10
0.0
 20
0.0
  9
$LIMMAX
 10
420.0
 20
297.0
  9
$ORTHOMODE
 70
     0
  9
$REGENMODE
 70
     1
  9
$FILLMODE
 70
     1
  9
$QTEXTMODE
 70
     0
  9
$MIRRTEXT
 70
     1
  9
$DRAGMODE
 70
     2
  9
$LTSCALE
 40
1.0
  9
$OSMODE
 70
   513
  9
$ATTMODE
 70
     1
  9
$TEXTSIZE
 40
2.5
  9
$TRACEWID
 40
1.0
  9
$TEXTSTYLE
  7
STANDARD
  9
$CLAYER
  8
0
  9
$CELTYPE
  6
BYLAYER
  9
$CECOLOR
 62
   256
  9
$CELTSCALE
 40
1.0
  9
$DELOBJ
 70
     1
  9
$DISPSILH
 70
     0
  9
$DIMSCALE
 40
1.0
  9
$DIMASZ
 40
2.5
  9
$DIMEXO
 40
0.625
  9
$DIMDLI
 40
3.75
  9
$DIMRND
 40
0.0
  9
$DIMDLE
 40
0.0
  9
$DIMEXE
 40
1.25
  9
$DIMTP
 40
0.0
  9
$DIMTM
 40
0.0
  9
$DIMTXT
 40
2.5
  9
$DIMCEN
 40
2.5
  9
$DIMTSZ
 40
0.0
  9
$DIMTOL
 70
     0
  9
$DIMLIM
 70
     0
  9
$DIMTIH
 70
     0
  9
$DIMTOH
 70
     0
  9
$DIMSE1
 70
     0
  9
$DIMSE2
 70
     0
  9
$DIMTAD
 70
     1
  9
$DIMZIN
 70
     8
  9
$DIMBLK
  1

  9
$DIMASO
 70
     1
  9
$DIMSHO
 70
     1
  9
$DIMPOST
  1

  9
$DIMAPOST
  1

  9
$DIMALT
 70
     0
  9
$DIMALTD
 70
     3
  9
$DIMALTF
 40
0.03937007874016
  9
$DIMLFAC
 40
1.0
  9
$DIMTOFL
 70
     1
  9
$DIMTVP
 40
0.0
  9
$DIMTIX
 70
     0
  9
$DIMSOXD
 70
     0
  9
$DIMSAH
 70
     0
  9
$DIMBLK1
  1

  9
$DIMBLK2
  1

  9
$DIMSTYLE
  2
ISO-25
  9
$DIMCLRD
 70
     0
  9
$DIMCLRE
 70
     0
  9
$DIMCLRT
 70
     0
  9
$DIMTFAC
 40
1.0
  9
$DIMGAP
 40
0.625
  9
$DIMJUST
 70
     0
  9
$DIMSD1
 70
     0
  9
$DIMSD2
 70
     0
  9
$DIMTOLJ
 70
     1
  9
$DIMTZIN
 70
     0
  9
$DIMALTZ
 70
     0
  9
$DIMALTTZ
 70
     0
  9
$DIMFIT
 70
     3
  9
$DIMUPT
 70
     0
  9
$DIMUNIT
 70
     2
  9
$DIMDEC
 70
     4
  9
$DIMTDEC
 70
     4
  9
$DIMALTU
 70
     2
  9
$DIMALTTD
 70
     2
  9
$DIMTXSTY
  7
STANDARD
  9
$DIMAUNIT
 70
     0
  9
$LUNITS
 70
     2
  9
$LUPREC
 70
     4
  9
$SKETCHINC
 40
1.0
  9
$FILLETRAD
 40
10.0
  9
$AUNITS
 70
     0
  9
$AUPREC
 70
     0
  9
$MENU
  1
.
  9
$ELEVATION
 40
0.0
  9
$PELEVATION
 40
0.0
  9
$THICKNESS
 40
0.0
  9
$LIMCHECK
 70
     0
  9
$BLIPMODE
 70
     0
  9
$CHAMFERA
 40
10.0
  9
$CHAMFERB
 40
10.0
  9
$CHAMFERC
 40
0.0
  9
$CHAMFERD
 40
0.0
  9
$SKPOLY
 70
     0
  9
$TDCREATE
 40
2452626.577191204
  9
$TDUPDATE
 40
2452716.586498727
  9
$TDINDWG
 40
0.0013108796
  9
$TDUSRTIMER
 40
0.0013103009
  9
$USRTIMER
 70
     1
  9
$ANGBASE
 50
0.0
  9
$ANGDIR
 70
     0
  9
$PDMODE
 70
     0
  9
$PDSIZE
 40
0.0
  9
$PLINEWID
 40
0.0
  9
$COORDS
 70
     1
  9
$SPLFRAME
 70
     0
  9
$SPLINETYPE
 70
     6
  9
$SPLINESEGS
 70
     8
  9
$ATTDIA
 70
     0
  9
$ATTREQ
 70
     1
  9
$HANDLING
 70
-16383
  9
$HANDSEED
  5
216
  9
$SURFTAB1
 70
     6
  9
$SURFTAB2
 70
     6
  9
$SURFTYPE
 70
     6
  9
$SURFU
 70
     6
  9
$SURFV
 70
     6
  9
$UCSNAME
  2

  9
$UCSORG
 10
0.0
 20
0.0
 30
0.0
  9
$UCSXDIR
 10
1.0
 20
0.0
 30
0.0
  9
$UCSYDIR
 10
0.0
 20
1.0
 30
0.0
  9
$PUCSNAME
  2

  9
$PUCSORG
 10
0.0
 20
0.0
 30
0.0
  9
$PUCSXDIR
 10
1.0
 20
0.0
 30
0.0
  9
$PUCSYDIR
 10
0.0
 20
1.0
 30
0.0
  9
$USERI1
 70
     0
  9
$USERI2
 70
     0
  9
$USERI3
 70
     0
  9
$USERI4
 70
     0
  9
$USERI5
 70
     0
  9
$USERR1
 40
0.0
  9
$USERR2
 40
0.0
  9
$USERR3
 40
0.0
  9
$USERR4
 40
0.0
  9
$USERR5
 40
0.0
  9
$WORLDVIEW
 70
     1
  9
$SHADEDGE
 70
     3
  9
$SHADEDIF
 70
    70
  9
$TILEMODE
 70
     1
  9
$MAXACTVP
 70
    64
  9
$PINSBASE
 10
0.0
 20
0.0
 30
0.0
  9
$PLIMCHECK
 70
     0
  9
$PEXTMIN
 10
0.0
 20
0.0
 30
0.0
  9
$PEXTMAX
 10
0.0
 20
0.0
 30
0.0
  9
$PLIMMIN
 10
0.0
 20
0.0
  9
$PLIMMAX
 10
12.0
 20
9.0
  9
$UNITMODE
 70
     0
  9
$VISRETAIN
 70
     1
  9
$PLINEGEN
 70
     0
  9
$PSLTSCALE
 70
     1
  9
$TREEDEPTH
 70
  3020
  9
$PICKSTYLE
 70
     1
  9
$CMLSTYLE
  2
STANDARD
  9
$CMLJUST
 70
     0
  9
$CMLSCALE
 40
1.0
  9
$SAVEIMAGES
 70
     1
  0
ENDSEC
  0
SECTION
  2
CLASSES
  0
CLASS
  1
ACDBDICTIONARYWDFLT
  2
AcDbDictionaryWithDefault
  3
AutoCAD 2000
 90
    32768
280
     0
281
     0
  0
CLASS
  1
ACDBPLACEHOLDER
  2
AcDbPlaceHolder
  3
AutoCAD 2000
 90
    32768
280
     0
281
     0
  0
CLASS
  1
LAYOUT
  2
AcDbLayout
  3
AutoCAD 2000
 90
    32768
280
     0
281
     0
  0
CLASS
  1
LONG_TRANSACTION
  2
AcDbLongTransaction
  3
AutoCAD 2000
 90
    32768
280
     0
281
     0
  0
CLASS
  1
LWPOLYLINE
  2
AcDbPolyline
  3
AutoCAD 2000
 90
    32768
280
     0
281
     1
  0
CLASS
  1
HATCH
  2
AcDbHatch
  3
AutoCAD 2000
 90
    32768
280
     0
281
     1
  0
CLASS
  1
XRECORD
  2
AcDbXrecord
  3
AutoCAD 2000
 90
    32768
280
     0
281
     0
  0
ENDSEC
  0
SECTION
  2
TABLES
  0
TABLE
  2
VPORT
  5
176
330
0
100
AcDbSymbolTable
 70
     3
  0
VPORT
  5
200
330
176
100
AcDbSymbolTableRecord
100
AcDbViewportTableRecord
  2
*ACTIVE
 70
     0
 10
0.0
 20
0.0
 11
1.0
 21
1.0
 12
-512.6420611504909
 22
3761.884647939378
 13
0.0
 23
0.0
 14
10.0
 24
10.0
 15
10.0
 25
10.0
 16
0.0
 26
0.0
 36
1.0
 17
0.0
 27
0.0
 37
0.0
 40
9586.151599961352
 41
1.297794117647058
 42
50.0
 43
0.0
 44
0.0
 50
0.0
 51
0.0
 71
     0
 72
   100
 73
     1
 74
     3
 75
     0
 76
     0
 77
     0
 78
     0
  0
ENDTAB
  0
TABLE
  2
LTYPE
  5
173
330
0
100
AcDbSymbolTable
 70
     1
  0
LTYPE
  5
181
330
173
100
AcDbSymbolTableRecord
100
AcDbLinetypeTableRecord
  2
BYBLOCK
 70
     0
  3

 72
    65
 73
     0
 40
0.0
  0
LTYPE
  5
182
330
173
100
AcDbSymbolTableRecord
100
AcDbLinetypeTableRecord
  2
BYLAYER
 70
     0
  3

 72
    65
 73
     0
 40
0.0
  0
LTYPE
  5
183
330
173
100
AcDbSymbolTableRecord
100
AcDbLinetypeTableRecord
  2
CONTINUOUS
 70
     0
  3
Solid line
 72
    65
 73
     0
 40
0.0
  0
ENDTAB
  0
TABLE
  2
LAYER
  5
170
330
0
100
AcDbSymbolTable
 70
     4
  0
LAYER
  5
17E
330
170
100
AcDbSymbolTableRecord
100
AcDbLayerTableRecord
  2
0
 70
     0
 62
     7
  6
CONTINUOUS
  0
LAYER
  5
191
330
170
100
AcDbSymbolTableRecord
100
AcDbLayerTableRecord
  2
OBJECT
 70
     0
 62
     7
  6
CONTINUOUS
  0
LAYER
  5
192
330
170
100
AcDbSymbolTableRecord
100
AcDbLayerTableRecord
  2
SAFETY
 70
     0
 62
     7
  6
CONTINUOUS
  0
LAYER
  5
1F7
330
170
100
AcDbSymbolTableRecord
100
AcDbLayerTableRecord
  2
TEKST
 70
     0
 62
     7
  6
CONTINUOUS
  0
ENDTAB
  0
TABLE
  2
STYLE
  5
171
330
0
100
AcDbSymbolTable
 70
     3
  0
STYLE
  5
17F
330
171
100
AcDbSymbolTableRecord
100
AcDbTextStyleTableRecord
  2
STANDARD
 70
     0
 40
0.0
 41
1.0
 50
0.0
 71
     0
 42
2.5
  3
txt
  4

  0
STYLE
  5
193
330
171
100
AcDbSymbolTableRecord
100
AcDbTextStyleTableRecord
  2
STYLE1
 70
     0
 40
100.0
 41
1.0
 50
0.0
 71
     0
 42
75.0
  3
romans.shx
  4

  0
STYLE
  5
194
330
171
100
AcDbSymbolTableRecord
100
AcDbTextStyleTableRecord
  2
STYLE4
 70
     0
 40
3.0
 41
1.0
 50
0.0
 71
     0
 42
3.0
  3
romant.shx
  4

  0
ENDTAB
  0
TABLE
  2
VIEW
  5
174
330
0
100
AcDbSymbolTable
 70
     0
  0
ENDTAB
  0
TABLE
  2
UCS
  5
175
330
0
100
AcDbSymbolTable
 70
     0
  0
ENDTAB
  0
TABLE
  2
APPID
  5
177
330
0
100
AcDbSymbolTable
 70
     3
  0
APPID
  5
180
330
177
100
AcDbSymbolTableRecord
100
AcDbRegAppTableRecord
  2
ACAD
 70
     0
  0
APPID
  5
195
330
177
100
AcDbSymbolTableRecord
100
AcDbRegAppTableRecord
  2
AVE_FINISH
 70
     0
  0
APPID
  5
196
330
177
100
AcDbSymbolTableRecord
100
AcDbRegAppTableRecord
  2
CONTENTBLOCKICON
 70
     0
  0
ENDTAB
  0
TABLE
  2
DIMSTYLE
  5
178
330
0
100
AcDbSymbolTable
 70
     2
  0
DIMSTYLE
105
197
330
178
100
AcDbSymbolTableRecord
100
AcDbDimStyleTableRecord
  2
ISO-25
 70
     0
  3

  4

  5

  6

  7

 40
1.0
 41
2.5
 42
0.625
 43
3.75
 44
1.25
 45
0.0
 46
0.0
 47
0.0
 48
0.0
140
2.5
141
2.5
142
0.0
143
0.03937007874016
144
1.0
145
0.0
146
1.0
147
0.625
 71
     0
 72
     0
 73
     0
 74
     0
 75
     0
 76
     0
 77
     1
 78
     8
170
     0
171
     3
172
     1
173
     0
174
     0
175
     0
176
     0
177
     0
178
     0
270
     2
271
     4
272
     4
273
     2
274
     3
340
17F
275
     0
280
     0
281
     0
282
     0
283
     1
284
     8
285
     8
286
     8
287
     5
288
     0
  0
DIMSTYLE
105
198
330
178
100
AcDbSymbolTableRecord
100
AcDbDimStyleTableRecord
  2
STAND-1
 70
     0
  3

  4

  5

  6

  7

 40
10.0
 41
10.0
 42
2.0
 43
7.0
 44
2.0
 45
0.0
 46
0.0
 47
0.0
 48
0.0
140
100.0
141
0.09
142
0.0
143
25.4
144
1.0
145
0.0
146
1.0
147
3.0
 71
     0
 72
     0
 73
     0
 74
     0
 75
     0
 76
     0
 77
     1
 78
     8
170
     0
171
     2
172
     1
173
     0
174
     0
175
     0
176
     1
177
     1
178
     1
270
     2
271
     4
272
     4
273
     2
274
     3
340
17F
275
     0
280
     0
281
     0
282
     0
283
     1
284
     8
285
     8
286
     8
287
     5
288
     0
  0
ENDTAB
  0
TABLE
  2
BLOCK_RECORD
  5
16F
330
0
100
AcDbSymbolTable
 70
     4
  0
BLOCK_RECORD
  5
18C
102
{ACAD_XDICTIONARY
360
203
102
}
330
16F
100
AcDbSymbolTableRecord
100
AcDbBlockTableRecord
  2
*MODEL_SPACE
  0
BLOCK_RECORD
  5
188
102
{ACAD_XDICTIONARY
360
201
102
}
330
16F
100
AcDbSymbolTableRecord
100
AcDbBlockTableRecord
  2
*PAPER_SPACE
  0
BLOCK_RECORD
  5
19C
330
16F
100
AcDbSymbolTableRecord
100
AcDbBlockTableRecord
  2
$MODEL_SPACE
  0
BLOCK_RECORD
  5
19F
330
16F
100
AcDbSymbolTableRecord
100
AcDbBlockTableRecord
  2
$PAPER_SPACE
  0
BLOCK_RECORD
  5
1A2
330
16F
100
AcDbSymbolTableRecord
100
AcDbBlockTableRecord
  2
AEKA
  0
ENDTAB
  0
ENDSEC
  0
SECTION
  2
BLOCKS
  0
BLOCK
  5
18D
330
18C
100
AcDbEntity
  8
0
100
AcDbBlockBegin
  2
*MODEL_SPACE
 70
     0
 10
0.0
 20
0.0
 30
0.0
  3
*MODEL_SPACE
  1

  0
ENDBLK
  5
18E
330
18C
100
AcDbEntity
  8
0
100
AcDbBlockEnd
  0
BLOCK
  5
189
330
188
100
AcDbEntity
 67
     1
  8
0
100
AcDbBlockBegin
  2
*PAPER_SPACE
 70
     0
 10
0.0
 20
0.0
 30
0.0
  3
*PAPER_SPACE
  1

  0
ENDBLK
  5
18A
330
188
100
AcDbEntity
 67
     1
  8
0
100
AcDbBlockEnd
  0
BLOCK
  5
19D
330
19C
100
AcDbEntity
  8
0
100
AcDbBlockBegin
  2
$MODEL_SPACE
 70
     0
 10
0.0
 20
0.0
 30
0.0
  3
$MODEL_SPACE
  1

  0
ENDBLK
  5
19E
330
19C
100
AcDbEntity
  8
0
100
AcDbBlockEnd
  0
BLOCK
  5
1A0
330
19F
100
AcDbEntity
  8
0
100
AcDbBlockBegin
  2
$PAPER_SPACE
 70
     0
 10
0.0
 20
0.0
 30
0.0
  3
$PAPER_SPACE
  1

  0
ENDBLK
  5
1A1
330
19F
100
AcDbEntity
  8
0
100
AcDbBlockEnd
  0
BLOCK
  5
1A3
330
1A2
100
AcDbEntity
  8
0
100
AcDbBlockBegin
  2
AEKA
 70
     0
 10
0.0
 20
0.0
 30
0.0
  3
AEKA
  1

  0
LINE
  5
1A4
330
1A2
100
AcDbEntity
  8
OBJECT
 62
     7
100
AcDbLine
 10
2350.760746298194
 20
3452.721110434461
 30
0.0
 11
2748.365822278775
 21
3452.721110434461
 31
0.0
  0
LINE
  5
1A5
330
1A2
100
AcDbEntity
  8
OBJECT
 62
     7
100
AcDbLine
 10
2745.283631718729
 20
3677.583144524055
 30
0.0
 11
2353.842970108042
 21
3677.583144524055
 31
0.0
  0
LINE
  5
1A6
330
1A2
100
AcDbEntity
  8
OBJECT
 62
     7
100
AcDbLine
 10
2323.020865008799
 20
3646.780117447009
 30
0.0
 11
2880.90084760563
 21
3646.780117447009
 31
0.0
  0
LINE
  5
1A7
330
1A2
100
AcDbEntity
  8
OBJECT
 62
     7
100
AcDbLine
 10
2323.020865008799
 20
3489.684734723967
 30
0.0
 11
2782.270151187852
 21
3489.684734723967
 31
0.0
  0
POLYLINE
  5
1A8
330
1A2
100
AcDbEntity
  8
SAFETY
 62
     0
100
AcDb2dPolyline
 66
     1
 10
0.0
 20
0.0
 30
-122.4854927001338
 70
     1
1001
AVE_FINISH
1002
{
1070
     0
1005
0
1002
}
  0
VERTEX
  5
205
330
1A8
100
AcDbEntity
  8
SAFETY
 62
     0
100
AcDbVertex
100
AcDb2dVertex
 10
3491.681023052505
 20
1248.484322852654
 30
-122.4854927001338
  0
VERTEX
  5
206
330
1A8
100
AcDbEntity
  8
SAFETY
 62
     0
100
AcDbVertex
100
AcDb2dVertex
 10
3583.820603109005
 20
1248.484322852654
 30
-122.4854927001338
 42
0.4142135623730951
  0
VERTEX
  5
207
330
1A8
100
AcDbEntity
  8
SAFETY
 62
     0
100
AcDbVertex
100
AcDb2dVertex
 10
5083.820603109005
 20
2748.484322852653
 30
-122.4854927001338
  0
VERTEX
  5
208
330
1A8
100
AcDbEntity
  8
SAFETY
 62
     0
100
AcDbVertex
100
AcDb2dVertex
 10
5083.820603109005
 20
4385.2038473163
 30
-122.4854927001338
 42
0.4142135623730951
  0
VERTEX
  5
209
330
1A8
100
AcDbEntity
  8
SAFETY
 62
     0
100
AcDbVertex
100
AcDb2dVertex
 10
3583.820603109005
 20
5885.203847316301
 30
-122.4854927001338
  0
VERTEX
  5
20A
330
1A8
100
AcDbEntity
  8
SAFETY
 62
     0
100
AcDbVertex
100
AcDb2dVertex
 10
3491.681023052497
 20
5885.203847316301
 30
-122.4854927001338
  0
VERTEX
  5
20B
330
1A8
100
AcDbEntity
  8
SAFETY
 62
     0
100
AcDbVertex
100
AcDb2dVertex
 10
3491.681023052497
 20
7116.844085084477
 30
-122.4854927001338
  0
VERTEX
  5
20C
330
1A8
100
AcDbEntity
  8
SAFETY
 62
     0
100
AcDbVertex
100
AcDb2dVertex
 10
1608.993843240238
 20
7116.844085084477
 30
-122.4854927001338
  0
VERTEX
  5
20D
330
1A8
100
AcDbEntity
  8
SAFETY
 62
     0
100
AcDbVertex
100
AcDb2dVertex
 10
1608.99384324023
 20
5885.203847316301
 30
-122.4854927001338
  0
VERTEX
  5
20E
330
1A8
100
AcDbEntity
  8
SAFETY
 62
     0
100
AcDbVertex
100
AcDb2dVertex
 10
1516.854263183737
 20
5885.203847316301
 30
-122.4854927001338
 42
0.4142135623730951
  0
VERTEX
  5
20F
330
1A8
100
AcDbEntity
  8
SAFETY
 62
     0
100
AcDbVertex
100
AcDb2dVertex
 10
16.85426318373765
 20
4385.2038473163
 30
-122.4854927001338
  0
VERTEX
  5
210
330
1A8
100
AcDbEntity
  8
SAFETY
 62
     0
100
AcDbVertex
100
AcDb2dVertex
 10
16.85426318373765
 20
2748.484322852652
 30
-122.4854927001338
 42
0.4142135623730967
  0
VERTEX
  5
211
330
1A8
100
AcDbEntity
  8
SAFETY
 62
     0
100
AcDbVertex
100
AcDb2dVertex
 10
1516.854263183744
 20
1248.484322852652
 30
-122.4854927001338
  0
VERTEX
  5
212
330
1A8
100
AcDbEntity
  8
SAFETY
 62
     0
100
AcDbVertex
100
AcDb2dVertex
 10
1608.993843240238
 20
1248.484322852652
 30
-122.4854927001338
  0
VERTEX
  5
213
330
1A8
100
AcDbEntity
  8
SAFETY
 62
     0
100
AcDbVertex
100
AcDb2dVertex
 10
1608.993843240238
 20
16.84408508447774
 30
-122.4854927001338
  0
VERTEX
  5
214
330
1A8
100
AcDbEntity
  8
SAFETY
 62
     0
100
AcDbVertex
100
AcDb2dVertex
 10
3491.681023052497
 20
16.84408508447774
 30
-122.4854927001338
  0
SEQEND
  5
215
330
1A8
100
AcDbEntity
  8
SAFETY
 62
     0
  0
LINE
  5
1BA
330
1A2
100
AcDbEntity
  8
OBJECT
 62
     7
100
AcDbLine
 10
2215.143530411292
 20
3646.780117447009
 30
0.0
 11
2215.143530411292
 21
3353.715874121812
 31
0.0
  0
LINE
  5
1BB
330
1A2
100
AcDbEntity
  8
OBJECT
 62
     7
100
AcDbLine
 10
2115.143530411291
 20
3646.780117447009
 30
0.0
 11
2115.143530411291
 21
3353.715874121812
 31
0.0
  0
LINE
  5
1BC
330
1A2
100
AcDbEntity
  8
OBJECT
 62
     7
100
AcDbLine
 10
1620.277028345339
 20
4173.51170205039
 30
0.0
 11
1620.277028345339
 21
2959.872861768038
 31
0.0
  0
LINE
  5
1BD
330
1A2
100
AcDbEntity
  8
OBJECT
 62
     7
100
AcDbLine
 10
2215.143530411292
 20
3570.438544055763
 30
0.0
 11
1506.235246128136
 21
2842.821391687053
 31
0.0
  0
LINE
  5
1BE
330
1A2
100
AcDbEntity
  8
OBJECT
 62
     7
100
AcDbLine
 10
1820.277028345332
 20
3973.635553142076
 30
0.0
 11
1820.277028345339
 21
3165.151081391182
 31
0.0
  0
LINE
  5
1BF
330
1A2
100
AcDbEntity
  8
OBJECT
 62
     0
100
AcDbLine
 10
1820.277028345332
 20
3473.635553142076
 30
0.0
 11
1620.277028345339
 21
3473.635553142076
 31
0.0
  0
LINE
  5
1C0
330
1A2
100
AcDbEntity
  8
OBJECT
 62
     0
100
AcDbLine
 10
1820.277028345332
 20
3373.635553142074
 30
0.0
 11
1620.277028345339
 21
3373.635553142074
 31
0.0
  0
LINE
  5
1C1
330
1A2
100
AcDbEntity
  8
OBJECT
 62
     0
100
AcDbLine
 10
1820.277028345332
 20
3273.635553142074
 30
0.0
 11
1620.277028345339
 21
3273.635553142074
 31
0.0
  0
LINE
  5
1C2
330
1A2
100
AcDbEntity
  8
OBJECT
 62
     0
100
AcDbLine
 10
1820.277028345332
 20
3173.635553142076
 30
0.0
 11
1620.277028345339
 21
3173.635553142076
 31
0.0
  0
LINE
  5
1C3
330
1A2
100
AcDbEntity
  8
OBJECT
 62
     7
100
AcDbLine
 10
1617.19480453549
 20
2735.010848185812
 30
0.0
 11
2215.143530411292
 21
3353.715874121812
 31
0.0
  0
LINE
  5
1C4
330
1A2
100
AcDbEntity
  8
OBJECT
 62
     7
100
AcDbLine
 10
1506.235246128136
 20
2735.010848185812
 30
0.0
 11
1617.19480453549
 21
2735.010848185812
 31
0.0
  0
LINE
  5
1C5
330
1A2
100
AcDbEntity
  8
OBJECT
 62
     7
100
AcDbLine
 10
1506.235246128136
 20
2842.821391687053
 30
0.0
 11
1506.235246128136
 21
2735.010848185812
 31
0.0
  0
LINE
  5
1C6
330
1A2
100
AcDbEntity
  8
OBJECT
 62
     0
100
AcDbLine
 10
2115.143530411291
 20
3353.715874121812
 30
0.0
 11
2215.1435304113
 21
3353.715874121812
 31
0.0
  0
LINE
  5
1C7
330
1A2
100
AcDbEntity
  8
OBJECT
 62
     7
100
AcDbLine
 10
2323.020865008799
 20
3489.684734723967
 30
0.0
 11
2350.760746298194
 21
3452.721110434461
 31
0.0
  0
LINE
  5
1C8
330
1A2
100
AcDbEntity
  8
OBJECT
 62
     7
100
AcDbLine
 10
2215.143530411292
 20
3489.684734723967
 30
0.0
 11
2323.020865008799
 21
3489.684734723967
 31
0.0
  0
LINE
  5
1C9
330
1A2
100
AcDbEntity
  8
OBJECT
 62
     0
100
AcDbLine
 10
1820.277028345332
 20
3973.635553142076
 30
0.0
 11
1620.277028345339
 21
3973.635553142076
 31
0.0
  0
LINE
  5
1CA
330
1A2
100
AcDbEntity
  8
OBJECT
 62
     0
100
AcDbLine
 10
1820.277028345332
 20
3873.635553142076
 30
0.0
 11
1620.277028345339
 21
3873.635553142076
 31
0.0
  0
LINE
  5
1CB
330
1A2
100
AcDbEntity
  8
OBJECT
 62
     0
100
AcDbLine
 10
1820.277028345332
 20
3773.635553142076
 30
0.0
 11
1620.277028345339
 21
3773.635553142076
 31
0.0
  0
LINE
  5
1CC
330
1A2
100
AcDbEntity
  8
OBJECT
 62
     0
100
AcDbLine
 10
1820.277028345332
 20
3673.635553142076
 30
0.0
 11
1620.277028345339
 21
3673.635553142076
 31
0.0
  0
LINE
  5
1CD
330
1A2
100
AcDbEntity
  8
OBJECT
 62
     0
100
AcDbLine
 10
1820.277028345332
 20
3573.635553142076
 30
0.0
 11
1620.277028345339
 21
3573.635553142076
 31
0.0
  0
LINE
  5
1CE
330
1A2
100
AcDbEntity
  8
OBJECT
 62
     7
100
AcDbLine
 10
2215.143530411292
 20
3776.152781952918
 30
0.0
 11
1611.030390165596
 21
4395.293406772704
 31
0.0
  0
LINE
  5
1CF
330
1A2
100
AcDbEntity
  8
OBJECT
 62
     7
100
AcDbLine
 10
1506.235246128136
 20
4287.482863271462
 30
0.0
 11
2215.143530411292
 21
3579.013574312892
 31
0.0
  0
LINE
  5
1D0
330
1A2
100
AcDbEntity
  8
OBJECT
 62
     0
100
AcDbLine
 10
1620.277028345339
 20
3973.635553142076
 30
0.0
 11
1620.277028345339
 21
3973.635553142076
 31
0.0
  0
LINE
  5
1D1
330
1A2
100
AcDbEntity
  8
OBJECT
 62
     7
100
AcDbLine
 10
1611.030390165596
 20
4395.293406772704
 30
0.0
 11
1506.235246128136
 21
4395.293406772704
 31
0.0
  0
LINE
  5
1D2
330
1A2
100
AcDbEntity
  8
OBJECT
 62
     7
100
AcDbLine
 10
1506.235246128136
 20
4395.293406772704
 30
0.0
 11
1506.235246128136
 21
4287.482863271462
 31
0.0
  0
LINE
  5
1D3
330
1A2
100
AcDbEntity
  8
OBJECT
 62
     0
100
AcDbLine
 10
2115.143530411291
 20
3776.152781952918
 30
0.0
 11
2215.143530411292
 21
3776.152781952918
 31
0.0
  0
LINE
  5
1D4
330
1A2
100
AcDbEntity
  8
OBJECT
 62
     7
100
AcDbLine
 10
2115.143530411291
 20
3646.780117447009
 30
0.0
 11
2115.143530411291
 21
3776.152781952918
 31
0.0
  0
LINE
  5
1D5
330
1A2
100
AcDbEntity
  8
OBJECT
 62
     7
100
AcDbLine
 10
2353.842970108042
 20
3677.583144524055
 30
0.0
 11
2323.020865008799
 21
3646.780117447009
 31
0.0
  0
LINE
  5
1D6
330
1A2
100
AcDbEntity
  8
OBJECT
 62
     7
100
AcDbLine
 10
2323.020865008799
 20
3646.780117447009
 30
0.0
 11
2215.143530411292
 21
3646.780117447009
 31
0.0
  0
LINE
  5
1D7
330
1A2
100
AcDbEntity
  8
OBJECT
 62
     7
100
AcDbLine
 10
2215.143530411292
 20
3646.780117447009
 30
0.0
 11
2215.143530411292
 21
3776.152781952918
 31
0.0
  0
LINE
  5
1D8
330
1A2
100
AcDbEntity
  8
OBJECT
 62
     0
100
AcDbLine
 10
2880.90084760563
 20
3646.780117447009
 30
0.0
 11
2880.90084760563
 21
3347.555276909348
 31
0.0
  0
LINE
  5
1D9
330
1A2
100
AcDbEntity
  8
OBJECT
 62
     7
100
AcDbLine
 10
2980.900847605637
 20
3476.92794141526
 30
0.0
 11
2980.900847605637
 21
3769.992184740456
 31
0.0
  0
LINE
  5
1DA
330
1A2
100
AcDbEntity
  8
OBJECT
 62
     7
100
AcDbLine
 10
3481.931764041477
 20
2969.113767840417
 30
0.0
 11
3481.931764041477
 21
4170.431393190477
 31
0.0
  0
LINE
  5
1DB
330
1A2
100
AcDbEntity
  8
OBJECT
 62
     7
100
AcDbLine
 10
3602.13796062856
 20
2845.901700546969
 30
0.0
 11
2880.900847605637
 21
3585.174036145204
 31
0.0
  0
LINE
  5
1DC
330
1A2
100
AcDbEntity
  8
OBJECT
 62
     7
100
AcDbLine
 10
3281.931764041477
 20
3174.114958780168
 30
0.0
 11
3281.931764041485
 21
3970.555254139033
 31
0.0
  0
LINE
  5
1DD
330
1A2
100
AcDbEntity
  8
OBJECT
 62
     0
100
AcDbLine
 10
3281.931764041485
 20
3470.555254139033
 30
0.0
 11
3481.931764041477
 21
3470.555254139033
 31
0.0
  0
LINE
  5
1DE
330
1A2
100
AcDbEntity
  8
OBJECT
 62
     0
100
AcDbLine
 10
3281.931764041485
 20
3370.555254139033
 30
0.0
 11
3481.931764041477
 21
3370.555254139033
 31
0.0
  0
LINE
  5
1DF
330
1A2
100
AcDbEntity
  8
OBJECT
 62
     0
100
AcDbLine
 10
3281.931764041485
 20
3270.555254139035
 30
0.0
 11
3481.931764041477
 21
3270.555254139035
 31
0.0
  0
LINE
  5
1E0
330
1A2
100
AcDbEntity
  8
OBJECT
 62
     0
100
AcDbLine
 10
3281.931764041485
 20
3170.555254139033
 30
0.0
 11
3481.931764041477
 21
3170.555254139033
 31
0.0
  0
LINE
  5
1E1
330
1A2
100
AcDbEntity
  8
OBJECT
 62
     0
100
AcDbLine
 10
3494.260626031052
 20
2738.091136538363
 30
0.0
 11
2880.90084760563
 21
3347.555276909348
 31
0.0
  0
LINE
  5
1E2
330
1A2
100
AcDbEntity
  8
OBJECT
 62
     0
100
AcDbLine
 10
2980.900847605637
 20
3347.555276909348
 30
0.0
 11
2880.900847605637
 21
3347.555276909348
 31
0.0
  0
LINE
  5
1E3
330
1A2
100
AcDbEntity
  8
OBJECT
 62
     7
100
AcDbLine
 10
2782.270151187852
 20
3489.684734723967
 30
0.0
 11
2880.90084760563
 21
3489.684734723969
 31
0.0
  0
LINE
  5
1E4
330
1A2
100
AcDbEntity
  8
OBJECT
 62
     7
100
AcDbLine
 10
2748.365822278775
 20
3452.721110434461
 30
0.0
 11
2782.270151187852
 21
3489.684734723967
 31
0.0
  0
LINE
  5
1E5
330
1A2
100
AcDbEntity
  8
OBJECT
 62
     7
100
AcDbLine
 10
2980.900847605637
 20
3476.92794141526
 30
0.0
 11
2980.900847605637
 21
3347.555276909348
 31
0.0
  0
LINE
  5
1E6
330
1A2
100
AcDbEntity
  8
OBJECT
 62
     7
100
AcDbLine
 10
3494.260626031052
 20
2738.091136538363
 30
0.0
 11
3602.137960628567
 21
2738.091136538363
 31
0.0
  0
LINE
  5
1E7
330
1A2
100
AcDbEntity
  8
OBJECT
 62
     7
100
AcDbLine
 10
3602.13796062856
 20
2738.091136538363
 30
0.0
 11
3602.13796062856
 21
2845.901700546969
 31
0.0
  0
LINE
  5
1E8
330
1A2
100
AcDbEntity
  8
OBJECT
 62
     0
100
AcDbLine
 10
3281.931764041485
 20
3970.555254139033
 30
0.0
 11
3481.931764041477
 21
3970.555254139033
 31
0.0
  0
LINE
  5
1E9
330
1A2
100
AcDbEntity
  8
OBJECT
 62
     0
100
AcDbLine
 10
3281.931764041485
 20
3870.555254139033
 30
0.0
 11
3481.931764041477
 21
3870.555254139033
 31
0.0
  0
LINE
  5
1EA
330
1A2
100
AcDbEntity
  8
OBJECT
 62
     0
100
AcDbLine
 10
3281.931764041485
 20
3770.555254139035
 30
0.0
 11
3481.931764041477
 21
3770.555254139035
 31
0.0
  0
LINE
  5
1EB
330
1A2
100
AcDbEntity
  8
OBJECT
 62
     0
100
AcDbLine
 10
3281.931764041485
 20
3670.555254139033
 30
0.0
 11
3481.931764041477
 21
3670.555254139033
 31
0.0
  0
LINE
  5
1EC
330
1A2
100
AcDbEntity
  8
OBJECT
 62
     0
100
AcDbLine
 10
3281.931764041485
 20
3570.555254139033
 30
0.0
 11
3481.931764041477
 21
3570.555254139033
 31
0.0
  0
LINE
  5
1ED
330
1A2
100
AcDbEntity
  8
OBJECT
 62
     7
100
AcDbLine
 10
3494.260626031052
 20
4398.373715632618
 30
0.0
 11
2880.90084760563
 21
3769.992184740456
 31
0.0
  0
LINE
  5
1EE
330
1A2
100
AcDbEntity
  8
OBJECT
 62
     7
100
AcDbLine
 10
2880.90084760563
 20
3569.772698051737
 30
0.0
 11
3605.220184438408
 21
4293.643460483924
 31
0.0
  0
LINE
  5
1EF
330
1A2
100
AcDbEntity
  8
OBJECT
 62
     0
100
AcDbLine
 10
2980.900847605637
 20
3769.992184740456
 30
0.0
 11
2880.90084760563
 21
3769.992184740456
 31
0.0
  0
LINE
  5
1F0
330
1A2
100
AcDbEntity
  8
OBJECT
 62
     7
100
AcDbLine
 10
2776.105703568156
 20
3646.780117447009
 30
0.0
 11
2745.283631718729
 21
3677.583144524055
 31
0.0
  0
LINE
  5
1F1
330
1A2
100
AcDbEntity
  8
OBJECT
 62
     7
100
AcDbLine
 10
2880.90084760563
 20
3769.992184740456
 30
0.0
 11
2880.900847605637
 21
3646.780117447009
 31
0.0
  0
LINE
  5
1F2
330
1A2
100
AcDbEntity
  8
OBJECT
 62
     7
100
AcDbLine
 10
3605.220184438408
 20
4398.373715632618
 30
0.0
 11
3494.260626031052
 21
4398.373715632618
 31
0.0
  0
LINE
  5
1F3
330
1A2
100
AcDbEntity
  8
OBJECT
 62
     7
100
AcDbLine
 10
3605.220184438408
 20
4293.643460483924
 30
0.0
 11
3605.220184438408
 21
4398.373715632618
 31
0.0
  0
ENDBLK
  5
1F4
330
1A2
100
AcDbEntity
  8
0
100
AcDbBlockEnd
  0
ENDSEC
  0
SECTION
  2
ENTITIES
  0
INSERT
  5
1F5
330
18C
100
AcDbEntity
  8
0
100
AcDbBlockReference
  2
AEKA
 10
0.0
 20
0.0
 30
0.0
  0
MTEXT
  5
1FE
330
18C
100
AcDbEntity
  8
TEKST
100
AcDbMText
 10
2018.02766175189
 20
5060.401467280618
 30
0.0
 40
100.0
 41
1991.156099999999
 71
     1
 72
     1
  1
{\FIMPACT.TTF;Hoogte: 214 cm\PMax. valhoogte: 115 cm}
1001
ACAD
1000
MTEXTBEGIN
1070
    73
1070
     1
1070
    44
1040
1.0
1070
    74
1070
     0
1000
MTEXTEND
  0
ENDSEC
  0
SECTION
  2
OBJECTS
  0
DICTIONARY
  5
17A
330
0
100
AcDbDictionary
  3
ACAD_GROUP
350
17B
  3
ACAD_LAYOUT
350
187
  3
ACAD_MLINESTYLE
350
184
  3
ACAD_PLOTSETTINGS
350
186
1001
ACAD
1000
TREAT_AS_HARD
1070
     0
  0
DICTIONARY
  5
203
330
18C
100
AcDbDictionary
  3
ACAD_LAYOUTSELFREF
350
204
  0
DICTIONARY
  5
201
330
188
100
AcDbDictionary
  3
ACAD_LAYOUTSELFREF
350
202
  0
DICTIONARY
  5
17B
102
{ACAD_REACTORS
330
17A
102
}
330
17A
100
AcDbDictionary
1001
ACAD
1000
TREAT_AS_HARD
1070
     0
  0
DICTIONARY
  5
187
102
{ACAD_REACTORS
330
17A
102
}
330
17A
100
AcDbDictionary
1001
ACAD
1000
TREAT_AS_HARD
1070
     0
  0
DICTIONARY
  5
184
102
{ACAD_REACTORS
330
17A
102
}
330
17A
100
AcDbDictionary
  3
STANDARD
350
185
1001
ACAD
1000
TREAT_AS_HARD
1070
     0
  0
DICTIONARY
  5
186
102
{ACAD_REACTORS
330
17A
102
}
330
17A
100
AcDbDictionary
1001
ACAD
1000
TREAT_AS_HARD
1070
     0
  0
XRECORD
  5
204
102
{ACAD_REACTORS
330
203
102
}
330
203
100
AcDbXrecord
340
18C
  0
XRECORD
  5
202
102
{ACAD_REACTORS
330
201
102
}
330
201
100
AcDbXrecord
340
188
  0
MLINESTYLE
  5
185
102
{ACAD_REACTORS
330
184
102
}
330
184
100
AcDbMlineStyle
  2
STANDARD
 70
     0
  3

 62
   256
 51
90.0
 52
90.0
 71
     2
 49
0.5
 62
   256
  6
BYLAYER
 49
-0.5
 62
   256
  6
BYLAYER
  0
ENDSEC
  0
EOF
