  0
SECTION
  2
HEADER
  9
$ACADVER
  1
AC1012
  9
$DWGCODEPAGE
  3
ANSI_1252
  9
$INSBASE
 10
41607.40454301071
 20
3992.445186003386
 30
0.0
  9
$EXTMIN
 10
35940.82104901958
 20
458.2900425180763
 30
-104.923315599824
  9
$EXTMAX
 10
42935.0623075692
 20
7558.290042518078
 30
0.0
  9
$LIMMIN
 10
0.0
 20
0.0
  9
$LIMMAX
 10
12.0
 20
9.0
  9
$ORTHOMODE
 70
     0
  9
$REGENMODE
 70
     1
  9
$FILLMODE
 70
     1
  9
$QTEXTMODE
 70
     0
  9
$MIRRTEXT
 70
     1
  9
$DRAGMODE
 70
     2
  9
$LTSCALE
 40
1.0
  9
$OSMODE
 70
   511
  9
$ATTMODE
 70
     1
  9
$TEXTSIZE
 40
3.0
  9
$TRACEWID
 40
0.05
  9
$TEXTSTYLE
  7
STYLE4
  9
$CLAYER
  8
HATCH
  9
$CELTYPE
  6
BYLAYER
  9
$CECOLOR
 62
     0
  9
$CELTSCALE
 40
1.0
  9
$DELOBJ
 70
     1
  9
$DISPSILH
 70
     1
  9
$DIMSCALE
 40
10.0
  9
$DIMASZ
 40
10.0
  9
$DIMEXO
 40
2.0
  9
$DIMDLI
 40
7.0
  9
$DIMRND
 40
0.0
  9
$DIMDLE
 40
0.0
  9
$DIMEXE
 40
2.0
  9
$DIMTP
 40
0.0
  9
$DIMTM
 40
0.0
  9
$DIMTXT
 40
100.0
  9
$DIMCEN
 40
0.09
  9
$DIMTSZ
 40
0.0
  9
$DIMTOL
 70
     0
  9
$DIMLIM
 70
     0
  9
$DIMTIH
 70
     0
  9
$DIMTOH
 70
     0
  9
$DIMSE1
 70
     0
  9
$DIMSE2
 70
     0
  9
$DIMTAD
 70
     1
  9
$DIMZIN
 70
     8
  9
$DIMBLK
  1

  9
$DIMASO
 70
     1
  9
$DIMSHO
 70
     1
  9
$DIMPOST
  1

  9
$DIMAPOST
  1

  9
$DIMALT
 70
     0
  9
$DIMALTD
 70
     2
  9
$DIMALTF
 40
25.4
  9
$DIMLFAC
 40
1.0
  9
$DIMTOFL
 70
     1
  9
$DIMTVP
 40
0.0
  9
$DIMTIX
 70
     0
  9
$DIMSOXD
 70
     0
  9
$DIMSAH
 70
     0
  9
$DIMBLK1
  1

  9
$DIMBLK2
  1

  9
$DIMSTYLE
  2
STAND-1
  9
$DIMCLRD
 70
     1
  9
$DIMCLRE
 70
     1
  9
$DIMCLRT
 70
     1
  9
$DIMTFAC
 40
1.0
  9
$DIMGAP
 40
3.0
  9
$DIMJUST
 70
     0
  9
$DIMSD1
 70
     0
  9
$DIMSD2
 70
     0
  9
$DIMTOLJ
 70
     1
  9
$DIMTZIN
 70
     0
  9
$DIMALTZ
 70
     0
  9
$DIMALTTZ
 70
     0
  9
$DIMFIT
 70
     3
  9
$DIMUPT
 70
     0
  9
$DIMUNIT
 70
     2
  9
$DIMDEC
 70
     1
  9
$DIMTDEC
 70
     0
  9
$DIMALTU
 70
     2
  9
$DIMALTTD
 70
     2
  9
$DIMTXSTY
  7
STYLE1
  9
$DIMAUNIT
 70
     0
  9
$LUNITS
 70
     2
  9
$LUPREC
 70
     4
  9
$SKETCHINC
 40
0.1
  9
$FILLETRAD
 40
0.0
  9
$AUNITS
 70
     0
  9
$AUPREC
 70
     0
  9
$MENU
  1
acad
  9
$ELEVATION
 40
0.0
  9
$PELEVATION
 40
0.0
  9
$THICKNESS
 40
0.0
  9
$LIMCHECK
 70
     0
  9
$BLIPMODE
 70
     0
  9
$CHAMFERA
 40
0.5
  9
$CHAMFERB
 40
0.5
  9
$CHAMFERC
 40
1.0
  9
$CHAMFERD
 40
0.0
  9
$SKPOLY
 70
     0
  9
$TDCREATE
 40
2451047.526030440
  9
$TDUPDATE
 40
2452796.518785185
  9
$TDINDWG
 40
0.4661506481
  9
$TDUSRTIMER
 40
0.4661506481
  9
$USRTIMER
 70
     1
  9
$ANGBASE
 50
0.0
  9
$ANGDIR
 70
     0
  9
$PDMODE
 70
     0
  9
$PDSIZE
 40
0.0
  9
$PLINEWID
 40
0.0
  9
$COORDS
 70
     2
  9
$SPLFRAME
 70
     0
  9
$SPLINETYPE
 70
     6
  9
$SPLINESEGS
 70
     8
  9
$ATTDIA
 70
     0
  9
$ATTREQ
 70
     1
  9
$HANDLING
 70
-16383
  9
$HANDSEED
  5
3D2
  9
$SURFTAB1
 70
     6
  9
$SURFTAB2
 70
     6
  9
$SURFTYPE
 70
     6
  9
$SURFU
 70
     6
  9
$SURFV
 70
     6
  9
$UCSNAME
  2

  9
$UCSORG
 10
0.0
 20
0.0
 30
0.0
  9
$UCSXDIR
 10
1.0
 20
0.0
 30
0.0
  9
$UCSYDIR
 10
0.0
 20
1.0
 30
0.0
  9
$PUCSNAME
  2

  9
$PUCSORG
 10
0.0
 20
0.0
 30
0.0
  9
$PUCSXDIR
 10
1.0
 20
0.0
 30
0.0
  9
$PUCSYDIR
 10
0.0
 20
1.0
 30
0.0
  9
$USERI1
 70
     0
  9
$USERI2
 70
     0
  9
$USERI3
 70
     0
  9
$USERI4
 70
     0
  9
$USERI5
 70
     0
  9
$USERR1
 40
0.0
  9
$USERR2
 40
0.0
  9
$USERR3
 40
0.0
  9
$USERR4
 40
0.0
  9
$USERR5
 40
0.0
  9
$WORLDVIEW
 70
     1
  9
$SHADEDGE
 70
     3
  9
$SHADEDIF
 70
    70
  9
$TILEMODE
 70
     1
  9
$MAXACTVP
 70
    48
  9
$PINSBASE
 10
0.0
 20
0.0
 30
0.0
  9
$PLIMCHECK
 70
     0
  9
$PEXTMIN
 10
-90.8321932686133
 20
33.98026710715351
 30
0.0
  9
$PEXTMAX
 10
119.1678067313865
 20
330.9802671071535
 30
0.0
  9
$PLIMMIN
 10
0.0
 20
0.0
  9
$PLIMMAX
 10
12.0
 20
9.0
  9
$UNITMODE
 70
     0
  9
$VISRETAIN
 70
     1
  9
$PLINEGEN
 70
     0
  9
$PSLTSCALE
 70
     1
  9
$TREEDEPTH
 70
  3020
  9
$PICKSTYLE
 70
     1
  9
$CMLSTYLE
  2
STANDARD
  9
$CMLJUST
 70
     0
  9
$CMLSCALE
 40
1.0
  9
$SAVEIMAGES
 70
     1
  0
ENDSEC
  0
SECTION
  2
CLASSES
  0
CLASS
  1
LWPOLYLINE
  2
AcDbPolyline
  3
AutoCAD 2000
 90
    32768
280
     0
281
     1
  0
CLASS
  1
DICTIONARYVAR
  2
AcDbDictionaryVar
  3
AutoCAD 2000
 90
    32768
280
     0
281
     0
  0
CLASS
  1
HATCH
  2
AcDbHatch
  3
AutoCAD 2000
 90
    32768
280
     0
281
     1
  0
CLASS
  1
ACDBDICTIONARYWDFLT
  2
AcDbDictionaryWithDefault
  3
AutoCAD 2000
 90
    32768
280
     0
281
     0
  0
CLASS
  1
ACDBPLACEHOLDER
  2
AcDbPlaceHolder
  3
AutoCAD 2000
 90
    32768
280
     0
281
     0
  0
CLASS
  1
LAYOUT
  2
AcDbLayout
  3
AutoCAD 2000
 90
    32768
280
     0
281
     0
  0
CLASS
  1
LONG_TRANSACTION
  2
AcDbLongTransaction
  3
AutoCAD 2000
 90
    32768
280
     0
281
     0
  0
CLASS
  1
LWPOLYLINE
  2
AcDbPolyline
  3
AutoCAD 2000
 90
    32768
280
     0
281
     1
  0
CLASS
  1
HATCH
  2
AcDbHatch
  3
AutoCAD 2000
 90
    32768
280
     0
281
     1
  0
CLASS
  1
XRECORD
  2
AcDbXrecord
  3
AutoCAD 2000
 90
    32768
280
     0
281
     0
  0
CLASS
  1
LONG_TRANSACTION
  2
AcDbLongTransaction
  3
AutoCAD 2000
 90
    32768
280
     0
281
     0
  0
CLASS
  1
LWPOLYLINE
  2
AcDbPolyline
  3
AutoCAD 2000
 90
    32768
280
     0
281
     1
  0
CLASS
  1
HATCH
  2
AcDbHatch
  3
AutoCAD 2000
 90
    32768
280
     0
281
     1
  0
CLASS
  1
XRECORD
  2
AcDbXrecord
  3
AutoCAD 2000
 90
    32768
280
     0
281
     0
  0
CLASS
  1
LONG_TRANSACTION
  2
AcDbLongTransaction
  3
AutoCAD 2000
 90
    32768
280
     0
281
     0
  0
CLASS
  1
LWPOLYLINE
  2
AcDbPolyline
  3
AutoCAD 2000
 90
    32768
280
     0
281
     1
  0
CLASS
  1
HATCH
  2
AcDbHatch
  3
AutoCAD 2000
 90
    32768
280
     0
281
     1
  0
CLASS
  1
XRECORD
  2
AcDbXrecord
  3
AutoCAD 2000
 90
    32768
280
     0
281
     0
  0
CLASS
  1
SORTENTSTABLE
  2
AcDbSortentsTable
  3
AutoCAD 2000
 90
    32768
280
     0
281
     0
  0
CLASS
  1
LONG_TRANSACTION
  2
AcDbLongTransaction
  3
AutoCAD 2000
 90
    32768
280
     0
281
     0
  0
CLASS
  1
LWPOLYLINE
  2
AcDbPolyline
  3
AutoCAD 2000
 90
    32768
280
     0
281
     1
  0
CLASS
  1
HATCH
  2
AcDbHatch
  3
AutoCAD 2000
 90
    32768
280
     0
281
     1
  0
CLASS
  1
XRECORD
  2
AcDbXrecord
  3
AutoCAD 2000
 90
    32768
280
     0
281
     0
  0
ENDSEC
  0
SECTION
  2
TABLES
  0
TABLE
  2
VPORT
  5
12
330
0
100
AcDbSymbolTable
 70
     2
  0
VPORT
  5
233
330
12
100
AcDbSymbolTableRecord
100
AcDbViewportTableRecord
  2
*ACTIVE
 70
     0
 10
0.0
 20
0.0
 11
1.0
 21
1.0
 12
44378.32536339093
 22
4872.387501400431
 13
0.0
 23
0.0
 14
0.5
 24
0.5
 15
0.5
 25
0.5
 16
0.0
 26
0.0
 36
1.0
 17
0.0
 27
0.0
 37
0.0
 40
10273.58768603169
 41
1.911885245901639
 42
50.0
 43
0.0
 44
0.0
 50
0.0
 51
0.0
 71
     0
 72
 20000
 73
     1
 74
     1
 75
     0
 76
     0
 77
     0
 78
     0
  0
ENDTAB
  0
TABLE
  2
LTYPE
  5
D
330
0
100
AcDbSymbolTable
 70
     2
  0
LTYPE
  5
E
330
D
100
AcDbSymbolTableRecord
100
AcDbLinetypeTableRecord
  2
BYBLOCK
 70
     0
  3

 72
    65
 73
     0
 40
0.0
  0
LTYPE
  5
F
330
D
100
AcDbSymbolTableRecord
100
AcDbLinetypeTableRecord
  2
BYLAYER
 70
     0
  3

 72
    65
 73
     0
 40
0.0
  0
LTYPE
  5
5
330
D
100
AcDbSymbolTableRecord
100
AcDbLinetypeTableRecord
  2
CONTINUOUS
 70
     0
  3
Solid line
 72
    65
 73
     0
 40
0.0
  0
LTYPE
  5
11A
330
D
100
AcDbSymbolTableRecord
100
AcDbLinetypeTableRecord
  2
DASHED
 70
     0
  3
Dashed __ __ __ __ __ __ __ __ __ __ __ __ __ _
 72
    65
 73
     2
 40
0.75
 49
0.5
 74
     0
 49
-0.25
 74
     0
  0
ENDTAB
  0
TABLE
  2
LAYER
  5
A
330
0
100
AcDbSymbolTable
 70
     5
  0
LAYER
  5
4
330
A
100
AcDbSymbolTableRecord
100
AcDbLayerTableRecord
  2
0
 70
     0
 62
     7
  6
CONTINUOUS
  0
LAYER
  5
25
330
A
100
AcDbSymbolTableRecord
100
AcDbLayerTableRecord
  2
LIJN
 70
     0
 62
     7
  6
CONTINUOUS
  0
LAYER
  5
1B
330
A
100
AcDbSymbolTableRecord
100
AcDbLayerTableRecord
  2
BEMATING
 70
     0
 62
     1
  6
CONTINUOUS
  0
LAYER
  5
11B
330
A
100
AcDbSymbolTableRecord
100
AcDbLayerTableRecord
  2
SAF
 70
     0
 62
     7
  6
CONTINUOUS
  0
LAYER
  5
1AB
330
A
100
AcDbSymbolTableRecord
100
AcDbLayerTableRecord
  2
HATCH
 70
     0
 62
     7
  6
CONTINUOUS
  0
ENDTAB
  0
TABLE
  2
STYLE
  5
B
330
0
100
AcDbSymbolTable
 70
     4
  0
STYLE
  5
C
330
B
100
AcDbSymbolTableRecord
100
AcDbTextStyleTableRecord
  2
STANDARD
 70
     0
 40
0.0
 41
1.0
 50
0.0
 71
     0
 42
0.2
  3
txt
  4

  0
STYLE
  5
1C
330
B
100
AcDbSymbolTableRecord
100
AcDbTextStyleTableRecord
  2
STYLE1
 70
     0
 40
100.0
 41
1.0
 50
0.0
 71
     0
 42
75.0
  3
romans.shx
  4

  0
STYLE
  5
1D
330
B
100
AcDbSymbolTableRecord
100
AcDbTextStyleTableRecord
  2
STYLE4
 70
     0
 40
3.0
 41
1.0
 50
0.0
 71
     0
 42
3.0
  3
romant.shx
  4

  0
STYLE
  5
119
330
B
100
AcDbSymbolTableRecord
100
AcDbTextStyleTableRecord
  2

 70
     1
 40
0.0
 41
1.0
 50
0.0
 71
     0
 42
3.0
  3
ltypeshp.shx
  4

  0
ENDTAB
  0
TABLE
  2
VIEW
  5
10
330
0
100
AcDbSymbolTable
 70
     0
  0
ENDTAB
  0
TABLE
  2
UCS
  5
11
330
0
100
AcDbSymbolTable
 70
     0
  0
ENDTAB
  0
TABLE
  2
APPID
  5
14
330
0
100
AcDbSymbolTable
 70
     3
  0
APPID
  5
15
330
14
100
AcDbSymbolTableRecord
100
AcDbRegAppTableRecord
  2
ACAD
 70
     0
  0
APPID
  5
26
330
14
100
AcDbSymbolTableRecord
100
AcDbRegAppTableRecord
  2
AVE_FINISH
 70
     0
  0
APPID
  5
236
330
14
100
AcDbSymbolTableRecord
100
AcDbRegAppTableRecord
  2
CONTENTBLOCKICON
 70
     0
  0
ENDTAB
  0
TABLE
  2
DIMSTYLE
  5
16
330
0
100
AcDbSymbolTable
 70
     1
  0
DIMSTYLE
105
1F
330
16
100
AcDbSymbolTableRecord
100
AcDbDimStyleTableRecord
  2
STAND-1
 70
     0
  3

  4

  5

  6

  7

 40
10.0
 41
10.0
 42
2.0
 43
7.0
 44
2.0
 45
0.0
 46
0.0
 47
0.0
 48
0.0
140
100.0
141
0.09
142
0.0
143
25.4
144
1.0
145
0.0
146
1.0
147
3.0
 71
     0
 72
     0
 73
     0
 74
     0
 75
     0
 76
     0
 77
     1
 78
     8
170
     0
171
     2
172
     1
173
     0
174
     0
175
     0
176
     1
177
     1
178
     1
270
     2
271
     1
272
     0
273
     2
274
     2
340
1C
275
     0
280
     0
281
     0
282
     0
283
     1
284
     0
285
     0
286
     0
287
     3
288
     0
  0
ENDTAB
  0
TABLE
  2
BLOCK_RECORD
  5
1
330
0
100
AcDbSymbolTable
 70
     5
  0
BLOCK_RECORD
  5
2
102
{ACAD_XDICTIONARY
360
154
102
}
330
1
100
AcDbSymbolTableRecord
100
AcDbBlockTableRecord
  2
*MODEL_SPACE
  0
BLOCK_RECORD
  5
7
102
{ACAD_XDICTIONARY
360
156
102
}
330
1
100
AcDbSymbolTableRecord
100
AcDbBlockTableRecord
  2
*PAPER_SPACE
  0
BLOCK_RECORD
  5
FB
330
1
100
AcDbSymbolTableRecord
100
AcDbBlockTableRecord
  2
TEXT
  0
BLOCK_RECORD
  5
1D9
330
1
100
AcDbSymbolTableRecord
100
AcDbBlockTableRecord
  2
AEKH
1001
CONTENTBLOCKICON
1071
        0
1004
28000000200000002000000001000800000000000004000000000000000000000000000000000000000000004000000080000000FF000000002000004020000080200000FF200000004000004040000080400000FF400000006000004060000080600000FF600000008000004080000080800000FF80000000A0000040A000
1004
0080A00000FFA0000000C0000040C0000080C00000FFC0000000FF000040FF000080FF0000FFFF0000000020004000200080002000FF002000002020004020200080202000FF202000004020004040200080402000FF402000006020004060200080602000FF602000008020004080200080802000FF80200000A0200040A0
1004
200080A02000FFA0200000C0200040C0200080C02000FFC0200000FF200040FF200080FF2000FFFF2000000040004000400080004000FF004000002040004020400080204000FF204000004040004040400080404000FF404000006040004060400080604000FF604000008040004080400080804000FF80400000A0400040
1004
A0400080A04000FFA0400000C0400040C0400080C04000FFC0400000FF400040FF400080FF4000FFFF4000000060004000600080006000FF006000002060004020600080206000FF206000004060004040600080406000FF406000006060004060600080606000FF606000008060004080600080806000FF80600000A06000
1004
40A0600080A06000FFA0600000C0600040C0600080C06000FFC0600000FF600040FF600080FF6000FFFF6000000080004000800080008000FF008000002080004020800080208000FF208000004080004040800080408000FF408000006080004060800080608000FF608000008080004080800080808000FF80800000A080
1004
0040A0800080A08000FFA0800000C0800040C0800080C08000FFC0800000FF800040FF800080FF8000FFFF80000000A0004000A0008000A000FF00A0000020A0004020A0008020A000FF20A0000040A0004040A0008040A000FF40A0000060A0004060A0008060A000FF60A0000080A0004080A0008080A000FF80A00000A0
1004
A00040A0A00080A0A000FFA0A00000C0A00040C0A00080C0A000FFC0A00000FFA00040FFA00080FFA000FFFFA0000000C0004000C0008000C000FF00C0000020C0004020C0008020C000FF20C0000040C0004040C0008040C000FF40C0000060C0004060C0008060C000FF60C0000080C0004080C0008080C000FF80C00000
1004
A0C00040A0C00080A0C000FFA0C00000C0C00040C0C00080C0C000FFC0C00000FFC00040FFC00080FFC000FFFFC0000000FF004000FF008000FF00FF00FF000020FF004020FF008020FF00FF20FF000040FF004040FF008040FF00FF40FF000060FF004060FF008060FF00FF60FF000080FF004080FF008080FF00FF80FF00
1004
00A0FF0040A0FF0080A0FF00FFA0FF0000C0FF0040C0FF0080C0FF00FFC0FF0000FFFF0040FFFF0080FFFF00FFFFFF000000000000000000000000000000000000000000000000000000000000000000000000000000000000FFFFFFFFFFFFFFFFFFFFFFFFFFFF000000000000000000000000000000000000FF0000000000
1004
00000000000000FF000000000000000000000000000000000000FF000000000000000000000000FF000000000000000000000000000000000000FF000000000000000000000000FF000000000000000000000000000000000000FF000000000000000000000000FF0000000000000000000000000000000000FFFF00000000
1004
0000000000000000FFFF0000000000000000000000000000FFFF00000000000000000000000000000000FFFF0000000000000000000000FF0000000000000000000000000000000000000000FF000000000000000000FF00000000000000000000000000000000000000000000FF0000000000000000FF0000000000000000
1004
000000000000000000000000000000FF000000000000FF000000000000000000000000000000000000000000000000FF000000000000FF000000000049000000000000000000000000490000000000FF000000000000FF000000000049490000000000000000000049490000000000FF000000000000FF0000000000FF4949
1004
00001F1F1F1F00004949FF0000000000FF000000000000FF0000000000FFFF4949E0E0E0E0E0E04949FFFF0000000000FF000000000000FF0000000000FFFF4949E0E0E0E0E0E04949FFFF0000000000FF000000000000FF0000000000FF494900001F1F1F1F00004949FF0000000000FF000000000000FF00000000004949
1004
0000000000000000000049490000000000FF000000000000FF000000000049000000000000000000000000490000000000FF000000000000FF000000000000000000000000000000000000000000000000FF00000000000000FF0000000000000000000000000000000000000000000000FF00000000000000FF0000000000
1004
0000000000000000000000000000000000FF000000000000000000FF0000000000000000000000000000000000000000FF0000000000000000000000FFFF0000000000000000000000000000000000FF0000000000000000000000000000FFFF000000000000000000000000FFFFFF00000000000000000000000000000000
1004
FF000000000000000000000000FF000000000000000000000000000000000000FF000000000000000000000000FF000000000000000000000000000000000000FF000000000000000000000000FF000000000000000000000000000000000000FF000000000000000000000000FF0000000000000000000000000000000000
1004
00FFFFFFFFFFFFFFFFFFFFFFFFFFFF0000000000000000000000000000000000000000000000000000000000000000000000000000000000
  0
BLOCK_RECORD
  5
237
330
1
100
AcDbSymbolTableRecord
100
AcDbBlockTableRecord
  2
*U2
  0
BLOCK_RECORD
  5
24A
330
1
100
AcDbSymbolTableRecord
100
AcDbBlockTableRecord
  2
*U3
  0
BLOCK_RECORD
  5
25F
330
1
100
AcDbSymbolTableRecord
100
AcDbBlockTableRecord
  2
*U4
  0
ENDTAB
  0
ENDSEC
  0
SECTION
  2
BLOCKS
  0
BLOCK
  5
3
330
2
100
AcDbEntity
  8
0
100
AcDbBlockBegin
  2
*MODEL_SPACE
 70
     0
 10
0.0
 20
0.0
 30
0.0
  3
*MODEL_SPACE
  1

  0
ENDBLK
  5
6
330
2
100
AcDbEntity
  8
0
100
AcDbBlockEnd
  0
BLOCK
  5
8
330
7
100
AcDbEntity
 67
     1
  8
0
100
AcDbBlockBegin
  2
*PAPER_SPACE
 70
     0
 10
0.0
 20
0.0
 30
0.0
  3
*PAPER_SPACE
  1

  0
ENDBLK
  5
9
330
7
100
AcDbEntity
 67
     1
  8
0
100
AcDbBlockEnd
  0
BLOCK
  5
FE
330
FB
100
AcDbEntity
  8
0
 62
     0
100
AcDbBlockBegin
  2
TEXT
 70
     0
 10
0.0
 20
0.0
 30
0.0
  3
TEXT
  1

  0
TEXT
  5
FC
330
FB
100
AcDbEntity
  8
BEMATING
 62
     0
100
AcDbText
 10
-2152.062588637532
 20
-150.0895298161158
 30
0.0
 40
150.0
  1
WHROOM WHROOM
  7
STYLE4
100
AcDbText
  0
TEXT
  5
FD
330
FB
100
AcDbEntity
  8
BEMATING
 62
     0
100
AcDbText
 10
-2152.062588637532
 20
-398.7145128868833
 30
0.0
 40
150.0
  1
AAKH.0
  7
STYLE4
100
AcDbText
  0
ENDBLK
  5
FF
330
FB
100
AcDbEntity
  8
0
 62
     0
100
AcDbBlockEnd
  0
BLOCK
  5
1DA
330
1D9
100
AcDbEntity
  8
0
 62
     0
100
AcDbBlockBegin
  2
AEKH
 70
     0
 10
0.0
 20
0.0
 30
0.0
  3
AEKH
  1

  0
INSERT
  5
1DC
330
1D9
100
AcDbEntity
  8
HATCH
  6
CONTINUOUS
 62
   251
100
AcDbBlockReference
  2
*U2
 10
0.0
 20
0.0
 30
0.0
1001
ACAD
1002
{
1000
R14_HATCH_DATA
1000
1DC
1011
1.0
1021
0.0
1031
0.0
1011
0.0
1021
1.0
1031
0.0
1011
0.0
1021
0.0
1031
1.0
1040
0.0
1010
0.0
1020
0.0
1030
1.0
1000
SOLID
1070
     1
1070
     1
1071
        8
1071
        7
1070
     0
1070
     1
1071
        4
1040
38368.46606888053
1040
4114.434512997174
1040
38368.4660688805
1040
4213.641378356468
1040
37751.94730577571
1040
4840.736774911968
1040
37751.94730577571
1040
4730.571362622957
1071
        4
1005
1EA
1005
1DF
1005
210
1005
22E
1071
        7
1070
     0
1070
     1
1071
        4
1040
38368.4660688805
1040
4213.641378356468
1040
38468.46606888052
1040
4213.641378356475
1040
37853.70147283356
1040
4840.736774911966
1040
37751.94730577572
1040
4840.736774911965
1071
        4
1005
1E9
1005
22E
1005
215
1005
1E0
1071
        7
1070
     0
1070
     1
1071
        4
1040
37751.9473057757
1040
3286.008722413193
1040
37751.9473057757
1040
3175.843310124186
1040
38368.46606888051
1040
3802.938706679675
1040
38368.46606888051
1040
3902.14557203896
1071
        4
1005
212
1005
1E4
1005
1E1
1005
22F
1071
        7
1070
     0
1070
     1
1071
        4
1040
38468.46606888051
1040
3802.938706679681
1040
38368.46606888051
1040
3802.938706679681
1040
37751.9473057757
1040
3175.843310124189
1040
37853.70147283356
1040
3175.843310124189
1071
        4
1005
216
1005
22F
1005
1E3
1005
1E2
1071
        7
1070
     0
1070
     1
1071
        4
1040
41122.55332955943
1040
4840.736774911965
1040
41020.79916250159
1040
4840.736774911967
1040
40406.03456645463
1040
4213.641378356475
1040
40506.03456645464
1040
4213.641378356469
1071
        4
1005
1F8
1005
1F2
1005
213
1005
230
1071
        7
1070
     0
1070
     1
1071
        4
1040
41122.55332955943
1040
4730.571362622974
1040
41122.55332955944
1040
4840.736774911977
1040
40506.03456645464
1040
4213.641378356471
1040
40506.03456645461
1040
4114.434512997182
1071
        4
1005
1F9
1005
230
1005
20D
1005
1F1
1071
        7
1070
     0
1070
     1
1071
        4
1040
41122.55332955943
1040
3175.843310124196
1040
41122.55332955943
1040
3286.008722413202
1040
40506.03456645464
1040
3902.145572038964
1040
40506.03456645464
1040
3802.938706679681
1071
        4
1005
20E
1005
231
1005
1F4
1005
1F6
1071
        7
1070
     0
1070
     1
1071
        4
1040
41020.79916250159
1040
3175.843310124189
1040
41122.55332955943
1040
3175.843310124189
1040
40506.03456645464
1040
3802.938706679681
1040
40406.03456645464
1040
3802.938706679681
1071
        4
1005
214
1005
1F3
1005
1F5
1005
231
1070
     0
1070
     1
1040
5.338077305536763
1071
        8
1040
37969.54340577419
1040
4561.999000192723
1040
0.0
1040
38033.66287413625
1040
4583.351301098673
1040
0.0
1040
38231.3645708864
1040
3739.935084694106
1040
0.0
1040
38263.42432087009
1040
3638.5116140634
1040
0.0
1040
40710.65067035108
1040
4460.575529562016
1040
0.0
1040
40753.39700366268
1040
4385.842443329241
1040
0.0
1040
40758.74029532664
1040
3590.468928759527
1040
0.0
1040
40721.33725367899
1040
3510.397759034769
1040
0.0
1002
}
  0
INSERT
  5
1DD
330
1D9
100
AcDbEntity
  8
HATCH
  6
CONTINUOUS
 62
     1
100
AcDbBlockReference
  2
*U3
 10
0.0
 20
0.0
 30
0.0
1001
ACAD
1002
{
1000
R14_HATCH_DATA
1000
1DD
1011
1.0
1021
0.0
1031
0.0
1011
0.0
1021
1.0
1031
0.0
1011
0.0
1021
0.0
1031
1.0
1040
0.0
1010
0.0
1020
0.0
1030
1.0
1000
SOLID
1070
     1
1070
     1
1071
        3
1071
        7
1070
     0
1070
     1
1071
        8
1040
40406.03456645464
1040
3930.052647141328
1040
40406.03456645465
1040
3802.93870667968
1040
40506.03456645463
1040
3802.93870667968
1040
40506.03456645464
1040
3930.052647141328
1040
40506.03456645461
1040
4086.527437894831
1040
40506.03456645464
1040
4213.641378356468
1040
40406.03456645464
1040
4213.641378356474
1040
40406.03456645461
1040
4086.527437894828
1071
        8
1005
20D
1005
213
1005
1FC
1005
1FB
1005
1FA
1005
214
1005
20E
1005
20F
1071
        7
1070
     0
1070
     1
1071
        8
1040
40406.03456645464
1040
3930.052647141328
1040
40406.03456645461
1040
4086.527437894828
1040
39837.90725756805
1040
4086.527437894828
1040
39036.59337776711
1040
4086.527437894828
1040
38468.46606888053
1040
4086.527437894826
1040
38468.46606888051
1040
3930.052647141328
1040
39036.59337776711
1040
3930.052647141328
1040
39837.90725756805
1040
3930.052647141328
1071
        8
1005
1ED
1005
1E7
1005
1EB
1005
1F0
1005
1EC
1005
1E5
1005
1EE
1005
1FB
1071
        7
1070
     0
1070
     1
1071
        8
1040
38468.46606888053
1040
4086.527437894826
1040
38468.46606888051
1040
4213.641378356475
1040
38368.46606888051
1040
4213.641378356469
1040
38368.46606888053
1040
4086.527437894821
1040
38368.46606888051
1040
3930.052647141333
1040
38368.46606888051
1040
3802.938706679681
1040
38468.46606888051
1040
3802.93870667968
1040
38468.46606888051
1040
3930.052647141328
1071
        8
1005
1E8
1005
215
1005
210
1005
211
1005
212
1005
216
1005
1E6
1005
1F0
1070
     0
1070
     1
1040
5.338077305536763
1071
        3
1040
40438.14295351631
1040
4054.881647039195
1040
0.0
1040
40309.90401679218
1040
3985.486644298393
1040
0.0
1040
38423.72297597259
1040
3958.79625990047
1040
0.0
1002
}
  0
INSERT
  5
1DE
330
1D9
100
AcDbEntity
  8
HATCH
  6
CONTINUOUS
 62
     4
100
AcDbBlockReference
  2
*U4
 10
0.0
 20
0.0
 30
0.0
1001
ACAD
1002
{
1000
R14_HATCH_DATA
1000
1DE
1011
1.0
1021
0.0
1031
0.0
1011
0.0
1021
1.0
1031
0.0
1011
0.0
1021
0.0
1031
1.0
1040
0.0
1010
0.0
1020
0.0
1030
1.0
1000
SOLID
1070
     1
1070
     1
1071
        2
1071
        7
1070
     1
1070
     1
1071
        5
1040
39829.52434174343
1040
4086.527437894828
1040
0.0
1040
39837.90725756805
1040
4086.527437894828
1040
0.0
1040
39931.09129406045
1040
4086.527437894828
1040
0.8540453805674545
1040
38943.40934127471
1040
4086.527437894828
1040
0.0
1040
39044.97629359173
1040
4086.527437894828
1040
-0.8202495828809507
1071
        5
1005
1EB
1005
1E7
1005
22C
1005
1ED
1005
22D
1071
        7
1070
     1
1070
     1
1071
        5
1040
39044.97629359173
1040
3930.052647141328
1040
0.0
1040
39036.59337776711
1040
3930.052647141328
1040
0.0
1040
38943.40934127471
1040
3930.052647141328
1040
0.8540453805674545
1040
39931.09129406045
1040
3930.052647141328
1040
0.0
1040
39829.52434174343
1040
3930.052647141328
1040
-0.8202495828809507
1071
        5
1005
1EE
1005
1E5
1005
229
1005
1EC
1005
226
1070
     0
1070
     1
1040
5.338077305536763
1071
        2
1040
39460.32105309351
1040
4433.885145164093
1040
0.0
1040
39438.94788643771
1040
3569.116611322597
1040
0.0
1002
}
  0
LINE
  5
1DF
330
1D9
100
AcDbEntity
  8
BEMATING
 62
     7
100
AcDbLine
 10
37751.94730577571
 20
4730.571362622963
 30
0.0
 11
38368.46606888053
 21
4114.43451299718
 31
0.0
  0
LINE
  5
1E0
330
1D9
100
AcDbEntity
  8
BEMATING
 62
     7
100
AcDbLine
 10
38468.46606888051
 20
4213.641378356475
 30
0.0
 11
37853.70147283357
 21
4840.736774911966
 31
0.0
  0
LINE
  5
1E1
330
1D9
100
AcDbEntity
  8
BEMATING
 62
     7
100
AcDbLine
 10
37751.94730577571
 20
3175.843310124189
 30
0.0
 11
37751.94730577571
 21
3286.008722413192
 31
0.0
  0
LINE
  5
1E2
330
1D9
100
AcDbEntity
  8
BEMATING
 62
     7
100
AcDbLine
 10
38468.46606888051
 20
3802.938706679681
 30
0.0
 11
37853.70147283357
 21
3175.843310124189
 31
0.0
  0
LINE
  5
1E3
330
1D9
100
AcDbEntity
  8
BEMATING
 62
     7
100
AcDbLine
 10
37853.70147283357
 20
3175.843310124189
 30
0.0
 11
37751.94730577571
 21
3175.843310124189
 31
0.0
  0
LINE
  5
1E4
330
1D9
100
AcDbEntity
  8
BEMATING
 62
     7
100
AcDbLine
 10
37751.94730577571
 20
3286.008722413192
 30
0.0
 11
38368.46606888051
 21
3902.145572038961
 31
0.0
  0
LINE
  5
1E5
330
1D9
100
AcDbEntity
  8
BEMATING
 62
     7
100
AcDbLine
 10
39837.90725756805
 20
3930.052647141328
 30
0.0
 11
39036.59337776711
 21
3930.052647141328
 31
0.0
  0
LINE
  5
1E6
330
1D9
100
AcDbEntity
  8
BEMATING
 62
     7
100
AcDbLine
 10
38468.46606888051
 20
3930.052647141328
 30
0.0
 11
38468.46606888051
 21
3802.938706679681
 31
0.0
  0
LINE
  5
1E7
330
1D9
100
AcDbEntity
  8
BEMATING
 62
     7
100
AcDbLine
 10
39837.90725756805
 20
4086.527437894828
 30
0.0
 11
39036.59337776711
 21
4086.527437894828
 31
0.0
  0
LINE
  5
1E8
330
1D9
100
AcDbEntity
  8
BEMATING
 62
     7
100
AcDbLine
 10
38468.46606888053
 20
4086.527437894828
 30
0.0
 11
38468.46606888051
 21
4213.641378356475
 31
0.0
  0
LINE
  5
1E9
330
1D9
100
AcDbEntity
  8
BEMATING
 62
     7
100
AcDbLine
 10
37853.70147283357
 20
4840.736774911966
 30
0.0
 11
37751.94730577571
 21
4840.736774911966
 31
0.0
  0
LINE
  5
1EA
330
1D9
100
AcDbEntity
  8
BEMATING
 62
     7
100
AcDbLine
 10
37751.94730577571
 20
4840.736774911966
 30
0.0
 11
37751.94730577571
 21
4730.571362622963
 31
0.0
  0
LINE
  5
1EB
330
1D9
100
AcDbEntity
  8
BEMATING
 62
     7
100
AcDbLine
 10
39036.59337776711
 20
4086.527437894828
 30
0.0
 11
38468.46606888053
 21
4086.527437894826
 31
0.0
  0
LINE
  5
1EC
330
1D9
100
AcDbEntity
  8
BEMATING
 62
     0
100
AcDbLine
 10
39036.59337776711
 20
3930.052647141328
 30
0.0
 11
38468.46606888051
 21
3930.052647141328
 31
0.0
  0
LINE
  5
1ED
330
1D9
100
AcDbEntity
  8
BEMATING
 62
     0
100
AcDbLine
 10
39837.90725756805
 20
4086.527437894828
 30
0.0
 11
40406.0345664546
 21
4086.527437894828
 31
0.0
  0
LINE
  5
1EE
330
1D9
100
AcDbEntity
  8
BEMATING
 62
     0
100
AcDbLine
 10
39837.90725756805
 20
3930.052647141328
 30
0.0
 11
40406.03456645464
 21
3930.052647141328
 31
0.0
  0
LINE
  5
1EF
330
1D9
100
AcDbEntity
  8
BEMATING
 62
     0
100
AcDbLine
 10
37857.94123542399
 20
4624.643092793732
 30
0.0
 11
37857.94123542399
 21
3391.936992242423
 31
0.0
  0
LINE
  5
1F0
330
1D9
100
AcDbEntity
  8
BEMATING
 62
     0
100
AcDbLine
 10
38468.46606888053
 20
4086.527437894826
 30
0.0
 11
38468.46606888051
 21
3930.052647141328
 31
0.0
  0
LINE
  5
1F1
330
1D9
100
AcDbEntity
  8
BEMATING
 62
     7
100
AcDbLine
 10
41122.55332955943
 20
4730.571362622963
 30
0.0
 11
40506.03456645461
 21
4114.43451299718
 31
0.0
  0
LINE
  5
1F2
330
1D9
100
AcDbEntity
  8
BEMATING
 62
     7
100
AcDbLine
 10
40406.03456645464
 20
4213.641378356475
 30
0.0
 11
41020.79916250159
 21
4840.736774911966
 31
0.0
  0
LINE
  5
1F3
330
1D9
100
AcDbEntity
  8
BEMATING
 62
     7
100
AcDbLine
 10
40406.03456645464
 20
3802.938706679681
 30
0.0
 11
41020.79916250159
 21
3175.843310124189
 31
0.0
  0
LINE
  5
1F4
330
1D9
100
AcDbEntity
  8
BEMATING
 62
     7
100
AcDbLine
 10
41122.55332955943
 20
3175.843310124189
 30
0.0
 11
41122.55332955943
 21
3286.008722413192
 31
0.0
  0
LINE
  5
1F5
330
1D9
100
AcDbEntity
  8
BEMATING
 62
     7
100
AcDbLine
 10
41020.79916250159
 20
3175.843310124189
 30
0.0
 11
41122.55332955943
 21
3175.843310124189
 31
0.0
  0
LINE
  5
1F6
330
1D9
100
AcDbEntity
  8
BEMATING
 62
     7
100
AcDbLine
 10
41122.55332955943
 20
3286.008722413192
 30
0.0
 11
40506.03456645465
 21
3902.145572038961
 31
0.0
  0
LINE
  5
1F7
330
1D9
100
AcDbEntity
  8
BEMATING
 62
     0
100
AcDbLine
 10
41016.55939991116
 20
4624.643092793732
 30
0.0
 11
41016.55939991116
 21
3391.936992242423
 31
0.0
  0
LINE
  5
1F8
330
1D9
100
AcDbEntity
  8
BEMATING
 62
     7
100
AcDbLine
 10
41020.79916250159
 20
4840.736774911966
 30
0.0
 11
41122.55332955943
 21
4840.736774911966
 31
0.0
  0
LINE
  5
1F9
330
1D9
100
AcDbEntity
  8
BEMATING
 62
     7
100
AcDbLine
 10
41122.55332955943
 20
4840.736774911966
 30
0.0
 11
41122.55332955943
 21
4730.571362622963
 31
0.0
  0
LINE
  5
1FA
330
1D9
100
AcDbEntity
  8
BEMATING
 62
     7
100
AcDbLine
 10
40406.03456645464
 20
3930.052647141328
 30
0.0
 11
40406.03456645464
 21
3802.938706679681
 31
0.0
  0
LINE
  5
1FB
330
1D9
100
AcDbEntity
  8
BEMATING
 62
     0
100
AcDbLine
 10
40406.03456645461
 20
4086.527437894826
 30
0.0
 11
40406.03456645464
 21
3930.052647141328
 31
0.0
  0
LINE
  5
1FC
330
1D9
100
AcDbEntity
  8
BEMATING
 62
     7
100
AcDbLine
 10
40406.03456645461
 20
4086.527437894828
 30
0.0
 11
40406.03456645464
 21
4213.641378356475
 31
0.0
  0
LINE
  5
1FD
330
1D9
100
AcDbEntity
  8
BEMATING
 62
     0
100
AcDbLine
 10
38157.94123542399
 20
4324.828933112899
 30
0.0
 11
38157.94123542399
 21
3691.751151923249
 31
0.0
  0
LINE
  5
1FE
330
1D9
100
AcDbEntity
  8
BEMATING
 62
     0
100
AcDbLine
 10
40716.55939991115
 20
4324.828933112903
 30
0.0
 11
40716.55939991114
 21
3691.751151923245
 31
0.0
  0
LINE
  5
1FF
330
1D9
100
AcDbEntity
  8
BEMATING
 62
     0
100
AcDbLine
 10
38157.94123542399
 20
4324.828933112899
 30
0.0
 11
37857.94123542399
 21
4324.828933112899
 31
0.0
  0
LINE
  5
200
330
1D9
100
AcDbEntity
  8
BEMATING
 62
     0
100
AcDbLine
 10
40716.55939991115
 20
4324.828933112903
 30
0.0
 11
41016.55939991116
 21
4324.828933112903
 31
0.0
  0
LINE
  5
201
330
1D9
100
AcDbEntity
  8
BEMATING
 62
     0
100
AcDbLine
 10
40716.55939991114
 20
3691.751151923245
 30
0.0
 11
41016.55939991116
 21
3691.751151923245
 31
0.0
  0
LINE
  5
202
330
1D9
100
AcDbEntity
  8
BEMATING
 62
     0
100
AcDbLine
 10
38157.94123542399
 20
3691.751151923249
 30
0.0
 11
37857.94123542399
 21
3691.751151923249
 31
0.0
  0
LINE
  5
203
330
1D9
100
AcDbEntity
  8
BEMATING
 62
     0
100
AcDbLine
 10
40716.55939991115
 20
4224.828933112902
 30
0.0
 11
41016.55939991116
 21
4224.828933112902
 31
0.0
  0
LINE
  5
204
330
1D9
100
AcDbEntity
  8
BEMATING
 62
     0
100
AcDbLine
 10
40716.55939991114
 20
3791.751151923245
 30
0.0
 11
41016.55939991116
 21
3791.751151923245
 31
0.0
  0
LINE
  5
205
330
1D9
100
AcDbEntity
  8
BEMATING
 62
     0
100
AcDbLine
 10
40716.55939991115
 20
4124.828933112903
 30
0.0
 11
41016.55939991116
 21
4124.828933112903
 31
0.0
  0
LINE
  5
206
330
1D9
100
AcDbEntity
  8
BEMATING
 62
     0
100
AcDbLine
 10
40716.55939991114
 20
3891.751151923245
 30
0.0
 11
41016.55939991116
 21
3891.751151923245
 31
0.0
  0
LINE
  5
207
330
1D9
100
AcDbEntity
  8
BEMATING
 62
     0
100
AcDbLine
 10
38157.94123542399
 20
4224.828933112901
 30
0.0
 11
37857.94123542399
 21
4224.828933112901
 31
0.0
  0
LINE
  5
208
330
1D9
100
AcDbEntity
  8
BEMATING
 62
     0
100
AcDbLine
 10
38157.94123542399
 20
3791.75115192325
 30
0.0
 11
37857.94123542399
 21
3791.75115192325
 31
0.0
  0
LINE
  5
209
330
1D9
100
AcDbEntity
  8
BEMATING
 62
     0
100
AcDbLine
 10
38157.94123542399
 20
4124.8289331129
 30
0.0
 11
37857.94123542399
 21
4124.8289331129
 31
0.0
  0
LINE
  5
20A
330
1D9
100
AcDbEntity
  8
BEMATING
 62
     0
100
AcDbLine
 10
38157.94123542399
 20
3891.75115192325
 30
0.0
 11
37857.94123542399
 21
3891.75115192325
 31
0.0
  0
LINE
  5
20B
330
1D9
100
AcDbEntity
  8
BEMATING
 62
     0
100
AcDbLine
 10
38157.94123542399
 20
4008.290042518075
 30
0.0
 11
37857.94123542399
 21
4008.290042518075
 31
0.0
  0
LINE
  5
20C
330
1D9
100
AcDbEntity
  8
BEMATING
 62
     0
100
AcDbLine
 10
40716.55939991115
 20
4008.290042518074
 30
0.0
 11
41016.55939991116
 21
4008.290042518074
 31
0.0
  0
LINE
  5
20D
330
1D9
100
AcDbEntity
  8
BEMATING
 62
     7
100
AcDbLine
 10
40506.03456645461
 20
4086.527437894821
 30
0.0
 11
40506.03456645464
 21
4213.641378356469
 31
0.0
  0
LINE
  5
20E
330
1D9
100
AcDbEntity
  8
BEMATING
 62
     7
100
AcDbLine
 10
40506.03456645464
 20
3930.052647141328
 30
0.0
 11
40506.03456645464
 21
3802.938706679681
 31
0.0
  0
LINE
  5
20F
330
1D9
100
AcDbEntity
  8
BEMATING
 62
     0
100
AcDbLine
 10
40506.03456645461
 20
4086.527437894831
 30
0.0
 11
40506.03456645464
 21
3930.052647141333
 31
0.0
  0
LINE
  5
210
330
1D9
100
AcDbEntity
  8
BEMATING
 62
     7
100
AcDbLine
 10
38368.46606888053
 20
4086.527437894821
 30
0.0
 11
38368.46606888051
 21
4213.641378356469
 31
0.0
  0
LINE
  5
211
330
1D9
100
AcDbEntity
  8
BEMATING
 62
     0
100
AcDbLine
 10
38368.46606888053
 20
4086.527437894831
 30
0.0
 11
38368.46606888051
 21
3930.052647141333
 31
0.0
  0
LINE
  5
212
330
1D9
100
AcDbEntity
  8
BEMATING
 62
     7
100
AcDbLine
 10
38368.46606888051
 20
3930.052647141328
 30
0.0
 11
38368.46606888051
 21
3802.938706679681
 31
0.0
  0
LINE
  5
213
330
1D9
100
AcDbEntity
  8
BEMATING
 62
     0
100
AcDbLine
 10
40506.03456645464
 20
4213.641378356469
 30
0.0
 11
40406.03456645464
 21
4213.641378356475
 31
0.0
  0
LINE
  5
214
330
1D9
100
AcDbEntity
  8
BEMATING
 62
     0
100
AcDbLine
 10
40506.03456645464
 20
3802.938706679681
 30
0.0
 11
40406.03456645464
 21
3802.938706679681
 31
0.0
  0
LINE
  5
215
330
1D9
100
AcDbEntity
  8
BEMATING
 62
     0
100
AcDbLine
 10
38368.46606888051
 20
4213.641378356469
 30
0.0
 11
38468.46606888051
 21
4213.641378356475
 31
0.0
  0
LINE
  5
216
330
1D9
100
AcDbEntity
  8
BEMATING
 62
     0
100
AcDbLine
 10
38368.46606888051
 20
3802.938706679681
 30
0.0
 11
38468.46606888051
 21
3802.938706679681
 31
0.0
  0
ARC
  5
217
330
1D9
100
AcDbEntity
  8
SAF
  6
DASHED
 62
     0
 48
5.0
100
AcDbCircle
 10
37764.45850833176
 20
4826.649804749899
 30
-104.923315599824
 40
1500.0
100
AcDbArc
 50
90.0
 51
180.0
1001
AVE_FINISH
1002
{
1070
     0
1005
0
1002
}
  0
ARC
  5
218
330
1D9
100
AcDbEntity
  8
SAF
  6
DASHED
 62
     0
 48
5.0
100
AcDbCircle
 10
37764.45850833176
 20
4826.649804749899
 30
-104.923315599824
 40
1500.0
100
AcDbArc
 50
90.0
 51
180.0
1001
AVE_FINISH
1002
{
1070
     0
1005
0
1002
}
  0
LINE
  5
219
330
1D9
100
AcDbEntity
  8
SAF
  6
DASHED
 62
     0
 48
5.0
100
AcDbLine
 10
36264.45850833175
 20
4826.649804749899
 30
-104.923315599824
 11
36264.45850833175
 21
3189.930280286251
 31
-104.923315599824
1001
AVE_FINISH
1002
{
1070
     0
1005
0
1002
}
  0
ARC
  5
21A
330
1D9
100
AcDbEntity
  8
SAF
  6
DASHED
 62
     0
 48
5.0
100
AcDbCircle
 10
37764.45850833176
 20
3189.930280286251
 30
-104.923315599824
 40
1500.0
100
AcDbArc
 50
180.0
 51
273.5216897550237
1001
AVE_FINISH
1002
{
1070
     0
1005
0
1002
}
  0
LINE
  5
21B
330
1D9
100
AcDbEntity
  8
SAF
  6
DASHED
 62
     0
 48
5.0
100
AcDbLine
 10
37856.59808838826
 20
1692.76285551806
 30
-104.923315599824
 11
37856.59808838826
 21
458.2900425180763
 31
-104.923315599824
1001
AVE_FINISH
1002
{
1070
     0
1005
0
1002
}
  0
LINE
  5
21C
330
1D9
100
AcDbEntity
  8
SAF
  6
DASHED
 62
     0
 48
5.0
100
AcDbLine
 10
37856.59808838826
 20
458.2900425180763
 30
-104.923315599824
 11
41019.28526820051
 21
458.2900425180763
 31
-104.923315599824
1001
AVE_FINISH
1002
{
1070
     0
1005
0
1002
}
  0
LINE
  5
21D
330
1D9
100
AcDbEntity
  8
SAF
  6
DASHED
 62
     0
 48
5.0
100
AcDbLine
 10
41019.28526820051
 20
458.2900425180763
 30
-104.923315599824
 11
41019.28526820053
 21
1692.762855518063
 31
-104.923315599824
1001
AVE_FINISH
1002
{
1070
     0
1005
0
1002
}
  0
ARC
  5
21E
330
1D9
100
AcDbEntity
  8
SAF
  6
DASHED
 62
     0
 48
5.0
100
AcDbCircle
 10
41111.42484825702
 20
3189.930280286253
 30
-104.923315599824
 40
1500.0
100
AcDbArc
 50
266.4783102449765
 51
0.0
1001
AVE_FINISH
1002
{
1070
     0
1005
0
1002
}
  0
LINE
  5
21F
330
1D9
100
AcDbEntity
  8
SAF
  6
DASHED
 62
     0
 48
5.0
100
AcDbLine
 10
42611.424848257
 20
3189.930280286253
 30
-104.923315599824
 11
42611.424848257
 21
4826.649804749899
 31
-104.923315599824
1001
AVE_FINISH
1002
{
1070
     0
1005
0
1002
}
  0
ARC
  5
220
330
1D9
100
AcDbEntity
  8
SAF
  6
DASHED
 62
     0
 48
5.0
100
AcDbCircle
 10
41111.42484825702
 20
4826.649804749899
 30
-104.923315599824
 40
1500.0
100
AcDbArc
 50
0.0
 51
93.52168975502399
1001
AVE_FINISH
1002
{
1070
     0
1005
0
1002
}
  0
LINE
  5
221
330
1D9
100
AcDbEntity
  8
SAF
  6
DASHED
 62
     0
 48
5.0
100
AcDbLine
 10
41019.28526820051
 20
6323.817229518089
 30
-104.923315599824
 11
41019.28526820051
 21
6326.6498047499
 31
-104.923315599824
1001
AVE_FINISH
1002
{
1070
     0
1005
0
1002
}
  0
LINE
  5
222
330
1D9
100
AcDbEntity
  8
SAF
  6
DASHED
 62
     0
 48
5.0
100
AcDbLine
 10
41019.28526820051
 20
6326.6498047499
 30
-104.923315599824
 11
41019.28526820051
 21
7558.290042518078
 31
-104.923315599824
1001
AVE_FINISH
1002
{
1070
     0
1005
0
1002
}
  0
LINE
  5
223
330
1D9
100
AcDbEntity
  8
SAF
  6
DASHED
 62
     0
 48
5.0
100
AcDbLine
 10
41019.28526820051
 20
7558.290042518078
 30
-104.923315599824
 11
37856.59808838826
 21
7558.290042518078
 31
-104.923315599824
1001
AVE_FINISH
1002
{
1070
     0
1005
0
1002
}
  0
LINE
  5
224
330
1D9
100
AcDbEntity
  8
SAF
  6
DASHED
 62
     0
 48
5.0
100
AcDbLine
 10
37856.59808838826
 20
7558.290042518078
 30
-104.923315599824
 11
37856.59808838825
 21
6326.6498047499
 31
-104.923315599824
1001
AVE_FINISH
1002
{
1070
     0
1005
0
1002
}
  0
LINE
  5
225
330
1D9
100
AcDbEntity
  8
SAF
  6
DASHED
 62
     0
 48
5.0
100
AcDbLine
 10
37856.59808838825
 20
6326.6498047499
 30
-104.923315599824
 11
37764.45850833176
 21
6326.649804749899
 31
-104.923315599824
1001
AVE_FINISH
1002
{
1070
     0
1005
0
1002
}
  0
ARC
  5
226
330
1D9
100
AcDbEntity
  8
SAF
 62
     0
100
AcDbCircle
 10
39437.25031766758
 20
4008.290042518078
 30
0.0
 40
500.0
100
AcDbArc
 50
189.0023393013283
 51
350.9976606986715
  0
LINE
  5
227
330
1D9
100
AcDbEntity
  8
SAF
 62
     0
100
AcDbLine
 10
39119.05226613363
 20
3690.091990984125
 30
0.0
 11
39359.01292229085
 21
3930.052647141327
 31
0.0
  0
LINE
  5
228
330
1D9
100
AcDbEntity
  8
SAF
 62
     0
100
AcDbLine
 10
39755.44836920153
 20
3690.091990984137
 30
0.0
 11
39515.48771304433
 21
3930.052647141328
 31
0.0
  0
ARC
  5
229
330
1D9
100
AcDbEntity
  8
SAF
 62
     0
100
AcDbCircle
 10
39437.25031766758
 20
4008.290042518078
 30
0.0
 40
400.0
100
AcDbArc
 50
191.2793956134424
 51
348.7206043865572
  0
LINE
  5
22A
330
1D9
100
AcDbEntity
  8
SAF
 62
     0
100
AcDbLine
 10
39359.01292229083
 20
4086.527437894828
 30
0.0
 11
39119.05226613363
 21
4326.48809405203
 31
0.0
  0
LINE
  5
22B
330
1D9
100
AcDbEntity
  8
SAF
 62
     0
100
AcDbLine
 10
39515.48771304433
 20
4086.527437894828
 30
0.0
 11
39755.44836920152
 21
4326.488094052023
 31
0.0
  0
ARC
  5
22C
330
1D9
100
AcDbEntity
  8
SAF
 62
     0
100
AcDbCircle
 10
39437.25031766758
 20
4008.290042518078
 30
0.0
 40
400.0
100
AcDbArc
 50
11.27939561344265
 51
168.7206043865573
  0
ARC
  5
22D
330
1D9
100
AcDbEntity
  8
SAF
 62
     0
100
AcDbCircle
 10
39437.25031766758
 20
4008.290042518078
 30
0.0
 40
500.0
100
AcDbArc
 50
9.002339301328413
 51
170.9976606986715
  0
LINE
  5
22E
330
1D9
100
AcDbEntity
  8
SAF
 62
     0
100
AcDbLine
 10
37751.94730577571
 20
4840.736774911966
 30
0.0
 11
38368.46606888051
 21
4213.641378356469
 31
0.0
  0
LINE
  5
22F
330
1D9
100
AcDbEntity
  8
SAF
 62
     0
100
AcDbLine
 10
38368.46606888051
 20
3802.938706679681
 30
0.0
 11
37751.94730577571
 21
3175.843310124189
 31
0.0
  0
LINE
  5
230
330
1D9
100
AcDbEntity
  8
SAF
 62
     0
100
AcDbLine
 10
41122.55332955943
 20
4840.736774911966
 30
0.0
 11
40506.03456645464
 21
4213.641378356469
 31
0.0
  0
LINE
  5
231
330
1D9
100
AcDbEntity
  8
SAF
 62
     0
100
AcDbLine
 10
40506.03456645464
 20
3802.938706679681
 30
0.0
 11
41122.55332955943
 21
3175.843310124189
 31
0.0
  0
ENDBLK
  5
1DB
330
1D9
100
AcDbEntity
  8
0
 62
     0
100
AcDbBlockEnd
  0
BLOCK
  5
248
330
237
100
AcDbEntity
  8
0
 62
     0
100
AcDbBlockBegin
  2
*U2
 70
     1
 10
0.0
 20
0.0
 30
0.0
  3
*U2
  1

  0
SOLID
  5
238
330
237
100
AcDbEntity
  8
HATCH
  6
CONTINUOUS
 62
   251
100
AcDbTrace
 10
38368.46606888053
 20
4114.434512997174
 30
0.0
 11
38368.4660688805
 21
4213.641378356468
 31
0.0
 12
37751.94730577571
 22
4730.571362622957
 32
0.0
 13
37751.94730577571
 23
4730.571362622957
 33
0.0
210
0.0
220
0.0
230
1.0
  0
SOLID
  5
239
330
237
100
AcDbEntity
  8
HATCH
  6
CONTINUOUS
 62
   251
100
AcDbTrace
 10
37751.94730577571
 20
4840.736774911968
 30
0.0
 11
37751.94730577571
 21
4730.571362622957
 31
0.0
 12
38368.4660688805
 22
4213.641378356468
 32
0.0
 13
38368.4660688805
 23
4213.641378356468
 33
0.0
210
0.0
220
0.0
230
1.0
  0
SOLID
  5
23A
330
237
100
AcDbEntity
  8
HATCH
  6
CONTINUOUS
 62
   251
100
AcDbTrace
 10
38368.46606888051
 20
3802.938706679675
 30
0.0
 11
37751.9473057757
 21
3286.008722413193
 31
0.0
 12
37751.9473057757
 22
3175.843310124186
 32
0.0
 13
37751.9473057757
 23
3175.843310124186
 33
0.0
  0
SOLID
  5
23B
330
237
100
AcDbEntity
  8
HATCH
  6
CONTINUOUS
 62
   251
100
AcDbTrace
 10
38368.46606888051
 20
3902.14557203896
 30
0.0
 11
37751.9473057757
 21
3286.008722413193
 31
0.0
 12
38368.46606888051
 22
3802.938706679675
 32
0.0
 13
38368.46606888051
 23
3802.938706679675
 33
0.0
210
0.0
220
0.0
230
1.0
  0
SOLID
  5
23C
330
237
100
AcDbEntity
  8
HATCH
  6
CONTINUOUS
 62
   251
100
AcDbTrace
 10
37751.94730577572
 20
4840.736774911965
 30
0.0
 11
38368.4660688805
 21
4213.641378356468
 31
0.0
 12
38468.46606888052
 22
4213.641378356475
 32
0.0
 13
38468.46606888052
 23
4213.641378356475
 33
0.0
210
0.0
220
0.0
230
1.0
  0
SOLID
  5
23D
330
237
100
AcDbEntity
  8
HATCH
  6
CONTINUOUS
 62
   251
100
AcDbTrace
 10
37853.70147283356
 20
4840.736774911966
 30
0.0
 11
37751.94730577572
 21
4840.736774911965
 31
0.0
 12
38468.46606888052
 22
4213.641378356475
 32
0.0
 13
38468.46606888052
 23
4213.641378356475
 33
0.0
210
0.0
220
0.0
230
1.0
  0
SOLID
  5
23E
330
237
100
AcDbEntity
  8
HATCH
  6
CONTINUOUS
 62
   251
100
AcDbTrace
 10
38468.46606888051
 20
3802.938706679681
 30
0.0
 11
37751.9473057757
 21
3175.843310124189
 31
0.0
 12
37853.70147283356
 22
3175.843310124189
 32
0.0
 13
37853.70147283356
 23
3175.843310124189
 33
0.0
210
0.0
220
0.0
230
1.0
  0
SOLID
  5
23F
330
237
100
AcDbEntity
  8
HATCH
  6
CONTINUOUS
 62
   251
100
AcDbTrace
 10
38368.46606888051
 20
3802.938706679681
 30
0.0
 11
37751.9473057757
 21
3175.843310124189
 31
0.0
 12
38468.46606888051
 22
3802.938706679681
 32
0.0
 13
38468.46606888051
 23
3802.938706679681
 33
0.0
210
0.0
220
0.0
230
1.0
  0
SOLID
  5
240
330
237
100
AcDbEntity
  8
HATCH
  6
CONTINUOUS
 62
   251
100
AcDbTrace
 10
41122.55332955943
 20
4840.736774911965
 30
0.0
 11
40406.03456645463
 21
4213.641378356475
 31
0.0
 12
40506.03456645464
 22
4213.641378356469
 32
0.0
 13
40506.03456645464
 23
4213.641378356469
 33
0.0
210
0.0
220
0.0
230
1.0
  0
SOLID
  5
241
330
237
100
AcDbEntity
  8
HATCH
  6
CONTINUOUS
 62
   251
100
AcDbTrace
 10
41020.79916250159
 20
4840.736774911967
 30
0.0
 11
40406.03456645463
 21
4213.641378356475
 31
0.0
 12
41122.55332955943
 22
4840.736774911965
 32
0.0
 13
41122.55332955943
 23
4840.736774911965
 33
0.0
210
0.0
220
0.0
230
1.0
  0
SOLID
  5
242
330
237
100
AcDbEntity
  8
HATCH
  6
CONTINUOUS
 62
   251
100
AcDbTrace
 10
40506.03456645464
 20
3802.938706679681
 30
0.0
 11
41122.55332955943
 21
3175.843310124196
 31
0.0
 12
41122.55332955943
 22
3286.008722413202
 32
0.0
 13
41122.55332955943
 23
3286.008722413202
 33
0.0
210
0.0
220
0.0
230
1.0
  0
SOLID
  5
243
330
237
100
AcDbEntity
  8
HATCH
  6
CONTINUOUS
 62
   251
100
AcDbTrace
 10
40506.03456645464
 20
3902.145572038964
 30
0.0
 11
40506.03456645464
 21
3802.938706679681
 31
0.0
 12
41122.55332955943
 22
3286.008722413202
 32
0.0
 13
41122.55332955943
 23
3286.008722413202
 33
0.0
210
0.0
220
0.0
230
1.0
  0
SOLID
  5
244
330
237
100
AcDbEntity
  8
HATCH
  6
CONTINUOUS
 62
   251
100
AcDbTrace
 10
41122.55332955943
 20
4730.571362622974
 30
0.0
 11
40506.03456645464
 21
4213.641378356471
 31
0.0
 12
40506.03456645461
 22
4114.434512997182
 32
0.0
 13
40506.03456645461
 23
4114.434512997182
 33
0.0
210
0.0
220
0.0
230
1.0
  0
SOLID
  5
245
330
237
100
AcDbEntity
  8
HATCH
  6
CONTINUOUS
 62
   251
100
AcDbTrace
 10
41122.55332955944
 20
4840.736774911977
 30
0.0
 11
40506.03456645464
 21
4213.641378356471
 31
0.0
 12
41122.55332955943
 22
4730.571362622974
 32
0.0
 13
41122.55332955943
 23
4730.571362622974
 33
0.0
210
0.0
220
0.0
230
1.0
  0
SOLID
  5
246
330
237
100
AcDbEntity
  8
HATCH
  6
CONTINUOUS
 62
   251
100
AcDbTrace
 10
41020.79916250159
 20
3175.843310124189
 30
0.0
 11
41122.55332955943
 21
3175.843310124189
 31
0.0
 12
40406.03456645464
 22
3802.938706679681
 32
0.0
 13
40406.03456645464
 23
3802.938706679681
 33
0.0
  0
SOLID
  5
247
330
237
100
AcDbEntity
  8
HATCH
  6
CONTINUOUS
 62
   251
100
AcDbTrace
 10
40506.03456645464
 20
3802.938706679681
 30
0.0
 11
40406.03456645464
 21
3802.938706679681
 31
0.0
 12
41122.55332955943
 22
3175.843310124189
 32
0.0
 13
41122.55332955943
 23
3175.843310124189
 33
0.0
  0
ENDBLK
  5
249
330
237
100
AcDbEntity
  8
0
 62
     0
100
AcDbBlockEnd
  0
BLOCK
  5
25D
330
24A
100
AcDbEntity
  8
0
 62
     0
100
AcDbBlockBegin
  2
*U3
 70
     1
 10
0.0
 20
0.0
 30
0.0
  3
*U3
  1

  0
SOLID
  5
24B
330
24A
100
AcDbEntity
  8
HATCH
  6
CONTINUOUS
 62
     1
100
AcDbTrace
 10
40506.03456645464
 20
3930.052647141328
 30
0.0
 11
40406.03456645465
 21
3802.93870667968
 31
0.0
 12
40506.03456645463
 22
3802.93870667968
 32
0.0
 13
40506.03456645463
 23
3802.93870667968
 33
0.0
210
0.0
220
0.0
230
1.0
  0
SOLID
  5
24C
330
24A
100
AcDbEntity
  8
HATCH
  6
CONTINUOUS
 62
     1
100
AcDbTrace
 10
40406.03456645464
 20
3930.052647141328
 30
0.0
 11
40406.03456645465
 21
3802.93870667968
 31
0.0
 12
40506.03456645464
 22
3930.052647141328
 32
0.0
 13
40506.03456645464
 23
3930.052647141328
 33
0.0
210
0.0
220
0.0
230
1.0
  0
SOLID
  5
24D
330
24A
100
AcDbEntity
  8
HATCH
  6
CONTINUOUS
 62
     1
100
AcDbTrace
 10
40406.03456645461
 20
4086.527437894828
 30
0.0
 11
40406.03456645464
 21
3930.052647141328
 31
0.0
 12
40506.03456645464
 22
3930.052647141328
 32
0.0
 13
40506.03456645464
 23
3930.052647141328
 33
0.0
210
0.0
220
0.0
230
1.0
  0
SOLID
  5
24E
330
24A
100
AcDbEntity
  8
HATCH
  6
CONTINUOUS
 62
     1
100
AcDbTrace
 10
40506.03456645461
 20
4086.527437894831
 30
0.0
 11
40406.03456645461
 21
4086.527437894828
 31
0.0
 12
40506.03456645464
 22
3930.052647141328
 32
0.0
 13
40506.03456645464
 23
3930.052647141328
 33
0.0
210
0.0
220
0.0
230
1.0
  0
SOLID
  5
24F
330
24A
100
AcDbEntity
  8
HATCH
  6
CONTINUOUS
 62
     1
100
AcDbTrace
 10
40506.03456645464
 20
4213.641378356468
 30
0.0
 11
40406.03456645461
 21
4086.527437894828
 31
0.0
 12
40506.03456645461
 22
4086.527437894831
 32
0.0
 13
40506.03456645461
 23
4086.527437894831
 33
0.0
210
0.0
220
0.0
230
1.0
  0
SOLID
  5
250
330
24A
100
AcDbEntity
  8
HATCH
  6
CONTINUOUS
 62
     1
100
AcDbTrace
 10
40406.03456645464
 20
4213.641378356474
 30
0.0
 11
40406.03456645461
 21
4086.527437894828
 31
0.0
 12
40506.03456645464
 22
4213.641378356468
 32
0.0
 13
40506.03456645464
 23
4213.641378356468
 33
0.0
210
0.0
220
0.0
230
1.0
  0
SOLID
  5
251
330
24A
100
AcDbEntity
  8
HATCH
  6
CONTINUOUS
 62
     1
100
AcDbTrace
 10
40406.03456645464
 20
3930.052647141328
 30
0.0
 11
40406.03456645461
 21
4086.527437894828
 31
0.0
 12
39837.90725756805
 22
3930.052647141328
 32
0.0
 13
39837.90725756805
 23
3930.052647141328
 33
0.0
  0
SOLID
  5
252
330
24A
100
AcDbEntity
  8
HATCH
  6
CONTINUOUS
 62
     1
100
AcDbTrace
 10
39837.90725756805
 20
4086.527437894828
 30
0.0
 11
39837.90725756805
 21
3930.052647141328
 31
0.0
 12
40406.03456645461
 22
4086.527437894828
 32
0.0
 13
40406.03456645461
 23
4086.527437894828
 33
0.0
210
0.0
220
0.0
230
1.0
  0
SOLID
  5
253
330
24A
100
AcDbEntity
  8
HATCH
  6
CONTINUOUS
 62
     1
100
AcDbTrace
 10
39837.90725756805
 20
3930.052647141328
 30
0.0
 11
39837.90725756805
 21
4086.527437894828
 31
0.0
 12
39036.59337776711
 22
3930.052647141328
 32
0.0
 13
39036.59337776711
 23
3930.052647141328
 33
0.0
210
0.0
220
0.0
230
1.0
  0
SOLID
  5
254
330
24A
100
AcDbEntity
  8
HATCH
  6
CONTINUOUS
 62
     1
100
AcDbTrace
 10
39036.59337776711
 20
4086.527437894828
 30
0.0
 11
39036.59337776711
 21
3930.052647141328
 31
0.0
 12
39837.90725756805
 22
4086.527437894828
 32
0.0
 13
39837.90725756805
 23
4086.527437894828
 33
0.0
210
0.0
220
0.0
230
1.0
  0
SOLID
  5
255
330
24A
100
AcDbEntity
  8
HATCH
  6
CONTINUOUS
 62
     1
100
AcDbTrace
 10
39036.59337776711
 20
3930.052647141328
 30
0.0
 11
39036.59337776711
 21
4086.527437894828
 31
0.0
 12
38468.46606888051
 22
3930.052647141328
 32
0.0
 13
38468.46606888051
 23
3930.052647141328
 33
0.0
210
0.0
220
0.0
230
1.0
  0
SOLID
  5
256
330
24A
100
AcDbEntity
  8
HATCH
  6
CONTINUOUS
 62
     1
100
AcDbTrace
 10
38468.46606888053
 20
4086.527437894826
 30
0.0
 11
38468.46606888051
 21
3930.052647141328
 31
0.0
 12
39036.59337776711
 22
4086.527437894828
 32
0.0
 13
39036.59337776711
 23
4086.527437894828
 33
0.0
210
0.0
220
0.0
230
1.0
  0
SOLID
  5
257
330
24A
100
AcDbEntity
  8
HATCH
  6
CONTINUOUS
 62
     1
100
AcDbTrace
 10
38468.46606888051
 20
3930.052647141328
 30
0.0
 11
38368.46606888051
 21
3802.938706679681
 31
0.0
 12
38468.46606888051
 22
3802.93870667968
 32
0.0
 13
38468.46606888051
 23
3802.93870667968
 33
0.0
210
0.0
220
0.0
230
1.0
  0
SOLID
  5
258
330
24A
100
AcDbEntity
  8
HATCH
  6
CONTINUOUS
 62
     1
100
AcDbTrace
 10
38368.46606888051
 20
3930.052647141333
 30
0.0
 11
38368.46606888051
 21
3802.938706679681
 31
0.0
 12
38468.46606888051
 22
3930.052647141328
 32
0.0
 13
38468.46606888051
 23
3930.052647141328
 33
0.0
210
0.0
220
0.0
230
1.0
  0
SOLID
  5
259
330
24A
100
AcDbEntity
  8
HATCH
  6
CONTINUOUS
 62
     1
100
AcDbTrace
 10
38368.46606888053
 20
4086.527437894821
 30
0.0
 11
38368.46606888051
 21
3930.052647141333
 31
0.0
 12
38468.46606888051
 22
3930.052647141328
 32
0.0
 13
38468.46606888051
 23
3930.052647141328
 33
0.0
210
0.0
220
0.0
230
1.0
  0
SOLID
  5
25A
330
24A
100
AcDbEntity
  8
HATCH
  6
CONTINUOUS
 62
     1
100
AcDbTrace
 10
38468.46606888053
 20
4086.527437894826
 30
0.0
 11
38368.46606888053
 21
4086.527437894821
 31
0.0
 12
38468.46606888051
 22
3930.052647141328
 32
0.0
 13
38468.46606888051
 23
3930.052647141328
 33
0.0
  0
SOLID
  5
25B
330
24A
100
AcDbEntity
  8
HATCH
  6
CONTINUOUS
 62
     1
100
AcDbTrace
 10
38368.46606888051
 20
4213.641378356469
 30
0.0
 11
38368.46606888053
 21
4086.527437894821
 31
0.0
 12
38468.46606888053
 22
4086.527437894826
 32
0.0
 13
38468.46606888053
 23
4086.527437894826
 33
0.0
210
0.0
220
0.0
230
1.0
  0
SOLID
  5
25C
330
24A
100
AcDbEntity
  8
HATCH
  6
CONTINUOUS
 62
     1
100
AcDbTrace
 10
38468.46606888051
 20
4213.641378356475
 30
0.0
 11
38368.46606888051
 21
4213.641378356469
 31
0.0
 12
38468.46606888053
 22
4086.527437894826
 32
0.0
 13
38468.46606888053
 23
4086.527437894826
 33
0.0
210
0.0
220
0.0
230
1.0
  0
ENDBLK
  5
25E
330
24A
100
AcDbEntity
  8
0
 62
     0
100
AcDbBlockEnd
  0
BLOCK
  5
3D0
330
25F
100
AcDbEntity
  8
0
 62
     0
100
AcDbBlockBegin
  2
*U4
 70
     1
 10
0.0
 20
0.0
 30
0.0
  3
*U4
  1

  0
SOLID
  5
260
330
25F
100
AcDbEntity
  8
HATCH
  6
CONTINUOUS
 62
     4
100
AcDbTrace
 10
39459.1043203957
 20
3508.767868270765
 30
0.0
 11
39429.9635866273
 21
3508.34314178686
 31
0.0
 12
39444.53704870786
 22
3508.34314178686
 32
0.0
 13
39444.53704870786
 23
3508.34314178686
 33
0.0
210
0.0
220
0.0
230
1.0
  0
SOLID
  5
261
330
25F
100
AcDbEntity
  8
HATCH
  6
CONTINUOUS
 62
     4
100
AcDbTrace
 10
39415.39631493946
 20
3508.767868270765
 30
0.0
 11
39429.9635866273
 21
3508.34314178686
 31
0.0
 12
39459.1043203957
 22
3508.767868270765
 32
0.0
 13
39459.1043203957
 23
3508.767868270765
 33
0.0
  0
SOLID
  5
262
330
25F
100
AcDbEntity
  8
HATCH
  6
CONTINUOUS
 62
     4
100
AcDbTrace
 10
39473.65302616439
 20
3509.616960415083
 30
0.0
 11
39415.39631493946
 21
3508.767868270765
 31
0.0
 12
39459.1043203957
 22
3508.767868270765
 32
0.0
 13
39459.1043203957
 23
3508.767868270765
 33
0.0
210
0.0
220
0.0
230
1.0
  0
SOLID
  5
263
330
25F
100
AcDbEntity
  8
HATCH
  6
CONTINUOUS
 62
     4
100
AcDbTrace
 10
39400.84760917077
 20
3509.616960415083
 30
0.0
 11
39415.39631493946
 21
3508.767868270765
 31
0.0
 12
39473.65302616439
 22
3509.616960415083
 32
0.0
 13
39473.65302616439
 23
3509.616960415083
 33
0.0
210
0.0
220
0.0
230
1.0
  0
SOLID
  5
264
330
25F
100
AcDbEntity
  8
HATCH
  6
CONTINUOUS
 62
     4
100
AcDbTrace
 10
39488.17080626005
 20
3510.889696879369
 30
0.0
 11
39400.84760917077
 21
3509.616960415083
 31
0.0
 12
39473.65302616439
 22
3509.616960415083
 32
0.0
 13
39473.65302616439
 23
3509.616960415083
 33
0.0
210
0.0
220
0.0
230
1.0
  0
SOLID
  5
265
330
25F
100
AcDbEntity
  8
HATCH
  6
CONTINUOUS
 62
     4
100
AcDbTrace
 10
39386.32982907511
 20
3510.889696879369
 30
0.0
 11
39400.84760917077
 21
3509.616960415083
 31
0.0
 12
39488.17080626005
 22
3510.889696879369
 32
0.0
 13
39488.17080626005
 23
3510.889696879369
 33
0.0
210
0.0
220
0.0
230
1.0
  0
SOLID
  5
266
330
25F
100
AcDbEntity
  8
HATCH
  6
CONTINUOUS
 62
     4
100
AcDbTrace
 10
39502.64532720149
 20
3512.584996419027
 30
0.0
 11
39386.32982907511
 21
3510.889696879369
 31
0.0
 12
39488.17080626005
 22
3510.889696879369
 32
0.0
 13
39488.17080626005
 23
3510.889696879369
 33
0.0
210
0.0
220
0.0
230
1.0
  0
SOLID
  5
267
330
25F
100
AcDbEntity
  8
HATCH
  6
CONTINUOUS
 62
     4
100
AcDbTrace
 10
39371.85530813366
 20
3512.584996419027
 30
0.0
 11
39386.32982907511
 21
3510.889696879369
 31
0.0
 12
39502.64532720149
 22
3512.584996419027
 32
0.0
 13
39502.64532720149
 23
3512.584996419027
 33
0.0
210
0.0
220
0.0
230
1.0
  0
SOLID
  5
268
330
25F
100
AcDbEntity
  8
HATCH
  6
CONTINUOUS
 62
     4
100
AcDbTrace
 10
39517.06429225806
 20
3514.701418803882
 30
0.0
 11
39371.85530813366
 21
3512.584996419027
 31
0.0
 12
39502.64532720149
 22
3512.584996419027
 32
0.0
 13
39502.64532720149
 23
3512.584996419027
 33
0.0
  0
SOLID
  5
269
330
25F
100
AcDbEntity
  8
HATCH
  6
CONTINUOUS
 62
     4
100
AcDbTrace
 10
39357.4363430771
 20
3514.701418803882
 30
0.0
 11
39371.85530813366
 21
3512.584996419027
 31
0.0
 12
39517.06429225806
 22
3514.701418803882
 32
0.0
 13
39517.06429225806
 23
3514.701418803882
 33
0.0
210
0.0
220
0.0
230
1.0
  0
SOLID
  5
26A
330
25F
100
AcDbEntity
  8
HATCH
  6
CONTINUOUS
 62
     4
100
AcDbTrace
 10
39531.4154518962
 20
3517.237166041715
 30
0.0
 11
39357.4363430771
 21
3514.701418803882
 31
0.0
 12
39517.06429225806
 22
3514.701418803882
 32
0.0
 13
39517.06429225806
 23
3514.701418803882
 33
0.0
210
0.0
220
0.0
230
1.0
  0
SOLID
  5
26B
330
25F
100
AcDbEntity
  8
HATCH
  6
CONTINUOUS
 62
     4
100
AcDbTrace
 10
39343.08518343896
 20
3517.237166041715
 30
0.0
 11
39357.4363430771
 21
3514.701418803882
 31
0.0
 12
39531.4154518962
 22
3517.237166041715
 32
0.0
 13
39531.4154518962
 23
3517.237166041715
 33
0.0
  0
SOLID
  5
26C
330
25F
100
AcDbEntity
  8
HATCH
  6
CONTINUOUS
 62
     4
100
AcDbTrace
 10
39545.686614186
 20
3520.190083905733
 30
0.0
 11
39343.08518343896
 21
3517.237166041715
 31
0.0
 12
39531.4154518962
 22
3517.237166041715
 32
0.0
 13
39531.4154518962
 23
3517.237166041715
 33
0.0
210
0.0
220
0.0
230
1.0
  0
SOLID
  5
26D
330
25F
100
AcDbEntity
  8
HATCH
  6
CONTINUOUS
 62
     4
100
AcDbTrace
 10
39328.81402114916
 20
3520.190083905733
 30
0.0
 11
39343.08518343896
 21
3517.237166041715
 31
0.0
 12
39545.686614186
 22
3520.190083905733
 32
0.0
 13
39545.686614186
 23
3520.190083905733
 33
0.0
210
0.0
220
0.0
230
1.0
  0
SOLID
  5
26E
330
25F
100
AcDbEntity
  8
HATCH
  6
CONTINUOUS
 62
     4
100
AcDbTrace
 10
39559.86565515875
 20
3523.557663764679
 30
0.0
 11
39328.81402114916
 21
3520.190083905733
 31
0.0
 12
39545.686614186
 22
3520.190083905733
 32
0.0
 13
39545.686614186
 23
3520.190083905733
 33
0.0
210
0.0
220
0.0
230
1.0
  0
SOLID
  5
26F
330
25F
100
AcDbEntity
  8
HATCH
  6
CONTINUOUS
 62
     4
100
AcDbTrace
 10
39314.6349801764
 20
3523.557663764679
 30
0.0
 11
39328.81402114916
 21
3520.190083905733
 31
0.0
 12
39559.86565515875
 22
3523.557663764679
 32
0.0
 13
39559.86565515875
 23
3523.557663764679
 33
0.0
210
0.0
220
0.0
230
1.0
  0
SOLID
  5
270
330
25F
100
AcDbEntity
  8
HATCH
  6
CONTINUOUS
 62
     4
100
AcDbTrace
 10
39573.94052910679
 20
3527.337044714024
 30
0.0
 11
39314.6349801764
 21
3523.557663764679
 31
0.0
 12
39559.86565515875
 22
3523.557663764679
 32
0.0
 13
39559.86565515875
 23
3523.557663764679
 33
0.0
210
0.0
220
0.0
230
1.0
  0
SOLID
  5
271
330
25F
100
AcDbEntity
  8
HATCH
  6
CONTINUOUS
 62
     4
100
AcDbTrace
 10
39300.56010622836
 20
3527.337044714024
 30
0.0
 11
39314.6349801764
 21
3523.557663764679
 31
0.0
 12
39573.94052910679
 22
3527.337044714024
 32
0.0
 13
39573.94052910679
 23
3527.337044714024
 33
0.0
210
0.0
220
0.0
230
1.0
  0
SOLID
  5
272
330
25F
100
AcDbEntity
  8
HATCH
  6
CONTINUOUS
 62
     4
100
AcDbTrace
 10
39587.89927881683
 20
3531.525016006428
 30
0.0
 11
39300.56010622836
 21
3527.337044714024
 31
0.0
 12
39573.94052910679
 22
3527.337044714024
 32
0.0
 13
39573.94052910679
 23
3527.337044714024
 33
0.0
210
0.0
220
0.0
230
1.0
  0
SOLID
  5
273
330
25F
100
AcDbEntity
  8
HATCH
  6
CONTINUOUS
 62
     4
100
AcDbTrace
 10
39286.60135651833
 20
3531.525016006428
 30
0.0
 11
39300.56010622836
 21
3527.337044714024
 31
0.0
 12
39587.89927881683
 22
3531.525016006428
 32
0.0
 13
39587.89927881683
 23
3531.525016006428
 33
0.0
210
0.0
220
0.0
230
1.0
  0
SOLID
  5
274
330
25F
100
AcDbEntity
  8
HATCH
  6
CONTINUOUS
 62
     4
100
AcDbTrace
 10
39601.73004572813
 20
3536.118019779407
 30
0.0
 11
39286.60135651833
 21
3531.525016006428
 31
0.0
 12
39587.89927881683
 22
3531.525016006428
 32
0.0
 13
39587.89927881683
 23
3531.525016006428
 33
0.0
210
0.0
220
0.0
230
1.0
  0
SOLID
  5
275
330
25F
100
AcDbEntity
  8
HATCH
  6
CONTINUOUS
 62
     4
100
AcDbTrace
 10
39272.77058960702
 20
3536.118019779407
 30
0.0
 11
39286.60135651833
 21
3531.525016006428
 31
0.0
 12
39601.73004572813
 22
3536.118019779407
 32
0.0
 13
39601.73004572813
 23
3536.118019779407
 33
0.0
210
0.0
220
0.0
230
1.0
  0
SOLID
  5
276
330
25F
100
AcDbEntity
  8
HATCH
  6
CONTINUOUS
 62
     4
100
AcDbTrace
 10
39615.42108000689
 20
3541.112154077893
 30
0.0
 11
39272.77058960702
 21
3536.118019779407
 31
0.0
 12
39601.73004572813
 22
3536.118019779407
 32
0.0
 13
39601.73004572813
 23
3536.118019779407
 33
0.0
210
0.0
220
0.0
230
1.0
  0
SOLID
  5
277
330
25F
100
AcDbEntity
  8
HATCH
  6
CONTINUOUS
 62
     4
100
AcDbTrace
 10
39259.07955532826
 20
3541.112154077894
 30
0.0
 11
39272.77058960702
 21
3536.118019779407
 31
0.0
 12
39615.42108000689
 22
3541.112154077893
 32
0.0
 13
39615.42108000689
 23
3541.112154077893
 33
0.0
210
0.0
220
0.0
230
1.0
  0
SOLID
  5
278
330
25F
100
AcDbEntity
  8
HATCH
  6
CONTINUOUS
 62
     4
100
AcDbTrace
 10
39628.9607505282
 20
3546.503176169113
 30
0.0
 11
39259.07955532826
 21
3541.112154077894
 31
0.0
 12
39615.42108000689
 22
3541.112154077893
 32
0.0
 13
39615.42108000689
 23
3541.112154077893
 33
0.0
210
0.0
220
0.0
230
1.0
  0
SOLID
  5
279
330
25F
100
AcDbEntity
  8
HATCH
  6
CONTINUOUS
 62
     4
100
AcDbTrace
 10
39245.53988480696
 20
3546.503176169114
 30
0.0
 11
39259.07955532826
 21
3541.112154077894
 31
0.0
 12
39628.9607505282
 22
3546.503176169113
 32
0.0
 13
39628.9607505282
 23
3546.503176169113
 33
0.0
210
0.0
220
0.0
230
1.0
  0
SOLID
  5
27A
330
25F
100
AcDbEntity
  8
HATCH
  6
CONTINUOUS
 62
     4
100
AcDbTrace
 10
39642.33755475719
 20
3552.286506146973
 30
0.0
 11
39245.53988480696
 21
3546.503176169114
 31
0.0
 12
39628.9607505282
 22
3546.503176169113
 32
0.0
 13
39628.9607505282
 23
3546.503176169113
 33
0.0
210
0.0
220
0.0
230
1.0
  0
SOLID
  5
27B
330
25F
100
AcDbEntity
  8
HATCH
  6
CONTINUOUS
 62
     4
100
AcDbTrace
 10
39232.16308057797
 20
3552.286506146973
 30
0.0
 11
39245.53988480696
 21
3546.503176169114
 31
0.0
 12
39642.33755475719
 22
3552.286506146973
 32
0.0
 13
39642.33755475719
 23
3552.286506146973
 33
0.0
210
0.0
220
0.0
230
1.0
  0
SOLID
  5
27C
330
25F
100
AcDbEntity
  8
HATCH
  6
CONTINUOUS
 62
     4
100
AcDbTrace
 10
39655.54012852095
 20
3558.457230822886
 30
0.0
 11
39232.16308057797
 21
3552.286506146973
 31
0.0
 12
39642.33755475719
 22
3552.286506146973
 32
0.0
 13
39642.33755475719
 23
3552.286506146973
 33
0.0
  0
SOLID
  5
27D
330
25F
100
AcDbEntity
  8
HATCH
  6
CONTINUOUS
 62
     4
100
AcDbTrace
 10
39218.96050681421
 20
3558.457230822886
 30
0.0
 11
39232.16308057797
 21
3552.286506146973
 31
0.0
 12
39655.54012852095
 22
3558.457230822886
 32
0.0
 13
39655.54012852095
 23
3558.457230822886
 33
0.0
  0
SOLID
  5
27E
330
25F
100
AcDbEntity
  8
HATCH
  6
CONTINUOUS
 62
     4
100
AcDbTrace
 10
39668.55725566288
 20
3565.010107899737
 30
0.0
 11
39218.96050681421
 21
3558.457230822886
 31
0.0
 12
39655.54012852095
 22
3558.457230822886
 32
0.0
 13
39655.54012852095
 23
3558.457230822886
 33
0.0
210
0.0
220
0.0
230
1.0
  0
SOLID
  5
27F
330
25F
100
AcDbEntity
  8
HATCH
  6
CONTINUOUS
 62
     4
100
AcDbTrace
 10
39205.94337967228
 20
3565.010107899737
 30
0.0
 11
39218.96050681421
 21
3558.457230822886
 31
0.0
 12
39668.55725566288
 22
3565.010107899737
 32
0.0
 13
39668.55725566288
 23
3565.010107899737
 33
0.0
  0
SOLID
  5
280
330
25F
100
AcDbEntity
  8
HATCH
  6
CONTINUOUS
 62
     4
100
AcDbTrace
 10
39681.37787757129
 20
3571.939570425444
 30
0.0
 11
39205.94337967228
 21
3565.010107899737
 31
0.0
 12
39668.55725566288
 22
3565.010107899737
 32
0.0
 13
39668.55725566288
 23
3565.010107899737
 33
0.0
210
0.0
220
0.0
230
1.0
  0
SOLID
  5
281
330
25F
100
AcDbEntity
  8
HATCH
  6
CONTINUOUS
 62
     4
100
AcDbTrace
 10
39193.12275776387
 20
3571.939570425444
 30
0.0
 11
39205.94337967228
 21
3565.010107899737
 31
0.0
 12
39681.37787757129
 22
3571.939570425444
 32
0.0
 13
39681.37787757129
 23
3571.939570425444
 33
0.0
  0
SOLID
  5
282
330
25F
100
AcDbEntity
  8
HATCH
  6
CONTINUOUS
 62
     4
100
AcDbTrace
 10
39693.99110257417
 20
3579.239731522322
 30
0.0
 11
39193.12275776387
 21
3571.939570425444
 31
0.0
 12
39681.37787757129
 22
3571.939570425444
 32
0.0
 13
39681.37787757129
 23
3571.939570425444
 33
0.0
210
0.0
220
0.0
230
1.0
  0
SOLID
  5
283
330
25F
100
AcDbEntity
  8
HATCH
  6
CONTINUOUS
 62
     4
100
AcDbTrace
 10
39180.50953276099
 20
3579.239731522322
 30
0.0
 11
39193.12275776387
 21
3571.939570425444
 31
0.0
 12
39693.99110257417
 22
3579.239731522322
 32
0.0
 13
39693.99110257417
 23
3579.239731522322
 33
0.0
210
0.0
220
0.0
230
1.0
  0
SOLID
  5
284
330
25F
100
AcDbEntity
  8
HATCH
  6
CONTINUOUS
 62
     4
100
AcDbTrace
 10
39706.38621519213
 20
3586.904389388238
 30
0.0
 11
39180.50953276099
 21
3579.239731522322
 31
0.0
 12
39693.99110257417
 22
3579.239731522322
 32
0.0
 13
39693.99110257417
 23
3579.239731522322
 33
0.0
210
0.0
220
0.0
230
1.0
  0
SOLID
  5
285
330
25F
100
AcDbEntity
  8
HATCH
  6
CONTINUOUS
 62
     4
100
AcDbTrace
 10
39168.11442014303
 20
3586.904389388238
 30
0.0
 11
39180.50953276099
 21
3579.239731522322
 31
0.0
 12
39706.38621519213
 22
3586.904389388238
 32
0.0
 13
39706.38621519213
 23
3586.904389388238
 33
0.0
210
0.0
220
0.0
230
1.0
  0
SOLID
  5
286
330
25F
100
AcDbEntity
  8
HATCH
  6
CONTINUOUS
 62
     4
100
AcDbTrace
 10
39718.55268524168
 20
3594.927032565315
 30
0.0
 11
39168.11442014303
 21
3586.904389388238
 31
0.0
 12
39706.38621519213
 22
3586.904389388238
 32
0.0
 13
39706.38621519213
 23
3586.904389388238
 33
0.0
210
0.0
220
0.0
230
1.0
  0
SOLID
  5
287
330
25F
100
AcDbEntity
  8
HATCH
  6
CONTINUOUS
 62
     4
100
AcDbTrace
 10
39155.94795009347
 20
3594.927032565315
 30
0.0
 11
39168.11442014303
 21
3586.904389388238
 31
0.0
 12
39718.55268524168
 22
3594.927032565315
 32
0.0
 13
39718.55268524168
 23
3594.927032565315
 33
0.0
210
0.0
220
0.0
230
1.0
  0
SOLID
  5
288
330
25F
100
AcDbEntity
  8
HATCH
  6
CONTINUOUS
 62
     4
100
AcDbTrace
 10
39730.48017678108
 20
3603.30084547169
 30
0.0
 11
39155.94795009347
 21
3594.927032565315
 31
0.0
 12
39718.55268524168
 22
3594.927032565315
 32
0.0
 13
39718.55268524168
 23
3594.927032565315
 33
0.0
210
0.0
220
0.0
230
1.0
  0
SOLID
  5
289
330
25F
100
AcDbEntity
  8
HATCH
  6
CONTINUOUS
 62
     4
100
AcDbTrace
 10
39144.02045855407
 20
3603.30084547169
 30
0.0
 11
39155.94795009347
 21
3594.927032565315
 31
0.0
 12
39730.48017678108
 22
3603.30084547169
 32
0.0
 13
39730.48017678108
 23
3603.30084547169
 33
0.0
210
0.0
220
0.0
230
1.0
  0
SOLID
  5
28A
330
25F
100
AcDbEntity
  8
HATCH
  6
CONTINUOUS
 62
     4
100
AcDbTrace
 10
39437.25031766758
 20
3608.29004251808
 30
0.0
 11
39144.02045855407
 21
3603.30084547169
 31
0.0
 12
39730.48017678108
 22
3603.30084547169
 32
0.0
 13
39730.48017678108
 23
3603.30084547169
 33
0.0
210
0.0
220
0.0
230
1.0
  0
SOLID
  5
28B
330
25F
100
AcDbEntity
  8
HATCH
  6
CONTINUOUS
 62
     4
100
AcDbTrace
 10
39424.47171332669
 20
3608.49421053493
 30
0.0
 11
39144.02045855407
 21
3603.30084547169
 31
0.0
 12
39437.25031766758
 22
3608.29004251808
 32
0.0
 13
39437.25031766758
 23
3608.29004251808
 33
0.0
210
0.0
220
0.0
230
1.0
  0
SOLID
  5
28C
330
25F
100
AcDbEntity
  8
HATCH
  6
CONTINUOUS
 62
     4
100
AcDbTrace
 10
39450.02892200847
 20
3608.49421053493
 30
0.0
 11
39437.25031766758
 21
3608.29004251808
 31
0.0
 12
39730.48017678108
 22
3603.30084547169
 32
0.0
 13
39730.48017678108
 23
3603.30084547169
 33
0.0
210
0.0
220
0.0
230
1.0
  0
SOLID
  5
28D
330
25F
100
AcDbEntity
  8
HATCH
  6
CONTINUOUS
 62
     4
100
AcDbTrace
 10
39411.70615389735
 20
3609.106506162584
 30
0.0
 11
39144.02045855407
 21
3603.30084547169
 31
0.0
 12
39424.47171332669
 22
3608.49421053493
 32
0.0
 13
39424.47171332669
 23
3608.49421053493
 33
0.0
210
0.0
220
0.0
230
1.0
  0
SOLID
  5
28E
330
25F
100
AcDbEntity
  8
HATCH
  6
CONTINUOUS
 62
     4
100
AcDbTrace
 10
39462.79448143781
 20
3609.106506162584
 30
0.0
 11
39450.02892200847
 21
3608.49421053493
 31
0.0
 12
39730.48017678108
 22
3603.30084547169
 32
0.0
 13
39730.48017678108
 23
3603.30084547169
 33
0.0
210
0.0
220
0.0
230
1.0
  0
SOLID
  5
28F
330
25F
100
AcDbEntity
  8
HATCH
  6
CONTINUOUS
 62
     4
100
AcDbTrace
 10
39398.96667097429
 20
3610.126304345122
 30
0.0
 11
39144.02045855407
 21
3603.30084547169
 31
0.0
 12
39411.70615389735
 22
3609.106506162584
 32
0.0
 13
39411.70615389735
 23
3609.106506162584
 33
0.0
210
0.0
220
0.0
230
1.0
  0
SOLID
  5
290
330
25F
100
AcDbEntity
  8
HATCH
  6
CONTINUOUS
 62
     4
100
AcDbTrace
 10
39475.53396436087
 20
3610.126304345122
 30
0.0
 11
39462.79448143781
 21
3609.106506162584
 31
0.0
 12
39730.48017678108
 22
3603.30084547169
 32
0.0
 13
39730.48017678108
 23
3603.30084547169
 33
0.0
210
0.0
220
0.0
230
1.0
  0
SOLID
  5
291
330
25F
100
AcDbEntity
  8
HATCH
  6
CONTINUOUS
 62
     4
100
AcDbTrace
 10
39386.26626953235
 20
3611.552564031682
 30
0.0
 11
39144.02045855407
 21
3603.30084547169
 31
0.0
 12
39398.96667097429
 22
3610.126304345122
 32
0.0
 13
39398.96667097429
 23
3610.126304345122
 33
0.0
210
0.0
220
0.0
230
1.0
  0
SOLID
  5
292
330
25F
100
AcDbEntity
  8
HATCH
  6
CONTINUOUS
 62
     4
100
AcDbTrace
 10
39488.23436580281
 20
3611.552564031682
 30
0.0
 11
39475.53396436087
 21
3610.126304345122
 31
0.0
 12
39730.48017678108
 22
3603.30084547169
 32
0.0
 13
39730.48017678108
 23
3603.30084547169
 33
0.0
210
0.0
220
0.0
230
1.0
  0
SOLID
  5
293
330
25F
100
AcDbEntity
  8
HATCH
  6
CONTINUOUS
 62
     4
100
AcDbTrace
 10
39742.15855689114
 20
3612.018714191652
 30
0.0
 11
39488.23436580281
 21
3611.552564031682
 31
0.0
 12
39730.48017678108
 22
3603.30084547169
 32
0.0
 13
39730.48017678108
 23
3603.30084547169
 33
0.0
210
0.0
220
0.0
230
1.0
  0
SOLID
  5
294
330
25F
100
AcDbEntity
  8
HATCH
  6
CONTINUOUS
 62
     4
100
AcDbTrace
 10
39132.34207844401
 20
3612.018714191652
 30
0.0
 11
39144.02045855407
 21
3603.30084547169
 31
0.0
 12
39386.26626953235
 22
3611.552564031682
 32
0.0
 13
39386.26626953235
 23
3611.552564031682
 33
0.0
210
0.0
220
0.0
230
1.0
  0
SOLID
  5
295
330
25F
100
AcDbEntity
  8
HATCH
  6
CONTINUOUS
 62
     4
100
AcDbTrace
 10
39373.6179146504
 20
3613.383829239205
 30
0.0
 11
39132.34207844401
 21
3612.018714191652
 31
0.0
 12
39386.26626953235
 22
3611.552564031682
 32
0.0
 13
39386.26626953235
 23
3611.552564031682
 33
0.0
210
0.0
220
0.0
230
1.0
  0
SOLID
  5
296
330
25F
100
AcDbEntity
  8
HATCH
  6
CONTINUOUS
 62
     4
100
AcDbTrace
 10
39500.88272068475
 20
3613.383829239205
 30
0.0
 11
39488.23436580281
 21
3611.552564031682
 31
0.0
 12
39742.15855689114
 22
3612.018714191652
 32
0.0
 13
39742.15855689114
 23
3612.018714191652
 33
0.0
210
0.0
220
0.0
230
1.0
  0
SOLID
  5
297
330
25F
100
AcDbEntity
  8
HATCH
  6
CONTINUOUS
 62
     4
100
AcDbTrace
 10
39361.03451827612
 20
3615.618230538762
 30
0.0
 11
39132.34207844401
 21
3612.018714191652
 31
0.0
 12
39373.6179146504
 22
3613.383829239205
 32
0.0
 13
39373.6179146504
 23
3613.383829239205
 33
0.0
210
0.0
220
0.0
230
1.0
  0
SOLID
  5
298
330
25F
100
AcDbEntity
  8
HATCH
  6
CONTINUOUS
 62
     4
100
AcDbTrace
 10
39513.46611705904
 20
3615.618230538762
 30
0.0
 11
39500.88272068475
 21
3613.383829239205
 31
0.0
 12
39742.15855689114
 22
3612.018714191652
 32
0.0
 13
39742.15855689114
 23
3612.018714191652
 33
0.0
210
0.0
220
0.0
230
1.0
  0
SOLID
  5
299
330
25F
100
AcDbEntity
  8
HATCH
  6
CONTINUOUS
 62
     4
100
AcDbTrace
 10
39348.52892604491
 20
3618.253486963943
 30
0.0
 11
39132.34207844401
 21
3612.018714191652
 31
0.0
 12
39361.03451827612
 22
3615.618230538762
 32
0.0
 13
39361.03451827612
 23
3615.618230538762
 33
0.0
210
0.0
220
0.0
230
1.0
  0
SOLID
  5
29A
330
25F
100
AcDbEntity
  8
HATCH
  6
CONTINUOUS
 62
     4
100
AcDbTrace
 10
39525.97170929026
 20
3618.253486963943
 30
0.0
 11
39513.46611705904
 21
3615.618230538762
 31
0.0
 12
39742.15855689114
 22
3612.018714191652
 32
0.0
 13
39742.15855689114
 23
3612.018714191652
 33
0.0
210
0.0
220
0.0
230
1.0
  0
SOLID
  5
29B
330
25F
100
AcDbEntity
  8
HATCH
  6
CONTINUOUS
 62
     4
100
AcDbTrace
 10
39753.57790428358
 20
3621.073232519214
 30
0.0
 11
39525.97170929026
 21
3618.253486963943
 31
0.0
 12
39742.15855689114
 22
3612.018714191652
 32
0.0
 13
39742.15855689114
 23
3612.018714191652
 33
0.0
  0
SOLID
  5
29C
330
25F
100
AcDbEntity
  8
HATCH
  6
CONTINUOUS
 62
     4
100
AcDbTrace
 10
39120.92273105157
 20
3621.073232519214
 30
0.0
 11
39132.34207844401
 21
3612.018714191652
 31
0.0
 12
39348.52892604491
 22
3618.253486963943
 32
0.0
 13
39348.52892604491
 23
3618.253486963943
 33
0.0
210
0.0
220
0.0
230
1.0
  0
SOLID
  5
29D
330
25F
100
AcDbEntity
  8
HATCH
  6
CONTINUOUS
 62
     4
100
AcDbTrace
 10
39336.11390416658
 20
3621.286908339355
 30
0.0
 11
39120.92273105157
 21
3621.073232519214
 31
0.0
 12
39348.52892604491
 22
3618.253486963943
 32
0.0
 13
39348.52892604491
 23
3618.253486963943
 33
0.0
210
0.0
220
0.0
230
1.0
  0
SOLID
  5
29E
330
25F
100
AcDbEntity
  8
HATCH
  6
CONTINUOUS
 62
     4
100
AcDbTrace
 10
39538.38673116857
 20
3621.286908339355
 30
0.0
 11
39525.97170929026
 21
3618.253486963943
 31
0.0
 12
39753.57790428358
 22
3621.073232519214
 32
0.0
 13
39753.57790428358
 23
3621.073232519214
 33
0.0
210
0.0
220
0.0
230
1.0
  0
SOLID
  5
29F
330
25F
100
AcDbEntity
  8
HATCH
  6
CONTINUOUS
 62
     4
100
AcDbTrace
 10
39550.69850894201
 20
3624.715398026868
 30
0.0
 11
39538.38673116857
 21
3621.286908339355
 31
0.0
 12
39753.57790428358
 22
3621.073232519214
 32
0.0
 13
39753.57790428358
 23
3621.073232519214
 33
0.0
210
0.0
220
0.0
230
1.0
  0
SOLID
  5
2A0
330
25F
100
AcDbEntity
  8
HATCH
  6
CONTINUOUS
 62
     4
100
AcDbTrace
 10
39323.80212639315
 20
3624.715398026868
 30
0.0
 11
39120.92273105157
 21
3621.073232519214
 31
0.0
 12
39336.11390416658
 22
3621.286908339355
 32
0.0
 13
39336.11390416658
 23
3621.286908339355
 33
0.0
210
0.0
220
0.0
230
1.0
  0
SOLID
  5
2A1
330
25F
100
AcDbEntity
  8
HATCH
  6
CONTINUOUS
 62
     4
100
AcDbTrace
 10
39562.89447425431
 20
3628.535456086779
 30
0.0
 11
39550.69850894201
 21
3624.715398026868
 31
0.0
 12
39753.57790428358
 22
3621.073232519214
 32
0.0
 13
39753.57790428358
 23
3621.073232519214
 33
0.0
210
0.0
220
0.0
230
1.0
  0
SOLID
  5
2A2
330
25F
100
AcDbEntity
  8
HATCH
  6
CONTINUOUS
 62
     4
100
AcDbTrace
 10
39311.60616108084
 20
3628.535456086779
 30
0.0
 11
39120.92273105157
 21
3621.073232519214
 31
0.0
 12
39323.80212639315
 22
3624.715398026868
 32
0.0
 13
39323.80212639315
 23
3624.715398026868
 33
0.0
  0
SOLID
  5
2A3
330
25F
100
AcDbEntity
  8
HATCH
  6
CONTINUOUS
 62
     4
100
AcDbTrace
 10
39764.72851772962
 20
3630.456708250011
 30
0.0
 11
39562.89447425431
 21
3628.535456086779
 31
0.0
 12
39753.57790428358
 22
3621.073232519214
 32
0.0
 13
39753.57790428358
 23
3621.073232519214
 33
0.0
210
0.0
220
0.0
230
1.0
  0
SOLID
  5
2A4
330
25F
100
AcDbEntity
  8
HATCH
  6
CONTINUOUS
 62
     4
100
AcDbTrace
 10
39109.77211760553
 20
3630.456708250011
 30
0.0
 11
39120.92273105157
 21
3621.073232519214
 31
0.0
 12
39311.60616108084
 22
3628.535456086779
 32
0.0
 13
39311.60616108084
 23
3628.535456086779
 33
0.0
210
0.0
220
0.0
230
1.0
  0
SOLID
  5
2A5
330
25F
100
AcDbEntity
  8
HATCH
  6
CONTINUOUS
 62
     4
100
AcDbTrace
 10
39299.53845835994
 20
3632.743182850696
 30
0.0
 11
39109.77211760553
 21
3630.456708250011
 31
0.0
 12
39311.60616108084
 22
3628.535456086779
 32
0.0
 13
39311.60616108084
 23
3628.535456086779
 33
0.0
210
0.0
220
0.0
230
1.0
  0
SOLID
  5
2A6
330
25F
100
AcDbEntity
  8
HATCH
  6
CONTINUOUS
 62
     4
100
AcDbTrace
 10
39574.96217697522
 20
3632.743182850696
 30
0.0
 11
39562.89447425431
 21
3628.535456086779
 31
0.0
 12
39764.72851772962
 22
3630.456708250011
 32
0.0
 13
39764.72851772962
 23
3630.456708250011
 33
0.0
  0
SOLID
  5
2A7
330
25F
100
AcDbEntity
  8
HATCH
  6
CONTINUOUS
 62
     4
100
AcDbTrace
 10
39287.6113374251
 20
3637.334282902477
 30
0.0
 11
39109.77211760553
 21
3630.456708250011
 31
0.0
 12
39299.53845835994
 22
3632.743182850696
 32
0.0
 13
39299.53845835994
 23
3632.743182850696
 33
0.0
210
0.0
220
0.0
230
1.0
  0
SOLID
  5
2A8
330
25F
100
AcDbEntity
  8
HATCH
  6
CONTINUOUS
 62
     4
100
AcDbTrace
 10
39586.88929791006
 20
3637.334282902477
 30
0.0
 11
39574.96217697522
 21
3632.743182850696
 31
0.0
 12
39764.72851772962
 22
3630.456708250011
 32
0.0
 13
39764.72851772962
 23
3630.456708250011
 33
0.0
210
0.0
220
0.0
230
1.0
  0
SOLID
  5
2A9
330
25F
100
AcDbEntity
  8
HATCH
  6
CONTINUOUS
 62
     4
100
AcDbTrace
 10
39098.89971103359
 20
3640.161169716155
 30
0.0
 11
39109.77211760553
 21
3630.456708250011
 31
0.0
 12
39287.6113374251
 22
3637.334282902477
 32
0.0
 13
39287.6113374251
 23
3637.334282902477
 33
0.0
210
0.0
220
0.0
230
1.0
  0
SOLID
  5
2AA
330
25F
100
AcDbEntity
  8
HATCH
  6
CONTINUOUS
 62
     4
100
AcDbTrace
 10
39775.60092430157
 20
3640.161169716156
 30
0.0
 11
39586.88929791006
 21
3637.334282902477
 31
0.0
 12
39764.72851772962
 22
3630.456708250011
 32
0.0
 13
39764.72851772962
 23
3630.456708250011
 33
0.0
210
0.0
220
0.0
230
1.0
  0
SOLID
  5
2AB
330
25F
100
AcDbEntity
  8
HATCH
  6
CONTINUOUS
 62
     4
100
AcDbTrace
 10
39275.83697395945
 20
3642.304069463156
 30
0.0
 11
39098.89971103359
 21
3640.161169716155
 31
0.0
 12
39287.6113374251
 22
3637.334282902477
 32
0.0
 13
39287.6113374251
 23
3637.334282902477
 33
0.0
210
0.0
220
0.0
230
1.0
  0
SOLID
  5
2AC
330
25F
100
AcDbEntity
  8
HATCH
  6
CONTINUOUS
 62
     4
100
AcDbTrace
 10
39598.66366137571
 20
3642.304069463156
 30
0.0
 11
39586.88929791006
 21
3637.334282902477
 31
0.0
 12
39775.60092430157
 22
3640.161169716156
 32
0.0
 13
39775.60092430157
 23
3640.161169716156
 33
0.0
  0
SOLID
  5
2AD
330
25F
100
AcDbEntity
  8
HATCH
  6
CONTINUOUS
 62
     4
100
AcDbTrace
 10
39264.22738770519
 20
3647.647469175403
 30
0.0
 11
39098.89971103359
 21
3640.161169716155
 31
0.0
 12
39275.83697395945
 22
3642.304069463156
 32
0.0
 13
39275.83697395945
 23
3642.304069463156
 33
0.0
210
0.0
220
0.0
230
1.0
  0
SOLID
  5
2AE
330
25F
100
AcDbEntity
  8
HATCH
  6
CONTINUOUS
 62
     4
100
AcDbTrace
 10
39610.27324762997
 20
3647.647469175403
 30
0.0
 11
39598.66366137571
 21
3642.304069463156
 31
0.0
 12
39775.60092430157
 22
3640.161169716156
 32
0.0
 13
39775.60092430157
 23
3640.161169716156
 33
0.0
210
0.0
220
0.0
230
1.0
  0
SOLID
  5
2AF
330
25F
100
AcDbEntity
  8
HATCH
  6
CONTINUOUS
 62
     4
100
AcDbTrace
 10
39786.18588742047
 20
3650.178372558515
 30
0.0
 11
39610.27324762997
 21
3647.647469175403
 31
0.0
 12
39775.60092430157
 22
3640.161169716156
 32
0.0
 13
39775.60092430157
 23
3640.161169716156
 33
0.0
210
0.0
220
0.0
230
1.0
  0
SOLID
  5
2B0
330
25F
100
AcDbEntity
  8
HATCH
  6
CONTINUOUS
 62
     4
100
AcDbTrace
 10
39088.31474791469
 20
3650.178372558515
 30
0.0
 11
39098.89971103359
 21
3640.161169716155
 31
0.0
 12
39264.22738770519
 22
3647.647469175403
 32
0.0
 13
39264.22738770519
 23
3647.647469175403
 33
0.0
210
0.0
220
0.0
230
1.0
  0
SOLID
  5
2B1
330
25F
100
AcDbEntity
  8
HATCH
  6
CONTINUOUS
 62
     4
100
AcDbTrace
 10
39252.79443019333
 20
3653.359027282604
 30
0.0
 11
39088.31474791469
 21
3650.178372558515
 31
0.0
 12
39264.22738770519
 22
3647.647469175403
 32
0.0
 13
39264.22738770519
 23
3647.647469175403
 33
0.0
210
0.0
220
0.0
230
1.0
  0
SOLID
  5
2B2
330
25F
100
AcDbEntity
  8
HATCH
  6
CONTINUOUS
 62
     4
100
AcDbTrace
 10
39621.70620514183
 20
3653.359027282604
 30
0.0
 11
39610.27324762997
 21
3647.647469175403
 31
0.0
 12
39786.18588742047
 22
3650.178372558515
 32
0.0
 13
39786.18588742047
 23
3650.178372558515
 33
0.0
210
0.0
220
0.0
230
1.0
  0
SOLID
  5
2B3
330
25F
100
AcDbEntity
  8
HATCH
  6
CONTINUOUS
 62
     4
100
AcDbTrace
 10
39632.95086268998
 20
3659.432913197301
 30
0.0
 11
39621.70620514183
 21
3653.359027282604
 31
0.0
 12
39786.18588742047
 22
3650.178372558515
 32
0.0
 13
39786.18588742047
 23
3650.178372558515
 33
0.0
210
0.0
220
0.0
230
1.0
  0
SOLID
  5
2B4
330
25F
100
AcDbEntity
  8
HATCH
  6
CONTINUOUS
 62
     4
100
AcDbTrace
 10
39241.54977264518
 20
3659.432913197301
 30
0.0
 11
39088.31474791469
 21
3650.178372558515
 31
0.0
 12
39252.79443019333
 22
3653.359027282604
 32
0.0
 13
39252.79443019333
 23
3653.359027282604
 33
0.0
210
0.0
220
0.0
230
1.0
  0
SOLID
  5
2B5
330
25F
100
AcDbEntity
  8
HATCH
  6
CONTINUOUS
 62
     4
100
AcDbTrace
 10
39796.47441470302
 20
3660.49980673065
 30
0.0
 11
39632.95086268998
 21
3659.432913197301
 31
0.0
 12
39786.18588742047
 22
3650.178372558515
 32
0.0
 13
39786.18588742047
 23
3650.178372558515
 33
0.0
210
0.0
220
0.0
230
1.0
  0
SOLID
  5
2B6
330
25F
100
AcDbEntity
  8
HATCH
  6
CONTINUOUS
 62
     4
100
AcDbTrace
 10
39078.02622063214
 20
3660.49980673065
 30
0.0
 11
39088.31474791469
 21
3650.178372558515
 31
0.0
 12
39241.54977264518
 22
3659.432913197301
 32
0.0
 13
39241.54977264518
 23
3659.432913197301
 33
0.0
210
0.0
220
0.0
230
1.0
  0
SOLID
  5
2B7
330
25F
100
AcDbEntity
  8
HATCH
  6
CONTINUOUS
 62
     4
100
AcDbTrace
 10
39230.5048940579
 20
3665.862926453285
 30
0.0
 11
39078.02622063214
 21
3660.49980673065
 31
0.0
 12
39241.54977264518
 22
3659.432913197301
 32
0.0
 13
39241.54977264518
 23
3659.432913197301
 33
0.0
210
0.0
220
0.0
230
1.0
  0
SOLID
  5
2B8
330
25F
100
AcDbEntity
  8
HATCH
  6
CONTINUOUS
 62
     4
100
AcDbTrace
 10
39643.99574127726
 20
3665.862926453285
 30
0.0
 11
39632.95086268998
 21
3659.432913197301
 31
0.0
 12
39796.47441470302
 22
3660.49980673065
 32
0.0
 13
39796.47441470302
 23
3660.49980673065
 33
0.0
210
0.0
220
0.0
230
1.0
  0
SOLID
  5
2B9
330
25F
100
AcDbEntity
  8
HATCH
  6
CONTINUOUS
 62
     4
100
AcDbTrace
 10
39806.45776560095
 20
3671.116703728471
 30
0.0
 11
39643.99574127726
 21
3665.862926453285
 31
0.0
 12
39796.47441470302
 22
3660.49980673065
 32
0.0
 13
39796.47441470302
 23
3660.49980673065
 33
0.0
210
0.0
220
0.0
230
1.0
  0
SOLID
  5
2BA
330
25F
100
AcDbEntity
  8
HATCH
  6
CONTINUOUS
 62
     4
100
AcDbTrace
 10
39068.04286973421
 20
3671.116703728471
 30
0.0
 11
39078.02622063214
 21
3660.49980673065
 31
0.0
 12
39230.5048940579
 22
3665.862926453285
 32
0.0
 13
39230.5048940579
 23
3665.862926453285
 33
0.0
  0
SOLID
  5
2BB
330
25F
100
AcDbEntity
  8
HATCH
  6
CONTINUOUS
 62
     4
100
AcDbTrace
 10
39654.82956584889
 20
3672.642503035282
 30
0.0
 11
39643.99574127726
 21
3665.862926453285
 31
0.0
 12
39806.45776560095
 22
3671.116703728471
 32
0.0
 13
39806.45776560095
 23
3671.116703728471
 33
0.0
210
0.0
220
0.0
230
1.0
  0
SOLID
  5
2BC
330
25F
100
AcDbEntity
  8
HATCH
  6
CONTINUOUS
 62
     4
100
AcDbTrace
 10
39219.67106948627
 20
3672.642503035282
 30
0.0
 11
39068.04286973421
 21
3671.116703728471
 31
0.0
 12
39230.5048940579
 22
3665.862926453285
 32
0.0
 13
39230.5048940579
 23
3665.862926453285
 33
0.0
210
0.0
220
0.0
230
1.0
  0
SOLID
  5
2BD
330
25F
100
AcDbEntity
  8
HATCH
  6
CONTINUOUS
 62
     4
100
AcDbTrace
 10
39209.05935853269
 20
3679.764722079763
 30
0.0
 11
39068.04286973421
 21
3671.116703728471
 31
0.0
 12
39219.67106948627
 22
3672.642503035282
 32
0.0
 13
39219.67106948627
 23
3672.642503035282
 33
0.0
210
0.0
220
0.0
230
1.0
  0
SOLID
  5
2BE
330
25F
100
AcDbEntity
  8
HATCH
  6
CONTINUOUS
 62
     4
100
AcDbTrace
 10
39665.44127680247
 20
3679.764722079763
 30
0.0
 11
39654.82956584889
 21
3672.642503035282
 31
0.0
 12
39806.45776560095
 22
3671.116703728471
 32
0.0
 13
39806.45776560095
 23
3671.116703728471
 33
0.0
210
0.0
220
0.0
230
1.0
  0
SOLID
  5
2BF
330
25F
100
AcDbEntity
  8
HATCH
  6
CONTINUOUS
 62
     4
100
AcDbTrace
 10
39816.1274588265
 20
3682.020044039453
 30
0.0
 11
39665.44127680247
 21
3679.764722079763
 31
0.0
 12
39806.45776560095
 22
3671.116703728471
 32
0.0
 13
39806.45776560095
 23
3671.116703728471
 33
0.0
210
0.0
220
0.0
230
1.0
  0
SOLID
  5
2C0
330
25F
100
AcDbEntity
  8
HATCH
  6
CONTINUOUS
 62
     4
100
AcDbTrace
 10
39058.37317650865
 20
3682.020044039453
 30
0.0
 11
39068.04286973421
 21
3671.116703728471
 31
0.0
 12
39209.05935853269
 22
3679.764722079763
 32
0.0
 13
39209.05935853269
 23
3679.764722079763
 33
0.0
210
0.0
220
0.0
230
1.0
  0
SOLID
  5
2C1
330
25F
100
AcDbEntity
  8
HATCH
  6
CONTINUOUS
 62
     4
100
AcDbTrace
 10
39198.68059405705
 20
3687.222312940038
 30
0.0
 11
39058.37317650865
 21
3682.020044039453
 31
0.0
 12
39209.05935853269
 22
3679.764722079763
 32
0.0
 13
39209.05935853269
 23
3679.764722079763
 33
0.0
210
0.0
220
0.0
230
1.0
  0
SOLID
  5
2C2
330
25F
100
AcDbEntity
  8
HATCH
  6
CONTINUOUS
 62
     4
100
AcDbTrace
 10
39675.8200412781
 20
3687.222312940038
 30
0.0
 11
39665.44127680247
 21
3679.764722079763
 31
0.0
 12
39816.1274588265
 22
3682.020044039453
 32
0.0
 13
39816.1274588265
 23
3682.020044039453
 33
0.0
210
0.0
220
0.0
230
1.0
  0
SOLID
  5
2C3
330
25F
100
AcDbEntity
  8
HATCH
  6
CONTINUOUS
 62
     4
100
AcDbTrace
 10
39825.47527955768
 20
3693.20056480511
 30
0.0
 11
39675.8200412781
 21
3687.222312940038
 31
0.0
 12
39816.1274588265
 22
3682.020044039453
 32
0.0
 13
39816.1274588265
 23
3682.020044039453
 33
0.0
210
0.0
220
0.0
230
1.0
  0
SOLID
  5
2C4
330
25F
100
AcDbEntity
  8
HATCH
  6
CONTINUOUS
 62
     4
100
AcDbTrace
 10
39049.02535577747
 20
3693.20056480511
 30
0.0
 11
39058.37317650865
 21
3682.020044039453
 31
0.0
 12
39198.68059405705
 22
3687.222312940038
 32
0.0
 13
39198.68059405705
 23
3687.222312940038
 33
0.0
210
0.0
220
0.0
230
1.0
  0
SOLID
  5
2C5
330
25F
100
AcDbEntity
  8
HATCH
  6
CONTINUOUS
 62
     4
100
AcDbTrace
 10
39188.54537111817
 20
3695.007662608425
 30
0.0
 11
39049.02535577747
 21
3693.20056480511
 31
0.0
 12
39198.68059405705
 22
3687.222312940038
 32
0.0
 13
39198.68059405705
 23
3687.222312940038
 33
0.0
210
0.0
220
0.0
230
1.0
  0
SOLID
  5
2C6
330
25F
100
AcDbEntity
  8
HATCH
  6
CONTINUOUS
 62
     4
100
AcDbTrace
 10
39685.95526421698
 20
3695.007662608425
 30
0.0
 11
39675.8200412781
 21
3687.222312940038
 31
0.0
 12
39825.47527955768
 22
3693.20056480511
 32
0.0
 13
39825.47527955768
 23
3693.20056480511
 33
0.0
210
0.0
220
0.0
230
1.0
  0
SOLID
  5
2C7
330
25F
100
AcDbEntity
  8
HATCH
  6
CONTINUOUS
 62
     4
100
AcDbTrace
 10
39178.66403615788
 20
3703.112823487914
 30
0.0
 11
39049.02535577747
 21
3693.20056480511
 31
0.0
 12
39188.54537111817
 22
3695.007662608425
 32
0.0
 13
39188.54537111817
 23
3695.007662608425
 33
0.0
210
0.0
220
0.0
230
1.0
  0
SOLID
  5
2C8
330
25F
100
AcDbEntity
  8
HATCH
  6
CONTINUOUS
 62
     4
100
AcDbTrace
 10
39695.83659917728
 20
3703.112823487914
 30
0.0
 11
39685.95526421698
 21
3695.007662608425
 31
0.0
 12
39825.47527955768
 22
3693.20056480511
 32
0.0
 13
39825.47527955768
 23
3693.20056480511
 33
0.0
210
0.0
220
0.0
230
1.0
  0
SOLID
  5
2C9
330
25F
100
AcDbEntity
  8
HATCH
  6
CONTINUOUS
 62
     4
100
AcDbTrace
 10
39834.49328641705
 20
3704.648767690185
 30
0.0
 11
39695.83659917728
 21
3703.112823487914
 31
0.0
 12
39825.47527955768
 22
3693.20056480511
 32
0.0
 13
39825.47527955768
 23
3693.20056480511
 33
0.0
210
0.0
220
0.0
230
1.0
  0
SOLID
  5
2CA
330
25F
100
AcDbEntity
  8
HATCH
  6
CONTINUOUS
 62
     4
100
AcDbTrace
 10
39040.0073489181
 20
3704.648767690185
 30
0.0
 11
39049.02535577747
 21
3693.20056480511
 31
0.0
 12
39178.66403615788
 22
3703.112823487914
 32
0.0
 13
39178.66403615788
 23
3703.112823487914
 33
0.0
  0
SOLID
  5
2CB
330
25F
100
AcDbEntity
  8
HATCH
  6
CONTINUOUS
 62
     4
100
AcDbTrace
 10
39169.04667643899
 20
3711.529521505388
 30
0.0
 11
39040.0073489181
 21
3704.648767690185
 31
0.0
 12
39178.66403615788
 22
3703.112823487914
 32
0.0
 13
39178.66403615788
 23
3703.112823487914
 33
0.0
210
0.0
220
0.0
230
1.0
  0
SOLID
  5
2CC
330
25F
100
AcDbEntity
  8
HATCH
  6
CONTINUOUS
 62
     4
100
AcDbTrace
 10
39705.45395889617
 20
3711.529521505388
 30
0.0
 11
39695.83659917728
 21
3703.112823487914
 31
0.0
 12
39834.49328641705
 22
3704.648767690185
 32
0.0
 13
39834.49328641705
 23
3704.648767690185
 33
0.0
210
0.0
220
0.0
230
1.0
  0
SOLID
  5
2CD
330
25F
100
AcDbEntity
  8
HATCH
  6
CONTINUOUS
 62
     4
100
AcDbTrace
 10
39843.17381821832
 20
3716.354926951902
 30
0.0
 11
39705.45395889617
 21
3711.529521505388
 31
0.0
 12
39834.49328641705
 22
3704.648767690185
 32
0.0
 13
39834.49328641705
 23
3704.648767690185
 33
0.0
210
0.0
220
0.0
230
1.0
  0
SOLID
  5
2CE
330
25F
100
AcDbEntity
  8
HATCH
  6
CONTINUOUS
 62
     4
100
AcDbTrace
 10
39031.32681711683
 20
3716.354926951902
 30
0.0
 11
39040.0073489181
 21
3704.648767690185
 31
0.0
 12
39169.04667643899
 22
3711.529521505388
 32
0.0
 13
39169.04667643899
 23
3711.529521505388
 33
0.0
210
0.0
220
0.0
230
1.0
  0
SOLID
  5
2CF
330
25F
100
AcDbEntity
  8
HATCH
  6
CONTINUOUS
 62
     4
100
AcDbTrace
 10
39159.7031097478
 20
3720.249164558135
 30
0.0
 11
39031.32681711683
 21
3716.354926951902
 31
0.0
 12
39169.04667643899
 22
3711.529521505388
 32
0.0
 13
39169.04667643899
 23
3711.529521505388
 33
0.0
210
0.0
220
0.0
230
1.0
  0
SOLID
  5
2D0
330
25F
100
AcDbEntity
  8
HATCH
  6
CONTINUOUS
 62
     4
100
AcDbTrace
 10
39714.79752558736
 20
3720.249164558135
 30
0.0
 11
39705.45395889617
 21
3711.529521505388
 31
0.0
 12
39843.17381821832
 22
3716.354926951902
 32
0.0
 13
39843.17381821832
 23
3716.354926951902
 33
0.0
210
0.0
220
0.0
230
1.0
  0
SOLID
  5
2D1
330
25F
100
AcDbEntity
  8
HATCH
  6
CONTINUOUS
 62
     4
100
AcDbTrace
 10
39851.50950047482
 20
3728.309097702403
 30
0.0
 11
39714.79752558736
 21
3720.249164558135
 31
0.0
 12
39843.17381821832
 22
3716.354926951902
 32
0.0
 13
39843.17381821832
 23
3716.354926951902
 33
0.0
210
0.0
220
0.0
230
1.0
  0
SOLID
  5
2D2
330
25F
100
AcDbEntity
  8
HATCH
  6
CONTINUOUS
 62
     4
100
AcDbTrace
 10
39022.99113486033
 20
3728.309097702403
 30
0.0
 11
39031.32681711683
 21
3716.354926951902
 31
0.0
 12
39159.7031097478
 22
3720.249164558135
 32
0.0
 13
39159.7031097478
 23
3720.249164558135
 33
0.0
210
0.0
220
0.0
230
1.0
  0
SOLID
  5
2D3
330
25F
100
AcDbEntity
  8
HATCH
  6
CONTINUOUS
 62
     4
100
AcDbTrace
 10
39150.64287437174
 20
3729.262851285005
 30
0.0
 11
39022.99113486033
 21
3728.309097702403
 31
0.0
 12
39159.7031097478
 22
3720.249164558135
 32
0.0
 13
39159.7031097478
 23
3720.249164558135
 33
0.0
210
0.0
220
0.0
230
1.0
  0
SOLID
  5
2D4
330
25F
100
AcDbEntity
  8
HATCH
  6
CONTINUOUS
 62
     4
100
AcDbTrace
 10
39723.85776096342
 20
3729.262851285005
 30
0.0
 11
39714.79752558736
 21
3720.249164558135
 31
0.0
 12
39851.50950047482
 22
3728.309097702403
 32
0.0
 13
39851.50950047482
 23
3728.309097702403
 33
0.0
210
0.0
220
0.0
230
1.0
  0
SOLID
  5
2D5
330
25F
100
AcDbEntity
  8
HATCH
  6
CONTINUOUS
 62
     4
100
AcDbTrace
 10
39732.62541597293
 20
3738.561380153281
 30
0.0
 11
39723.85776096342
 21
3729.262851285005
 31
0.0
 12
39851.50950047482
 22
3728.309097702403
 32
0.0
 13
39851.50950047482
 23
3728.309097702403
 33
0.0
210
0.0
220
0.0
230
1.0
  0
SOLID
  5
2D6
330
25F
100
AcDbEntity
  8
HATCH
  6
CONTINUOUS
 62
     4
100
AcDbTrace
 10
39141.87521936222
 20
3738.561380153281
 30
0.0
 11
39022.99113486033
 21
3728.309097702403
 31
0.0
 12
39150.64287437174
 22
3729.262851285005
 32
0.0
 13
39150.64287437174
 23
3729.262851285005
 33
0.0
210
0.0
220
0.0
230
1.0
  0
SOLID
  5
2D7
330
25F
100
AcDbEntity
  8
HATCH
  6
CONTINUOUS
 62
     4
100
AcDbTrace
 10
39859.49325166448
 20
3740.501124357356
 30
0.0
 11
39732.62541597293
 21
3738.561380153281
 31
0.0
 12
39851.50950047482
 22
3728.309097702403
 32
0.0
 13
39851.50950047482
 23
3728.309097702403
 33
0.0
  0
SOLID
  5
2D8
330
25F
100
AcDbEntity
  8
HATCH
  6
CONTINUOUS
 62
     4
100
AcDbTrace
 10
39015.00738367068
 20
3740.501124357356
 30
0.0
 11
39022.99113486033
 21
3728.309097702403
 31
0.0
 12
39141.87521936222
 22
3738.561380153281
 32
0.0
 13
39141.87521936222
 23
3738.561380153281
 33
0.0
  0
SOLID
  5
2D9
330
25F
100
AcDbEntity
  8
HATCH
  6
CONTINUOUS
 62
     4
100
AcDbTrace
 10
39133.40909509296
 20
3748.135258851971
 30
0.0
 11
39015.00738367068
 21
3740.501124357356
 31
0.0
 12
39141.87521936222
 22
3738.561380153281
 32
0.0
 13
39141.87521936222
 23
3738.561380153281
 33
0.0
210
0.0
220
0.0
230
1.0
  0
SOLID
  5
2DA
330
25F
100
AcDbEntity
  8
HATCH
  6
CONTINUOUS
 62
     4
100
AcDbTrace
 10
39741.0915402422
 20
3748.135258851971
 30
0.0
 11
39732.62541597293
 21
3738.561380153281
 31
0.0
 12
39859.49325166448
 22
3740.501124357356
 32
0.0
 13
39859.49325166448
 23
3740.501124357356
 33
0.0
210
0.0
220
0.0
230
1.0
  0
SOLID
  5
2DB
330
25F
100
AcDbEntity
  8
HATCH
  6
CONTINUOUS
 62
     4
100
AcDbTrace
 10
39867.11828924586
 20
3752.920649263569
 30
0.0
 11
39741.0915402422
 21
3748.135258851971
 31
0.0
 12
39859.49325166448
 22
3740.501124357356
 32
0.0
 13
39859.49325166448
 23
3740.501124357356
 33
0.0
210
0.0
220
0.0
230
1.0
  0
SOLID
  5
2DC
330
25F
100
AcDbEntity
  8
HATCH
  6
CONTINUOUS
 62
     4
100
AcDbTrace
 10
39007.38234608929
 20
3752.920649263569
 30
0.0
 11
39015.00738367068
 21
3740.501124357356
 31
0.0
 12
39133.40909509296
 22
3748.135258851971
 32
0.0
 13
39133.40909509296
 23
3748.135258851971
 33
0.0
210
0.0
220
0.0
230
1.0
  0
SOLID
  5
2DD
330
25F
100
AcDbEntity
  8
HATCH
  6
CONTINUOUS
 62
     4
100
AcDbTrace
 10
39125.25314412294
 20
3757.974713981937
 30
0.0
 11
39007.38234608929
 21
3752.920649263569
 31
0.0
 12
39133.40909509296
 22
3748.135258851971
 32
0.0
 13
39133.40909509296
 23
3748.135258851971
 33
0.0
210
0.0
220
0.0
230
1.0
  0
SOLID
  5
2DE
330
25F
100
AcDbEntity
  8
HATCH
  6
CONTINUOUS
 62
     4
100
AcDbTrace
 10
39749.24749121221
 20
3757.974713981937
 30
0.0
 11
39741.0915402422
 21
3748.135258851971
 31
0.0
 12
39867.11828924586
 22
3752.920649263569
 32
0.0
 13
39867.11828924586
 23
3752.920649263569
 33
0.0
210
0.0
220
0.0
230
1.0
  0
SOLID
  5
2DF
330
25F
100
AcDbEntity
  8
HATCH
  6
CONTINUOUS
 62
     4
100
AcDbTrace
 10
39874.37813542022
 20
3765.557121498259
 30
0.0
 11
39749.24749121221
 21
3757.974713981937
 31
0.0
 12
39867.11828924586
 22
3752.920649263569
 32
0.0
 13
39867.11828924586
 23
3752.920649263569
 33
0.0
210
0.0
220
0.0
230
1.0
  0
SOLID
  5
2E0
330
25F
100
AcDbEntity
  8
HATCH
  6
CONTINUOUS
 62
     4
100
AcDbTrace
 10
39000.12249991493
 20
3765.557121498259
 30
0.0
 11
39007.38234608929
 21
3752.920649263569
 31
0.0
 12
39125.25314412294
 22
3757.974713981937
 32
0.0
 13
39125.25314412294
 23
3757.974713981937
 33
0.0
210
0.0
220
0.0
230
1.0
  0
SOLID
  5
2E1
330
25F
100
AcDbEntity
  8
HATCH
  6
CONTINUOUS
 62
     4
100
AcDbTrace
 10
39117.41569237385
 20
3768.069701032974
 30
0.0
 11
39000.12249991493
 21
3765.557121498259
 31
0.0
 12
39125.25314412294
 22
3757.974713981937
 32
0.0
 13
39125.25314412294
 23
3757.974713981937
 33
0.0
210
0.0
220
0.0
230
1.0
  0
SOLID
  5
2E2
330
25F
100
AcDbEntity
  8
HATCH
  6
CONTINUOUS
 62
     4
100
AcDbTrace
 10
39757.08494296131
 20
3768.069701032974
 30
0.0
 11
39749.24749121221
 21
3757.974713981937
 31
0.0
 12
39874.37813542022
 22
3765.557121498259
 32
0.0
 13
39874.37813542022
 23
3765.557121498259
 33
0.0
210
0.0
220
0.0
230
1.0
  0
SOLID
  5
2E3
330
25F
100
AcDbEntity
  8
HATCH
  6
CONTINUOUS
 62
     4
100
AcDbTrace
 10
39881.26662263471
 20
3778.399805832518
 30
0.0
 11
39757.08494296131
 21
3768.069701032974
 31
0.0
 12
39874.37813542022
 22
3765.557121498259
 32
0.0
 13
39874.37813542022
 23
3765.557121498259
 33
0.0
  0
SOLID
  5
2E4
330
25F
100
AcDbEntity
  8
HATCH
  6
CONTINUOUS
 62
     4
100
AcDbTrace
 10
38993.23401270045
 20
3778.399805832518
 30
0.0
 11
39000.12249991493
 21
3765.557121498259
 31
0.0
 12
39117.41569237385
 22
3768.069701032974
 32
0.0
 13
39117.41569237385
 23
3768.069701032974
 33
0.0
210
0.0
220
0.0
230
1.0
  0
SOLID
  5
2E5
330
25F
100
AcDbEntity
  8
HATCH
  6
CONTINUOUS
 62
     4
100
AcDbTrace
 10
39109.90474063059
 20
3778.40991463765
 30
0.0
 11
38993.23401270045
 21
3778.399805832518
 31
0.0
 12
39117.41569237385
 22
3768.069701032974
 32
0.0
 13
39117.41569237385
 23
3768.069701032974
 33
0.0
210
0.0
220
0.0
230
1.0
  0
SOLID
  5
2E6
330
25F
100
AcDbEntity
  8
HATCH
  6
CONTINUOUS
 62
     4
100
AcDbTrace
 10
39764.59589470456
 20
3778.40991463765
 30
0.0
 11
39757.08494296131
 21
3768.069701032974
 31
0.0
 12
39881.26662263471
 22
3778.399805832518
 32
0.0
 13
39881.26662263471
 23
3778.399805832518
 33
0.0
210
0.0
220
0.0
230
1.0
  0
SOLID
  5
2E7
330
25F
100
AcDbEntity
  8
HATCH
  6
CONTINUOUS
 62
     4
100
AcDbTrace
 10
39771.77267896138
 20
3788.98479909144
 30
0.0
 11
39764.59589470456
 21
3778.40991463765
 31
0.0
 12
39881.26662263471
 22
3778.399805832518
 32
0.0
 13
39881.26662263471
 23
3778.399805832518
 33
0.0
210
0.0
220
0.0
230
1.0
  0
SOLID
  5
2E8
330
25F
100
AcDbEntity
  8
HATCH
  6
CONTINUOUS
 62
     4
100
AcDbTrace
 10
39102.72795637377
 20
3788.984799091441
 30
0.0
 11
38993.23401270045
 21
3778.399805832518
 31
0.0
 12
39109.90474063059
 22
3778.40991463765
 32
0.0
 13
39109.90474063059
 23
3778.40991463765
 33
0.0
210
0.0
220
0.0
230
1.0
  0
SOLID
  5
2E9
330
25F
100
AcDbEntity
  8
HATCH
  6
CONTINUOUS
 62
     4
100
AcDbTrace
 10
39887.77789882192
 20
3791.437791851353
 30
0.0
 11
39771.77267896138
 21
3788.98479909144
 31
0.0
 12
39881.26662263471
 22
3778.399805832518
 32
0.0
 13
39881.26662263471
 23
3778.399805832518
 33
0.0
210
0.0
220
0.0
230
1.0
  0
SOLID
  5
2EA
330
25F
100
AcDbEntity
  8
HATCH
  6
CONTINUOUS
 62
     4
100
AcDbTrace
 10
38986.72273651324
 20
3791.437791851353
 30
0.0
 11
38993.23401270045
 21
3778.399805832518
 31
0.0
 12
39102.72795637377
 22
3788.984799091441
 32
0.0
 13
39102.72795637377
 23
3788.984799091441
 33
0.0
210
0.0
220
0.0
230
1.0
  0
SOLID
  5
2EB
330
25F
100
AcDbEntity
  8
HATCH
  6
CONTINUOUS
 62
     4
100
AcDbTrace
 10
39095.89266595244
 20
3799.783559128406
 30
0.0
 11
38986.72273651324
 21
3791.437791851353
 31
0.0
 12
39102.72795637377
 22
3788.984799091441
 32
0.0
 13
39102.72795637377
 23
3788.984799091441
 33
0.0
210
0.0
220
0.0
230
1.0
  0
SOLID
  5
2EC
330
25F
100
AcDbEntity
  8
HATCH
  6
CONTINUOUS
 62
     4
100
AcDbTrace
 10
39778.60796938271
 20
3799.783559128406
 30
0.0
 11
39771.77267896138
 21
3788.98479909144
 31
0.0
 12
39887.77789882192
 22
3791.437791851353
 32
0.0
 13
39887.77789882192
 23
3791.437791851353
 33
0.0
  0
SOLID
  5
2ED
330
25F
100
AcDbEntity
  8
HATCH
  6
CONTINUOUS
 62
     4
100
AcDbTrace
 10
39893.90643237153
 20
3804.660003222556
 30
0.0
 11
39778.60796938271
 21
3799.783559128406
 31
0.0
 12
39887.77789882192
 22
3791.437791851353
 32
0.0
 13
39887.77789882192
 23
3791.437791851353
 33
0.0
  0
SOLID
  5
2EE
330
25F
100
AcDbEntity
  8
HATCH
  6
CONTINUOUS
 62
     4
100
AcDbTrace
 10
38980.59420296362
 20
3804.660003222556
 30
0.0
 11
38986.72273651324
 21
3791.437791851353
 31
0.0
 12
39095.89266595244
 22
3799.783559128406
 32
0.0
 13
39095.89266595244
 23
3799.783559128406
 33
0.0
210
0.0
220
0.0
230
1.0
  0
SOLID
  5
2EF
330
25F
100
AcDbEntity
  8
HATCH
  6
CONTINUOUS
 62
     4
100
AcDbTrace
 10
39785.09478823011
 20
3810.795170941442
 30
0.0
 11
39778.60796938271
 21
3799.783559128406
 31
0.0
 12
39893.90643237153
 22
3804.660003222556
 32
0.0
 13
39893.90643237153
 23
3804.660003222556
 33
0.0
210
0.0
220
0.0
230
1.0
  0
SOLID
  5
2F0
330
25F
100
AcDbEntity
  8
HATCH
  6
CONTINUOUS
 62
     4
100
AcDbTrace
 10
39089.40584710505
 20
3810.795170941442
 30
0.0
 11
38980.59420296362
 21
3804.660003222556
 31
0.0
 12
39095.89266595244
 22
3799.783559128406
 32
0.0
 13
39095.89266595244
 23
3799.783559128406
 33
0.0
210
0.0
220
0.0
230
1.0
  0
SOLID
  5
2F1
330
25F
100
AcDbEntity
  8
HATCH
  6
CONTINUOUS
 62
     4
100
AcDbTrace
 10
39899.64701682961
 20
3818.055207106525
 30
0.0
 11
39785.09478823011
 21
3810.795170941442
 31
0.0
 12
39893.90643237153
 22
3804.660003222556
 32
0.0
 13
39893.90643237153
 23
3804.660003222556
 33
0.0
210
0.0
220
0.0
230
1.0
  0
SOLID
  5
2F2
330
25F
100
AcDbEntity
  8
HATCH
  6
CONTINUOUS
 62
     4
100
AcDbTrace
 10
38974.85361850554
 20
3818.055207106525
 30
0.0
 11
38980.59420296362
 21
3804.660003222556
 31
0.0
 12
39089.40584710505
 22
3810.795170941442
 32
0.0
 13
39089.40584710505
 23
3810.795170941442
 33
0.0
210
0.0
220
0.0
230
1.0
  0
SOLID
  5
2F3
330
25F
100
AcDbEntity
  8
HATCH
  6
CONTINUOUS
 62
     4
100
AcDbTrace
 10
39083.27412183629
 20
3822.008393435817
 30
0.0
 11
38974.85361850554
 21
3818.055207106525
 31
0.0
 12
39089.40584710505
 22
3810.795170941442
 32
0.0
 13
39089.40584710505
 23
3810.795170941442
 33
0.0
210
0.0
220
0.0
230
1.0
  0
SOLID
  5
2F4
330
25F
100
AcDbEntity
  8
HATCH
  6
CONTINUOUS
 62
     4
100
AcDbTrace
 10
39791.22651349887
 20
3822.008393435817
 30
0.0
 11
39785.09478823011
 21
3810.795170941442
 31
0.0
 12
39899.64701682961
 22
3818.055207106525
 32
0.0
 13
39899.64701682961
 23
3818.055207106525
 33
0.0
210
0.0
220
0.0
230
1.0
  0
SOLID
  5
2F5
330
25F
100
AcDbEntity
  8
HATCH
  6
CONTINUOUS
 62
     4
100
AcDbTrace
 10
39904.99477532174
 20
3831.612023699049
 30
0.0
 11
39791.22651349887
 21
3822.008393435817
 31
0.0
 12
39899.64701682961
 22
3818.055207106525
 32
0.0
 13
39899.64701682961
 23
3818.055207106525
 33
0.0
  0
SOLID
  5
2F6
330
25F
100
AcDbEntity
  8
HATCH
  6
CONTINUOUS
 62
     4
100
AcDbTrace
 10
38969.50586001342
 20
3831.612023699049
 30
0.0
 11
38974.85361850554
 21
3818.055207106525
 31
0.0
 12
39083.27412183629
 22
3822.008393435817
 32
0.0
 13
39083.27412183629
 23
3822.008393435817
 33
0.0
210
0.0
220
0.0
230
1.0
  0
SOLID
  5
2F7
330
25F
100
AcDbEntity
  8
HATCH
  6
CONTINUOUS
 62
     4
100
AcDbTrace
 10
39796.99688567806
 20
3833.411779704535
 30
0.0
 11
39791.22651349887
 21
3822.008393435817
 31
0.0
 12
39904.99477532174
 22
3831.612023699049
 32
0.0
 13
39904.99477532174
 23
3831.612023699049
 33
0.0
210
0.0
220
0.0
230
1.0
  0
SOLID
  5
2F8
330
25F
100
AcDbEntity
  8
HATCH
  6
CONTINUOUS
 62
     4
100
AcDbTrace
 10
39077.5037496571
 20
3833.411779704536
 30
0.0
 11
38969.50586001342
 21
3831.612023699049
 31
0.0
 12
39083.27412183629
 22
3822.008393435817
 32
0.0
 13
39083.27412183629
 23
3822.008393435817
 33
0.0
  0
SOLID
  5
2F9
330
25F
100
AcDbEntity
  8
HATCH
  6
CONTINUOUS
 62
     4
100
AcDbTrace
 10
39802.40001414044
 20
3844.993688713799
 30
0.0
 11
39796.99688567806
 21
3833.411779704535
 31
0.0
 12
39904.99477532174
 22
3831.612023699049
 32
0.0
 13
39904.99477532174
 23
3831.612023699049
 33
0.0
210
0.0
220
0.0
230
1.0
  0
SOLID
  5
2FA
330
25F
100
AcDbEntity
  8
HATCH
  6
CONTINUOUS
 62
     4
100
AcDbTrace
 10
39072.10062119471
 20
3844.993688713799
 30
0.0
 11
38969.50586001342
 21
3831.612023699049
 31
0.0
 12
39077.5037496571
 22
3833.411779704536
 32
0.0
 13
39077.5037496571
 23
3833.411779704536
 33
0.0
210
0.0
220
0.0
230
1.0
  0
SOLID
  5
2FB
330
25F
100
AcDbEntity
  8
HATCH
  6
CONTINUOUS
 62
     4
100
AcDbTrace
 10
39909.94516469612
 20
3845.31893589894
 30
0.0
 11
39802.40001414044
 21
3844.993688713799
 31
0.0
 12
39904.99477532174
 22
3831.612023699049
 32
0.0
 13
39904.99477532174
 23
3831.612023699049
 33
0.0
210
0.0
220
0.0
230
1.0
  0
SOLID
  5
2FC
330
25F
100
AcDbEntity
  8
HATCH
  6
CONTINUOUS
 62
     4
100
AcDbTrace
 10
38964.55547063903
 20
3845.31893589894
 30
0.0
 11
38969.50586001342
 21
3831.612023699049
 31
0.0
 12
39072.10062119471
 22
3844.993688713799
 32
0.0
 13
39072.10062119471
 23
3844.993688713799
 33
0.0
210
0.0
220
0.0
230
1.0
  0
SOLID
  5
2FD
330
25F
100
AcDbEntity
  8
HATCH
  6
CONTINUOUS
 62
     4
100
AcDbTrace
 10
39067.07025217924
 20
3856.742297186636
 30
0.0
 11
38964.55547063903
 21
3845.31893589894
 31
0.0
 12
39072.10062119471
 22
3844.993688713799
 32
0.0
 13
39072.10062119471
 23
3844.993688713799
 33
0.0
210
0.0
220
0.0
230
1.0
  0
SOLID
  5
2FE
330
25F
100
AcDbEntity
  8
HATCH
  6
CONTINUOUS
 62
     4
100
AcDbTrace
 10
39807.43038315592
 20
3856.742297186636
 30
0.0
 11
39802.40001414044
 21
3844.993688713799
 31
0.0
 12
39909.94516469612
 22
3845.31893589894
 32
0.0
 13
39909.94516469612
 23
3845.31893589894
 33
0.0
210
0.0
220
0.0
230
1.0
  0
SOLID
  5
2FF
330
25F
100
AcDbEntity
  8
HATCH
  6
CONTINUOUS
 62
     4
100
AcDbTrace
 10
39914.49397938318
 20
3859.164299092309
 30
0.0
 11
39807.43038315592
 21
3856.742297186636
 31
0.0
 12
39909.94516469612
 22
3845.31893589894
 32
0.0
 13
39909.94516469612
 23
3845.31893589894
 33
0.0
210
0.0
220
0.0
230
1.0
  0
SOLID
  5
300
330
25F
100
AcDbEntity
  8
HATCH
  6
CONTINUOUS
 62
     4
100
AcDbTrace
 10
38960.00665595198
 20
3859.164299092309
 30
0.0
 11
38964.55547063903
 21
3845.31893589894
 31
0.0
 12
39067.07025217924
 22
3856.742297186636
 32
0.0
 13
39067.07025217924
 23
3856.742297186636
 33
0.0
210
0.0
220
0.0
230
1.0
  0
SOLID
  5
301
330
25F
100
AcDbEntity
  8
HATCH
  6
CONTINUOUS
 62
     4
100
AcDbTrace
 10
39062.41777781299
 20
3868.645611672585
 30
0.0
 11
38960.00665595198
 21
3859.164299092309
 31
0.0
 12
39067.07025217924
 22
3856.742297186636
 32
0.0
 13
39067.07025217924
 23
3856.742297186636
 33
0.0
  0
SOLID
  5
302
330
25F
100
AcDbEntity
  8
HATCH
  6
CONTINUOUS
 62
     4
100
AcDbTrace
 10
39812.08285752217
 20
3868.645611672585
 30
0.0
 11
39807.43038315592
 21
3856.742297186636
 31
0.0
 12
39914.49397938318
 22
3859.164299092309
 32
0.0
 13
39914.49397938318
 23
3859.164299092309
 33
0.0
210
0.0
220
0.0
230
1.0
  0
SOLID
  5
303
330
25F
100
AcDbEntity
  8
HATCH
  6
CONTINUOUS
 62
     4
100
AcDbTrace
 10
39918.63735496839
 20
3873.136351045168
 30
0.0
 11
39812.08285752217
 21
3868.645611672585
 31
0.0
 12
39914.49397938318
 22
3859.164299092309
 32
0.0
 13
39914.49397938318
 23
3859.164299092309
 33
0.0
210
0.0
220
0.0
230
1.0
  0
SOLID
  5
304
330
25F
100
AcDbEntity
  8
HATCH
  6
CONTINUOUS
 62
     4
100
AcDbTrace
 10
38955.86328036677
 20
3873.136351045168
 30
0.0
 11
38960.00665595198
 21
3859.164299092309
 31
0.0
 12
39062.41777781299
 22
3868.645611672585
 32
0.0
 13
39062.41777781299
 23
3868.645611672585
 33
0.0
210
0.0
220
0.0
230
1.0
  0
SOLID
  5
305
330
25F
100
AcDbEntity
  8
HATCH
  6
CONTINUOUS
 62
     4
100
AcDbTrace
 10
39816.35268780683
 20
3880.691480791084
 30
0.0
 11
39812.08285752217
 21
3868.645611672585
 31
0.0
 12
39918.63735496839
 22
3873.136351045168
 32
0.0
 13
39918.63735496839
 23
3873.136351045168
 33
0.0
210
0.0
220
0.0
230
1.0
  0
SOLID
  5
306
330
25F
100
AcDbEntity
  8
HATCH
  6
CONTINUOUS
 62
     4
100
AcDbTrace
 10
39058.14794752832
 20
3880.691480791085
 30
0.0
 11
38955.86328036677
 21
3873.136351045168
 31
0.0
 12
39062.41777781299
 22
3868.645611672585
 32
0.0
 13
39062.41777781299
 23
3868.645611672585
 33
0.0
210
0.0
220
0.0
230
1.0
  0
SOLID
  5
307
330
25F
100
AcDbEntity
  8
HATCH
  6
CONTINUOUS
 62
     4
100
AcDbTrace
 10
39922.37177147524
 20
3887.223221895959
 30
0.0
 11
39816.35268780683
 21
3880.691480791084
 31
0.0
 12
39918.63735496839
 22
3873.136351045168
 32
0.0
 13
39918.63735496839
 23
3873.136351045168
 33
0.0
210
0.0
220
0.0
230
1.0
  0
SOLID
  5
308
330
25F
100
AcDbEntity
  8
HATCH
  6
CONTINUOUS
 62
     4
100
AcDbTrace
 10
38952.12886385992
 20
3887.223221895959
 30
0.0
 11
38955.86328036677
 21
3873.136351045168
 31
0.0
 12
39058.14794752832
 22
3880.691480791085
 32
0.0
 13
39058.14794752832
 23
3880.691480791085
 33
0.0
  0
SOLID
  5
309
330
25F
100
AcDbEntity
  8
HATCH
  6
CONTINUOUS
 62
     4
100
AcDbTrace
 10
39054.26512013912
 20
3892.867607636087
 30
0.0
 11
38952.12886385992
 21
3887.223221895959
 31
0.0
 12
39058.14794752832
 22
3880.691480791085
 32
0.0
 13
39058.14794752832
 23
3880.691480791085
 33
0.0
  0
SOLID
  5
30A
330
25F
100
AcDbEntity
  8
HATCH
  6
CONTINUOUS
 62
     4
100
AcDbTrace
 10
39820.23551519603
 20
3892.867607636087
 30
0.0
 11
39816.35268780683
 21
3880.691480791084
 31
0.0
 12
39922.37177147524
 22
3887.223221895959
 32
0.0
 13
39922.37177147524
 23
3887.223221895959
 33
0.0
210
0.0
220
0.0
230
1.0
  0
SOLID
  5
30B
330
25F
100
AcDbEntity
  8
HATCH
  6
CONTINUOUS
 62
     4
100
AcDbTrace
 10
39925.69405635562
 20
3901.412944239508
 30
0.0
 11
39820.23551519603
 21
3892.867607636087
 31
0.0
 12
39922.37177147524
 22
3887.223221895959
 32
0.0
 13
39922.37177147524
 23
3887.223221895959
 33
0.0
210
0.0
220
0.0
230
1.0
  0
SOLID
  5
30C
330
25F
100
AcDbEntity
  8
HATCH
  6
CONTINUOUS
 62
     4
100
AcDbTrace
 10
38948.80657897953
 20
3901.412944239509
 30
0.0
 11
38952.12886385992
 21
3887.223221895959
 31
0.0
 12
39054.26512013912
 22
3892.867607636087
 32
0.0
 13
39054.26512013912
 23
3892.867607636087
 33
0.0
210
0.0
220
0.0
230
1.0
  0
SOLID
  5
30D
330
25F
100
AcDbEntity
  8
HATCH
  6
CONTINUOUS
 62
     4
100
AcDbTrace
 10
39823.72737594392
 20
3905.161562329238
 30
0.0
 11
39820.23551519603
 21
3892.867607636087
 31
0.0
 12
39925.69405635562
 22
3901.412944239508
 32
0.0
 13
39925.69405635562
 23
3901.412944239508
 33
0.0
210
0.0
220
0.0
230
1.0
  0
SOLID
  5
30E
330
25F
100
AcDbEntity
  8
HATCH
  6
CONTINUOUS
 62
     4
100
AcDbTrace
 10
39050.77325939124
 20
3905.161562329238
 30
0.0
 11
38948.80657897953
 21
3901.412944239509
 31
0.0
 12
39054.26512013912
 22
3892.867607636087
 32
0.0
 13
39054.26512013912
 23
3892.867607636087
 33
0.0
210
0.0
220
0.0
230
1.0
  0
SOLID
  5
30F
330
25F
100
AcDbEntity
  8
HATCH
  6
CONTINUOUS
 62
     4
100
AcDbTrace
 10
39928.60138718506
 20
3915.69346329386
 30
0.0
 11
39823.72737594392
 21
3905.161562329238
 31
0.0
 12
39925.69405635562
 22
3901.412944239508
 32
0.0
 13
39925.69405635562
 23
3901.412944239508
 33
0.0
210
0.0
220
0.0
230
1.0
  0
SOLID
  5
310
330
25F
100
AcDbEntity
  8
HATCH
  6
CONTINUOUS
 62
     4
100
AcDbTrace
 10
38945.89924815009
 20
3915.69346329386
 30
0.0
 11
38948.80657897953
 21
3901.412944239509
 31
0.0
 12
39050.77325939124
 22
3905.161562329238
 32
0.0
 13
39050.77325939124
 23
3905.161562329238
 33
0.0
210
0.0
220
0.0
230
1.0
  0
SOLID
  5
311
330
25F
100
AcDbEntity
  8
HATCH
  6
CONTINUOUS
 62
     4
100
AcDbTrace
 10
39047.67592991607
 20
3917.560794708794
 30
0.0
 11
38945.89924815009
 21
3915.69346329386
 31
0.0
 12
39050.77325939124
 22
3905.161562329238
 32
0.0
 13
39050.77325939124
 23
3905.161562329238
 33
0.0
210
0.0
220
0.0
230
1.0
  0
SOLID
  5
312
330
25F
100
AcDbEntity
  8
HATCH
  6
CONTINUOUS
 62
     4
100
AcDbTrace
 10
39826.82470541909
 20
3917.560794708794
 30
0.0
 11
39823.72737594392
 21
3905.161562329238
 31
0.0
 12
39928.60138718506
 22
3915.69346329386
 32
0.0
 13
39928.60138718506
 23
3915.69346329386
 33
0.0
210
0.0
220
0.0
230
1.0
  0
SOLID
  5
313
330
25F
100
AcDbEntity
  8
HATCH
  6
CONTINUOUS
 62
     4
100
AcDbTrace
 10
39047.67592991607
 20
3917.560794708794
 30
0.0
 11
39044.97629359173
 21
3930.052647141328
 31
0.0
 12
39036.59337776711
 22
3930.052647141328
 32
0.0
 13
39036.59337776711
 23
3930.052647141328
 33
0.0
210
0.0
220
0.0
230
1.0
  0
SOLID
  5
314
330
25F
100
AcDbEntity
  8
HATCH
  6
CONTINUOUS
 62
     4
100
AcDbTrace
 10
39047.67592991607
 20
3917.560794708794
 30
0.0
 11
39036.59337776711
 21
3930.052647141328
 31
0.0
 12
38943.40934127471
 22
3930.052647141328
 32
0.0
 13
38943.40934127471
 23
3930.052647141328
 33
0.0
  0
SOLID
  5
315
330
25F
100
AcDbEntity
  8
HATCH
  6
CONTINUOUS
 62
     4
100
AcDbTrace
 10
38943.40934127471
 20
3930.052647141328
 30
0.0
 11
38945.89924815009
 21
3915.69346329386
 31
0.0
 12
39047.67592991607
 22
3917.560794708794
 32
0.0
 13
39047.67592991607
 23
3917.560794708794
 33
0.0
210
0.0
220
0.0
230
1.0
  0
SOLID
  5
316
330
25F
100
AcDbEntity
  8
HATCH
  6
CONTINUOUS
 62
     4
100
AcDbTrace
 10
39826.82470541909
 20
3917.560794708794
 30
0.0
 11
39931.09129406045
 21
3930.052647141328
 31
0.0
 12
39829.52434174343
 22
3930.052647141328
 32
0.0
 13
39829.52434174343
 23
3930.052647141328
 33
0.0
210
0.0
220
0.0
230
1.0
  0
SOLID
  5
317
330
25F
100
AcDbEntity
  8
HATCH
  6
CONTINUOUS
 62
     4
100
AcDbTrace
 10
39931.09129406045
 20
3930.052647141328
 30
0.0
 11
39826.82470541909
 21
3917.560794708794
 31
0.0
 12
39928.60138718506
 22
3915.69346329386
 32
0.0
 13
39928.60138718506
 23
3915.69346329386
 33
0.0
210
0.0
220
0.0
230
1.0
  0
SOLID
  5
318
330
25F
100
AcDbEntity
  8
HATCH
  6
CONTINUOUS
 62
     4
100
AcDbTrace
 10
39047.67592991607
 20
4099.019290327361
 30
0.0
 11
38943.40934127471
 21
4086.527437894828
 31
0.0
 12
39044.97629359173
 22
4086.527437894828
 32
0.0
 13
39044.97629359173
 23
4086.527437894828
 33
0.0
210
0.0
220
0.0
230
1.0
  0
SOLID
  5
319
330
25F
100
AcDbEntity
  8
HATCH
  6
CONTINUOUS
 62
     4
100
AcDbTrace
 10
39826.82470541909
 20
4099.019290327361
 30
0.0
 11
39837.90725756805
 21
4086.527437894828
 31
0.0
 12
39931.09129406045
 22
4086.527437894828
 32
0.0
 13
39931.09129406045
 23
4086.527437894828
 33
0.0
  0
SOLID
  5
31A
330
25F
100
AcDbEntity
  8
HATCH
  6
CONTINUOUS
 62
     4
100
AcDbTrace
 10
39826.82470541909
 20
4099.019290327361
 30
0.0
 11
39829.52434174343
 21
4086.527437894828
 31
0.0
 12
39837.90725756805
 22
4086.527437894828
 32
0.0
 13
39837.90725756805
 23
4086.527437894828
 33
0.0
  0
SOLID
  5
31B
330
25F
100
AcDbEntity
  8
HATCH
  6
CONTINUOUS
 62
     4
100
AcDbTrace
 10
38945.89924815009
 20
4100.886621742295
 30
0.0
 11
38943.40934127471
 21
4086.527437894828
 31
0.0
 12
39047.67592991607
 22
4099.019290327361
 32
0.0
 13
39047.67592991607
 23
4099.019290327361
 33
0.0
  0
SOLID
  5
31C
330
25F
100
AcDbEntity
  8
HATCH
  6
CONTINUOUS
 62
     4
100
AcDbTrace
 10
39928.60138718506
 20
4100.886621742296
 30
0.0
 11
39826.82470541909
 21
4099.019290327361
 31
0.0
 12
39931.09129406045
 22
4086.527437894828
 32
0.0
 13
39931.09129406045
 23
4086.527437894828
 33
0.0
210
0.0
220
0.0
230
1.0
  0
SOLID
  5
31D
330
25F
100
AcDbEntity
  8
HATCH
  6
CONTINUOUS
 62
     4
100
AcDbTrace
 10
39050.77325939124
 20
4111.418522706918
 30
0.0
 11
38945.89924815009
 21
4100.886621742295
 31
0.0
 12
39047.67592991607
 22
4099.019290327361
 32
0.0
 13
39047.67592991607
 23
4099.019290327361
 33
0.0
  0
SOLID
  5
31E
330
25F
100
AcDbEntity
  8
HATCH
  6
CONTINUOUS
 62
     4
100
AcDbTrace
 10
39823.72737594392
 20
4111.418522706918
 30
0.0
 11
39826.82470541909
 21
4099.019290327361
 31
0.0
 12
39928.60138718506
 22
4100.886621742296
 32
0.0
 13
39928.60138718506
 23
4100.886621742296
 33
0.0
210
0.0
220
0.0
230
1.0
  0
SOLID
  5
31F
330
25F
100
AcDbEntity
  8
HATCH
  6
CONTINUOUS
 62
     4
100
AcDbTrace
 10
39925.69405635562
 20
4115.167140796646
 30
0.0
 11
39823.72737594392
 21
4111.418522706918
 31
0.0
 12
39928.60138718506
 22
4100.886621742296
 32
0.0
 13
39928.60138718506
 23
4100.886621742296
 33
0.0
210
0.0
220
0.0
230
1.0
  0
SOLID
  5
320
330
25F
100
AcDbEntity
  8
HATCH
  6
CONTINUOUS
 62
     4
100
AcDbTrace
 10
38948.80657897953
 20
4115.167140796646
 30
0.0
 11
38945.89924815009
 21
4100.886621742295
 31
0.0
 12
39050.77325939124
 22
4111.418522706918
 32
0.0
 13
39050.77325939124
 23
4111.418522706918
 33
0.0
210
0.0
220
0.0
230
1.0
  0
SOLID
  5
321
330
25F
100
AcDbEntity
  8
HATCH
  6
CONTINUOUS
 62
     4
100
AcDbTrace
 10
39054.26512013912
 20
4123.712477400068
 30
0.0
 11
38948.80657897953
 21
4115.167140796646
 31
0.0
 12
39050.77325939124
 22
4111.418522706918
 32
0.0
 13
39050.77325939124
 23
4111.418522706918
 33
0.0
210
0.0
220
0.0
230
1.0
  0
SOLID
  5
322
330
25F
100
AcDbEntity
  8
HATCH
  6
CONTINUOUS
 62
     4
100
AcDbTrace
 10
39820.23551519603
 20
4123.712477400069
 30
0.0
 11
39823.72737594392
 21
4111.418522706918
 31
0.0
 12
39925.69405635562
 22
4115.167140796646
 32
0.0
 13
39925.69405635562
 23
4115.167140796646
 33
0.0
210
0.0
220
0.0
230
1.0
  0
SOLID
  5
323
330
25F
100
AcDbEntity
  8
HATCH
  6
CONTINUOUS
 62
     4
100
AcDbTrace
 10
38952.12886385992
 20
4129.356863140196
 30
0.0
 11
38948.80657897953
 21
4115.167140796646
 31
0.0
 12
39054.26512013912
 22
4123.712477400068
 32
0.0
 13
39054.26512013912
 23
4123.712477400068
 33
0.0
  0
SOLID
  5
324
330
25F
100
AcDbEntity
  8
HATCH
  6
CONTINUOUS
 62
     4
100
AcDbTrace
 10
39922.37177147524
 20
4129.356863140197
 30
0.0
 11
39820.23551519603
 21
4123.712477400069
 31
0.0
 12
39925.69405635562
 22
4115.167140796646
 32
0.0
 13
39925.69405635562
 23
4115.167140796646
 33
0.0
  0
SOLID
  5
325
330
25F
100
AcDbEntity
  8
HATCH
  6
CONTINUOUS
 62
     4
100
AcDbTrace
 10
39058.14794752832
 20
4135.888604245071
 30
0.0
 11
38952.12886385992
 21
4129.356863140196
 31
0.0
 12
39054.26512013912
 22
4123.712477400068
 32
0.0
 13
39054.26512013912
 23
4123.712477400068
 33
0.0
210
0.0
220
0.0
230
1.0
  0
SOLID
  5
326
330
25F
100
AcDbEntity
  8
HATCH
  6
CONTINUOUS
 62
     4
100
AcDbTrace
 10
39816.35268780683
 20
4135.888604245071
 30
0.0
 11
39820.23551519603
 21
4123.712477400069
 31
0.0
 12
39922.37177147524
 22
4129.356863140197
 32
0.0
 13
39922.37177147524
 23
4129.356863140197
 33
0.0
210
0.0
220
0.0
230
1.0
  0
SOLID
  5
327
330
25F
100
AcDbEntity
  8
HATCH
  6
CONTINUOUS
 62
     4
100
AcDbTrace
 10
39918.63735496839
 20
4143.443733990987
 30
0.0
 11
39816.35268780683
 21
4135.888604245071
 31
0.0
 12
39922.37177147524
 22
4129.356863140197
 32
0.0
 13
39922.37177147524
 23
4129.356863140197
 33
0.0
210
0.0
220
0.0
230
1.0
  0
SOLID
  5
328
330
25F
100
AcDbEntity
  8
HATCH
  6
CONTINUOUS
 62
     4
100
AcDbTrace
 10
38955.86328036677
 20
4143.443733990987
 30
0.0
 11
38952.12886385992
 21
4129.356863140196
 31
0.0
 12
39058.14794752832
 22
4135.888604245071
 32
0.0
 13
39058.14794752832
 23
4135.888604245071
 33
0.0
210
0.0
220
0.0
230
1.0
  0
SOLID
  5
329
330
25F
100
AcDbEntity
  8
HATCH
  6
CONTINUOUS
 62
     4
100
AcDbTrace
 10
39062.41777781299
 20
4147.934473363569
 30
0.0
 11
38955.86328036677
 21
4143.443733990987
 31
0.0
 12
39058.14794752832
 22
4135.888604245071
 32
0.0
 13
39058.14794752832
 23
4135.888604245071
 33
0.0
  0
SOLID
  5
32A
330
25F
100
AcDbEntity
  8
HATCH
  6
CONTINUOUS
 62
     4
100
AcDbTrace
 10
39812.08285752216
 20
4147.93447336357
 30
0.0
 11
39816.35268780683
 21
4135.888604245071
 31
0.0
 12
39918.63735496839
 22
4143.443733990987
 32
0.0
 13
39918.63735496839
 23
4143.443733990987
 33
0.0
210
0.0
220
0.0
230
1.0
  0
SOLID
  5
32B
330
25F
100
AcDbEntity
  8
HATCH
  6
CONTINUOUS
 62
     4
100
AcDbTrace
 10
39914.49397938318
 20
4157.415785943846
 30
0.0
 11
39812.08285752216
 21
4147.93447336357
 31
0.0
 12
39918.63735496839
 22
4143.443733990987
 32
0.0
 13
39918.63735496839
 23
4143.443733990987
 33
0.0
210
0.0
220
0.0
230
1.0
  0
SOLID
  5
32C
330
25F
100
AcDbEntity
  8
HATCH
  6
CONTINUOUS
 62
     4
100
AcDbTrace
 10
38960.00665595198
 20
4157.415785943846
 30
0.0
 11
38955.86328036677
 21
4143.443733990987
 31
0.0
 12
39062.41777781299
 22
4147.934473363569
 32
0.0
 13
39062.41777781299
 23
4147.934473363569
 33
0.0
  0
SOLID
  5
32D
330
25F
100
AcDbEntity
  8
HATCH
  6
CONTINUOUS
 62
     4
100
AcDbTrace
 10
39067.07025217924
 20
4159.837787849519
 30
0.0
 11
38960.00665595198
 21
4157.415785943846
 31
0.0
 12
39062.41777781299
 22
4147.934473363569
 32
0.0
 13
39062.41777781299
 23
4147.934473363569
 33
0.0
  0
SOLID
  5
32E
330
25F
100
AcDbEntity
  8
HATCH
  6
CONTINUOUS
 62
     4
100
AcDbTrace
 10
39807.43038315592
 20
4159.837787849521
 30
0.0
 11
39812.08285752216
 21
4147.93447336357
 31
0.0
 12
39914.49397938318
 22
4157.415785943846
 32
0.0
 13
39914.49397938318
 23
4157.415785943846
 33
0.0
210
0.0
220
0.0
230
1.0
  0
SOLID
  5
32F
330
25F
100
AcDbEntity
  8
HATCH
  6
CONTINUOUS
 62
     4
100
AcDbTrace
 10
39909.94516469612
 20
4171.261149137215
 30
0.0
 11
39807.43038315592
 21
4159.837787849521
 31
0.0
 12
39914.49397938318
 22
4157.415785943846
 32
0.0
 13
39914.49397938318
 23
4157.415785943846
 33
0.0
210
0.0
220
0.0
230
1.0
  0
SOLID
  5
330
330
25F
100
AcDbEntity
  8
HATCH
  6
CONTINUOUS
 62
     4
100
AcDbTrace
 10
38964.55547063903
 20
4171.261149137215
 30
0.0
 11
38960.00665595198
 21
4157.415785943846
 31
0.0
 12
39067.07025217924
 22
4159.837787849519
 32
0.0
 13
39067.07025217924
 23
4159.837787849519
 33
0.0
210
0.0
220
0.0
230
1.0
  0
SOLID
  5
331
330
25F
100
AcDbEntity
  8
HATCH
  6
CONTINUOUS
 62
     4
100
AcDbTrace
 10
39072.10062119471
 20
4171.586396322357
 30
0.0
 11
38964.55547063903
 21
4171.261149137215
 31
0.0
 12
39067.07025217924
 22
4159.837787849519
 32
0.0
 13
39067.07025217924
 23
4159.837787849519
 33
0.0
210
0.0
220
0.0
230
1.0
  0
SOLID
  5
332
330
25F
100
AcDbEntity
  8
HATCH
  6
CONTINUOUS
 62
     4
100
AcDbTrace
 10
39802.40001414044
 20
4171.586396322357
 30
0.0
 11
39807.43038315592
 21
4159.837787849521
 31
0.0
 12
39909.94516469612
 22
4171.261149137215
 32
0.0
 13
39909.94516469612
 23
4171.261149137215
 33
0.0
210
0.0
220
0.0
230
1.0
  0
SOLID
  5
333
330
25F
100
AcDbEntity
  8
HATCH
  6
CONTINUOUS
 62
     4
100
AcDbTrace
 10
39077.5037496571
 20
4183.16830533162
 30
0.0
 11
38964.55547063903
 21
4171.261149137215
 31
0.0
 12
39072.10062119471
 22
4171.586396322357
 32
0.0
 13
39072.10062119471
 23
4171.586396322357
 33
0.0
210
0.0
220
0.0
230
1.0
  0
SOLID
  5
334
330
25F
100
AcDbEntity
  8
HATCH
  6
CONTINUOUS
 62
     4
100
AcDbTrace
 10
39796.99688567805
 20
4183.16830533162
 30
0.0
 11
39802.40001414044
 21
4171.586396322357
 31
0.0
 12
39909.94516469612
 22
4171.261149137215
 32
0.0
 13
39909.94516469612
 23
4171.261149137215
 33
0.0
  0
SOLID
  5
335
330
25F
100
AcDbEntity
  8
HATCH
  6
CONTINUOUS
 62
     4
100
AcDbTrace
 10
38969.50586001342
 20
4184.968061337105
 30
0.0
 11
38964.55547063903
 21
4171.261149137215
 31
0.0
 12
39077.5037496571
 22
4183.16830533162
 32
0.0
 13
39077.5037496571
 23
4183.16830533162
 33
0.0
210
0.0
220
0.0
230
1.0
  0
SOLID
  5
336
330
25F
100
AcDbEntity
  8
HATCH
  6
CONTINUOUS
 62
     4
100
AcDbTrace
 10
39904.99477532174
 20
4184.968061337106
 30
0.0
 11
39796.99688567805
 21
4183.16830533162
 31
0.0
 12
39909.94516469612
 22
4171.261149137215
 32
0.0
 13
39909.94516469612
 23
4171.261149137215
 33
0.0
210
0.0
220
0.0
230
1.0
  0
SOLID
  5
337
330
25F
100
AcDbEntity
  8
HATCH
  6
CONTINUOUS
 62
     4
100
AcDbTrace
 10
39083.27412183629
 20
4194.571691600338
 30
0.0
 11
38969.50586001342
 21
4184.968061337105
 31
0.0
 12
39077.5037496571
 22
4183.16830533162
 32
0.0
 13
39077.5037496571
 23
4183.16830533162
 33
0.0
210
0.0
220
0.0
230
1.0
  0
SOLID
  5
338
330
25F
100
AcDbEntity
  8
HATCH
  6
CONTINUOUS
 62
     4
100
AcDbTrace
 10
39791.22651349887
 20
4194.571691600338
 30
0.0
 11
39796.99688567805
 21
4183.16830533162
 31
0.0
 12
39904.99477532174
 22
4184.968061337106
 32
0.0
 13
39904.99477532174
 23
4184.968061337106
 33
0.0
210
0.0
220
0.0
230
1.0
  0
SOLID
  5
339
330
25F
100
AcDbEntity
  8
HATCH
  6
CONTINUOUS
 62
     4
100
AcDbTrace
 10
38974.85361850554
 20
4198.52487792963
 30
0.0
 11
38969.50586001342
 21
4184.968061337105
 31
0.0
 12
39083.27412183629
 22
4194.571691600338
 32
0.0
 13
39083.27412183629
 23
4194.571691600338
 33
0.0
210
0.0
220
0.0
230
1.0
  0
SOLID
  5
33A
330
25F
100
AcDbEntity
  8
HATCH
  6
CONTINUOUS
 62
     4
100
AcDbTrace
 10
39899.64701682961
 20
4198.524877929631
 30
0.0
 11
39791.22651349887
 21
4194.571691600338
 31
0.0
 12
39904.99477532174
 22
4184.968061337106
 32
0.0
 13
39904.99477532174
 23
4184.968061337106
 33
0.0
  0
SOLID
  5
33B
330
25F
100
AcDbEntity
  8
HATCH
  6
CONTINUOUS
 62
     4
100
AcDbTrace
 10
39089.40584710505
 20
4205.784914094714
 30
0.0
 11
38974.85361850554
 21
4198.52487792963
 31
0.0
 12
39083.27412183629
 22
4194.571691600338
 32
0.0
 13
39083.27412183629
 23
4194.571691600338
 33
0.0
210
0.0
220
0.0
230
1.0
  0
SOLID
  5
33C
330
25F
100
AcDbEntity
  8
HATCH
  6
CONTINUOUS
 62
     4
100
AcDbTrace
 10
39785.09478823011
 20
4205.784914094714
 30
0.0
 11
39791.22651349887
 21
4194.571691600338
 31
0.0
 12
39899.64701682961
 22
4198.524877929631
 32
0.0
 13
39899.64701682961
 23
4198.524877929631
 33
0.0
210
0.0
220
0.0
230
1.0
  0
SOLID
  5
33D
330
25F
100
AcDbEntity
  8
HATCH
  6
CONTINUOUS
 62
     4
100
AcDbTrace
 10
38980.59420296363
 20
4211.920081813599
 30
0.0
 11
38974.85361850554
 21
4198.52487792963
 31
0.0
 12
39089.40584710505
 22
4205.784914094714
 32
0.0
 13
39089.40584710505
 23
4205.784914094714
 33
0.0
210
0.0
220
0.0
230
1.0
  0
SOLID
  5
33E
330
25F
100
AcDbEntity
  8
HATCH
  6
CONTINUOUS
 62
     4
100
AcDbTrace
 10
39893.90643237153
 20
4211.920081813601
 30
0.0
 11
39785.09478823011
 21
4205.784914094714
 31
0.0
 12
39899.64701682961
 22
4198.524877929631
 32
0.0
 13
39899.64701682961
 23
4198.524877929631
 33
0.0
210
0.0
220
0.0
230
1.0
  0
SOLID
  5
33F
330
25F
100
AcDbEntity
  8
HATCH
  6
CONTINUOUS
 62
     4
100
AcDbTrace
 10
39095.89266595244
 20
4216.796525907748
 30
0.0
 11
38980.59420296363
 21
4211.920081813599
 31
0.0
 12
39089.40584710505
 22
4205.784914094714
 32
0.0
 13
39089.40584710505
 23
4205.784914094714
 33
0.0
210
0.0
220
0.0
230
1.0
  0
SOLID
  5
340
330
25F
100
AcDbEntity
  8
HATCH
  6
CONTINUOUS
 62
     4
100
AcDbTrace
 10
39778.60796938271
 20
4216.796525907748
 30
0.0
 11
39785.09478823011
 21
4205.784914094714
 31
0.0
 12
39893.90643237153
 22
4211.920081813601
 32
0.0
 13
39893.90643237153
 23
4211.920081813601
 33
0.0
210
0.0
220
0.0
230
1.0
  0
SOLID
  5
341
330
25F
100
AcDbEntity
  8
HATCH
  6
CONTINUOUS
 62
     4
100
AcDbTrace
 10
38986.72273651324
 20
4225.142293184802
 30
0.0
 11
38980.59420296363
 21
4211.920081813599
 31
0.0
 12
39095.89266595244
 22
4216.796525907748
 32
0.0
 13
39095.89266595244
 23
4216.796525907748
 33
0.0
210
0.0
220
0.0
230
1.0
  0
SOLID
  5
342
330
25F
100
AcDbEntity
  8
HATCH
  6
CONTINUOUS
 62
     4
100
AcDbTrace
 10
39887.77789882192
 20
4225.142293184804
 30
0.0
 11
39778.60796938271
 21
4216.796525907748
 31
0.0
 12
39893.90643237153
 22
4211.920081813601
 32
0.0
 13
39893.90643237153
 23
4211.920081813601
 33
0.0
210
0.0
220
0.0
230
1.0
  0
SOLID
  5
343
330
25F
100
AcDbEntity
  8
HATCH
  6
CONTINUOUS
 62
     4
100
AcDbTrace
 10
39102.72795637377
 20
4227.595285944715
 30
0.0
 11
38986.72273651324
 21
4225.142293184802
 31
0.0
 12
39095.89266595244
 22
4216.796525907748
 32
0.0
 13
39095.89266595244
 23
4216.796525907748
 33
0.0
  0
SOLID
  5
344
330
25F
100
AcDbEntity
  8
HATCH
  6
CONTINUOUS
 62
     4
100
AcDbTrace
 10
39771.77267896138
 20
4227.595285944715
 30
0.0
 11
39778.60796938271
 21
4216.796525907748
 31
0.0
 12
39887.77789882192
 22
4225.142293184804
 32
0.0
 13
39887.77789882192
 23
4225.142293184804
 33
0.0
210
0.0
220
0.0
230
1.0
  0
SOLID
  5
345
330
25F
100
AcDbEntity
  8
HATCH
  6
CONTINUOUS
 62
     4
100
AcDbTrace
 10
39109.90474063059
 20
4238.170170398506
 30
0.0
 11
38986.72273651324
 21
4225.142293184802
 31
0.0
 12
39102.72795637377
 22
4227.595285944715
 32
0.0
 13
39102.72795637377
 23
4227.595285944715
 33
0.0
210
0.0
220
0.0
230
1.0
  0
SOLID
  5
346
330
25F
100
AcDbEntity
  8
HATCH
  6
CONTINUOUS
 62
     4
100
AcDbTrace
 10
39764.59589470456
 20
4238.170170398506
 30
0.0
 11
39771.77267896138
 21
4227.595285944715
 31
0.0
 12
39887.77789882192
 22
4225.142293184804
 32
0.0
 13
39887.77789882192
 23
4225.142293184804
 33
0.0
210
0.0
220
0.0
230
1.0
  0
SOLID
  5
347
330
25F
100
AcDbEntity
  8
HATCH
  6
CONTINUOUS
 62
     4
100
AcDbTrace
 10
38993.23401270045
 20
4238.180279203638
 30
0.0
 11
38986.72273651324
 21
4225.142293184802
 31
0.0
 12
39109.90474063059
 22
4238.170170398506
 32
0.0
 13
39109.90474063059
 23
4238.170170398506
 33
0.0
210
0.0
220
0.0
230
1.0
  0
SOLID
  5
348
330
25F
100
AcDbEntity
  8
HATCH
  6
CONTINUOUS
 62
     4
100
AcDbTrace
 10
39881.26662263471
 20
4238.180279203638
 30
0.0
 11
39764.59589470456
 21
4238.170170398506
 31
0.0
 12
39887.77789882192
 22
4225.142293184804
 32
0.0
 13
39887.77789882192
 23
4225.142293184804
 33
0.0
210
0.0
220
0.0
230
1.0
  0
SOLID
  5
349
330
25F
100
AcDbEntity
  8
HATCH
  6
CONTINUOUS
 62
     4
100
AcDbTrace
 10
39117.41569237385
 20
4248.510384003182
 30
0.0
 11
38993.23401270045
 21
4238.180279203638
 31
0.0
 12
39109.90474063059
 22
4238.170170398506
 32
0.0
 13
39109.90474063059
 23
4238.170170398506
 33
0.0
210
0.0
220
0.0
230
1.0
  0
SOLID
  5
34A
330
25F
100
AcDbEntity
  8
HATCH
  6
CONTINUOUS
 62
     4
100
AcDbTrace
 10
39757.08494296131
 20
4248.510384003182
 30
0.0
 11
39764.59589470456
 21
4238.170170398506
 31
0.0
 12
39881.26662263471
 22
4238.180279203638
 32
0.0
 13
39881.26662263471
 23
4238.180279203638
 33
0.0
210
0.0
220
0.0
230
1.0
  0
SOLID
  5
34B
330
25F
100
AcDbEntity
  8
HATCH
  6
CONTINUOUS
 62
     4
100
AcDbTrace
 10
39000.12249991493
 20
4251.022963537896
 30
0.0
 11
38993.23401270045
 21
4238.180279203638
 31
0.0
 12
39117.41569237385
 22
4248.510384003182
 32
0.0
 13
39117.41569237385
 23
4248.510384003182
 33
0.0
210
0.0
220
0.0
230
1.0
  0
SOLID
  5
34C
330
25F
100
AcDbEntity
  8
HATCH
  6
CONTINUOUS
 62
     4
100
AcDbTrace
 10
39874.37813542022
 20
4251.022963537898
 30
0.0
 11
39757.08494296131
 21
4248.510384003182
 31
0.0
 12
39881.26662263471
 22
4238.180279203638
 32
0.0
 13
39881.26662263471
 23
4238.180279203638
 33
0.0
210
0.0
220
0.0
230
1.0
  0
SOLID
  5
34D
330
25F
100
AcDbEntity
  8
HATCH
  6
CONTINUOUS
 62
     4
100
AcDbTrace
 10
39125.25314412294
 20
4258.605371054219
 30
0.0
 11
39000.12249991493
 21
4251.022963537896
 31
0.0
 12
39117.41569237385
 22
4248.510384003182
 32
0.0
 13
39117.41569237385
 23
4248.510384003182
 33
0.0
210
0.0
220
0.0
230
1.0
  0
SOLID
  5
34E
330
25F
100
AcDbEntity
  8
HATCH
  6
CONTINUOUS
 62
     4
100
AcDbTrace
 10
39749.24749121221
 20
4258.605371054219
 30
0.0
 11
39757.08494296131
 21
4248.510384003182
 31
0.0
 12
39874.37813542022
 22
4251.022963537898
 32
0.0
 13
39874.37813542022
 23
4251.022963537898
 33
0.0
  0
SOLID
  5
34F
330
25F
100
AcDbEntity
  8
HATCH
  6
CONTINUOUS
 62
     4
100
AcDbTrace
 10
39007.38234608929
 20
4263.659435772586
 30
0.0
 11
39000.12249991493
 21
4251.022963537896
 31
0.0
 12
39125.25314412294
 22
4258.605371054219
 32
0.0
 13
39125.25314412294
 23
4258.605371054219
 33
0.0
  0
SOLID
  5
350
330
25F
100
AcDbEntity
  8
HATCH
  6
CONTINUOUS
 62
     4
100
AcDbTrace
 10
39867.11828924586
 20
4263.659435772587
 30
0.0
 11
39749.24749121221
 21
4258.605371054219
 31
0.0
 12
39874.37813542022
 22
4251.022963537898
 32
0.0
 13
39874.37813542022
 23
4251.022963537898
 33
0.0
210
0.0
220
0.0
230
1.0
  0
SOLID
  5
351
330
25F
100
AcDbEntity
  8
HATCH
  6
CONTINUOUS
 62
     4
100
AcDbTrace
 10
39133.40909509296
 20
4268.444826184184
 30
0.0
 11
39007.38234608929
 21
4263.659435772586
 31
0.0
 12
39125.25314412294
 22
4258.605371054219
 32
0.0
 13
39125.25314412294
 23
4258.605371054219
 33
0.0
210
0.0
220
0.0
230
1.0
  0
SOLID
  5
352
330
25F
100
AcDbEntity
  8
HATCH
  6
CONTINUOUS
 62
     4
100
AcDbTrace
 10
39741.0915402422
 20
4268.444826184184
 30
0.0
 11
39749.24749121221
 21
4258.605371054219
 31
0.0
 12
39867.11828924586
 22
4263.659435772587
 32
0.0
 13
39867.11828924586
 23
4263.659435772587
 33
0.0
210
0.0
220
0.0
230
1.0
  0
SOLID
  5
353
330
25F
100
AcDbEntity
  8
HATCH
  6
CONTINUOUS
 62
     4
100
AcDbTrace
 10
39015.00738367068
 20
4276.078960678799
 30
0.0
 11
39007.38234608929
 21
4263.659435772586
 31
0.0
 12
39133.40909509296
 22
4268.444826184184
 32
0.0
 13
39133.40909509296
 23
4268.444826184184
 33
0.0
210
0.0
220
0.0
230
1.0
  0
SOLID
  5
354
330
25F
100
AcDbEntity
  8
HATCH
  6
CONTINUOUS
 62
     4
100
AcDbTrace
 10
39859.49325166448
 20
4276.0789606788
 30
0.0
 11
39741.0915402422
 21
4268.444826184184
 31
0.0
 12
39867.11828924586
 22
4263.659435772587
 32
0.0
 13
39867.11828924586
 23
4263.659435772587
 33
0.0
  0
SOLID
  5
355
330
25F
100
AcDbEntity
  8
HATCH
  6
CONTINUOUS
 62
     4
100
AcDbTrace
 10
39141.87521936222
 20
4278.018704882875
 30
0.0
 11
39015.00738367068
 21
4276.078960678799
 31
0.0
 12
39133.40909509296
 22
4268.444826184184
 32
0.0
 13
39133.40909509296
 23
4268.444826184184
 33
0.0
  0
SOLID
  5
356
330
25F
100
AcDbEntity
  8
HATCH
  6
CONTINUOUS
 62
     4
100
AcDbTrace
 10
39732.62541597293
 20
4278.018704882875
 30
0.0
 11
39741.0915402422
 21
4268.444826184184
 31
0.0
 12
39859.49325166448
 22
4276.0789606788
 32
0.0
 13
39859.49325166448
 23
4276.0789606788
 33
0.0
210
0.0
220
0.0
230
1.0
  0
SOLID
  5
357
330
25F
100
AcDbEntity
  8
HATCH
  6
CONTINUOUS
 62
     4
100
AcDbTrace
 10
39150.64287437174
 20
4287.317233751151
 30
0.0
 11
39015.00738367068
 21
4276.078960678799
 31
0.0
 12
39141.87521936222
 22
4278.018704882875
 32
0.0
 13
39141.87521936222
 23
4278.018704882875
 33
0.0
210
0.0
220
0.0
230
1.0
  0
SOLID
  5
358
330
25F
100
AcDbEntity
  8
HATCH
  6
CONTINUOUS
 62
     4
100
AcDbTrace
 10
39723.85776096342
 20
4287.317233751151
 30
0.0
 11
39732.62541597293
 21
4278.018704882875
 31
0.0
 12
39859.49325166448
 22
4276.0789606788
 32
0.0
 13
39859.49325166448
 23
4276.0789606788
 33
0.0
210
0.0
220
0.0
230
1.0
  0
SOLID
  5
359
330
25F
100
AcDbEntity
  8
HATCH
  6
CONTINUOUS
 62
     4
100
AcDbTrace
 10
39022.99113486034
 20
4288.270987333752
 30
0.0
 11
39015.00738367068
 21
4276.078960678799
 31
0.0
 12
39150.64287437174
 22
4287.317233751151
 32
0.0
 13
39150.64287437174
 23
4287.317233751151
 33
0.0
210
0.0
220
0.0
230
1.0
  0
SOLID
  5
35A
330
25F
100
AcDbEntity
  8
HATCH
  6
CONTINUOUS
 62
     4
100
AcDbTrace
 10
39851.50950047482
 20
4288.270987333754
 30
0.0
 11
39723.85776096342
 21
4287.317233751151
 31
0.0
 12
39859.49325166448
 22
4276.0789606788
 32
0.0
 13
39859.49325166448
 23
4276.0789606788
 33
0.0
210
0.0
220
0.0
230
1.0
  0
SOLID
  5
35B
330
25F
100
AcDbEntity
  8
HATCH
  6
CONTINUOUS
 62
     4
100
AcDbTrace
 10
39159.7031097478
 20
4296.330920478022
 30
0.0
 11
39022.99113486034
 21
4288.270987333752
 31
0.0
 12
39150.64287437174
 22
4287.317233751151
 32
0.0
 13
39150.64287437174
 23
4287.317233751151
 33
0.0
210
0.0
220
0.0
230
1.0
  0
SOLID
  5
35C
330
25F
100
AcDbEntity
  8
HATCH
  6
CONTINUOUS
 62
     4
100
AcDbTrace
 10
39714.79752558736
 20
4296.330920478022
 30
0.0
 11
39723.85776096342
 21
4287.317233751151
 31
0.0
 12
39851.50950047482
 22
4288.270987333754
 32
0.0
 13
39851.50950047482
 23
4288.270987333754
 33
0.0
210
0.0
220
0.0
230
1.0
  0
SOLID
  5
35D
330
25F
100
AcDbEntity
  8
HATCH
  6
CONTINUOUS
 62
     4
100
AcDbTrace
 10
39843.17381821832
 20
4300.225158084253
 30
0.0
 11
39714.79752558736
 21
4296.330920478022
 31
0.0
 12
39851.50950047482
 22
4288.270987333754
 32
0.0
 13
39851.50950047482
 23
4288.270987333754
 33
0.0
210
0.0
220
0.0
230
1.0
  0
SOLID
  5
35E
330
25F
100
AcDbEntity
  8
HATCH
  6
CONTINUOUS
 62
     4
100
AcDbTrace
 10
39031.32681711683
 20
4300.225158084253
 30
0.0
 11
39022.99113486034
 21
4288.270987333752
 31
0.0
 12
39159.7031097478
 22
4296.330920478022
 32
0.0
 13
39159.7031097478
 23
4296.330920478022
 33
0.0
  0
SOLID
  5
35F
330
25F
100
AcDbEntity
  8
HATCH
  6
CONTINUOUS
 62
     4
100
AcDbTrace
 10
39169.04667643899
 20
4305.050563530768
 30
0.0
 11
39031.32681711683
 21
4300.225158084253
 31
0.0
 12
39159.7031097478
 22
4296.330920478022
 32
0.0
 13
39159.7031097478
 23
4296.330920478022
 33
0.0
210
0.0
220
0.0
230
1.0
  0
SOLID
  5
360
330
25F
100
AcDbEntity
  8
HATCH
  6
CONTINUOUS
 62
     4
100
AcDbTrace
 10
39705.45395889617
 20
4305.050563530768
 30
0.0
 11
39714.79752558736
 21
4296.330920478022
 31
0.0
 12
39843.17381821832
 22
4300.225158084253
 32
0.0
 13
39843.17381821832
 23
4300.225158084253
 33
0.0
210
0.0
220
0.0
230
1.0
  0
SOLID
  5
361
330
25F
100
AcDbEntity
  8
HATCH
  6
CONTINUOUS
 62
     4
100
AcDbTrace
 10
39834.49328641705
 20
4311.931317345971
 30
0.0
 11
39705.45395889617
 21
4305.050563530768
 31
0.0
 12
39843.17381821832
 22
4300.225158084253
 32
0.0
 13
39843.17381821832
 23
4300.225158084253
 33
0.0
210
0.0
220
0.0
230
1.0
  0
SOLID
  5
362
330
25F
100
AcDbEntity
  8
HATCH
  6
CONTINUOUS
 62
     4
100
AcDbTrace
 10
39040.0073489181
 20
4311.931317345971
 30
0.0
 11
39031.32681711683
 21
4300.225158084253
 31
0.0
 12
39169.04667643899
 22
4305.050563530768
 32
0.0
 13
39169.04667643899
 23
4305.050563530768
 33
0.0
  0
SOLID
  5
363
330
25F
100
AcDbEntity
  8
HATCH
  6
CONTINUOUS
 62
     4
100
AcDbTrace
 10
39178.66403615788
 20
4313.467261548242
 30
0.0
 11
39040.0073489181
 21
4311.931317345971
 31
0.0
 12
39169.04667643899
 22
4305.050563530768
 32
0.0
 13
39169.04667643899
 23
4305.050563530768
 33
0.0
210
0.0
220
0.0
230
1.0
  0
SOLID
  5
364
330
25F
100
AcDbEntity
  8
HATCH
  6
CONTINUOUS
 62
     4
100
AcDbTrace
 10
39695.83659917728
 20
4313.467261548242
 30
0.0
 11
39705.45395889617
 21
4305.050563530768
 31
0.0
 12
39834.49328641705
 22
4311.931317345971
 32
0.0
 13
39834.49328641705
 23
4311.931317345971
 33
0.0
210
0.0
220
0.0
230
1.0
  0
SOLID
  5
365
330
25F
100
AcDbEntity
  8
HATCH
  6
CONTINUOUS
 62
     4
100
AcDbTrace
 10
39188.54537111817
 20
4321.57242242773
 30
0.0
 11
39040.0073489181
 21
4311.931317345971
 31
0.0
 12
39178.66403615788
 22
4313.467261548242
 32
0.0
 13
39178.66403615788
 23
4313.467261548242
 33
0.0
210
0.0
220
0.0
230
1.0
  0
SOLID
  5
366
330
25F
100
AcDbEntity
  8
HATCH
  6
CONTINUOUS
 62
     4
100
AcDbTrace
 10
39685.95526421698
 20
4321.57242242773
 30
0.0
 11
39695.83659917728
 21
4313.467261548242
 31
0.0
 12
39834.49328641705
 22
4311.931317345971
 32
0.0
 13
39834.49328641705
 23
4311.931317345971
 33
0.0
210
0.0
220
0.0
230
1.0
  0
SOLID
  5
367
330
25F
100
AcDbEntity
  8
HATCH
  6
CONTINUOUS
 62
     4
100
AcDbTrace
 10
39049.02535577747
 20
4323.379520231044
 30
0.0
 11
39040.0073489181
 21
4311.931317345971
 31
0.0
 12
39188.54537111817
 22
4321.57242242773
 32
0.0
 13
39188.54537111817
 23
4321.57242242773
 33
0.0
  0
SOLID
  5
368
330
25F
100
AcDbEntity
  8
HATCH
  6
CONTINUOUS
 62
     4
100
AcDbTrace
 10
39825.47527955768
 20
4323.379520231045
 30
0.0
 11
39685.95526421698
 21
4321.57242242773
 31
0.0
 12
39834.49328641705
 22
4311.931317345971
 32
0.0
 13
39834.49328641705
 23
4311.931317345971
 33
0.0
210
0.0
220
0.0
230
1.0
  0
SOLID
  5
369
330
25F
100
AcDbEntity
  8
HATCH
  6
CONTINUOUS
 62
     4
100
AcDbTrace
 10
39198.68059405705
 20
4329.357772096117
 30
0.0
 11
39049.02535577747
 21
4323.379520231044
 31
0.0
 12
39188.54537111817
 22
4321.57242242773
 32
0.0
 13
39188.54537111817
 23
4321.57242242773
 33
0.0
210
0.0
220
0.0
230
1.0
  0
SOLID
  5
36A
330
25F
100
AcDbEntity
  8
HATCH
  6
CONTINUOUS
 62
     4
100
AcDbTrace
 10
39675.8200412781
 20
4329.357772096117
 30
0.0
 11
39685.95526421698
 21
4321.57242242773
 31
0.0
 12
39825.47527955768
 22
4323.379520231045
 32
0.0
 13
39825.47527955768
 23
4323.379520231045
 33
0.0
210
0.0
220
0.0
230
1.0
  0
SOLID
  5
36B
330
25F
100
AcDbEntity
  8
HATCH
  6
CONTINUOUS
 62
     4
100
AcDbTrace
 10
39058.37317650865
 20
4334.560040996701
 30
0.0
 11
39049.02535577747
 21
4323.379520231044
 31
0.0
 12
39198.68059405705
 22
4329.357772096117
 32
0.0
 13
39198.68059405705
 23
4329.357772096117
 33
0.0
210
0.0
220
0.0
230
1.0
  0
SOLID
  5
36C
330
25F
100
AcDbEntity
  8
HATCH
  6
CONTINUOUS
 62
     4
100
AcDbTrace
 10
39816.1274588265
 20
4334.560040996702
 30
0.0
 11
39675.8200412781
 21
4329.357772096117
 31
0.0
 12
39825.47527955768
 22
4323.379520231045
 32
0.0
 13
39825.47527955768
 23
4323.379520231045
 33
0.0
210
0.0
220
0.0
230
1.0
  0
SOLID
  5
36D
330
25F
100
AcDbEntity
  8
HATCH
  6
CONTINUOUS
 62
     4
100
AcDbTrace
 10
39209.05935853269
 20
4336.815362956393
 30
0.0
 11
39058.37317650865
 21
4334.560040996701
 31
0.0
 12
39198.68059405705
 22
4329.357772096117
 32
0.0
 13
39198.68059405705
 23
4329.357772096117
 33
0.0
  0
SOLID
  5
36E
330
25F
100
AcDbEntity
  8
HATCH
  6
CONTINUOUS
 62
     4
100
AcDbTrace
 10
39665.44127680247
 20
4336.815362956393
 30
0.0
 11
39675.8200412781
 21
4329.357772096117
 31
0.0
 12
39816.1274588265
 22
4334.560040996702
 32
0.0
 13
39816.1274588265
 23
4334.560040996702
 33
0.0
210
0.0
220
0.0
230
1.0
  0
SOLID
  5
36F
330
25F
100
AcDbEntity
  8
HATCH
  6
CONTINUOUS
 62
     4
100
AcDbTrace
 10
39219.67106948627
 20
4343.937582000873
 30
0.0
 11
39058.37317650865
 21
4334.560040996701
 31
0.0
 12
39209.05935853269
 22
4336.815362956393
 32
0.0
 13
39209.05935853269
 23
4336.815362956393
 33
0.0
210
0.0
220
0.0
230
1.0
  0
SOLID
  5
370
330
25F
100
AcDbEntity
  8
HATCH
  6
CONTINUOUS
 62
     4
100
AcDbTrace
 10
39654.82956584889
 20
4343.937582000873
 30
0.0
 11
39665.44127680247
 21
4336.815362956393
 31
0.0
 12
39816.1274588265
 22
4334.560040996702
 32
0.0
 13
39816.1274588265
 23
4334.560040996702
 33
0.0
210
0.0
220
0.0
230
1.0
  0
SOLID
  5
371
330
25F
100
AcDbEntity
  8
HATCH
  6
CONTINUOUS
 62
     4
100
AcDbTrace
 10
39068.04286973421
 20
4345.463381307684
 30
0.0
 11
39058.37317650865
 21
4334.560040996701
 31
0.0
 12
39219.67106948627
 22
4343.937582000873
 32
0.0
 13
39219.67106948627
 23
4343.937582000873
 33
0.0
210
0.0
220
0.0
230
1.0
  0
SOLID
  5
372
330
25F
100
AcDbEntity
  8
HATCH
  6
CONTINUOUS
 62
     4
100
AcDbTrace
 10
39806.45776560095
 20
4345.463381307685
 30
0.0
 11
39654.82956584889
 21
4343.937582000873
 31
0.0
 12
39816.1274588265
 22
4334.560040996702
 32
0.0
 13
39816.1274588265
 23
4334.560040996702
 33
0.0
210
0.0
220
0.0
230
1.0
  0
SOLID
  5
373
330
25F
100
AcDbEntity
  8
HATCH
  6
CONTINUOUS
 62
     4
100
AcDbTrace
 10
39230.5048940579
 20
4350.71715858287
 30
0.0
 11
39068.04286973421
 21
4345.463381307684
 31
0.0
 12
39219.67106948627
 22
4343.937582000873
 32
0.0
 13
39219.67106948627
 23
4343.937582000873
 33
0.0
210
0.0
220
0.0
230
1.0
  0
SOLID
  5
374
330
25F
100
AcDbEntity
  8
HATCH
  6
CONTINUOUS
 62
     4
100
AcDbTrace
 10
39643.99574127726
 20
4350.71715858287
 30
0.0
 11
39654.82956584889
 21
4343.937582000873
 31
0.0
 12
39806.45776560095
 22
4345.463381307685
 32
0.0
 13
39806.45776560095
 23
4345.463381307685
 33
0.0
210
0.0
220
0.0
230
1.0
  0
SOLID
  5
375
330
25F
100
AcDbEntity
  8
HATCH
  6
CONTINUOUS
 62
     4
100
AcDbTrace
 10
39078.02622063214
 20
4356.080278305505
 30
0.0
 11
39068.04286973421
 21
4345.463381307684
 31
0.0
 12
39230.5048940579
 22
4350.71715858287
 32
0.0
 13
39230.5048940579
 23
4350.71715858287
 33
0.0
210
0.0
220
0.0
230
1.0
  0
SOLID
  5
376
330
25F
100
AcDbEntity
  8
HATCH
  6
CONTINUOUS
 62
     4
100
AcDbTrace
 10
39796.47441470302
 20
4356.080278305506
 30
0.0
 11
39643.99574127726
 21
4350.71715858287
 31
0.0
 12
39806.45776560095
 22
4345.463381307685
 32
0.0
 13
39806.45776560095
 23
4345.463381307685
 33
0.0
210
0.0
220
0.0
230
1.0
  0
SOLID
  5
377
330
25F
100
AcDbEntity
  8
HATCH
  6
CONTINUOUS
 62
     4
100
AcDbTrace
 10
39241.54977264518
 20
4357.147171838855
 30
0.0
 11
39078.02622063214
 21
4356.080278305505
 31
0.0
 12
39230.5048940579
 22
4350.71715858287
 32
0.0
 13
39230.5048940579
 23
4350.71715858287
 33
0.0
210
0.0
220
0.0
230
1.0
  0
SOLID
  5
378
330
25F
100
AcDbEntity
  8
HATCH
  6
CONTINUOUS
 62
     4
100
AcDbTrace
 10
39632.95086268998
 20
4357.147171838855
 30
0.0
 11
39643.99574127726
 21
4350.71715858287
 31
0.0
 12
39796.47441470302
 22
4356.080278305506
 32
0.0
 13
39796.47441470302
 23
4356.080278305506
 33
0.0
210
0.0
220
0.0
230
1.0
  0
SOLID
  5
379
330
25F
100
AcDbEntity
  8
HATCH
  6
CONTINUOUS
 62
     4
100
AcDbTrace
 10
39621.70620514183
 20
4363.221057753551
 30
0.0
 11
39632.95086268998
 21
4357.147171838855
 31
0.0
 12
39796.47441470302
 22
4356.080278305506
 32
0.0
 13
39796.47441470302
 23
4356.080278305506
 33
0.0
210
0.0
220
0.0
230
1.0
  0
SOLID
  5
37A
330
25F
100
AcDbEntity
  8
HATCH
  6
CONTINUOUS
 62
     4
100
AcDbTrace
 10
39252.79443019333
 20
4363.221057753552
 30
0.0
 11
39078.02622063214
 21
4356.080278305505
 31
0.0
 12
39241.54977264518
 22
4357.147171838855
 32
0.0
 13
39241.54977264518
 23
4357.147171838855
 33
0.0
210
0.0
220
0.0
230
1.0
  0
SOLID
  5
37B
330
25F
100
AcDbEntity
  8
HATCH
  6
CONTINUOUS
 62
     4
100
AcDbTrace
 10
39088.31474791469
 20
4366.401712477641
 30
0.0
 11
39078.02622063214
 21
4356.080278305505
 31
0.0
 12
39252.79443019333
 22
4363.221057753552
 32
0.0
 13
39252.79443019333
 23
4363.221057753552
 33
0.0
210
0.0
220
0.0
230
1.0
  0
SOLID
  5
37C
330
25F
100
AcDbEntity
  8
HATCH
  6
CONTINUOUS
 62
     4
100
AcDbTrace
 10
39786.18588742047
 20
4366.401712477641
 30
0.0
 11
39621.70620514183
 21
4363.221057753551
 31
0.0
 12
39796.47441470302
 22
4356.080278305506
 32
0.0
 13
39796.47441470302
 23
4356.080278305506
 33
0.0
210
0.0
220
0.0
230
1.0
  0
SOLID
  5
37D
330
25F
100
AcDbEntity
  8
HATCH
  6
CONTINUOUS
 62
     4
100
AcDbTrace
 10
39264.22738770519
 20
4368.932615860753
 30
0.0
 11
39088.31474791469
 21
4366.401712477641
 31
0.0
 12
39252.79443019333
 22
4363.221057753552
 32
0.0
 13
39252.79443019333
 23
4363.221057753552
 33
0.0
210
0.0
220
0.0
230
1.0
  0
SOLID
  5
37E
330
25F
100
AcDbEntity
  8
HATCH
  6
CONTINUOUS
 62
     4
100
AcDbTrace
 10
39610.27324762997
 20
4368.932615860753
 30
0.0
 11
39621.70620514183
 21
4363.221057753551
 31
0.0
 12
39786.18588742047
 22
4366.401712477641
 32
0.0
 13
39786.18588742047
 23
4366.401712477641
 33
0.0
210
0.0
220
0.0
230
1.0
  0
SOLID
  5
37F
330
25F
100
AcDbEntity
  8
HATCH
  6
CONTINUOUS
 62
     4
100
AcDbTrace
 10
39275.83697395945
 20
4374.276015573
 30
0.0
 11
39088.31474791469
 21
4366.401712477641
 31
0.0
 12
39264.22738770519
 22
4368.932615860753
 32
0.0
 13
39264.22738770519
 23
4368.932615860753
 33
0.0
210
0.0
220
0.0
230
1.0
  0
SOLID
  5
380
330
25F
100
AcDbEntity
  8
HATCH
  6
CONTINUOUS
 62
     4
100
AcDbTrace
 10
39598.66366137571
 20
4374.276015573
 30
0.0
 11
39610.27324762997
 21
4368.932615860753
 31
0.0
 12
39786.18588742047
 22
4366.401712477641
 32
0.0
 13
39786.18588742047
 23
4366.401712477641
 33
0.0
210
0.0
220
0.0
230
1.0
  0
SOLID
  5
381
330
25F
100
AcDbEntity
  8
HATCH
  6
CONTINUOUS
 62
     4
100
AcDbTrace
 10
39098.89971103359
 20
4376.418915319999
 30
0.0
 11
39088.31474791469
 21
4366.401712477641
 31
0.0
 12
39275.83697395945
 22
4374.276015573
 32
0.0
 13
39275.83697395945
 23
4374.276015573
 33
0.0
210
0.0
220
0.0
230
1.0
  0
SOLID
  5
382
330
25F
100
AcDbEntity
  8
HATCH
  6
CONTINUOUS
 62
     4
100
AcDbTrace
 10
39775.60092430157
 20
4376.418915320001
 30
0.0
 11
39598.66366137571
 21
4374.276015573
 31
0.0
 12
39786.18588742047
 22
4366.401712477641
 32
0.0
 13
39786.18588742047
 23
4366.401712477641
 33
0.0
210
0.0
220
0.0
230
1.0
  0
SOLID
  5
383
330
25F
100
AcDbEntity
  8
HATCH
  6
CONTINUOUS
 62
     4
100
AcDbTrace
 10
39287.6113374251
 20
4379.245802133679
 30
0.0
 11
39098.89971103359
 21
4376.418915319999
 31
0.0
 12
39275.83697395945
 22
4374.276015573
 32
0.0
 13
39275.83697395945
 23
4374.276015573
 33
0.0
  0
SOLID
  5
384
330
25F
100
AcDbEntity
  8
HATCH
  6
CONTINUOUS
 62
     4
100
AcDbTrace
 10
39586.88929791006
 20
4379.245802133679
 30
0.0
 11
39598.66366137571
 21
4374.276015573
 31
0.0
 12
39775.60092430157
 22
4376.418915320001
 32
0.0
 13
39775.60092430157
 23
4376.418915320001
 33
0.0
210
0.0
220
0.0
230
1.0
  0
SOLID
  5
385
330
25F
100
AcDbEntity
  8
HATCH
  6
CONTINUOUS
 62
     4
100
AcDbTrace
 10
39299.53845835994
 20
4383.836902185459
 30
0.0
 11
39098.89971103359
 21
4376.418915319999
 31
0.0
 12
39287.6113374251
 22
4379.245802133679
 32
0.0
 13
39287.6113374251
 23
4379.245802133679
 33
0.0
210
0.0
220
0.0
230
1.0
  0
SOLID
  5
386
330
25F
100
AcDbEntity
  8
HATCH
  6
CONTINUOUS
 62
     4
100
AcDbTrace
 10
39574.96217697522
 20
4383.836902185459
 30
0.0
 11
39586.88929791006
 21
4379.245802133679
 31
0.0
 12
39775.60092430157
 22
4376.418915320001
 32
0.0
 13
39775.60092430157
 23
4376.418915320001
 33
0.0
210
0.0
220
0.0
230
1.0
  0
SOLID
  5
387
330
25F
100
AcDbEntity
  8
HATCH
  6
CONTINUOUS
 62
     4
100
AcDbTrace
 10
39109.77211760553
 20
4386.123376786144
 30
0.0
 11
39098.89971103359
 21
4376.418915319999
 31
0.0
 12
39299.53845835994
 22
4383.836902185459
 32
0.0
 13
39299.53845835994
 23
4383.836902185459
 33
0.0
210
0.0
220
0.0
230
1.0
  0
SOLID
  5
388
330
25F
100
AcDbEntity
  8
HATCH
  6
CONTINUOUS
 62
     4
100
AcDbTrace
 10
39764.72851772962
 20
4386.123376786144
 30
0.0
 11
39574.96217697522
 21
4383.836902185459
 31
0.0
 12
39775.60092430157
 22
4376.418915320001
 32
0.0
 13
39775.60092430157
 23
4376.418915320001
 33
0.0
210
0.0
220
0.0
230
1.0
  0
SOLID
  5
389
330
25F
100
AcDbEntity
  8
HATCH
  6
CONTINUOUS
 62
     4
100
AcDbTrace
 10
39311.60616108084
 20
4388.044628949376
 30
0.0
 11
39109.77211760553
 21
4386.123376786144
 31
0.0
 12
39299.53845835994
 22
4383.836902185459
 32
0.0
 13
39299.53845835994
 23
4383.836902185459
 33
0.0
210
0.0
220
0.0
230
1.0
  0
SOLID
  5
38A
330
25F
100
AcDbEntity
  8
HATCH
  6
CONTINUOUS
 62
     4
100
AcDbTrace
 10
39562.89447425431
 20
4388.044628949376
 30
0.0
 11
39574.96217697522
 21
4383.836902185459
 31
0.0
 12
39764.72851772962
 22
4386.123376786144
 32
0.0
 13
39764.72851772962
 23
4386.123376786144
 33
0.0
210
0.0
220
0.0
230
1.0
  0
SOLID
  5
38B
330
25F
100
AcDbEntity
  8
HATCH
  6
CONTINUOUS
 62
     4
100
AcDbTrace
 10
39323.80212639315
 20
4391.864687009287
 30
0.0
 11
39109.77211760553
 21
4386.123376786144
 31
0.0
 12
39311.60616108084
 22
4388.044628949376
 32
0.0
 13
39311.60616108084
 23
4388.044628949376
 33
0.0
210
0.0
220
0.0
230
1.0
  0
SOLID
  5
38C
330
25F
100
AcDbEntity
  8
HATCH
  6
CONTINUOUS
 62
     4
100
AcDbTrace
 10
39550.69850894201
 20
4391.864687009287
 30
0.0
 11
39562.89447425431
 21
4388.044628949376
 31
0.0
 12
39764.72851772962
 22
4386.123376786144
 32
0.0
 13
39764.72851772962
 23
4386.123376786144
 33
0.0
210
0.0
220
0.0
230
1.0
  0
SOLID
  5
38D
330
25F
100
AcDbEntity
  8
HATCH
  6
CONTINUOUS
 62
     4
100
AcDbTrace
 10
39336.11390416658
 20
4395.2931766968
 30
0.0
 11
39109.77211760553
 21
4386.123376786144
 31
0.0
 12
39323.80212639315
 22
4391.864687009287
 32
0.0
 13
39323.80212639315
 23
4391.864687009287
 33
0.0
210
0.0
220
0.0
230
1.0
  0
SOLID
  5
38E
330
25F
100
AcDbEntity
  8
HATCH
  6
CONTINUOUS
 62
     4
100
AcDbTrace
 10
39538.38673116857
 20
4395.2931766968
 30
0.0
 11
39550.69850894201
 21
4391.864687009287
 31
0.0
 12
39764.72851772962
 22
4386.123376786144
 32
0.0
 13
39764.72851772962
 23
4386.123376786144
 33
0.0
210
0.0
220
0.0
230
1.0
  0
SOLID
  5
38F
330
25F
100
AcDbEntity
  8
HATCH
  6
CONTINUOUS
 62
     4
100
AcDbTrace
 10
39120.92273105157
 20
4395.50685251694
 30
0.0
 11
39109.77211760553
 21
4386.123376786144
 31
0.0
 12
39336.11390416658
 22
4395.2931766968
 32
0.0
 13
39336.11390416658
 23
4395.2931766968
 33
0.0
210
0.0
220
0.0
230
1.0
  0
SOLID
  5
390
330
25F
100
AcDbEntity
  8
HATCH
  6
CONTINUOUS
 62
     4
100
AcDbTrace
 10
39753.57790428358
 20
4395.506852516941
 30
0.0
 11
39538.38673116857
 21
4395.2931766968
 31
0.0
 12
39764.72851772962
 22
4386.123376786144
 32
0.0
 13
39764.72851772962
 23
4386.123376786144
 33
0.0
210
0.0
220
0.0
230
1.0
  0
SOLID
  5
391
330
25F
100
AcDbEntity
  8
HATCH
  6
CONTINUOUS
 62
     4
100
AcDbTrace
 10
39348.52892604491
 20
4398.326598072213
 30
0.0
 11
39120.92273105157
 21
4395.50685251694
 31
0.0
 12
39336.11390416658
 22
4395.2931766968
 32
0.0
 13
39336.11390416658
 23
4395.2931766968
 33
0.0
210
0.0
220
0.0
230
1.0
  0
SOLID
  5
392
330
25F
100
AcDbEntity
  8
HATCH
  6
CONTINUOUS
 62
     4
100
AcDbTrace
 10
39525.97170929026
 20
4398.326598072213
 30
0.0
 11
39538.38673116857
 21
4395.2931766968
 31
0.0
 12
39753.57790428358
 22
4395.506852516941
 32
0.0
 13
39753.57790428358
 23
4395.506852516941
 33
0.0
  0
SOLID
  5
393
330
25F
100
AcDbEntity
  8
HATCH
  6
CONTINUOUS
 62
     4
100
AcDbTrace
 10
39361.03451827612
 20
4400.961854497394
 30
0.0
 11
39120.92273105157
 21
4395.50685251694
 31
0.0
 12
39348.52892604491
 22
4398.326598072213
 32
0.0
 13
39348.52892604491
 23
4398.326598072213
 33
0.0
210
0.0
220
0.0
230
1.0
  0
SOLID
  5
394
330
25F
100
AcDbEntity
  8
HATCH
  6
CONTINUOUS
 62
     4
100
AcDbTrace
 10
39513.46611705904
 20
4400.961854497394
 30
0.0
 11
39525.97170929026
 21
4398.326598072213
 31
0.0
 12
39753.57790428358
 22
4395.506852516941
 32
0.0
 13
39753.57790428358
 23
4395.506852516941
 33
0.0
210
0.0
220
0.0
230
1.0
  0
SOLID
  5
395
330
25F
100
AcDbEntity
  8
HATCH
  6
CONTINUOUS
 62
     4
100
AcDbTrace
 10
39373.6179146504
 20
4403.196255796951
 30
0.0
 11
39120.92273105157
 21
4395.50685251694
 31
0.0
 12
39361.03451827612
 22
4400.961854497394
 32
0.0
 13
39361.03451827612
 23
4400.961854497394
 33
0.0
210
0.0
220
0.0
230
1.0
  0
SOLID
  5
396
330
25F
100
AcDbEntity
  8
HATCH
  6
CONTINUOUS
 62
     4
100
AcDbTrace
 10
39500.88272068475
 20
4403.196255796951
 30
0.0
 11
39513.46611705904
 21
4400.961854497394
 31
0.0
 12
39753.57790428358
 22
4395.506852516941
 32
0.0
 13
39753.57790428358
 23
4395.506852516941
 33
0.0
210
0.0
220
0.0
230
1.0
  0
SOLID
  5
397
330
25F
100
AcDbEntity
  8
HATCH
  6
CONTINUOUS
 62
     4
100
AcDbTrace
 10
39742.15855689114
 20
4404.561370844503
 30
0.0
 11
39500.88272068475
 21
4403.196255796951
 31
0.0
 12
39753.57790428358
 22
4395.506852516941
 32
0.0
 13
39753.57790428358
 23
4395.506852516941
 33
0.0
210
0.0
220
0.0
230
1.0
  0
SOLID
  5
398
330
25F
100
AcDbEntity
  8
HATCH
  6
CONTINUOUS
 62
     4
100
AcDbTrace
 10
39132.34207844401
 20
4404.561370844503
 30
0.0
 11
39120.92273105157
 21
4395.50685251694
 31
0.0
 12
39373.6179146504
 22
4403.196255796951
 32
0.0
 13
39373.6179146504
 23
4403.196255796951
 33
0.0
210
0.0
220
0.0
230
1.0
  0
SOLID
  5
399
330
25F
100
AcDbEntity
  8
HATCH
  6
CONTINUOUS
 62
     4
100
AcDbTrace
 10
39386.26626953235
 20
4405.027521004473
 30
0.0
 11
39132.34207844401
 21
4404.561370844503
 31
0.0
 12
39373.6179146504
 22
4403.196255796951
 32
0.0
 13
39373.6179146504
 23
4403.196255796951
 33
0.0
  0
SOLID
  5
39A
330
25F
100
AcDbEntity
  8
HATCH
  6
CONTINUOUS
 62
     4
100
AcDbTrace
 10
39488.23436580281
 20
4405.027521004473
 30
0.0
 11
39500.88272068475
 21
4403.196255796951
 31
0.0
 12
39742.15855689114
 22
4404.561370844503
 32
0.0
 13
39742.15855689114
 23
4404.561370844503
 33
0.0
210
0.0
220
0.0
230
1.0
  0
SOLID
  5
39B
330
25F
100
AcDbEntity
  8
HATCH
  6
CONTINUOUS
 62
     4
100
AcDbTrace
 10
39398.96667097429
 20
4406.453780691033
 30
0.0
 11
39132.34207844401
 21
4404.561370844503
 31
0.0
 12
39386.26626953235
 22
4405.027521004473
 32
0.0
 13
39386.26626953235
 23
4405.027521004473
 33
0.0
210
0.0
220
0.0
230
1.0
  0
SOLID
  5
39C
330
25F
100
AcDbEntity
  8
HATCH
  6
CONTINUOUS
 62
     4
100
AcDbTrace
 10
39475.53396436087
 20
4406.453780691033
 30
0.0
 11
39488.23436580281
 21
4405.027521004473
 31
0.0
 12
39742.15855689114
 22
4404.561370844503
 32
0.0
 13
39742.15855689114
 23
4404.561370844503
 33
0.0
210
0.0
220
0.0
230
1.0
  0
SOLID
  5
39D
330
25F
100
AcDbEntity
  8
HATCH
  6
CONTINUOUS
 62
     4
100
AcDbTrace
 10
39411.70615389735
 20
4407.473578873571
 30
0.0
 11
39132.34207844401
 21
4404.561370844503
 31
0.0
 12
39398.96667097429
 22
4406.453780691033
 32
0.0
 13
39398.96667097429
 23
4406.453780691033
 33
0.0
210
0.0
220
0.0
230
1.0
  0
SOLID
  5
39E
330
25F
100
AcDbEntity
  8
HATCH
  6
CONTINUOUS
 62
     4
100
AcDbTrace
 10
39462.79448143781
 20
4407.473578873571
 30
0.0
 11
39475.53396436087
 21
4406.453780691033
 31
0.0
 12
39742.15855689114
 22
4404.561370844503
 32
0.0
 13
39742.15855689114
 23
4404.561370844503
 33
0.0
210
0.0
220
0.0
230
1.0
  0
SOLID
  5
39F
330
25F
100
AcDbEntity
  8
HATCH
  6
CONTINUOUS
 62
     4
100
AcDbTrace
 10
39424.47171332669
 20
4408.085874501225
 30
0.0
 11
39132.34207844401
 21
4404.561370844503
 31
0.0
 12
39411.70615389735
 22
4407.473578873571
 32
0.0
 13
39411.70615389735
 23
4407.473578873571
 33
0.0
210
0.0
220
0.0
230
1.0
  0
SOLID
  5
3A0
330
25F
100
AcDbEntity
  8
HATCH
  6
CONTINUOUS
 62
     4
100
AcDbTrace
 10
39450.02892200847
 20
4408.085874501225
 30
0.0
 11
39462.79448143781
 21
4407.473578873571
 31
0.0
 12
39742.15855689114
 22
4404.561370844503
 32
0.0
 13
39742.15855689114
 23
4404.561370844503
 33
0.0
210
0.0
220
0.0
230
1.0
  0
SOLID
  5
3A1
330
25F
100
AcDbEntity
  8
HATCH
  6
CONTINUOUS
 62
     4
100
AcDbTrace
 10
39437.25031766758
 20
4408.290042518076
 30
0.0
 11
39132.34207844401
 21
4404.561370844503
 31
0.0
 12
39424.47171332669
 22
4408.085874501225
 32
0.0
 13
39424.47171332669
 23
4408.085874501225
 33
0.0
210
0.0
220
0.0
230
1.0
  0
SOLID
  5
3A2
330
25F
100
AcDbEntity
  8
HATCH
  6
CONTINUOUS
 62
     4
100
AcDbTrace
 10
39437.25031766758
 20
4408.290042518076
 30
0.0
 11
39450.02892200847
 21
4408.085874501225
 31
0.0
 12
39742.15855689114
 22
4404.561370844503
 32
0.0
 13
39742.15855689114
 23
4404.561370844503
 33
0.0
210
0.0
220
0.0
230
1.0
  0
SOLID
  5
3A3
330
25F
100
AcDbEntity
  8
HATCH
  6
CONTINUOUS
 62
     4
100
AcDbTrace
 10
39144.02045855407
 20
4413.279239564465
 30
0.0
 11
39132.34207844401
 21
4404.561370844503
 31
0.0
 12
39437.25031766758
 22
4408.290042518076
 32
0.0
 13
39437.25031766758
 23
4408.290042518076
 33
0.0
210
0.0
220
0.0
230
1.0
  0
SOLID
  5
3A4
330
25F
100
AcDbEntity
  8
HATCH
  6
CONTINUOUS
 62
     4
100
AcDbTrace
 10
39730.48017678108
 20
4413.279239564466
 30
0.0
 11
39144.02045855407
 21
4413.279239564465
 31
0.0
 12
39437.25031766758
 22
4408.290042518076
 32
0.0
 13
39437.25031766758
 23
4408.290042518076
 33
0.0
210
0.0
220
0.0
230
1.0
  0
SOLID
  5
3A5
330
25F
100
AcDbEntity
  8
HATCH
  6
CONTINUOUS
 62
     4
100
AcDbTrace
 10
39730.48017678108
 20
4413.279239564466
 30
0.0
 11
39437.25031766758
 21
4408.290042518076
 31
0.0
 12
39742.15855689114
 22
4404.561370844503
 32
0.0
 13
39742.15855689114
 23
4404.561370844503
 33
0.0
  0
SOLID
  5
3A6
330
25F
100
AcDbEntity
  8
HATCH
  6
CONTINUOUS
 62
     4
100
AcDbTrace
 10
39155.94795009347
 20
4421.65305247084
 30
0.0
 11
39144.02045855407
 21
4413.279239564465
 31
0.0
 12
39730.48017678108
 22
4413.279239564466
 32
0.0
 13
39730.48017678108
 23
4413.279239564466
 33
0.0
210
0.0
220
0.0
230
1.0
  0
SOLID
  5
3A7
330
25F
100
AcDbEntity
  8
HATCH
  6
CONTINUOUS
 62
     4
100
AcDbTrace
 10
39718.55268524168
 20
4421.653052470841
 30
0.0
 11
39155.94795009347
 21
4421.65305247084
 31
0.0
 12
39730.48017678108
 22
4413.279239564466
 32
0.0
 13
39730.48017678108
 23
4413.279239564466
 33
0.0
210
0.0
220
0.0
230
1.0
  0
SOLID
  5
3A8
330
25F
100
AcDbEntity
  8
HATCH
  6
CONTINUOUS
 62
     4
100
AcDbTrace
 10
39706.38621519213
 20
4429.675695647918
 30
0.0
 11
39155.94795009347
 21
4421.65305247084
 31
0.0
 12
39718.55268524168
 22
4421.653052470841
 32
0.0
 13
39718.55268524168
 23
4421.653052470841
 33
0.0
210
0.0
220
0.0
230
1.0
  0
SOLID
  5
3A9
330
25F
100
AcDbEntity
  8
HATCH
  6
CONTINUOUS
 62
     4
100
AcDbTrace
 10
39168.11442014303
 20
4429.675695647918
 30
0.0
 11
39155.94795009347
 21
4421.65305247084
 31
0.0
 12
39706.38621519213
 22
4429.675695647918
 32
0.0
 13
39706.38621519213
 23
4429.675695647918
 33
0.0
210
0.0
220
0.0
230
1.0
  0
SOLID
  5
3AA
330
25F
100
AcDbEntity
  8
HATCH
  6
CONTINUOUS
 62
     4
100
AcDbTrace
 10
39180.50953276099
 20
4437.340353513833
 30
0.0
 11
39168.11442014303
 21
4429.675695647918
 31
0.0
 12
39706.38621519213
 22
4429.675695647918
 32
0.0
 13
39706.38621519213
 23
4429.675695647918
 33
0.0
210
0.0
220
0.0
230
1.0
  0
SOLID
  5
3AB
330
25F
100
AcDbEntity
  8
HATCH
  6
CONTINUOUS
 62
     4
100
AcDbTrace
 10
39693.99110257417
 20
4437.340353513834
 30
0.0
 11
39180.50953276099
 21
4437.340353513833
 31
0.0
 12
39706.38621519213
 22
4429.675695647918
 32
0.0
 13
39706.38621519213
 23
4429.675695647918
 33
0.0
210
0.0
220
0.0
230
1.0
  0
SOLID
  5
3AC
330
25F
100
AcDbEntity
  8
HATCH
  6
CONTINUOUS
 62
     4
100
AcDbTrace
 10
39193.12275776387
 20
4444.640514610711
 30
0.0
 11
39180.50953276099
 21
4437.340353513833
 31
0.0
 12
39693.99110257417
 22
4437.340353513834
 32
0.0
 13
39693.99110257417
 23
4437.340353513834
 33
0.0
210
0.0
220
0.0
230
1.0
  0
SOLID
  5
3AD
330
25F
100
AcDbEntity
  8
HATCH
  6
CONTINUOUS
 62
     4
100
AcDbTrace
 10
39681.37787757129
 20
4444.640514610711
 30
0.0
 11
39193.12275776387
 21
4444.640514610711
 31
0.0
 12
39693.99110257417
 22
4437.340353513834
 32
0.0
 13
39693.99110257417
 23
4437.340353513834
 33
0.0
  0
SOLID
  5
3AE
330
25F
100
AcDbEntity
  8
HATCH
  6
CONTINUOUS
 62
     4
100
AcDbTrace
 10
39668.55725566288
 20
4451.569977136418
 30
0.0
 11
39193.12275776387
 21
4444.640514610711
 31
0.0
 12
39681.37787757129
 22
4444.640514610711
 32
0.0
 13
39681.37787757129
 23
4444.640514610711
 33
0.0
210
0.0
220
0.0
230
1.0
  0
SOLID
  5
3AF
330
25F
100
AcDbEntity
  8
HATCH
  6
CONTINUOUS
 62
     4
100
AcDbTrace
 10
39205.94337967228
 20
4451.569977136418
 30
0.0
 11
39193.12275776387
 21
4444.640514610711
 31
0.0
 12
39668.55725566288
 22
4451.569977136418
 32
0.0
 13
39668.55725566288
 23
4451.569977136418
 33
0.0
210
0.0
220
0.0
230
1.0
  0
SOLID
  5
3B0
330
25F
100
AcDbEntity
  8
HATCH
  6
CONTINUOUS
 62
     4
100
AcDbTrace
 10
39218.96050681421
 20
4458.122854213269
 30
0.0
 11
39205.94337967228
 21
4451.569977136418
 31
0.0
 12
39668.55725566288
 22
4451.569977136418
 32
0.0
 13
39668.55725566288
 23
4451.569977136418
 33
0.0
210
0.0
220
0.0
230
1.0
  0
SOLID
  5
3B1
330
25F
100
AcDbEntity
  8
HATCH
  6
CONTINUOUS
 62
     4
100
AcDbTrace
 10
39655.54012852095
 20
4458.122854213271
 30
0.0
 11
39218.96050681421
 21
4458.122854213269
 31
0.0
 12
39668.55725566288
 22
4451.569977136418
 32
0.0
 13
39668.55725566288
 23
4451.569977136418
 33
0.0
  0
SOLID
  5
3B2
330
25F
100
AcDbEntity
  8
HATCH
  6
CONTINUOUS
 62
     4
100
AcDbTrace
 10
39232.16308057797
 20
4464.293578889182
 30
0.0
 11
39218.96050681421
 21
4458.122854213269
 31
0.0
 12
39655.54012852095
 22
4458.122854213271
 32
0.0
 13
39655.54012852095
 23
4458.122854213271
 33
0.0
210
0.0
220
0.0
230
1.0
  0
SOLID
  5
3B3
330
25F
100
AcDbEntity
  8
HATCH
  6
CONTINUOUS
 62
     4
100
AcDbTrace
 10
39642.33755475719
 20
4464.293578889182
 30
0.0
 11
39232.16308057797
 21
4464.293578889182
 31
0.0
 12
39655.54012852095
 22
4458.122854213271
 32
0.0
 13
39655.54012852095
 23
4458.122854213271
 33
0.0
  0
SOLID
  5
3B4
330
25F
100
AcDbEntity
  8
HATCH
  6
CONTINUOUS
 62
     4
100
AcDbTrace
 10
39628.9607505282
 20
4470.076908867041
 30
0.0
 11
39232.16308057797
 21
4464.293578889182
 31
0.0
 12
39642.33755475719
 22
4464.293578889182
 32
0.0
 13
39642.33755475719
 23
4464.293578889182
 33
0.0
210
0.0
220
0.0
230
1.0
  0
SOLID
  5
3B5
330
25F
100
AcDbEntity
  8
HATCH
  6
CONTINUOUS
 62
     4
100
AcDbTrace
 10
39245.53988480696
 20
4470.076908867041
 30
0.0
 11
39232.16308057797
 21
4464.293578889182
 31
0.0
 12
39628.9607505282
 22
4470.076908867041
 32
0.0
 13
39628.9607505282
 23
4470.076908867041
 33
0.0
210
0.0
220
0.0
230
1.0
  0
SOLID
  5
3B6
330
25F
100
AcDbEntity
  8
HATCH
  6
CONTINUOUS
 62
     4
100
AcDbTrace
 10
39615.42108000689
 20
4475.467930958262
 30
0.0
 11
39245.53988480696
 21
4470.076908867041
 31
0.0
 12
39628.9607505282
 22
4470.076908867041
 32
0.0
 13
39628.9607505282
 23
4470.076908867041
 33
0.0
210
0.0
220
0.0
230
1.0
  0
SOLID
  5
3B7
330
25F
100
AcDbEntity
  8
HATCH
  6
CONTINUOUS
 62
     4
100
AcDbTrace
 10
39259.07955532826
 20
4475.467930958262
 30
0.0
 11
39245.53988480696
 21
4470.076908867041
 31
0.0
 12
39615.42108000689
 22
4475.467930958262
 32
0.0
 13
39615.42108000689
 23
4475.467930958262
 33
0.0
210
0.0
220
0.0
230
1.0
  0
SOLID
  5
3B8
330
25F
100
AcDbEntity
  8
HATCH
  6
CONTINUOUS
 62
     4
100
AcDbTrace
 10
39272.77058960702
 20
4480.462065256748
 30
0.0
 11
39259.07955532826
 21
4475.467930958262
 31
0.0
 12
39615.42108000689
 22
4475.467930958262
 32
0.0
 13
39615.42108000689
 23
4475.467930958262
 33
0.0
210
0.0
220
0.0
230
1.0
  0
SOLID
  5
3B9
330
25F
100
AcDbEntity
  8
HATCH
  6
CONTINUOUS
 62
     4
100
AcDbTrace
 10
39601.73004572813
 20
4480.462065256749
 30
0.0
 11
39272.77058960702
 21
4480.462065256748
 31
0.0
 12
39615.42108000689
 22
4475.467930958262
 32
0.0
 13
39615.42108000689
 23
4475.467930958262
 33
0.0
210
0.0
220
0.0
230
1.0
  0
SOLID
  5
3BA
330
25F
100
AcDbEntity
  8
HATCH
  6
CONTINUOUS
 62
     4
100
AcDbTrace
 10
39587.89927881683
 20
4485.055069029727
 30
0.0
 11
39272.77058960702
 21
4480.462065256748
 31
0.0
 12
39601.73004572813
 22
4480.462065256749
 32
0.0
 13
39601.73004572813
 23
4480.462065256749
 33
0.0
210
0.0
220
0.0
230
1.0
  0
SOLID
  5
3BB
330
25F
100
AcDbEntity
  8
HATCH
  6
CONTINUOUS
 62
     4
100
AcDbTrace
 10
39286.60135651833
 20
4485.055069029727
 30
0.0
 11
39272.77058960702
 21
4480.462065256748
 31
0.0
 12
39587.89927881683
 22
4485.055069029727
 32
0.0
 13
39587.89927881683
 23
4485.055069029727
 33
0.0
210
0.0
220
0.0
230
1.0
  0
SOLID
  5
3BC
330
25F
100
AcDbEntity
  8
HATCH
  6
CONTINUOUS
 62
     4
100
AcDbTrace
 10
39573.94052910679
 20
4489.243040322132
 30
0.0
 11
39286.60135651833
 21
4485.055069029727
 31
0.0
 12
39587.89927881683
 22
4485.055069029727
 32
0.0
 13
39587.89927881683
 23
4485.055069029727
 33
0.0
210
0.0
220
0.0
230
1.0
  0
SOLID
  5
3BD
330
25F
100
AcDbEntity
  8
HATCH
  6
CONTINUOUS
 62
     4
100
AcDbTrace
 10
39300.56010622836
 20
4489.243040322132
 30
0.0
 11
39286.60135651833
 21
4485.055069029727
 31
0.0
 12
39573.94052910679
 22
4489.243040322132
 32
0.0
 13
39573.94052910679
 23
4489.243040322132
 33
0.0
210
0.0
220
0.0
230
1.0
  0
SOLID
  5
3BE
330
25F
100
AcDbEntity
  8
HATCH
  6
CONTINUOUS
 62
     4
100
AcDbTrace
 10
39314.6349801764
 20
4493.022421271477
 30
0.0
 11
39300.56010622836
 21
4489.243040322132
 31
0.0
 12
39573.94052910679
 22
4489.243040322132
 32
0.0
 13
39573.94052910679
 23
4489.243040322132
 33
0.0
210
0.0
220
0.0
230
1.0
  0
SOLID
  5
3BF
330
25F
100
AcDbEntity
  8
HATCH
  6
CONTINUOUS
 62
     4
100
AcDbTrace
 10
39559.86565515875
 20
4493.022421271477
 30
0.0
 11
39314.6349801764
 21
4493.022421271477
 31
0.0
 12
39573.94052910679
 22
4489.243040322132
 32
0.0
 13
39573.94052910679
 23
4489.243040322132
 33
0.0
210
0.0
220
0.0
230
1.0
  0
SOLID
  5
3C0
330
25F
100
AcDbEntity
  8
HATCH
  6
CONTINUOUS
 62
     4
100
AcDbTrace
 10
39545.686614186
 20
4496.390001130423
 30
0.0
 11
39314.6349801764
 21
4493.022421271477
 31
0.0
 12
39559.86565515875
 22
4493.022421271477
 32
0.0
 13
39559.86565515875
 23
4493.022421271477
 33
0.0
  0
SOLID
  5
3C1
330
25F
100
AcDbEntity
  8
HATCH
  6
CONTINUOUS
 62
     4
100
AcDbTrace
 10
39328.81402114916
 20
4496.390001130423
 30
0.0
 11
39314.6349801764
 21
4493.022421271477
 31
0.0
 12
39545.686614186
 22
4496.390001130423
 32
0.0
 13
39545.686614186
 23
4496.390001130423
 33
0.0
210
0.0
220
0.0
230
1.0
  0
SOLID
  5
3C2
330
25F
100
AcDbEntity
  8
HATCH
  6
CONTINUOUS
 62
     4
100
AcDbTrace
 10
39531.4154518962
 20
4499.34291899444
 30
0.0
 11
39328.81402114916
 21
4496.390001130423
 31
0.0
 12
39545.686614186
 22
4496.390001130423
 32
0.0
 13
39545.686614186
 23
4496.390001130423
 33
0.0
210
0.0
220
0.0
230
1.0
  0
SOLID
  5
3C3
330
25F
100
AcDbEntity
  8
HATCH
  6
CONTINUOUS
 62
     4
100
AcDbTrace
 10
39343.08518343896
 20
4499.34291899444
 30
0.0
 11
39328.81402114916
 21
4496.390001130423
 31
0.0
 12
39531.4154518962
 22
4499.34291899444
 32
0.0
 13
39531.4154518962
 23
4499.34291899444
 33
0.0
210
0.0
220
0.0
230
1.0
  0
SOLID
  5
3C4
330
25F
100
AcDbEntity
  8
HATCH
  6
CONTINUOUS
 62
     4
100
AcDbTrace
 10
39517.06429225806
 20
4501.878666232274
 30
0.0
 11
39343.08518343896
 21
4499.34291899444
 31
0.0
 12
39531.4154518962
 22
4499.34291899444
 32
0.0
 13
39531.4154518962
 23
4499.34291899444
 33
0.0
210
0.0
220
0.0
230
1.0
  0
SOLID
  5
3C5
330
25F
100
AcDbEntity
  8
HATCH
  6
CONTINUOUS
 62
     4
100
AcDbTrace
 10
39357.4363430771
 20
4501.878666232274
 30
0.0
 11
39343.08518343896
 21
4499.34291899444
 31
0.0
 12
39517.06429225806
 22
4501.878666232274
 32
0.0
 13
39517.06429225806
 23
4501.878666232274
 33
0.0
210
0.0
220
0.0
230
1.0
  0
SOLID
  5
3C6
330
25F
100
AcDbEntity
  8
HATCH
  6
CONTINUOUS
 62
     4
100
AcDbTrace
 10
39502.64532720149
 20
4503.995088617129
 30
0.0
 11
39357.4363430771
 21
4501.878666232274
 31
0.0
 12
39517.06429225806
 22
4501.878666232274
 32
0.0
 13
39517.06429225806
 23
4501.878666232274
 33
0.0
  0
SOLID
  5
3C7
330
25F
100
AcDbEntity
  8
HATCH
  6
CONTINUOUS
 62
     4
100
AcDbTrace
 10
39371.85530813366
 20
4503.995088617129
 30
0.0
 11
39357.4363430771
 21
4501.878666232274
 31
0.0
 12
39502.64532720149
 22
4503.995088617129
 32
0.0
 13
39502.64532720149
 23
4503.995088617129
 33
0.0
210
0.0
220
0.0
230
1.0
  0
SOLID
  5
3C8
330
25F
100
AcDbEntity
  8
HATCH
  6
CONTINUOUS
 62
     4
100
AcDbTrace
 10
39488.17080626005
 20
4505.690388156787
 30
0.0
 11
39371.85530813366
 21
4503.995088617129
 31
0.0
 12
39502.64532720149
 22
4503.995088617129
 32
0.0
 13
39502.64532720149
 23
4503.995088617129
 33
0.0
  0
SOLID
  5
3C9
330
25F
100
AcDbEntity
  8
HATCH
  6
CONTINUOUS
 62
     4
100
AcDbTrace
 10
39386.32982907511
 20
4505.690388156787
 30
0.0
 11
39371.85530813366
 21
4503.995088617129
 31
0.0
 12
39488.17080626005
 22
4505.690388156787
 32
0.0
 13
39488.17080626005
 23
4505.690388156787
 33
0.0
210
0.0
220
0.0
230
1.0
  0
SOLID
  5
3CA
330
25F
100
AcDbEntity
  8
HATCH
  6
CONTINUOUS
 62
     4
100
AcDbTrace
 10
39473.65302616439
 20
4506.963124621072
 30
0.0
 11
39386.32982907511
 21
4505.690388156787
 31
0.0
 12
39488.17080626005
 22
4505.690388156787
 32
0.0
 13
39488.17080626005
 23
4505.690388156787
 33
0.0
210
0.0
220
0.0
230
1.0
  0
SOLID
  5
3CB
330
25F
100
AcDbEntity
  8
HATCH
  6
CONTINUOUS
 62
     4
100
AcDbTrace
 10
39400.84760917077
 20
4506.963124621072
 30
0.0
 11
39386.32982907511
 21
4505.690388156787
 31
0.0
 12
39473.65302616439
 22
4506.963124621072
 32
0.0
 13
39473.65302616439
 23
4506.963124621072
 33
0.0
210
0.0
220
0.0
230
1.0
  0
SOLID
  5
3CC
330
25F
100
AcDbEntity
  8
HATCH
  6
CONTINUOUS
 62
     4
100
AcDbTrace
 10
39459.1043203957
 20
4507.81221676539
 30
0.0
 11
39400.84760917077
 21
4506.963124621072
 31
0.0
 12
39473.65302616439
 22
4506.963124621072
 32
0.0
 13
39473.65302616439
 23
4506.963124621072
 33
0.0
  0
SOLID
  5
3CD
330
25F
100
AcDbEntity
  8
HATCH
  6
CONTINUOUS
 62
     4
100
AcDbTrace
 10
39415.39631493946
 20
4507.81221676539
 30
0.0
 11
39400.84760917077
 21
4506.963124621072
 31
0.0
 12
39459.1043203957
 22
4507.81221676539
 32
0.0
 13
39459.1043203957
 23
4507.81221676539
 33
0.0
210
0.0
220
0.0
230
1.0
  0
SOLID
  5
3CE
330
25F
100
AcDbEntity
  8
HATCH
  6
CONTINUOUS
 62
     4
100
AcDbTrace
 10
39415.39631493946
 20
4507.81221676539
 30
0.0
 11
39444.53704870786
 21
4508.236943249296
 31
0.0
 12
39429.9635866273
 22
4508.236943249296
 32
0.0
 13
39429.9635866273
 23
4508.236943249296
 33
0.0
210
0.0
220
0.0
230
1.0
  0
SOLID
  5
3CF
330
25F
100
AcDbEntity
  8
HATCH
  6
CONTINUOUS
 62
     4
100
AcDbTrace
 10
39444.53704870786
 20
4508.236943249296
 30
0.0
 11
39415.39631493946
 21
4507.81221676539
 31
0.0
 12
39459.1043203957
 22
4507.81221676539
 32
0.0
 13
39459.1043203957
 23
4507.81221676539
 33
0.0
210
0.0
220
0.0
230
1.0
  0
ENDBLK
  5
3D1
330
25F
100
AcDbEntity
  8
0
 62
     0
100
AcDbBlockEnd
  0
ENDSEC
  0
SECTION
  2
ENTITIES
  0
INSERT
  5
232
330
2
100
AcDbEntity
  8
HATCH
 62
     0
100
AcDbBlockReference
  2
AEKH
 10
0.0
 20
0.0
 30
0.0
  0
ENDSEC
  0
SECTION
  2
OBJECTS
  0
DICTIONARY
  5
1A
330
0
100
AcDbDictionary
  3
ACAD_GROUP
350
18
  3
ACAD_LAYOUT
350
128
  3
ACAD_MLINESTYLE
350
19
  3
ACAD_PLOTSETTINGS
350
129
1001
ACAD
1000
TREAT_AS_HARD
1070
     0
1000
TREAT_AS_HARD
1070
     0
1000
TREAT_AS_HARD
1070
     0
  0
DICTIONARY
  5
154
330
2
100
AcDbDictionary
  3
ACAD_LAYOUTSELFREF
350
234
  3
ACAD_SORTENTS
350
1D8
1001
ACAD
1000
TREAT_AS_HARD
1070
     1
1000
TREAT_AS_HARD
1070
     0
1000
TREAT_AS_HARD
1070
     0
  0
DICTIONARY
  5
156
330
7
100
AcDbDictionary
  3
ACAD_LAYOUTSELFREF
350
235
1001
ACAD
1000
TREAT_AS_HARD
1070
     1
1000
TREAT_AS_HARD
1070
     0
1000
TREAT_AS_HARD
1070
     0
  0
DICTIONARY
  5
18
102
{ACAD_REACTORS
330
1A
102
}
330
1A
100
AcDbDictionary
1001
ACAD
1000
TREAT_AS_HARD
1070
     0
1000
TREAT_AS_HARD
1070
     0
1000
TREAT_AS_HARD
1070
     0
  0
DICTIONARY
  5
128
102
{ACAD_REACTORS
330
1A
102
}
330
1A
100
AcDbDictionary
1001
ACAD
1000
TREAT_AS_HARD
1070
     0
1000
TREAT_AS_HARD
1070
     0
1000
TREAT_AS_HARD
1070
     0
  0
DICTIONARY
  5
19
102
{ACAD_REACTORS
330
1A
102
}
330
1A
100
AcDbDictionary
  3
STANDARD
350
1E
1001
ACAD
1000
TREAT_AS_HARD
1070
     0
1000
TREAT_AS_HARD
1070
     0
1000
TREAT_AS_HARD
1070
     0
  0
DICTIONARY
  5
129
102
{ACAD_REACTORS
330
1A
102
}
330
1A
100
AcDbDictionary
1001
ACAD
1000
TREAT_AS_HARD
1070
     0
1000
TREAT_AS_HARD
1070
     0
1000
TREAT_AS_HARD
1070
     0
  0
XRECORD
  5
234
102
{ACAD_REACTORS
330
154
102
}
330
154
100
AcDbXrecord
340
2
  0
SORTENTSTABLE
  5
1D8
102
{ACAD_REACTORS
330
154
102
}
330
154
100
AcDbSortentsTable
330
2
331
178
  5
17B
331
6A
  5
79
331
37
  5
49
331
68
  5
6B
331
176
  5
179
331
57
  5
5B
331
93
  5
102
331
21
  5
2F
331
174
  5
177
331
82
  5
88
331
55
  5
58
331
33
  5
40
331
183
  5
195
331
91
  5
94
331
64
  5
69
331
172
  5
175
331
80
  5
83
331
7D
  5
82
331
53
  5
56
331
31
  5
3F
331
181
  5
184
331
8F
  5
93
331
62
  5
65
331
40
  5
53
331
7B
  5
80
331
2F
  5
37
331
1D7
  5
2C
331
17F
  5
183
331
8D
  5
91
331
60
  5
63
331
79
  5
7C
331
19A
  5
1D0
331
17D
  5
181
331
8B
  5
8E
331
5E
  5
61
331
196
  5
199
331
198
  5
19B
331
17B
  5
17E
331
194
  5
197
331
102
  5
173
331
5C
  5
5F
331
179
  5
17C
331
6B
  5
7A
331
49
  5
54
331
87
  5
8B
331
5A
  5
5D
331
69
  5
78
331
177
  5
17A
331
58
  5
5C
331
94
  5
171
331
175
  5
178
331
83
  5
8A
331
56
  5
5A
331
65
  5
6A
331
184
  5
196
331
92
  5
101
331
20
  5
2E
331
173
  5
176
331
81
  5
87
331
54
  5
57
331
182
  5
194
331
63
  5
68
331
171
  5
174
331
7C
  5
81
331
8E
  5
92
331
61
  5
64
331
7A
  5
7D
331
2E
  5
33
331
3F
  5
4A
331
17E
  5
182
331
8C
  5
8F
331
19B
  5
1D7
331
78
  5
7B
331
2C
  5
31
331
1C3
  5
20
331
5F
  5
62
331
197
  5
19A
331
199
  5
1C3
331
17C
  5
17F
331
8A
  5
8D
331
5D
  5
60
331
195
  5
198
331
17A
  5
17D
331
88
  5
8C
331
101
  5
172
331
4A
  5
55
331
5B
  5
5E
331
1D0
  5
21
  0
XRECORD
  5
235
102
{ACAD_REACTORS
330
156
102
}
330
156
100
AcDbXrecord
340
7
  0
MLINESTYLE
  5
1E
102
{ACAD_REACTORS
330
19
102
}
330
19
100
AcDbMlineStyle
  2
STANDARD
 70
     0
  3

 62
   256
 51
90.0
 52
90.0
 71
     2
 49
0.5
 62
   256
  6
BYLAYER
 49
-0.5
 62
   256
  6
BYLAYER
  0
ENDSEC
  0
EOF
