  0
SECTION
  2
HEADER
  9
$ACADVER
  1
AC1012
  9
$DWGCODEPAGE
  3
ANSI_1252
  9
$INSBASE
 10
0.0
 20
0.0
 30
0.0
  9
$EXTMIN
 10
-210.7043770037908
 20
-0.3950051662668557
 30
0.0
  9
$EXTMAX
 10
7620.000000584827
 20
6999.604994834747
 30
0.0
  9
$LIMMIN
 10
0.0
 20
0.0
  9
$LIMMAX
 10
420.0
 20
297.0
  9
$ORTHOMODE
 70
     0
  9
$REGENMODE
 70
     1
  9
$FILLMODE
 70
     1
  9
$QTEXTMODE
 70
     0
  9
$MIRRTEXT
 70
     1
  9
$DRAGMODE
 70
     2
  9
$LTSCALE
 40
1.0
  9
$OSMODE
 70
  3071
  9
$ATTMODE
 70
     1
  9
$TEXTSIZE
 40
2.5
  9
$TRACEWID
 40
1.0
  9
$TEXTSTYLE
  7
STANDARD
  9
$CLAYER
  8
HATCH
  9
$CELTYPE
  6
BYLAYER
  9
$CECOLOR
 62
   256
  9
$CELTSCALE
 40
1.0
  9
$DELOBJ
 70
     1
  9
$DISPSILH
 70
     0
  9
$DIMSCALE
 40
1.0
  9
$DIMASZ
 40
2.5
  9
$DIMEXO
 40
0.625
  9
$DIMDLI
 40
3.75
  9
$DIMRND
 40
0.0
  9
$DIMDLE
 40
0.0
  9
$DIMEXE
 40
1.25
  9
$DIMTP
 40
0.0
  9
$DIMTM
 40
0.0
  9
$DIMTXT
 40
2.5
  9
$DIMCEN
 40
2.5
  9
$DIMTSZ
 40
0.0
  9
$DIMTOL
 70
     0
  9
$DIMLIM
 70
     0
  9
$DIMTIH
 70
     0
  9
$DIMTOH
 70
     0
  9
$DIMSE1
 70
     0
  9
$DIMSE2
 70
     0
  9
$DIMTAD
 70
     1
  9
$DIMZIN
 70
     8
  9
$DIMBLK
  1

  9
$DIMASO
 70
     1
  9
$DIMSHO
 70
     1
  9
$DIMPOST
  1

  9
$DIMAPOST
  1

  9
$DIMALT
 70
     0
  9
$DIMALTD
 70
     3
  9
$DIMALTF
 40
0.03937007874016
  9
$DIMLFAC
 40
1.0
  9
$DIMTOFL
 70
     1
  9
$DIMTVP
 40
0.0
  9
$DIMTIX
 70
     0
  9
$DIMSOXD
 70
     0
  9
$DIMSAH
 70
     0
  9
$DIMBLK1
  1

  9
$DIMBLK2
  1

  9
$DIMSTYLE
  2
ISO-25
  9
$DIMCLRD
 70
     0
  9
$DIMCLRE
 70
     0
  9
$DIMCLRT
 70
     0
  9
$DIMTFAC
 40
1.0
  9
$DIMGAP
 40
0.625
  9
$DIMJUST
 70
     0
  9
$DIMSD1
 70
     0
  9
$DIMSD2
 70
     0
  9
$DIMTOLJ
 70
     0
  9
$DIMTZIN
 70
     8
  9
$DIMALTZ
 70
     0
  9
$DIMALTTZ
 70
     0
  9
$DIMFIT
 70
     3
  9
$DIMUPT
 70
     0
  9
$DIMUNIT
 70
     2
  9
$DIMDEC
 70
     2
  9
$DIMTDEC
 70
     2
  9
$DIMALTU
 70
     2
  9
$DIMALTTD
 70
     3
  9
$DIMTXSTY
  7
STANDARD
  9
$DIMAUNIT
 70
     0
  9
$LUNITS
 70
     2
  9
$LUPREC
 70
     4
  9
$SKETCHINC
 40
1.0
  9
$FILLETRAD
 40
10.0
  9
$AUNITS
 70
     0
  9
$AUPREC
 70
     0
  9
$MENU
  1
.
  9
$ELEVATION
 40
0.0
  9
$PELEVATION
 40
0.0
  9
$THICKNESS
 40
0.0
  9
$LIMCHECK
 70
     0
  9
$BLIPMODE
 70
     0
  9
$CHAMFERA
 40
10.0
  9
$CHAMFERB
 40
10.0
  9
$CHAMFERC
 40
20.0
  9
$CHAMFERD
 40
0.0
  9
$SKPOLY
 70
     0
  9
$TDCREATE
 40
2452626.586566666
  9
$TDUPDATE
 40
2452773.364539930
  9
$TDINDWG
 40
0.0041329861
  9
$TDUSRTIMER
 40
0.0041322917
  9
$USRTIMER
 70
     1
  9
$ANGBASE
 50
0.0
  9
$ANGDIR
 70
     0
  9
$PDMODE
 70
     0
  9
$PDSIZE
 40
0.0
  9
$PLINEWID
 40
0.0
  9
$COORDS
 70
     2
  9
$SPLFRAME
 70
     0
  9
$SPLINETYPE
 70
     6
  9
$SPLINESEGS
 70
     8
  9
$ATTDIA
 70
     0
  9
$ATTREQ
 70
     1
  9
$HANDLING
 70
-16383
  9
$HANDSEED
  5
259
  9
$SURFTAB1
 70
     6
  9
$SURFTAB2
 70
     6
  9
$SURFTYPE
 70
     6
  9
$SURFU
 70
     6
  9
$SURFV
 70
     6
  9
$UCSNAME
  2

  9
$UCSORG
 10
0.0
 20
0.0
 30
0.0
  9
$UCSXDIR
 10
1.0
 20
0.0
 30
0.0
  9
$UCSYDIR
 10
0.0
 20
1.0
 30
0.0
  9
$PUCSNAME
  2

  9
$PUCSORG
 10
0.0
 20
0.0
 30
0.0
  9
$PUCSXDIR
 10
1.0
 20
0.0
 30
0.0
  9
$PUCSYDIR
 10
0.0
 20
1.0
 30
0.0
  9
$USERI1
 70
     0
  9
$USERI2
 70
     0
  9
$USERI3
 70
     0
  9
$USERI4
 70
     0
  9
$USERI5
 70
     0
  9
$USERR1
 40
0.0
  9
$USERR2
 40
0.0
  9
$USERR3
 40
0.0
  9
$USERR4
 40
0.0
  9
$USERR5
 40
0.0
  9
$WORLDVIEW
 70
     1
  9
$SHADEDGE
 70
     3
  9
$SHADEDIF
 70
    70
  9
$TILEMODE
 70
     1
  9
$MAXACTVP
 70
    64
  9
$PINSBASE
 10
0.0
 20
0.0
 30
0.0
  9
$PLIMCHECK
 70
     0
  9
$PEXTMIN
 10
0.0
 20
0.0
 30
0.0
  9
$PEXTMAX
 10
0.0
 20
0.0
 30
0.0
  9
$PLIMMIN
 10
0.0
 20
0.0
  9
$PLIMMAX
 10
12.0
 20
9.0
  9
$UNITMODE
 70
     0
  9
$VISRETAIN
 70
     1
  9
$PLINEGEN
 70
     0
  9
$PSLTSCALE
 70
     1
  9
$TREEDEPTH
 70
  3020
  9
$PICKSTYLE
 70
     1
  9
$CMLSTYLE
  2
STANDARD
  9
$CMLJUST
 70
     0
  9
$CMLSCALE
 40
20.0
  9
$SAVEIMAGES
 70
     1
  0
ENDSEC
  0
SECTION
  2
CLASSES
  0
CLASS
  1
ACDBDICTIONARYWDFLT
  2
AcDbDictionaryWithDefault
  3
AutoCAD 2000
 90
    32768
280
     0
281
     0
  0
CLASS
  1
ACDBPLACEHOLDER
  2
AcDbPlaceHolder
  3
AutoCAD 2000
 90
    32768
280
     0
281
     0
  0
CLASS
  1
LAYOUT
  2
AcDbLayout
  3
AutoCAD 2000
 90
    32768
280
     0
281
     0
  0
CLASS
  1
LONG_TRANSACTION
  2
AcDbLongTransaction
  3
AutoCAD 2000
 90
    32768
280
     0
281
     0
  0
CLASS
  1
LWPOLYLINE
  2
AcDbPolyline
  3
AutoCAD 2000
 90
    32768
280
     0
281
     1
  0
CLASS
  1
HATCH
  2
AcDbHatch
  3
AutoCAD 2000
 90
    32768
280
     0
281
     1
  0
CLASS
  1
XRECORD
  2
AcDbXrecord
  3
AutoCAD 2000
 90
    32768
280
     0
281
     0
  0
CLASS
  1
LONG_TRANSACTION
  2
AcDbLongTransaction
  3
AutoCAD 2000
 90
    32768
280
     0
281
     0
  0
CLASS
  1
LWPOLYLINE
  2
AcDbPolyline
  3
AutoCAD 2000
 90
    32768
280
     0
281
     1
  0
CLASS
  1
HATCH
  2
AcDbHatch
  3
AutoCAD 2000
 90
    32768
280
     0
281
     1
  0
CLASS
  1
XRECORD
  2
AcDbXrecord
  3
AutoCAD 2000
 90
    32768
280
     0
281
     0
  0
CLASS
  1
LONG_TRANSACTION
  2
AcDbLongTransaction
  3
AutoCAD 2000
 90
    32768
280
     0
281
     0
  0
CLASS
  1
LWPOLYLINE
  2
AcDbPolyline
  3
AutoCAD 2000
 90
    32768
280
     0
281
     1
  0
CLASS
  1
HATCH
  2
AcDbHatch
  3
AutoCAD 2000
 90
    32768
280
     0
281
     1
  0
CLASS
  1
XRECORD
  2
AcDbXrecord
  3
AutoCAD 2000
 90
    32768
280
     0
281
     0
  0
CLASS
  1
DICTIONARYVAR
  2
AcDbDictionaryVar
  3
AutoCAD 2000
 90
    32768
280
     0
281
     0
  0
CLASS
  1
SORTENTSTABLE
  2
AcDbSortentsTable
  3
AutoCAD 2000
 90
    32768
280
     0
281
     0
  0
CLASS
  1
LONG_TRANSACTION
  2
AcDbLongTransaction
  3
AutoCAD 2000
 90
    32768
280
     0
281
     0
  0
CLASS
  1
LWPOLYLINE
  2
AcDbPolyline
  3
AutoCAD 2000
 90
    32768
280
     0
281
     1
  0
CLASS
  1
HATCH
  2
AcDbHatch
  3
AutoCAD 2000
 90
    32768
280
     0
281
     1
  0
CLASS
  1
XRECORD
  2
AcDbXrecord
  3
AutoCAD 2000
 90
    32768
280
     0
281
     0
  0
CLASS
  1
LONG_TRANSACTION
  2
AcDbLongTransaction
  3
AutoCAD 2000
 90
    32768
280
     0
281
     0
  0
CLASS
  1
LWPOLYLINE
  2
AcDbPolyline
  3
AutoCAD 2000
 90
    32768
280
     0
281
     1
  0
CLASS
  1
HATCH
  2
AcDbHatch
  3
AutoCAD 2000
 90
    32768
280
     0
281
     1
  0
CLASS
  1
XRECORD
  2
AcDbXrecord
  3
AutoCAD 2000
 90
    32768
280
     0
281
     0
  0
ENDSEC
  0
SECTION
  2
TABLES
  0
TABLE
  2
VPORT
  5
8
330
0
100
AcDbSymbolTable
 70
     2
  0
VPORT
  5
249
330
8
100
AcDbSymbolTableRecord
100
AcDbViewportTableRecord
  2
*ACTIVE
 70
     0
 10
0.0
 20
0.0
 11
1.0
 21
1.0
 12
3529.03179670992
 22
1524.963149435076
 13
0.0
 23
0.0
 14
10.0
 24
10.0
 15
10.0
 25
10.0
 16
0.0
 26
0.0
 36
1.0
 17
0.0
 27
0.0
 37
0.0
 40
12776.42747759504
 41
1.558704453441295
 42
50.0
 43
0.0
 44
0.0
 50
0.0
 51
0.0
 71
     0
 72
   100
 73
     1
 74
     3
 75
     0
 76
     0
 77
     0
 78
     0
  0
ENDTAB
  0
TABLE
  2
LTYPE
  5
5
330
0
100
AcDbSymbolTable
 70
     1
  0
LTYPE
  5
14
330
5
100
AcDbSymbolTableRecord
100
AcDbLinetypeTableRecord
  2
BYBLOCK
 70
     0
  3

 72
    65
 73
     0
 40
0.0
  0
LTYPE
  5
15
330
5
100
AcDbSymbolTableRecord
100
AcDbLinetypeTableRecord
  2
BYLAYER
 70
     0
  3

 72
    65
 73
     0
 40
0.0
  0
LTYPE
  5
16
330
5
100
AcDbSymbolTableRecord
100
AcDbLinetypeTableRecord
  2
CONTINUOUS
 70
     0
  3
Solid line
 72
    65
 73
     0
 40
0.0
  0
ENDTAB
  0
TABLE
  2
LAYER
  5
2
330
0
100
AcDbSymbolTable
 70
     5
  0
LAYER
  5
10
330
2
100
AcDbSymbolTableRecord
100
AcDbLayerTableRecord
  2
0
 70
     0
 62
     7
  6
CONTINUOUS
  0
LAYER
  5
5D
330
2
100
AcDbSymbolTableRecord
100
AcDbLayerTableRecord
  2
SAFETY
 70
     0
 62
     7
  6
CONTINUOUS
  0
LAYER
  5
5E
330
2
100
AcDbSymbolTableRecord
100
AcDbLayerTableRecord
  2
OBJECT
 70
     0
 62
     7
  6
CONTINUOUS
  0
LAYER
  5
109
330
2
100
AcDbSymbolTableRecord
100
AcDbLayerTableRecord
  2
TEKST
 70
     0
 62
     7
  6
CONTINUOUS
  0
LAYER
  5
13C
330
2
100
AcDbSymbolTableRecord
100
AcDbLayerTableRecord
  2
HATCH
 70
     0
 62
     7
  6
CONTINUOUS
  0
ENDTAB
  0
TABLE
  2
STYLE
  5
3
330
0
100
AcDbSymbolTable
 70
     1
  0
STYLE
  5
11
330
3
100
AcDbSymbolTableRecord
100
AcDbTextStyleTableRecord
  2
STANDARD
 70
     0
 40
0.0
 41
1.0
 50
0.0
 71
     0
 42
2.5
  3
txt
  4

  0
ENDTAB
  0
TABLE
  2
VIEW
  5
6
330
0
100
AcDbSymbolTable
 70
     0
  0
ENDTAB
  0
TABLE
  2
UCS
  5
7
330
0
100
AcDbSymbolTable
 70
     0
  0
ENDTAB
  0
TABLE
  2
APPID
  5
9
330
0
100
AcDbSymbolTable
 70
     2
  0
APPID
  5
12
330
9
100
AcDbSymbolTableRecord
100
AcDbRegAppTableRecord
  2
ACAD
 70
     0
  0
APPID
  5
102
330
9
100
AcDbSymbolTableRecord
100
AcDbRegAppTableRecord
  2
CONTENTBLOCKICON
 70
     0
  0
ENDTAB
  0
TABLE
  2
DIMSTYLE
  5
A
330
0
100
AcDbSymbolTable
 70
     1
  0
DIMSTYLE
105
27
330
A
100
AcDbSymbolTableRecord
100
AcDbDimStyleTableRecord
  2
ISO-25
 70
     0
  3

  4

  5

  6

  7

 40
1.0
 41
2.5
 42
0.625
 43
3.75
 44
1.25
 45
0.0
 46
0.0
 47
0.0
 48
0.0
140
2.5
141
2.5
142
0.0
143
0.03937007874016
144
1.0
145
0.0
146
1.0
147
0.625
 71
     0
 72
     0
 73
     0
 74
     0
 75
     0
 76
     0
 77
     1
 78
     8
170
     0
171
     3
172
     1
173
     0
174
     0
175
     0
176
     0
177
     0
178
     0
270
     2
271
     2
272
     2
273
     2
274
     3
340
11
275
     0
280
     0
281
     0
282
     0
283
     0
284
     8
285
     0
286
     0
287
     3
288
     0
  0
ENDTAB
  0
TABLE
  2
BLOCK_RECORD
  5
1
330
0
100
AcDbSymbolTable
 70
     5
  0
BLOCK_RECORD
  5
1F
102
{ACAD_XDICTIONARY
360
B7
102
}
330
1
100
AcDbSymbolTableRecord
100
AcDbBlockTableRecord
  2
*MODEL_SPACE
  0
BLOCK_RECORD
  5
50
102
{ACAD_XDICTIONARY
360
B9
102
}
330
1
100
AcDbSymbolTableRecord
100
AcDbBlockTableRecord
  2
*PAPER_SPACE
  0
BLOCK_RECORD
  5
C3
330
1
100
AcDbSymbolTableRecord
100
AcDbBlockTableRecord
  2
AESA
1001
ACAD
1000
DesignCenter Data
1002
{
1070
     1
1070
     4
1002
}
1001
CONTENTBLOCKICON
1071
        0
1004
28000000200000002000000001000800000000000004000000000000000000000000000000000000000000004000000080000000FF000000002000004020000080200000FF200000004000004040000080400000FF400000006000004060000080600000FF600000008000004080000080800000FF80000000A0000040A000
1004
0080A00000FFA0000000C0000040C0000080C00000FFC0000000FF000040FF000080FF0000FFFF0000000020004000200080002000FF002000002020004020200080202000FF202000004020004040200080402000FF402000006020004060200080602000FF602000008020004080200080802000FF80200000A0200040A0
1004
200080A02000FFA0200000C0200040C0200080C02000FFC0200000FF200040FF200080FF2000FFFF2000000040004000400080004000FF004000002040004020400080204000FF204000004040004040400080404000FF404000006040004060400080604000FF604000008040004080400080804000FF80400000A0400040
1004
A0400080A04000FFA0400000C0400040C0400080C04000FFC0400000FF400040FF400080FF4000FFFF4000000060004000600080006000FF006000002060004020600080206000FF206000004060004040600080406000FF406000006060004060600080606000FF606000008060004080600080806000FF80600000A06000
1004
40A0600080A06000FFA0600000C0600040C0600080C06000FFC0600000FF600040FF600080FF6000FFFF6000000080004000800080008000FF008000002080004020800080208000FF208000004080004040800080408000FF408000006080004060800080608000FF608000008080004080800080808000FF80800000A080
1004
0040A0800080A08000FFA0800000C0800040C0800080C08000FFC0800000FF800040FF800080FF8000FFFF80000000A0004000A0008000A000FF00A0000020A0004020A0008020A000FF20A0000040A0004040A0008040A000FF40A0000060A0004060A0008060A000FF60A0000080A0004080A0008080A000FF80A00000A0
1004
A00040A0A00080A0A000FFA0A00000C0A00040C0A00080C0A000FFC0A00000FFA00040FFA00080FFA000FFFFA0000000C0004000C0008000C000FF00C0000020C0004020C0008020C000FF20C0000040C0004040C0008040C000FF40C0000060C0004060C0008060C000FF60C0000080C0004080C0008080C000FF80C00000
1004
A0C00040A0C00080A0C000FFA0C00000C0C00040C0C00080C0C000FFC0C00000FFC00040FFC00080FFC000FFFFC0000000FF004000FF008000FF00FF00FF000020FF004020FF008020FF00FF20FF000040FF004040FF008040FF00FF40FF000060FF004060FF008060FF00FF60FF000080FF004080FF008080FF00FF80FF00
1004
00A0FF0040A0FF0080A0FF00FFA0FF0000C0FF0040C0FF0080C0FF00FFC0FF0000FFFF0040FFFF0080FFFF00FFFFFF0000000000000000000000000000000000000000000000000000000000000000000000000000000000000000000000000000000000000000000000000000000000000000000000000000000000000000
1004
0000000000000000000000000000000000000000000000000000000000FFFFFFFFFFFFFFFFFFFF000000000000000000000000000000000000000000FF00000000000000000000FF000000000000000000000000000000000000FFFF000000000000000000000000FFFF000000000000000000000000000000FF0000000000
1004
0000000000000000000000FF00000000000000000000000000FF000000000000000000000000000000000000FF000000000000000000000000FF00000000000000000000000000000000000000FF00000000000000000000FF000000000000000000000000000000000000000000FF0000000000000000FF00000000000000
1004
000000000000000000000000000000FF000000000000FFFF000000000000000000000000000000000000000000000000FF0000000000FF00000000000000000000000000000000000000000000000000FF00000000FF0000000000000000000000000000000000000000000000000000FF00000000FF000000000000000300
1004
000000FF4949490000000000000000000000FF0000FF00000000000303030303030303030303490000000000000000000000FF0000FF00000000000303030303030303030303490000000000000000000000FF000000FF000000000000030300000000FF4949490000000000000000000000FF000000FF0000000000000000
1004
000000000000000000000000000000000000FF0000000000FF00000000000000000000000000000000000000000000000000FF0000000000FF00000000000000000000000000000000000000000000000000FF000000000000FFFF00000000000000FFFFFFFFFFFF000000000000000000FF000000000000000000FF000000
1004
000000FFFFFFFF0000000000000000000000FF00000000000000000000FF00000000000000000000000000000000000000FF0000000000000000000000FF000000000000000000000000000000000000FF00000000000000000000000000FF00000000000000000000000000000000FF000000000000000000000000000000
1004
FF0000000000000000000000000000FF0000000000000000000000000000000000FFFF00000000000000000000FFFF0000000000000000000000000000000000000000FFFFFFFFFFFFFFFFFFFF0000000000000000000000000000000000000000000000000000000000000000000000000000000000000000000000000000
1004
0000000000000000000000000000000000000000000000000000000000000000000000000000000000000000000000000000000000000000
  0
BLOCK_RECORD
  5
18E
330
1
100
AcDbSymbolTableRecord
100
AcDbBlockTableRecord
  2
*U1
  0
BLOCK_RECORD
  5
1A9
330
1
100
AcDbSymbolTableRecord
100
AcDbBlockTableRecord
  2
*U2
  0
BLOCK_RECORD
  5
1CA
330
1
100
AcDbSymbolTableRecord
100
AcDbBlockTableRecord
  2
*U3
  0
BLOCK_RECORD
  5
24D
330
1
100
AcDbSymbolTableRecord
100
AcDbBlockTableRecord
  2
*U4
  0
ENDTAB
  0
ENDSEC
  0
SECTION
  2
BLOCKS
  0
BLOCK
  5
20
330
1F
100
AcDbEntity
  8
0
100
AcDbBlockBegin
  2
*MODEL_SPACE
 70
     0
 10
0.0
 20
0.0
 30
0.0
  3
*MODEL_SPACE
  1

  0
ENDBLK
  5
21
330
1F
100
AcDbEntity
  8
0
100
AcDbBlockEnd
  0
BLOCK
  5
52
330
50
100
AcDbEntity
 67
     1
  8
0
100
AcDbBlockBegin
  2
*PAPER_SPACE
 70
     0
 10
0.0
 20
0.0
 30
0.0
  3
*PAPER_SPACE
  1

  0
ENDBLK
  5
53
330
50
100
AcDbEntity
 67
     1
  8
0
100
AcDbBlockEnd
  0
BLOCK
  5
C4
330
C3
100
AcDbEntity
  8
0
100
AcDbBlockBegin
  2
AESA
 70
     0
 10
0.0
 20
0.0
 30
0.0
  3
AESA
  1

  0
INSERT
  5
22C
330
C3
100
AcDbEntity
  8
HATCH
  6
CONTINUOUS
 62
     5
100
AcDbBlockReference
  2
*U4
 10
0.0
 20
0.0
 30
0.0
1001
ACAD
1002
{
1000
R14_HATCH_DATA
1000
22C
1011
1.0
1021
0.0
1031
0.0
1011
0.0
1021
1.0
1031
0.0
1011
0.0
1021
0.0
1031
1.0
1040
0.0
1010
0.0
1020
0.0
1030
1.0
1000
SOLID
1070
     1
1070
     1
1071
        1
1071
        7
1070
     0
1070
     1
1071
        4
1040
1786.016579361836
1040
3549.604994836622
1040
1927.437935599145
1040
3549.604994836622
1040
2340.867018296746
1040
3963.034077534224
1040
2270.156340178095
1040
4033.744755652874
1071
        4
1005
23B
1005
239
1005
233
1005
23A
1070
     0
1070
     1
1040
3.362903958540736
1071
        1
1040
2017.219218956142
1040
3714.123818733629
1040
0.0
1002
}
  0
INSERT
  5
22D
330
C3
100
AcDbEntity
  8
HATCH
  6
CONTINUOUS
 62
     5
100
AcDbBlockReference
  2
*U1
 10
0.0
 20
0.0
 30
0.0
1001
ACAD
1002
{
1000
R14_HATCH_DATA
1000
16E
1011
1.0
1021
0.0
1031
0.0
1011
0.0
1021
1.0
1031
0.0
1011
0.0
1021
0.0
1031
1.0
1040
0.0
1010
0.0
1020
0.0
1030
1.0
1000
SOLID
1070
     1
1070
     1
1071
        5
1071
        7
1070
     0
1070
     1
1071
        6
1040
4150.000000584834
1040
3449.604994836622
1040
4150.000000584834
1040
3459.604994836621
1040
4150.000000584834
1040
3539.604994836622
1040
4150.000000584834
1040
3549.604994836622
1040
1500.000000584831
1040
3549.604994836622
1040
1500.00000058483
1040
3449.604994836622
1071
        6
1005
246
1005
233
1005
235
1005
234
1005
243
1005
23C
1071
       22
1070
     1
1070
     1
1071
        2
1040
4135.000000584835
1040
3499.604994836623
1040
-1.0
1040
4105.000000584835
1040
3499.604994836623
1040
-1.0
1071
        1
1005
23F
1071
        6
1070
     1
1070
     1
1071
        2
1040
4130.000000584835
1040
3499.604994836623
1040
-1.0
1040
4110.000000584835
1040
3499.604994836623
1040
-1.0
1071
        1
1005
23E
1071
        7
1070
     0
1070
     1
1071
        4
1040
2340.867018296746
1040
3963.034077534222
1040
2270.156340178095
1040
4033.744755652874
1040
1786.016579361834
1040
3549.604994836622
1040
1927.437935599145
1040
3549.604994836622
1071
        4
1005
23B
1005
239
1005
233
1005
23A
1071
        7
1070
     0
1070
     1
1071
        4
1040
2270.156340178092
1040
2965.465234020367
1040
2340.867018296744
1040
3036.175912139021
1040
1927.437935599144
1040
3449.604994836622
1040
1786.016579361834
1040
3449.604994836622
1071
        4
1005
234
1005
236
1005
238
1005
237
1070
     0
1070
     1
1040
5.049709592629538
1071
        5
1040
3052.577469187621
1040
3481.476191760448
1040
0.0
1040
3052.577469187621
1040
3481.476191760448
1040
0.0
1040
3052.577469187621
1040
3481.476191760448
1040
0.0
1040
2112.65083144843
1040
3794.55819175575
1040
0.0
1040
2188.451363587307
1040
3102.747965959679
1040
0.0
1002
}
  0
INSERT
  5
22E
330
C3
100
AcDbEntity
  8
HATCH
  6
CONTINUOUS
 62
   251
100
AcDbBlockReference
  2
*U2
 10
0.0
 20
0.0
 30
0.0
1001
ACAD
1002
{
1000
R14_HATCH_DATA
1000
16F
1011
1.0
1021
0.0
1031
0.0
1011
0.0
1021
1.0
1031
0.0
1011
0.0
1021
0.0
1031
1.0
1040
0.0
1010
0.0
1020
0.0
1030
1.0
1000
SOLID
1070
     1
1070
     1
1071
        1
1071
        7
1070
     1
1070
     1
1071
        4
1040
3748.348281901872
1040
3449.604994836622
1040
0.0
1040
3672.786405084876
1040
3449.604994836622
1040
17.94427190999907
1040
3672.786405084876
1040
3549.604994836622
1040
0.0
1040
3748.348281901872
1040
3549.604994836622
1040
-14.9330343736593
1071
        4
1005
233
1005
240
1005
234
1005
232
1070
     0
1070
     1
1040
2.085159848116818
1071
        1
1040
4433.352478958759
1040
3742.750045730005
1040
0.0
1002
}
  0
INSERT
  5
22F
330
C3
100
AcDbEntity
  8
HATCH
  6
CONTINUOUS
 62
   252
100
AcDbBlockReference
  2
*U3
 10
0.0
 20
0.0
 30
0.0
1001
ACAD
1002
{
1000
R14_HATCH_DATA
1000
170
1011
1.0
1021
0.0
1031
0.0
1011
0.0
1021
1.0
1031
0.0
1011
0.0
1021
0.0
1031
1.0
1040
0.0
1010
0.0
1020
0.0
1030
1.0
1000
SOLID
1070
     1
1070
     0
1071
        4
1071
        7
1070
     1
1070
     1
1071
        7
1040
3932.500000584833
1040
3824.364521255786
1040
0.0
1040
4091.132487125354
1040
3549.604994836622
1040
0.0
1040
4150.000000584834
1040
3549.604994836622
1040
0.0
1040
4150.000000584834
1040
3545.604994836622
1040
0.0
1040
4155.000000584835
1040
3545.604994836622
1040
0.0
1040
4155.000000584835
1040
3499.604994836624
1040
0.0
1040
4495.000000584837
1040
3499.604994836623
1040
0.5773502691896272
1071
        0
1071
        7
1070
     1
1070
     1
1071
        7
1040
4155.000000584835
1040
3453.604994836622
1040
0.0
1040
4150.000000584834
1040
3453.604994836622
1040
0.0
1040
4150.000000584834
1040
3449.604994836622
1040
0.0
1040
4091.132487125354
1040
3449.604994836622
1040
0.0
1040
3932.500000584834
1040
3174.845468417458
1040
0.5773502691896271
1040
4495.000000584838
1040
3499.604994836623
1040
0.0
1040
4155.000000584835
1040
3499.604994836624
1040
0.0
1071
        0
1071
        7
1070
     1
1070
     1
1071
        3
1040
4091.132487125355
1040
3449.604994836622
1040
0.0
1040
3748.348281901872
1040
3449.604994836622
1040
0.2324209559635565
1040
3932.500000584833
1040
3174.845468417457
1040
0.0
1071
        0
1071
        7
1070
     1
1070
     1
1071
        3
1040
4091.132487125354
1040
3549.604994836622
1040
0.0
1040
3932.500000584833
1040
3824.364521255786
1040
0.2324209559635569
1040
3748.348281901872
1040
3549.604994836622
1040
0.0
1071
        0
1070
     0
1070
     1
1040
2.085159848116818
1071
        4
1040
4331.105561001947
1040
3684.365560918326
1040
0.0
1040
4224.6853541456
1040
3365.336098057042
1040
0.0
1040
3982.631525964962
1040
3334.058693981737
1040
0.0
1040
3936.724759813303
1040
3609.29978275091
1040
0.0
1002
}
  0
MTEXT
  5
230
330
C3
100
AcDbEntity
  8
TEKST
100
AcDbMText
 10
3259.997038773988
 20
5286.613216643334
 30
0.0
 40
100.0
 41
1991.156099999999
 71
     1
 72
     1
  1
{\FIMPACT.TTF;Hoogte: 265 cm\PMax. valhoogte: 150 cm}
1001
ACAD
1000
MTEXTBEGIN
1070
    73
1070
     1
1070
    44
1040
1.0
1070
    74
1070
     0
1000
MTEXTEND
1000
MTEXTBEGIN
1070
    73
1070
     1
1070
    44
1040
1.0
1070
    74
1070
     0
1000
MTEXTEND
1000
MTEXTBEGIN
1070
    73
1070
     1
1070
    44
1040
1.0
1070
    74
1070
     0
1000
MTEXTEND
  0
POLYLINE
  5
231
330
C3
100
AcDbEntity
  8
SAFETY
100
AcDb2dPolyline
 66
     1
 10
0.0
 20
0.0
 30
0.0
 70
     1
  0
VERTEX
  5
254
330
231
100
AcDbEntity
  8
SAFETY
100
AcDbVertex
100
AcDb2dVertex
 10
0.0000005848312412
 20
3449.604994836622
 30
0.0
 42
0.303853343305917
  0
VERTEX
  5
255
330
231
100
AcDbEntity
  8
SAFETY
100
AcDbVertex
100
AcDb2dVertex
 10
928.5473684204793
 20
2062.722920112014
 30
0.0
 42
4.656925401094301
  0
VERTEX
  5
256
330
231
100
AcDbEntity
  8
SAFETY
100
AcDbVertex
100
AcDb2dVertex
 10
928.5473684228294
 20
4936.487069561687
 30
0.0
 42
0.303853343306628
  0
VERTEX
  5
257
330
231
100
AcDbEntity
  8
SAFETY
100
AcDbVertex
100
AcDb2dVertex
 10
0.0000005848312412
 20
3549.604994836622
 30
0.0
  0
SEQEND
  5
258
330
231
100
AcDbEntity
  8
SAFETY
  0
ARC
  5
232
330
C3
100
AcDbEntity
  8
OBJECT
100
AcDbCircle
 10
4120.000000584835
 20
3499.604994836623
 30
0.0
 40
450.0
100
AcDbArc
 50
186.3793702084643
 51
173.6206297915356
  0
LINE
  5
233
330
C3
100
AcDbEntity
  8
OBJECT
 62
     7
100
AcDbLine
 10
1500.000000584831
 20
3549.604994836622
 30
0.0
 11
4150.000000584834
 21
3549.604994836622
 31
0.0
  0
LINE
  5
234
330
C3
100
AcDbEntity
  8
OBJECT
 62
     7
100
AcDbLine
 10
4150.000000584834
 20
3449.604994836622
 30
0.0
 11
1500.000000584831
 21
3449.604994836622
 31
0.0
  0
LINE
  5
235
330
C3
100
AcDbEntity
  8
OBJECT
100
AcDbLine
 10
1500.000000584831
 20
3549.604994836622
 30
0.0
 11
1500.000000584831
 21
3449.604994836622
 31
0.0
  0
LINE
  5
236
330
C3
100
AcDbEntity
  8
OBJECT
 62
     7
100
AcDbLine
 10
1786.016579361836
 20
3449.604994836622
 30
0.0
 11
2270.156340178092
 21
2965.465234020367
 31
0.0
  0
LINE
  5
237
330
C3
100
AcDbEntity
  8
OBJECT
 62
     7
100
AcDbLine
 10
1927.437935599145
 20
3449.604994836622
 30
0.0
 11
2340.867018296744
 21
3036.175912139023
 31
0.0
  0
LINE
  5
238
330
C3
100
AcDbEntity
  8
OBJECT
100
AcDbLine
 10
2340.867018296747
 20
3036.175912139023
 30
0.0
 11
2270.156340178092
 21
2965.465234020367
 31
0.0
  0
LINE
  5
239
330
C3
100
AcDbEntity
  8
OBJECT
 62
     7
100
AcDbLine
 10
1786.016579361836
 20
3549.604994836622
 30
0.0
 11
2270.156340178095
 21
4033.744755652874
 31
0.0
  0
LINE
  5
23A
330
C3
100
AcDbEntity
  8
OBJECT
 62
     7
100
AcDbLine
 10
1927.437935599145
 20
3549.604994836622
 30
0.0
 11
2340.867018296744
 21
3963.034077534222
 31
0.0
  0
LINE
  5
23B
330
C3
100
AcDbEntity
  8
OBJECT
100
AcDbLine
 10
2340.867018296747
 20
3963.034077534222
 30
0.0
 11
2270.156340178092
 21
4033.744755652878
 31
0.0
  0
LINE
  5
23C
330
C3
100
AcDbEntity
  8
OBJECT
 62
     7
100
AcDbLine
 10
4150.000000584834
 20
3459.604994836621
 30
0.0
 11
4150.000000584834
 21
3539.604994836622
 31
0.0
  0
LINE
  5
23D
330
C3
100
AcDbEntity
  8
OBJECT
 62
     7
100
AcDbLine
 10
4155.000000584835
 20
3453.604994836622
 30
0.0
 11
4155.000000584835
 21
3545.604994836622
 31
0.0
  0
CIRCLE
  5
23E
330
C3
100
AcDbEntity
  8
OBJECT
 62
     7
100
AcDbCircle
 10
4120.000000584835
 20
3499.604994836623
 30
0.0
 40
10.0
  0
CIRCLE
  5
23F
330
C3
100
AcDbEntity
  8
OBJECT
 62
     7
100
AcDbCircle
 10
4120.000000584835
 20
3499.604994836623
 30
0.0
 40
15.0
  0
ARC
  5
240
330
C3
100
AcDbEntity
  8
OBJECT
100
AcDbCircle
 10
4120.000000584835
 20
3499.604994836623
 30
0.0
 40
375.0
100
AcDbArc
 50
187.6622556607656
 51
172.3377443392343
  0
LINE
  5
241
330
C3
100
AcDbEntity
  8
OBJECT
100
AcDbLine
 10
4155.000000584835
 20
3499.604994836624
 30
0.0
 11
4535.000000584835
 21
3499.604994836623
 31
0.0
  0
LINE
  5
242
330
C3
100
AcDbEntity
  8
OBJECT
100
AcDbLine
 10
4091.132487125354
 20
3449.604994836622
 30
0.0
 11
3912.500000584834
 21
3140.204452266081
 31
0.0
  0
LINE
  5
243
330
C3
100
AcDbEntity
  8
OBJECT
 62
     7
100
AcDbLine
 10
4150.000000584834
 20
3459.604994836621
 30
0.0
 11
4150.000000584834
 21
3449.604994836622
 31
0.0
  0
LINE
  5
244
330
C3
100
AcDbEntity
  8
OBJECT
 62
     7
100
AcDbLine
 10
4150.000000584834
 20
3453.604994836622
 30
0.0
 11
4155.000000584835
 21
3453.604994836622
 31
0.0
  0
LINE
  5
245
330
C3
100
AcDbEntity
  8
OBJECT
100
AcDbLine
 10
4091.132487125354
 20
3549.604994836622
 30
0.0
 11
3912.500000584834
 21
3859.005537407163
 31
0.0
  0
LINE
  5
246
330
C3
100
AcDbEntity
  8
OBJECT
 62
     7
100
AcDbLine
 10
4150.000000584834
 20
3549.604994836622
 30
0.0
 11
4150.000000584834
 21
3539.604994836622
 31
0.0
  0
LINE
  5
247
330
C3
100
AcDbEntity
  8
OBJECT
 62
     7
100
AcDbLine
 10
4150.000000584834
 20
3545.604994836622
 30
0.0
 11
4155.000000584835
 21
3545.604994836622
 31
0.0
  0
ENDBLK
  5
C5
330
C3
100
AcDbEntity
  8
0
100
AcDbBlockEnd
  0
BLOCK
  5
1A7
330
18E
100
AcDbEntity
  8
0
100
AcDbBlockBegin
  2
*U1
 70
     1
 10
0.0
 20
0.0
 30
0.0
  3
*U1
  1

  0
SOLID
  5
18F
330
18E
100
AcDbEntity
  8
HATCH
  6
CONTINUOUS
 62
     5
100
AcDbTrace
 10
2340.867018296744
 20
3036.175912139021
 30
0.0
 11
1927.437935599144
 21
3449.604994836622
 31
0.0
 12
1786.016579361834
 22
3449.604994836622
 32
0.0
 13
1786.016579361834
 23
3449.604994836622
 33
0.0
  0
SOLID
  5
190
330
18E
100
AcDbEntity
  8
HATCH
  6
CONTINUOUS
 62
     5
100
AcDbTrace
 10
1786.016579361834
 20
3449.604994836622
 30
0.0
 11
2270.156340178092
 21
2965.465234020367
 31
0.0
 12
2340.867018296744
 22
3036.175912139021
 32
0.0
 13
2340.867018296744
 23
3036.175912139021
 33
0.0
  0
SOLID
  5
191
330
18E
100
AcDbEntity
  8
HATCH
  6
CONTINUOUS
 62
     5
100
AcDbTrace
 10
4150.000000584834
 20
3459.604994836621
 30
0.0
 11
1500.00000058483
 21
3449.604994836622
 31
0.0
 12
4150.000000584834
 22
3449.604994836622
 32
0.0
 13
4150.000000584834
 23
3449.604994836622
 33
0.0
  0
SOLID
  5
192
330
18E
100
AcDbEntity
  8
HATCH
  6
CONTINUOUS
 62
     5
100
AcDbTrace
 10
4120.000000584835
 20
3484.604994836621
 30
0.0
 11
1500.00000058483
 21
3449.604994836622
 31
0.0
 12
4150.000000584834
 22
3459.604994836621
 32
0.0
 13
4150.000000584834
 23
3459.604994836621
 33
0.0
  0
SOLID
  5
193
330
18E
100
AcDbEntity
  8
HATCH
  6
CONTINUOUS
 62
     5
100
AcDbTrace
 10
4109.393398867037
 20
3488.998393118825
 30
0.0
 11
1500.00000058483
 21
3449.604994836622
 31
0.0
 12
4120.000000584835
 22
3484.604994836621
 32
0.0
 13
4120.000000584835
 23
3484.604994836621
 33
0.0
  0
SOLID
  5
194
330
18E
100
AcDbEntity
  8
HATCH
  6
CONTINUOUS
 62
     5
100
AcDbTrace
 10
4130.606602302633
 20
3488.998393118825
 30
0.0
 11
4120.000000584835
 21
3484.604994836621
 31
0.0
 12
4150.000000584834
 22
3459.604994836621
 32
0.0
 13
4150.000000584834
 23
3459.604994836621
 33
0.0
  0
SOLID
  5
195
330
18E
100
AcDbEntity
  8
HATCH
  6
CONTINUOUS
 62
     5
100
AcDbTrace
 10
4127.071068396701
 20
3492.533927024757
 30
0.0
 11
4112.928932772969
 21
3492.533927024757
 31
0.0
 12
4120.000000584835
 22
3489.604994836623
 32
0.0
 13
4120.000000584835
 23
3489.604994836623
 33
0.0
  0
SOLID
  5
196
330
18E
100
AcDbEntity
  8
HATCH
  6
CONTINUOUS
 62
     5
100
AcDbTrace
 10
4110.000000584835
 20
3499.604994836623
 30
0.0
 11
4112.928932772969
 21
3492.533927024757
 31
0.0
 12
4127.071068396701
 22
3492.533927024757
 32
0.0
 13
4127.071068396701
 23
3492.533927024757
 33
0.0
  0
SOLID
  5
197
330
18E
100
AcDbEntity
  8
HATCH
  6
CONTINUOUS
 62
     5
100
AcDbTrace
 10
4105.000000584835
 20
3499.604994836623
 30
0.0
 11
1500.00000058483
 21
3449.604994836622
 31
0.0
 12
4109.393398867037
 22
3488.998393118825
 32
0.0
 13
4109.393398867037
 23
3488.998393118825
 33
0.0
  0
SOLID
  5
198
330
18E
100
AcDbEntity
  8
HATCH
  6
CONTINUOUS
 62
     5
100
AcDbTrace
 10
4135.000000584835
 20
3499.604994836623
 30
0.0
 11
4130.606602302633
 21
3488.998393118825
 31
0.0
 12
4150.000000584834
 22
3459.604994836621
 32
0.0
 13
4150.000000584834
 23
3459.604994836621
 33
0.0
  0
SOLID
  5
199
330
18E
100
AcDbEntity
  8
HATCH
  6
CONTINUOUS
 62
     5
100
AcDbTrace
 10
4130.000000584835
 20
3499.604994836623
 30
0.0
 11
4110.000000584835
 21
3499.604994836623
 31
0.0
 12
4127.071068396701
 22
3492.533927024757
 32
0.0
 13
4127.071068396701
 23
3492.533927024757
 33
0.0
  0
SOLID
  5
19A
330
18E
100
AcDbEntity
  8
HATCH
  6
CONTINUOUS
 62
     5
100
AcDbTrace
 10
4112.928932772969
 20
3506.676062648488
 30
0.0
 11
4110.000000584835
 21
3499.604994836623
 31
0.0
 12
4130.000000584835
 22
3499.604994836623
 32
0.0
 13
4130.000000584835
 23
3499.604994836623
 33
0.0
  0
SOLID
  5
19B
330
18E
100
AcDbEntity
  8
HATCH
  6
CONTINUOUS
 62
     5
100
AcDbTrace
 10
4127.071068396701
 20
3506.676062648488
 30
0.0
 11
4112.928932772969
 21
3506.676062648488
 31
0.0
 12
4130.000000584835
 22
3499.604994836623
 32
0.0
 13
4130.000000584835
 23
3499.604994836623
 33
0.0
  0
SOLID
  5
19C
330
18E
100
AcDbEntity
  8
HATCH
  6
CONTINUOUS
 62
     5
100
AcDbTrace
 10
4120.000000584835
 20
3509.604994836623
 30
0.0
 11
4112.928932772969
 21
3506.676062648488
 31
0.0
 12
4127.071068396701
 22
3506.676062648488
 32
0.0
 13
4127.071068396701
 23
3506.676062648488
 33
0.0
  0
SOLID
  5
19D
330
18E
100
AcDbEntity
  8
HATCH
  6
CONTINUOUS
 62
     5
100
AcDbTrace
 10
4109.393398867037
 20
3510.21159655442
 30
0.0
 11
1500.00000058483
 21
3449.604994836622
 31
0.0
 12
4105.000000584835
 22
3499.604994836623
 32
0.0
 13
4105.000000584835
 23
3499.604994836623
 33
0.0
  0
SOLID
  5
19E
330
18E
100
AcDbEntity
  8
HATCH
  6
CONTINUOUS
 62
     5
100
AcDbTrace
 10
4120.000000584835
 20
3514.604994836623
 30
0.0
 11
1500.00000058483
 21
3449.604994836622
 31
0.0
 12
4109.393398867037
 22
3510.21159655442
 32
0.0
 13
4109.393398867037
 23
3510.21159655442
 33
0.0
  0
SOLID
  5
19F
330
18E
100
AcDbEntity
  8
HATCH
  6
CONTINUOUS
 62
     5
100
AcDbTrace
 10
4150.000000584834
 20
3539.604994836622
 30
0.0
 11
4120.000000584835
 21
3514.604994836623
 31
0.0
 12
4130.606602302633
 22
3510.21159655442
 32
0.0
 13
4130.606602302633
 23
3510.21159655442
 33
0.0
  0
SOLID
  5
1A0
330
18E
100
AcDbEntity
  8
HATCH
  6
CONTINUOUS
 62
     5
100
AcDbTrace
 10
4150.000000584834
 20
3539.604994836622
 30
0.0
 11
4130.606602302633
 21
3510.21159655442
 31
0.0
 12
4135.000000584835
 22
3499.604994836623
 32
0.0
 13
4135.000000584835
 23
3499.604994836623
 33
0.0
  0
SOLID
  5
1A1
330
18E
100
AcDbEntity
  8
HATCH
  6
CONTINUOUS
 62
     5
100
AcDbTrace
 10
4150.000000584834
 20
3539.604994836622
 30
0.0
 11
4135.000000584835
 21
3499.604994836623
 31
0.0
 12
4150.000000584834
 22
3459.604994836621
 32
0.0
 13
4150.000000584834
 23
3459.604994836621
 33
0.0
  0
SOLID
  5
1A2
330
18E
100
AcDbEntity
  8
HATCH
  6
CONTINUOUS
 62
     5
100
AcDbTrace
 10
4150.000000584834
 20
3549.604994836622
 30
0.0
 11
4120.000000584835
 21
3514.604994836623
 31
0.0
 12
4150.000000584834
 22
3539.604994836622
 32
0.0
 13
4150.000000584834
 23
3539.604994836622
 33
0.0
  0
SOLID
  5
1A3
330
18E
100
AcDbEntity
  8
HATCH
  6
CONTINUOUS
 62
     5
100
AcDbTrace
 10
4150.000000584834
 20
3549.604994836622
 30
0.0
 11
1500.00000058483
 21
3449.604994836622
 31
0.0
 12
4120.000000584835
 22
3514.604994836623
 32
0.0
 13
4120.000000584835
 23
3514.604994836623
 33
0.0
  0
SOLID
  5
1A4
330
18E
100
AcDbEntity
  8
HATCH
  6
CONTINUOUS
 62
     5
100
AcDbTrace
 10
1927.437935599145
 20
3549.604994836622
 30
0.0
 11
1500.00000058483
 21
3449.604994836622
 31
0.0
 12
4150.000000584834
 22
3549.604994836622
 32
0.0
 13
4150.000000584834
 23
3549.604994836622
 33
0.0
  0
SOLID
  5
1A5
330
18E
100
AcDbEntity
  8
HATCH
  6
CONTINUOUS
 62
     5
100
AcDbTrace
 10
1500.00000058483
 20
3449.604994836622
 30
0.0
 11
1927.437935599145
 21
3549.604994836622
 31
0.0
 12
1786.016579361834
 22
3549.604994836622
 32
0.0
 13
1786.016579361834
 23
3549.604994836622
 33
0.0
  0
SOLID
  5
1A6
330
18E
100
AcDbEntity
  8
HATCH
  6
CONTINUOUS
 62
     5
100
AcDbTrace
 10
1500.000000584831
 20
3549.604994836622
 30
0.0
 11
1500.00000058483
 21
3449.604994836622
 31
0.0
 12
1786.016579361834
 22
3549.604994836622
 32
0.0
 13
1786.016579361834
 23
3549.604994836622
 33
0.0
  0
ENDBLK
  5
1A8
330
18E
100
AcDbEntity
  8
0
100
AcDbBlockEnd
  0
BLOCK
  5
1C8
330
1A9
100
AcDbEntity
  8
0
100
AcDbBlockBegin
  2
*U2
 70
     1
 10
0.0
 20
0.0
 30
0.0
  3
*U2
  1

  0
SOLID
  5
1AA
330
1A9
100
AcDbEntity
  8
HATCH
  6
CONTINUOUS
 62
   251
100
AcDbTrace
 10
4359.305359941968
 20
3118.510590544253
 30
0.0
 11
4009.822004784553
 21
3063.301420199147
 31
0.0
 12
4190.217392499762
 22
3055.117067134788
 32
0.0
 13
4190.217392499762
 23
3055.117067134788
 33
0.0
  0
SOLID
  5
1AB
330
1A9
100
AcDbEntity
  8
HATCH
  6
CONTINUOUS
 62
   251
100
AcDbTrace
 10
4182.381583701674
 20
3129.830011789044
 30
0.0
 11
4009.822004784553
 21
3063.301420199147
 31
0.0
 12
4359.305359941968
 22
3118.510590544253
 32
0.0
 13
4359.305359941968
 23
3118.510590544253
 33
0.0
  0
SOLID
  5
1AC
330
1A9
100
AcDbEntity
  8
HATCH
  6
CONTINUOUS
 62
   251
100
AcDbTrace
 10
4033.077686463268
 20
3134.818055229745
 30
0.0
 11
4009.822004784553
 21
3063.301420199147
 31
0.0
 12
4182.381583701674
 22
3129.830011789044
 32
0.0
 13
4182.381583701674
 23
3129.830011789044
 33
0.0
  0
SOLID
  5
1AD
330
1A9
100
AcDbEntity
  8
HATCH
  6
CONTINUOUS
 62
   251
100
AcDbTrace
 10
3847.169071885387
 20
3141.745686804819
 30
0.0
 11
4009.822004784553
 21
3063.301420199147
 31
0.0
 12
4033.077686463268
 22
3134.818055229745
 32
0.0
 13
4033.077686463268
 23
3134.818055229745
 33
0.0
  0
SOLID
  5
1AE
330
1A9
100
AcDbEntity
  8
HATCH
  6
CONTINUOUS
 62
   251
100
AcDbTrace
 10
4321.785813456981
 20
3183.5235405823
 30
0.0
 11
4182.381583701674
 21
3129.830011789044
 31
0.0
 12
4359.305359941968
 22
3118.510590544253
 32
0.0
 13
4359.305359941968
 23
3118.510590544253
 33
0.0
  0
SOLID
  5
1AF
330
1A9
100
AcDbEntity
  8
HATCH
  6
CONTINUOUS
 62
   251
100
AcDbTrace
 10
3897.567956728646
 20
3197.696091579434
 30
0.0
 11
3847.169071885387
 21
3141.745686804819
 31
0.0
 12
4033.077686463268
 22
3134.818055229745
 32
0.0
 13
4033.077686463268
 23
3134.818055229745
 33
0.0
  0
SOLID
  5
1B0
330
1A9
100
AcDbEntity
  8
HATCH
  6
CONTINUOUS
 62
   251
100
AcDbTrace
 10
4489.856916417622
 20
3243.273448181398
 30
0.0
 11
4321.785813456981
 21
3183.5235405823
 31
0.0
 12
4359.305359941968
 22
3118.510590544253
 32
0.0
 13
4359.305359941968
 23
3118.510590544253
 33
0.0
  0
SOLID
  5
1B1
330
1A9
100
AcDbEntity
  8
HATCH
  6
CONTINUOUS
 62
   251
100
AcDbTrace
 10
3728.451322138791
 20
3277.817636298855
 30
0.0
 11
3847.169071885387
 21
3141.745686804819
 31
0.0
 12
3897.567956728646
 22
3197.696091579434
 32
0.0
 13
3897.567956728646
 23
3197.696091579434
 33
0.0
  0
SOLID
  5
1B2
330
1A9
100
AcDbEntity
  8
HATCH
  6
CONTINUOUS
 62
   251
100
AcDbTrace
 10
4429.167571988701
 20
3287.37772799224
 30
0.0
 11
4321.785813456981
 21
3183.5235405823
 31
0.0
 12
4489.856916417622
 22
3243.273448181398
 32
0.0
 13
4489.856916417622
 23
3243.273448181398
 33
0.0
  0
SOLID
  5
1B3
330
1A9
100
AcDbEntity
  8
HATCH
  6
CONTINUOUS
 62
   251
100
AcDbTrace
 10
3797.357159174663
 20
3308.485668532945
 30
0.0
 11
3728.451322138791
 21
3277.817636298855
 31
0.0
 12
3897.567956728646
 22
3197.696091579434
 32
0.0
 13
3897.567956728646
 23
3197.696091579434
 33
0.0
  0
SOLID
  5
1B4
330
1A9
100
AcDbEntity
  8
HATCH
  6
CONTINUOUS
 62
   251
100
AcDbTrace
 10
4560.848761628795
 20
3409.314519779709
 30
0.0
 11
4429.167571988701
 21
3287.37772799224
 31
0.0
 12
4489.856916417622
 22
3243.273448181398
 32
0.0
 13
4489.856916417622
 23
3243.273448181398
 33
0.0
  0
SOLID
  5
1B5
330
1A9
100
AcDbEntity
  8
HATCH
  6
CONTINUOUS
 62
   251
100
AcDbTrace
 10
4487.485872997662
 20
3424.911396871433
 30
0.0
 11
4429.167571988701
 21
3287.37772799224
 31
0.0
 12
4560.848761628795
 22
3409.314519779709
 32
0.0
 13
4560.848761628795
 23
3409.314519779709
 33
0.0
  0
SOLID
  5
1B6
330
1A9
100
AcDbEntity
  8
HATCH
  6
CONTINUOUS
 62
   251
100
AcDbTrace
 10
3797.357159174663
 20
3308.485668532945
 30
0.0
 11
3748.348281901872
 21
3449.604994836622
 31
0.0
 12
3672.786405084876
 22
3449.604994836622
 32
0.0
 13
3672.786405084876
 23
3449.604994836622
 33
0.0
  0
SOLID
  5
1B7
330
1A9
100
AcDbEntity
  8
HATCH
  6
CONTINUOUS
 62
   251
100
AcDbTrace
 10
3672.786405084876
 20
3449.604994836622
 30
0.0
 11
3728.451322138791
 21
3277.817636298855
 31
0.0
 12
3797.357159174663
 22
3308.485668532945
 32
0.0
 13
3797.357159174663
 23
3308.485668532945
 33
0.0
  0
SOLID
  5
1B8
330
1A9
100
AcDbEntity
  8
HATCH
  6
CONTINUOUS
 62
   251
100
AcDbTrace
 10
4487.485872997659
 20
3574.298592801818
 30
0.0
 11
4487.485872997662
 21
3424.911396871433
 31
0.0
 12
4560.848761628795
 22
3409.314519779709
 32
0.0
 13
4560.848761628795
 23
3409.314519779709
 33
0.0
  0
SOLID
  5
1B9
330
1A9
100
AcDbEntity
  8
HATCH
  6
CONTINUOUS
 62
   251
100
AcDbTrace
 10
4560.848761628796
 20
3589.895469893507
 30
0.0
 11
4487.485872997659
 21
3574.298592801818
 31
0.0
 12
4560.848761628795
 22
3409.314519779709
 32
0.0
 13
4560.848761628795
 23
3409.314519779709
 33
0.0
  0
SOLID
  5
1BA
330
1A9
100
AcDbEntity
  8
HATCH
  6
CONTINUOUS
 62
   251
100
AcDbTrace
 10
3797.357159174662
 20
3690.724321140297
 30
0.0
 11
3672.786405084876
 21
3549.604994836622
 31
0.0
 12
3748.348281901872
 22
3549.604994836622
 32
0.0
 13
3748.348281901872
 23
3549.604994836622
 33
0.0
  0
SOLID
  5
1BB
330
1A9
100
AcDbEntity
  8
HATCH
  6
CONTINUOUS
 62
   251
100
AcDbTrace
 10
4429.167571988698
 20
3711.832261681009
 30
0.0
 11
4487.485872997659
 21
3574.298592801818
 31
0.0
 12
4560.848761628796
 22
3589.895469893507
 32
0.0
 13
4560.848761628796
 23
3589.895469893507
 33
0.0
  0
SOLID
  5
1BC
330
1A9
100
AcDbEntity
  8
HATCH
  6
CONTINUOUS
 62
   251
100
AcDbTrace
 10
3728.451322138798
 20
3721.392353374386
 30
0.0
 11
3672.786405084876
 21
3549.604994836622
 31
0.0
 12
3797.357159174662
 22
3690.724321140297
 32
0.0
 13
3797.357159174662
 23
3690.724321140297
 33
0.0
  0
SOLID
  5
1BD
330
1A9
100
AcDbEntity
  8
HATCH
  6
CONTINUOUS
 62
   251
100
AcDbTrace
 10
4489.85691641763
 20
3755.936541491821
 30
0.0
 11
4429.167571988698
 21
3711.832261681009
 31
0.0
 12
4560.848761628796
 22
3589.895469893507
 32
0.0
 13
4560.848761628796
 23
3589.895469893507
 33
0.0
  0
SOLID
  5
1BE
330
1A9
100
AcDbEntity
  8
HATCH
  6
CONTINUOUS
 62
   251
100
AcDbTrace
 10
3897.567956728643
 20
3801.513898093811
 30
0.0
 11
3728.451322138798
 21
3721.392353374386
 31
0.0
 12
3797.357159174662
 22
3690.724321140297
 32
0.0
 13
3797.357159174662
 23
3690.724321140297
 33
0.0
  0
SOLID
  5
1BF
330
1A9
100
AcDbEntity
  8
HATCH
  6
CONTINUOUS
 62
   251
100
AcDbTrace
 10
4321.785813456981
 20
3815.686449090947
 30
0.0
 11
4429.167571988698
 21
3711.832261681009
 31
0.0
 12
4489.85691641763
 22
3755.936541491821
 32
0.0
 13
4489.85691641763
 23
3755.936541491821
 33
0.0
  0
SOLID
  5
1C0
330
1A9
100
AcDbEntity
  8
HATCH
  6
CONTINUOUS
 62
   251
100
AcDbTrace
 10
3847.169071885398
 20
3857.464302868419
 30
0.0
 11
3728.451322138798
 21
3721.392353374386
 31
0.0
 12
3897.567956728643
 22
3801.513898093811
 32
0.0
 13
3897.567956728643
 23
3801.513898093811
 33
0.0
  0
SOLID
  5
1C1
330
1A9
100
AcDbEntity
  8
HATCH
  6
CONTINUOUS
 62
   251
100
AcDbTrace
 10
4033.077686463264
 20
3864.3919344435
 30
0.0
 11
3847.169071885398
 21
3857.464302868419
 31
0.0
 12
3897.567956728643
 22
3801.513898093811
 32
0.0
 13
3897.567956728643
 23
3801.513898093811
 33
0.0
  0
SOLID
  5
1C2
330
1A9
100
AcDbEntity
  8
HATCH
  6
CONTINUOUS
 62
   251
100
AcDbTrace
 10
4182.381583701671
 20
3869.379977884204
 30
0.0
 11
4321.785813456981
 21
3815.686449090947
 31
0.0
 12
4489.85691641763
 22
3755.936541491821
 32
0.0
 13
4489.85691641763
 23
3755.936541491821
 33
0.0
  0
SOLID
  5
1C3
330
1A9
100
AcDbEntity
  8
HATCH
  6
CONTINUOUS
 62
   251
100
AcDbTrace
 10
4359.305359941979
 20
3880.699399128971
 30
0.0
 11
4182.381583701671
 21
3869.379977884204
 31
0.0
 12
4489.85691641763
 22
3755.936541491821
 32
0.0
 13
4489.85691641763
 23
3755.936541491821
 33
0.0
  0
SOLID
  5
1C4
330
1A9
100
AcDbEntity
  8
HATCH
  6
CONTINUOUS
 62
   251
100
AcDbTrace
 10
4009.822004784567
 20
3935.908569474085
 30
0.0
 11
4182.381583701671
 21
3869.379977884204
 31
0.0
 12
4359.305359941979
 22
3880.699399128971
 32
0.0
 13
4359.305359941979
 23
3880.699399128971
 33
0.0
  0
SOLID
  5
1C5
330
1A9
100
AcDbEntity
  8
HATCH
  6
CONTINUOUS
 62
   251
100
AcDbTrace
 10
4009.822004784567
 20
3935.908569474085
 30
0.0
 11
4033.077686463264
 21
3864.3919344435
 31
0.0
 12
4182.381583701671
 22
3869.379977884204
 32
0.0
 13
4182.381583701671
 23
3869.379977884204
 33
0.0
  0
SOLID
  5
1C6
330
1A9
100
AcDbEntity
  8
HATCH
  6
CONTINUOUS
 62
   251
100
AcDbTrace
 10
4009.822004784567
 20
3935.908569474085
 30
0.0
 11
3847.169071885398
 21
3857.464302868419
 31
0.0
 12
4033.077686463264
 22
3864.3919344435
 32
0.0
 13
4033.077686463264
 23
3864.3919344435
 33
0.0
  0
SOLID
  5
1C7
330
1A9
100
AcDbEntity
  8
HATCH
  6
CONTINUOUS
 62
   251
100
AcDbTrace
 10
4190.217392499776
 20
3944.092922538438
 30
0.0
 11
4009.822004784567
 21
3935.908569474085
 31
0.0
 12
4359.305359941979
 22
3880.699399128971
 32
0.0
 13
4359.305359941979
 23
3880.699399128971
 33
0.0
  0
ENDBLK
  5
1C9
330
1A9
100
AcDbEntity
  8
0
100
AcDbBlockEnd
  0
BLOCK
  5
1E1
330
1CA
100
AcDbEntity
  8
0
100
AcDbBlockBegin
  2
*U3
 70
     1
 10
0.0
 20
0.0
 30
0.0
  3
*U3
  1

  0
SOLID
  5
1CB
330
1CA
100
AcDbEntity
  8
HATCH
  6
CONTINUOUS
 62
   252
100
AcDbTrace
 10
4155.000000584835
 20
3545.604994836622
 30
0.0
 11
4155.000000584835
 21
3499.604994836624
 31
0.0
 12
4495.000000584837
 22
3499.604994836623
 32
0.0
 13
4495.000000584837
 23
3499.604994836623
 33
0.0
  0
SOLID
  5
1CC
330
1CA
100
AcDbEntity
  8
HATCH
  6
CONTINUOUS
 62
   252
100
AcDbTrace
 10
4150.000000584834
 20
3549.604994836622
 30
0.0
 11
4150.000000584834
 21
3545.604994836622
 31
0.0
 12
4155.000000584835
 22
3545.604994836622
 32
0.0
 13
4155.000000584835
 23
3545.604994836622
 33
0.0
  0
SOLID
  5
1CD
330
1CA
100
AcDbEntity
  8
HATCH
  6
CONTINUOUS
 62
   252
100
AcDbTrace
 10
4150.000000584834
 20
3549.604994836622
 30
0.0
 11
4155.000000584835
 21
3545.604994836622
 31
0.0
 12
4495.000000584837
 22
3499.604994836623
 32
0.0
 13
4495.000000584837
 23
3499.604994836623
 33
0.0
  0
SOLID
  5
1CE
330
1CA
100
AcDbEntity
  8
HATCH
  6
CONTINUOUS
 62
   252
100
AcDbTrace
 10
4462.579547200812
 20
3652.131235990049
 30
0.0
 11
4091.132487125354
 21
3549.604994836622
 31
0.0
 12
4150.000000584834
 22
3549.604994836622
 32
0.0
 13
4150.000000584834
 23
3549.604994836622
 33
0.0
  0
SOLID
  5
1CF
330
1CA
100
AcDbEntity
  8
HATCH
  6
CONTINUOUS
 62
   252
100
AcDbTrace
 10
4462.579547200812
 20
3652.131235990049
 30
0.0
 11
4150.000000584834
 21
3549.604994836622
 31
0.0
 12
4495.000000584837
 22
3499.604994836623
 32
0.0
 13
4495.000000584837
 23
3499.604994836623
 33
0.0
  0
SOLID
  5
1D0
330
1CA
100
AcDbEntity
  8
HATCH
  6
CONTINUOUS
 62
   252
100
AcDbTrace
 10
4370.923977969407
 20
3778.284304390647
 30
0.0
 11
4091.132487125354
 21
3549.604994836622
 31
0.0
 12
4462.579547200812
 22
3652.131235990049
 32
0.0
 13
4462.579547200812
 23
3652.131235990049
 33
0.0
  0
SOLID
  5
1D1
330
1CA
100
AcDbEntity
  8
HATCH
  6
CONTINUOUS
 62
   252
100
AcDbTrace
 10
3932.500000584833
 20
3824.364521255786
 30
0.0
 11
4091.132487125354
 21
3549.604994836622
 31
0.0
 12
4370.923977969407
 22
3778.284304390647
 32
0.0
 13
4370.923977969407
 23
3778.284304390647
 33
0.0
  0
SOLID
  5
1D2
330
1CA
100
AcDbEntity
  8
HATCH
  6
CONTINUOUS
 62
   252
100
AcDbTrace
 10
4235.88137347544
 20
3856.251188447306
 30
0.0
 11
3932.500000584833
 21
3824.364521255786
 31
0.0
 12
4370.923977969407
 22
3778.284304390647
 32
0.0
 13
4370.923977969407
 23
3778.284304390647
 33
0.0
  0
SOLID
  5
1D3
330
1CA
100
AcDbEntity
  8
HATCH
  6
CONTINUOUS
 62
   252
100
AcDbTrace
 10
4080.801826859464
 20
3872.550705599726
 30
0.0
 11
3932.500000584833
 21
3824.364521255786
 31
0.0
 12
4235.88137347544
 22
3856.251188447306
 32
0.0
 13
4235.88137347544
 23
3856.251188447306
 33
0.0
  0
SOLID
  5
1D4
330
1CA
100
AcDbEntity
  8
HATCH
  6
CONTINUOUS
 62
   252
100
AcDbTrace
 10
3932.500000584834
 20
3174.845468417458
 30
0.0
 11
4080.801826859464
 21
3126.65928407352
 31
0.0
 12
4235.881373475441
 22
3142.958801225939
 32
0.0
 13
4235.881373475441
 23
3142.958801225939
 33
0.0
  0
SOLID
  5
1D5
330
1CA
100
AcDbEntity
  8
HATCH
  6
CONTINUOUS
 62
   252
100
AcDbTrace
 10
4370.923977969408
 20
3220.925685282598
 30
0.0
 11
3932.500000584834
 21
3174.845468417458
 31
0.0
 12
4235.881373475441
 22
3142.958801225939
 32
0.0
 13
4235.881373475441
 23
3142.958801225939
 33
0.0
  0
SOLID
  5
1D6
330
1CA
100
AcDbEntity
  8
HATCH
  6
CONTINUOUS
 62
   252
100
AcDbTrace
 10
4462.579547200812
 20
3347.078753683197
 30
0.0
 11
3932.500000584834
 21
3174.845468417458
 31
0.0
 12
4370.923977969408
 22
3220.925685282598
 32
0.0
 13
4370.923977969408
 23
3220.925685282598
 33
0.0
  0
SOLID
  5
1D7
330
1CA
100
AcDbEntity
  8
HATCH
  6
CONTINUOUS
 62
   252
100
AcDbTrace
 10
4091.132487125354
 20
3449.604994836622
 30
0.0
 11
3932.500000584834
 21
3174.845468417458
 31
0.0
 12
4462.579547200812
 22
3347.078753683197
 32
0.0
 13
4462.579547200812
 23
3347.078753683197
 33
0.0
  0
SOLID
  5
1D8
330
1CA
100
AcDbEntity
  8
HATCH
  6
CONTINUOUS
 62
   252
100
AcDbTrace
 10
4462.579547200812
 20
3347.078753683197
 30
0.0
 11
4150.000000584834
 21
3449.604994836622
 31
0.0
 12
4091.132487125354
 22
3449.604994836622
 32
0.0
 13
4091.132487125354
 23
3449.604994836622
 33
0.0
  0
SOLID
  5
1D9
330
1CA
100
AcDbEntity
  8
HATCH
  6
CONTINUOUS
 62
   252
100
AcDbTrace
 10
4150.000000584834
 20
3453.604994836622
 30
0.0
 11
4150.000000584834
 21
3449.604994836622
 31
0.0
 12
4462.579547200812
 22
3347.078753683197
 32
0.0
 13
4462.579547200812
 23
3347.078753683197
 33
0.0
  0
SOLID
  5
1DA
330
1CA
100
AcDbEntity
  8
HATCH
  6
CONTINUOUS
 62
   252
100
AcDbTrace
 10
4462.579547200812
 20
3347.078753683197
 30
0.0
 11
4155.000000584835
 21
3453.604994836622
 31
0.0
 12
4150.000000584834
 22
3453.604994836622
 32
0.0
 13
4150.000000584834
 23
3453.604994836622
 33
0.0
  0
SOLID
  5
1DB
330
1CA
100
AcDbEntity
  8
HATCH
  6
CONTINUOUS
 62
   252
100
AcDbTrace
 10
4495.000000584838
 20
3499.604994836623
 30
0.0
 11
4155.000000584835
 21
3453.604994836622
 31
0.0
 12
4462.579547200812
 22
3347.078753683197
 32
0.0
 13
4462.579547200812
 23
3347.078753683197
 33
0.0
  0
SOLID
  5
1DC
330
1CA
100
AcDbEntity
  8
HATCH
  6
CONTINUOUS
 62
   252
100
AcDbTrace
 10
4155.000000584835
 20
3499.604994836624
 30
0.0
 11
4155.000000584835
 21
3453.604994836622
 31
0.0
 12
4495.000000584838
 22
3499.604994836623
 32
0.0
 13
4495.000000584838
 23
3499.604994836623
 33
0.0
  0
SOLID
  5
1DD
330
1CA
100
AcDbEntity
  8
HATCH
  6
CONTINUOUS
 62
   252
100
AcDbTrace
 10
3808.494205348134
 20
3290.824872377726
 30
0.0
 11
4091.132487125355
 21
3449.604994836622
 31
0.0
 12
3748.348281901872
 22
3449.604994836622
 32
0.0
 13
3748.348281901872
 23
3449.604994836622
 33
0.0
  0
SOLID
  5
1DE
330
1CA
100
AcDbEntity
  8
HATCH
  6
CONTINUOUS
 62
   252
100
AcDbTrace
 10
4091.132487125355
 20
3449.604994836622
 30
0.0
 11
3808.494205348134
 21
3290.824872377726
 31
0.0
 12
3932.500000584833
 22
3174.845468417457
 32
0.0
 13
3932.500000584833
 23
3174.845468417457
 33
0.0
  0
SOLID
  5
1DF
330
1CA
100
AcDbEntity
  8
HATCH
  6
CONTINUOUS
 62
   252
100
AcDbTrace
 10
3808.494205348134
 20
3708.385117295517
 30
0.0
 11
3748.348281901872
 21
3549.604994836622
 31
0.0
 12
4091.132487125354
 22
3549.604994836622
 32
0.0
 13
4091.132487125354
 23
3549.604994836622
 33
0.0
  0
SOLID
  5
1E0
330
1CA
100
AcDbEntity
  8
HATCH
  6
CONTINUOUS
 62
   252
100
AcDbTrace
 10
3932.500000584833
 20
3824.364521255786
 30
0.0
 11
3808.494205348134
 21
3708.385117295517
 31
0.0
 12
4091.132487125354
 22
3549.604994836622
 32
0.0
 13
4091.132487125354
 23
3549.604994836622
 33
0.0
  0
ENDBLK
  5
1E2
330
1CA
100
AcDbEntity
  8
0
100
AcDbBlockEnd
  0
BLOCK
  5
252
330
24D
100
AcDbEntity
  8
0
100
AcDbBlockBegin
  2
*U4
 70
     1
 10
0.0
 20
0.0
 30
0.0
  3
*U4
  1

  0
SOLID
  5
24E
330
24D
100
AcDbEntity
  8
HATCH
  6
CONTINUOUS
 62
     5
100
AcDbTrace
 10
2063.441798829291
 20
3756.319536185423
 30
0.0
 11
1786.016579361836
 21
3549.604994836622
 31
0.0
 12
1927.437935599145
 22
3549.604994836622
 32
0.0
 13
1927.437935599145
 23
3549.604994836622
 33
0.0
210
0.0
220
0.0
230
1.0
  0
SOLID
  5
24F
330
24D
100
AcDbEntity
  8
HATCH
  6
CONTINUOUS
 62
     5
100
AcDbTrace
 10
2063.441798829291
 20
3756.319536185423
 30
0.0
 11
1927.437935599145
 21
3549.604994836622
 31
0.0
 12
2340.867018296746
 22
3963.034077534224
 32
0.0
 13
2340.867018296746
 23
3963.034077534224
 33
0.0
210
0.0
220
0.0
230
1.0
  0
SOLID
  5
250
330
24D
100
AcDbEntity
  8
HATCH
  6
CONTINUOUS
 62
     5
100
AcDbTrace
 10
2063.441798829291
 20
3756.319536185423
 30
0.0
 11
2340.867018296746
 21
3963.034077534224
 31
0.0
 12
2270.156340178095
 22
4033.744755652874
 32
0.0
 13
2270.156340178095
 23
4033.744755652874
 33
0.0
210
0.0
220
0.0
230
1.0
  0
SOLID
  5
251
330
24D
100
AcDbEntity
  8
HATCH
  6
CONTINUOUS
 62
     5
100
AcDbTrace
 10
2063.441798829291
 20
3756.319536185423
 30
0.0
 11
2270.156340178095
 21
4033.744755652874
 31
0.0
 12
1786.016579361836
 22
3549.604994836622
 32
0.0
 13
1786.016579361836
 23
3549.604994836622
 33
0.0
210
0.0
220
0.0
230
1.0
  0
ENDBLK
  5
253
330
24D
100
AcDbEntity
  8
0
100
AcDbBlockEnd
  0
ENDSEC
  0
SECTION
  2
ENTITIES
  0
INSERT
  5
248
330
1F
100
AcDbEntity
  8
HATCH
100
AcDbBlockReference
  2
AESA
 10
0.0
 20
0.0
 30
0.0
  0
ENDSEC
  0
SECTION
  2
OBJECTS
  0
DICTIONARY
  5
C
330
0
100
AcDbDictionary
  3
ACAD_GROUP
350
D
  3
ACAD_LAYOUT
350
1A
  3
ACAD_MLINESTYLE
350
17
  3
ACAD_PLOTSETTINGS
350
19
1001
ACAD
1000
TREAT_AS_HARD
1070
     0
1000
TREAT_AS_HARD
1070
     0
1000
TREAT_AS_HARD
1070
     0
  0
DICTIONARY
  5
B7
330
1F
100
AcDbDictionary
  3
ACAD_LAYOUTSELFREF
350
24A
  3
ACAD_SORTENTS
350
16D
1001
ACAD
1000
TREAT_AS_HARD
1070
     1
1000
TREAT_AS_HARD
1070
     0
1000
TREAT_AS_HARD
1070
     0
  0
DICTIONARY
  5
B9
330
50
100
AcDbDictionary
  3
ACAD_LAYOUTSELFREF
350
24B
1001
ACAD
1000
TREAT_AS_HARD
1070
     1
1000
TREAT_AS_HARD
1070
     0
1000
TREAT_AS_HARD
1070
     0
  0
DICTIONARY
  5
D
102
{ACAD_REACTORS
330
C
102
}
330
C
100
AcDbDictionary
1001
ACAD
1000
TREAT_AS_HARD
1070
     0
1000
TREAT_AS_HARD
1070
     0
1000
TREAT_AS_HARD
1070
     0
  0
DICTIONARY
  5
1A
102
{ACAD_REACTORS
330
C
102
}
330
C
100
AcDbDictionary
1001
ACAD
1000
TREAT_AS_HARD
1070
     0
1000
TREAT_AS_HARD
1070
     0
1000
TREAT_AS_HARD
1070
     0
  0
DICTIONARY
  5
17
102
{ACAD_REACTORS
330
C
102
}
330
C
100
AcDbDictionary
  3
STANDARD
350
18
1001
ACAD
1000
TREAT_AS_HARD
1070
     0
1000
TREAT_AS_HARD
1070
     0
1000
TREAT_AS_HARD
1070
     0
  0
DICTIONARY
  5
19
102
{ACAD_REACTORS
330
C
102
}
330
C
100
AcDbDictionary
1001
ACAD
1000
TREAT_AS_HARD
1070
     0
1000
TREAT_AS_HARD
1070
     0
1000
TREAT_AS_HARD
1070
     0
  0
XRECORD
  5
24A
102
{ACAD_REACTORS
330
B7
102
}
330
B7
100
AcDbXrecord
340
1F
  0
SORTENTSTABLE
  5
16D
102
{ACAD_REACTORS
330
B7
102
}
330
B7
100
AcDbSortentsTable
330
1F
331
20B
  5
22B
331
1FF
  5
200
331
20A
  5
20B
331
1FE
  5
1FF
331
209
  5
20A
331
1FD
  5
1FE
331
208
  5
209
331
1FC
  5
1FD
331
1FB
  5
1FC
331
1FA
  5
1FB
331
1F9
  5
1FA
331
1F8
  5
1F9
331
22B
  5
110
331
1F7
  5
1F8
331
1F6
  5
1F7
331
1F5
  5
1F6
331
16C
  5
125
331
156
  5
124
331
1F4
  5
1F5
331
1F3
  5
1F4
331
1F2
  5
1F3
331
139
  5
1F1
331
1F1
  5
1F2
331
138
  5
16C
331
150
  5
123
331
137
  5
156
331
136
  5
150
331
12F
  5
133
331
135
  5
139
331
207
  5
208
331
12E
  5
132
331
134
  5
138
331
12D
  5
131
331
206
  5
207
331
127
  5
12B
331
133
  5
137
331
12C
  5
130
331
205
  5
206
331
126
  5
12A
331
132
  5
136
331
12B
  5
12F
331
204
  5
205
331
125
  5
129
331
131
  5
135
331
110
  5
126
331
12A
  5
12E
331
203
  5
204
331
124
  5
128
331
130
  5
134
331
129
  5
12D
331
202
  5
203
331
123
  5
127
331
201
  5
202
331
128
  5
12C
331
200
  5
201
  0
XRECORD
  5
24B
102
{ACAD_REACTORS
330
B9
102
}
330
B9
100
AcDbXrecord
340
50
  0
MLINESTYLE
  5
18
102
{ACAD_REACTORS
330
17
102
}
330
17
100
AcDbMlineStyle
  2
STANDARD
 70
     0
  3

 62
   256
 51
90.0
 52
90.0
 71
     2
 49
0.5
 62
   256
  6
BYLAYER
 49
-0.5
 62
   256
  6
BYLAYER
  0
ENDSEC
  0
EOF
