  0
SECTION
  2
HEADER
  9
$ACADVER
  1
AC1012
  9
$DWGCODEPAGE
  3
ANSI_1252
  9
$INSBASE
 10
0.0
 20
0.0
 30
0.0
  9
$EXTMIN
 10
-294.2085003595602
 20
16.51216242797636
 30
-0.0000000349181948
  9
$EXTMAX
 10
6304.754166583052
 20
5330.902901641379
 30
0.0000000814935746
  9
$LIMMIN
 10
0.0
 20
0.0
  9
$LIMMAX
 10
420.0
 20
297.0
  9
$ORTHOMODE
 70
     0
  9
$REGENMODE
 70
     1
  9
$FILLMODE
 70
     1
  9
$QTEXTMODE
 70
     0
  9
$MIRRTEXT
 70
     1
  9
$DRAGMODE
 70
     2
  9
$LTSCALE
 40
1.0
  9
$OSMODE
 70
  2559
  9
$ATTMODE
 70
     1
  9
$TEXTSIZE
 40
2.5
  9
$TRACEWID
 40
1.0
  9
$TEXTSTYLE
  7
STANDARD
  9
$CLAYER
  8
HATCH
  9
$CELTYPE
  6
BYLAYER
  9
$CECOLOR
 62
   256
  9
$CELTSCALE
 40
1.0
  9
$DELOBJ
 70
     1
  9
$DISPSILH
 70
     0
  9
$DIMSCALE
 40
1.0
  9
$DIMASZ
 40
2.5
  9
$DIMEXO
 40
0.625
  9
$DIMDLI
 40
3.75
  9
$DIMRND
 40
0.0
  9
$DIMDLE
 40
0.0
  9
$DIMEXE
 40
1.25
  9
$DIMTP
 40
0.0
  9
$DIMTM
 40
0.0
  9
$DIMTXT
 40
2.5
  9
$DIMCEN
 40
2.5
  9
$DIMTSZ
 40
0.0
  9
$DIMTOL
 70
     0
  9
$DIMLIM
 70
     0
  9
$DIMTIH
 70
     0
  9
$DIMTOH
 70
     0
  9
$DIMSE1
 70
     0
  9
$DIMSE2
 70
     0
  9
$DIMTAD
 70
     1
  9
$DIMZIN
 70
     8
  9
$DIMBLK
  1

  9
$DIMASO
 70
     1
  9
$DIMSHO
 70
     1
  9
$DIMPOST
  1

  9
$DIMAPOST
  1

  9
$DIMALT
 70
     0
  9
$DIMALTD
 70
     3
  9
$DIMALTF
 40
0.03937007874016
  9
$DIMLFAC
 40
1.0
  9
$DIMTOFL
 70
     1
  9
$DIMTVP
 40
0.0
  9
$DIMTIX
 70
     0
  9
$DIMSOXD
 70
     0
  9
$DIMSAH
 70
     0
  9
$DIMBLK1
  1

  9
$DIMBLK2
  1

  9
$DIMSTYLE
  2
ISO-25
  9
$DIMCLRD
 70
     0
  9
$DIMCLRE
 70
     0
  9
$DIMCLRT
 70
     0
  9
$DIMTFAC
 40
1.0
  9
$DIMGAP
 40
0.625
  9
$DIMJUST
 70
     0
  9
$DIMSD1
 70
     0
  9
$DIMSD2
 70
     0
  9
$DIMTOLJ
 70
     0
  9
$DIMTZIN
 70
     8
  9
$DIMALTZ
 70
     0
  9
$DIMALTTZ
 70
     0
  9
$DIMFIT
 70
     3
  9
$DIMUPT
 70
     0
  9
$DIMUNIT
 70
     2
  9
$DIMDEC
 70
     2
  9
$DIMTDEC
 70
     2
  9
$DIMALTU
 70
     2
  9
$DIMALTTD
 70
     3
  9
$DIMTXSTY
  7
STANDARD
  9
$DIMAUNIT
 70
     0
  9
$LUNITS
 70
     2
  9
$LUPREC
 70
     4
  9
$SKETCHINC
 40
1.0
  9
$FILLETRAD
 40
10.0
  9
$AUNITS
 70
     0
  9
$AUPREC
 70
     0
  9
$MENU
  1
.
  9
$ELEVATION
 40
0.0
  9
$PELEVATION
 40
0.0
  9
$THICKNESS
 40
0.0
  9
$LIMCHECK
 70
     0
  9
$BLIPMODE
 70
     0
  9
$CHAMFERA
 40
10.0
  9
$CHAMFERB
 40
10.0
  9
$CHAMFERC
 40
20.0
  9
$CHAMFERD
 40
0.0
  9
$SKPOLY
 70
     0
  9
$TDCREATE
 40
2452626.564654398
  9
$TDUPDATE
 40
2452776.516296411
  9
$TDINDWG
 40
0.0175545139
  9
$TDUSRTIMER
 40
0.0175532407
  9
$USRTIMER
 70
     1
  9
$ANGBASE
 50
0.0
  9
$ANGDIR
 70
     0
  9
$PDMODE
 70
     0
  9
$PDSIZE
 40
0.0
  9
$PLINEWID
 40
0.0
  9
$COORDS
 70
     2
  9
$SPLFRAME
 70
     0
  9
$SPLINETYPE
 70
     6
  9
$SPLINESEGS
 70
     8
  9
$ATTDIA
 70
     0
  9
$ATTREQ
 70
     1
  9
$HANDLING
 70
-16383
  9
$HANDSEED
  5
571
  9
$SURFTAB1
 70
     6
  9
$SURFTAB2
 70
     6
  9
$SURFTYPE
 70
     6
  9
$SURFU
 70
     6
  9
$SURFV
 70
     6
  9
$UCSNAME
  2

  9
$UCSORG
 10
0.0
 20
0.0
 30
0.0
  9
$UCSXDIR
 10
1.0
 20
0.0
 30
0.0
  9
$UCSYDIR
 10
0.0
 20
1.0
 30
0.0
  9
$PUCSNAME
  2

  9
$PUCSORG
 10
0.0
 20
0.0
 30
0.0
  9
$PUCSXDIR
 10
1.0
 20
0.0
 30
0.0
  9
$PUCSYDIR
 10
0.0
 20
1.0
 30
0.0
  9
$USERI1
 70
     0
  9
$USERI2
 70
     0
  9
$USERI3
 70
     0
  9
$USERI4
 70
     0
  9
$USERI5
 70
     0
  9
$USERR1
 40
0.0
  9
$USERR2
 40
0.0
  9
$USERR3
 40
0.0
  9
$USERR4
 40
0.0
  9
$USERR5
 40
0.0
  9
$WORLDVIEW
 70
     1
  9
$SHADEDGE
 70
     3
  9
$SHADEDIF
 70
    70
  9
$TILEMODE
 70
     1
  9
$MAXACTVP
 70
    64
  9
$PINSBASE
 10
0.0
 20
0.0
 30
0.0
  9
$PLIMCHECK
 70
     0
  9
$PEXTMIN
 10
0.0
 20
0.0
 30
0.0
  9
$PEXTMAX
 10
0.0
 20
0.0
 30
0.0
  9
$PLIMMIN
 10
0.0
 20
0.0
  9
$PLIMMAX
 10
12.0
 20
9.0
  9
$UNITMODE
 70
     0
  9
$VISRETAIN
 70
     1
  9
$PLINEGEN
 70
     0
  9
$PSLTSCALE
 70
     1
  9
$TREEDEPTH
 70
  3020
  9
$PICKSTYLE
 70
     1
  9
$CMLSTYLE
  2
STANDARD
  9
$CMLJUST
 70
     0
  9
$CMLSCALE
 40
20.0
  9
$SAVEIMAGES
 70
     1
  0
ENDSEC
  0
SECTION
  2
CLASSES
  0
CLASS
  1
ACDBDICTIONARYWDFLT
  2
AcDbDictionaryWithDefault
  3
AutoCAD 2000
 90
    32768
280
     0
281
     0
  0
CLASS
  1
ACDBPLACEHOLDER
  2
AcDbPlaceHolder
  3
AutoCAD 2000
 90
    32768
280
     0
281
     0
  0
CLASS
  1
LAYOUT
  2
AcDbLayout
  3
AutoCAD 2000
 90
    32768
280
     0
281
     0
  0
CLASS
  1
LONG_TRANSACTION
  2
AcDbLongTransaction
  3
AutoCAD 2000
 90
    32768
280
     0
281
     0
  0
CLASS
  1
LWPOLYLINE
  2
AcDbPolyline
  3
AutoCAD 2000
 90
    32768
280
     0
281
     1
  0
CLASS
  1
HATCH
  2
AcDbHatch
  3
AutoCAD 2000
 90
    32768
280
     0
281
     1
  0
CLASS
  1
XRECORD
  2
AcDbXrecord
  3
AutoCAD 2000
 90
    32768
280
     0
281
     0
  0
CLASS
  1
LONG_TRANSACTION
  2
AcDbLongTransaction
  3
AutoCAD 2000
 90
    32768
280
     0
281
     0
  0
CLASS
  1
LWPOLYLINE
  2
AcDbPolyline
  3
AutoCAD 2000
 90
    32768
280
     0
281
     1
  0
CLASS
  1
HATCH
  2
AcDbHatch
  3
AutoCAD 2000
 90
    32768
280
     0
281
     1
  0
CLASS
  1
XRECORD
  2
AcDbXrecord
  3
AutoCAD 2000
 90
    32768
280
     0
281
     0
  0
CLASS
  1
LONG_TRANSACTION
  2
AcDbLongTransaction
  3
AutoCAD 2000
 90
    32768
280
     0
281
     0
  0
CLASS
  1
LWPOLYLINE
  2
AcDbPolyline
  3
AutoCAD 2000
 90
    32768
280
     0
281
     1
  0
CLASS
  1
HATCH
  2
AcDbHatch
  3
AutoCAD 2000
 90
    32768
280
     0
281
     1
  0
CLASS
  1
XRECORD
  2
AcDbXrecord
  3
AutoCAD 2000
 90
    32768
280
     0
281
     0
  0
CLASS
  1
DICTIONARYVAR
  2
AcDbDictionaryVar
  3
AutoCAD 2000
 90
    32768
280
     0
281
     0
  0
CLASS
  1
SORTENTSTABLE
  2
AcDbSortentsTable
  3
AutoCAD 2000
 90
    32768
280
     0
281
     0
  0
CLASS
  1
LONG_TRANSACTION
  2
AcDbLongTransaction
  3
AutoCAD 2000
 90
    32768
280
     0
281
     0
  0
CLASS
  1
LWPOLYLINE
  2
AcDbPolyline
  3
AutoCAD 2000
 90
    32768
280
     0
281
     1
  0
CLASS
  1
HATCH
  2
AcDbHatch
  3
AutoCAD 2000
 90
    32768
280
     0
281
     1
  0
CLASS
  1
XRECORD
  2
AcDbXrecord
  3
AutoCAD 2000
 90
    32768
280
     0
281
     0
  0
ENDSEC
  0
SECTION
  2
TABLES
  0
TABLE
  2
VPORT
  5
8
330
0
100
AcDbSymbolTable
 70
     2
  0
VPORT
  5
464
330
8
100
AcDbSymbolTableRecord
100
AcDbViewportTableRecord
  2
*ACTIVE
 70
     0
 10
0.0
 20
0.0
 11
1.0
 21
1.0
 12
3005.272833111746
 22
2673.707532034677
 13
0.0
 23
0.0
 14
10.0
 24
10.0
 15
10.0
 25
10.0
 16
0.0
 26
0.0
 36
1.0
 17
0.0
 27
0.0
 37
0.0
 40
5375.242541570807
 41
1.47227533460803
 42
50.0
 43
0.0
 44
0.0
 50
0.0
 51
0.0
 71
     0
 72
   100
 73
     1
 74
     3
 75
     0
 76
     0
 77
     0
 78
     0
  0
ENDTAB
  0
TABLE
  2
LTYPE
  5
5
330
0
100
AcDbSymbolTable
 70
     1
  0
LTYPE
  5
14
330
5
100
AcDbSymbolTableRecord
100
AcDbLinetypeTableRecord
  2
BYBLOCK
 70
     0
  3

 72
    65
 73
     0
 40
0.0
  0
LTYPE
  5
15
330
5
100
AcDbSymbolTableRecord
100
AcDbLinetypeTableRecord
  2
BYLAYER
 70
     0
  3

 72
    65
 73
     0
 40
0.0
  0
LTYPE
  5
16
330
5
100
AcDbSymbolTableRecord
100
AcDbLinetypeTableRecord
  2
CONTINUOUS
 70
     0
  3
Solid line
 72
    65
 73
     0
 40
0.0
  0
ENDTAB
  0
TABLE
  2
LAYER
  5
2
330
0
100
AcDbSymbolTable
 70
     5
  0
LAYER
  5
10
330
2
100
AcDbSymbolTableRecord
100
AcDbLayerTableRecord
  2
0
 70
     0
 62
     7
  6
CONTINUOUS
  0
LAYER
  5
5D
330
2
100
AcDbSymbolTableRecord
100
AcDbLayerTableRecord
  2
OBJECT
 70
     0
 62
     7
  6
CONTINUOUS
  0
LAYER
  5
1F0
330
2
100
AcDbSymbolTableRecord
100
AcDbLayerTableRecord
  2
TEKST
 70
     0
 62
     7
  6
CONTINUOUS
  0
LAYER
  5
3E9
330
2
100
AcDbSymbolTableRecord
100
AcDbLayerTableRecord
  2
HATCH
 70
     0
 62
     7
  6
CONTINUOUS
  0
LAYER
  5
452
330
2
100
AcDbSymbolTableRecord
100
AcDbLayerTableRecord
  2
SAFETY
 70
     0
 62
     7
  6
CONTINUOUS
  0
ENDTAB
  0
TABLE
  2
STYLE
  5
3
330
0
100
AcDbSymbolTable
 70
     1
  0
STYLE
  5
11
330
3
100
AcDbSymbolTableRecord
100
AcDbTextStyleTableRecord
  2
STANDARD
 70
     0
 40
0.0
 41
1.0
 50
0.0
 71
     0
 42
2.5
  3
txt
  4

  0
ENDTAB
  0
TABLE
  2
VIEW
  5
6
330
0
100
AcDbSymbolTable
 70
     0
  0
ENDTAB
  0
TABLE
  2
UCS
  5
7
330
0
100
AcDbSymbolTable
 70
     0
  0
ENDTAB
  0
TABLE
  2
APPID
  5
9
330
0
100
AcDbSymbolTable
 70
     3
  0
APPID
  5
12
330
9
100
AcDbSymbolTableRecord
100
AcDbRegAppTableRecord
  2
ACAD
 70
     0
  0
APPID
  5
5F
330
9
100
AcDbSymbolTableRecord
100
AcDbRegAppTableRecord
  2
AVE_FINISH
 70
     0
  0
APPID
  5
1E9
330
9
100
AcDbSymbolTableRecord
100
AcDbRegAppTableRecord
  2
CONTENTBLOCKICON
 70
     0
  0
ENDTAB
  0
TABLE
  2
DIMSTYLE
  5
A
330
0
100
AcDbSymbolTable
 70
     2
  0
DIMSTYLE
105
27
330
A
100
AcDbSymbolTableRecord
100
AcDbDimStyleTableRecord
  2
ISO-25
 70
     0
  3

  4

  5

  6

  7

 40
1.0
 41
2.5
 42
0.625
 43
3.75
 44
1.25
 45
0.0
 46
0.0
 47
0.0
 48
0.0
140
2.5
141
2.5
142
0.0
143
0.03937007874016
144
1.0
145
0.0
146
1.0
147
0.625
 71
     0
 72
     0
 73
     0
 74
     0
 75
     0
 76
     0
 77
     1
 78
     8
170
     0
171
     3
172
     1
173
     0
174
     0
175
     0
176
     0
177
     0
178
     0
270
     2
271
     2
272
     2
273
     2
274
     3
340
11
275
     0
280
     0
281
     0
282
     0
283
     0
284
     8
285
     0
286
     0
287
     3
288
     0
  0
DIMSTYLE
105
5E
330
A
100
AcDbSymbolTableRecord
100
AcDbDimStyleTableRecord
  2
STANDARD
 70
     0
  3

  4

  5

  6

  7

 40
1.0
 41
0.18
 42
0.0625
 43
0.38
 44
0.18
 45
0.0
 46
0.0
 47
0.0
 48
0.0
140
0.18
141
0.09
142
0.0
143
25.4
144
1.0
145
0.0
146
1.0
147
0.09
 71
     0
 72
     0
 73
     1
 74
     1
 75
     0
 76
     0
 77
     0
 78
     0
170
     0
171
     2
172
     0
173
     0
174
     0
175
     0
176
     0
177
     0
178
     0
270
     2
271
     4
272
     4
273
     2
274
     2
340
11
275
     0
280
     0
281
     0
282
     0
283
     1
284
     0
285
     0
286
     0
287
     3
288
     0
  0
ENDTAB
  0
TABLE
  2
BLOCK_RECORD
  5
1
330
0
100
AcDbSymbolTable
 70
    15
  0
BLOCK_RECORD
  5
1F
102
{ACAD_XDICTIONARY
360
150
102
}
330
1
100
AcDbSymbolTableRecord
100
AcDbBlockTableRecord
  2
*MODEL_SPACE
  0
BLOCK_RECORD
  5
50
102
{ACAD_XDICTIONARY
360
152
102
}
330
1
100
AcDbSymbolTableRecord
100
AcDbBlockTableRecord
  2
*PAPER_SPACE
  0
BLOCK_RECORD
  5
15C
330
1
100
AcDbSymbolTableRecord
100
AcDbBlockTableRecord
  2
ADKC1
1001
ACAD
1000
DesignCenter Data
1002
{
1070
     1
1070
     4
1002
}
1001
CONTENTBLOCKICON
1071
        0
1004
28000000200000002000000001000800000000000004000000000000000000000000000000000000000000004000000080000000FF000000002000004020000080200000FF200000004000004040000080400000FF400000006000004060000080600000FF600000008000004080000080800000FF80000000A0000040A000
1004
0080A00000FFA0000000C0000040C0000080C00000FFC0000000FF000040FF000080FF0000FFFF0000000020004000200080002000FF002000002020004020200080202000FF202000004020004040200080402000FF402000006020004060200080602000FF602000008020004080200080802000FF80200000A0200040A0
1004
200080A02000FFA0200000C0200040C0200080C02000FFC0200000FF200040FF200080FF2000FFFF2000000040004000400080004000FF004000002040004020400080204000FF204000004040004040400080404000FF404000006040004060400080604000FF604000008040004080400080804000FF80400000A0400040
1004
A0400080A04000FFA0400000C0400040C0400080C04000FFC0400000FF400040FF400080FF4000FFFF4000000060004000600080006000FF006000002060004020600080206000FF206000004060004040600080406000FF406000006060004060600080606000FF606000008060004080600080806000FF80600000A06000
1004
40A0600080A06000FFA0600000C0600040C0600080C06000FFC0600000FF600040FF600080FF6000FFFF6000000080004000800080008000FF008000002080004020800080208000FF208000004080004040800080408000FF408000006080004060800080608000FF608000008080004080800080808000FF80800000A080
1004
0040A0800080A08000FFA0800000C0800040C0800080C08000FFC0800000FF800040FF800080FF8000FFFF80000000A0004000A0008000A000FF00A0000020A0004020A0008020A000FF20A0000040A0004040A0008040A000FF40A0000060A0004060A0008060A000FF60A0000080A0004080A0008080A000FF80A00000A0
1004
A00040A0A00080A0A000FFA0A00000C0A00040C0A00080C0A000FFC0A00000FFA00040FFA00080FFA000FFFFA0000000C0004000C0008000C000FF00C0000020C0004020C0008020C000FF20C0000040C0004040C0008040C000FF40C0000060C0004060C0008060C000FF60C0000080C0004080C0008080C000FF80C00000
1004
A0C00040A0C00080A0C000FFA0C00000C0C00040C0C00080C0C000FFC0C00000FFC00040FFC00080FFC000FFFFC0000000FF004000FF008000FF00FF00FF000020FF004020FF008020FF00FF20FF000040FF004040FF008040FF00FF40FF000060FF004060FF008060FF00FF60FF000080FF004080FF008080FF00FF80FF00
1004
00A0FF0040A0FF0080A0FF00FFA0FF0000C0FF0040C0FF0080C0FF00FFC0FF0000FFFF0040FFFF0080FFFF00FFFFFF0000000000000000000000000000000000000000000000000000000000000000000000000000000000000000000000000000000000000000000000000000000000000000000000000000000000000000
1004
000000000000000000000000000000000000000000000000000000000000000000000000000000000000000000000000000000000000000000FFFFFFFF0000000000000000000000000000000000000000000000000000FFFF00000000FFFFFF00000000000000000000000000000000000000000000FF0000000000000000
1004
00FF0000000000000000000000000000000000000000FF00000000000000000000FF00000000000000000000000000000000000000FF000000000000000000000000FF000000000000000000000000000000000000FF000000000000000000000000FF000000000000000000000000000000000000FF000000000000000000
1004
000000FF000000000000000000000000000000000000FF00000000000003000000000000FF0000000000000000000000000000000000FF00000000000003000000000000FFFF00000000000000000000000000000000FF000000000000030000000000000000FFFFFFFFFFFFFFFFFFFFFFFF000000FF000000000000000300
1004
000000000000000000000000000000000000FF000000FF000000000000000300000000000000000000000000000000000000FF0000FF00000000000000000300000000000000000000000000000000000000FF0000FF00000000000303494949FCFCFCFCFCFCFCFCFCFC0000000000000000FF0000FF0000000000FC490000
1004
49FCFCFCFCFCFCFCFCFC000000000000000000FF0000FF0000000000FC49000049FCFCFCFCFCFCFCFCFCFC0000000000000000FF0000FF0000000000FCFC494949FCFCFCFCFCFCFCFCFCFC0000000000000000FF000000FF000000000000000000000000000000000000000000000000000000FF000000FF00000000000000
1004
FFFFFFFFFF000000000000000000000000000000FF000000FF00000000000000FFFFFFFF00000000000000000000000000000000FF00000000FF0000000000000000000000000000000000000000000000000000FF0000000000FF00000000000000000000000000FFFFFFFFFFFFFFFFFFFFFFFFFF000000000000FF000000
1004
00000000FFFFFFFFFF0000000000000000000000000000000000000000FFFFFFFFFFFFFF00000000000000000000000000000000000000000000000000000000000000000000000000000000000000000000000000000000000000000000000000000000000000000000000000000000000000000000000000000000000000
1004
0000000000000000000000000000000000000000000000000000000000000000000000000000000000000000000000000000000000000000
  0
BLOCK_RECORD
  5
3EA
330
1
100
AcDbSymbolTableRecord
100
AcDbBlockTableRecord
  2
1
1001
CONTENTBLOCKICON
1071
        0
1004
28000000200000002000000001000800000000000004000000000000000000000000000000000000000000004000000080000000FF000000002000004020000080200000FF200000004000004040000080400000FF400000006000004060000080600000FF600000008000004080000080800000FF80000000A0000040A000
1004
0080A00000FFA0000000C0000040C0000080C00000FFC0000000FF000040FF000080FF0000FFFF0000000020004000200080002000FF002000002020004020200080202000FF202000004020004040200080402000FF402000006020004060200080602000FF602000008020004080200080802000FF80200000A0200040A0
1004
200080A02000FFA0200000C0200040C0200080C02000FFC0200000FF200040FF200080FF2000FFFF2000000040004000400080004000FF004000002040004020400080204000FF204000004040004040400080404000FF404000006040004060400080604000FF604000008040004080400080804000FF80400000A0400040
1004
A0400080A04000FFA0400000C0400040C0400080C04000FFC0400000FF400040FF400080FF4000FFFF4000000060004000600080006000FF006000002060004020600080206000FF206000004060004040600080406000FF406000006060004060600080606000FF606000008060004080600080806000FF80600000A06000
1004
40A0600080A06000FFA0600000C0600040C0600080C06000FFC0600000FF600040FF600080FF6000FFFF6000000080004000800080008000FF008000002080004020800080208000FF208000004080004040800080408000FF408000006080004060800080608000FF608000008080004080800080808000FF80800000A080
1004
0040A0800080A08000FFA0800000C0800040C0800080C08000FFC0800000FF800040FF800080FF8000FFFF80000000A0004000A0008000A000FF00A0000020A0004020A0008020A000FF20A0000040A0004040A0008040A000FF40A0000060A0004060A0008060A000FF60A0000080A0004080A0008080A000FF80A00000A0
1004
A00040A0A00080A0A000FFA0A00000C0A00040C0A00080C0A000FFC0A00000FFA00040FFA00080FFA000FFFFA0000000C0004000C0008000C000FF00C0000020C0004020C0008020C000FF20C0000040C0004040C0008040C000FF40C0000060C0004060C0008060C000FF60C0000080C0004080C0008080C000FF80C00000
1004
A0C00040A0C00080A0C000FFA0C00000C0C00040C0C00080C0C000FFC0C00000FFC00040FFC00080FFC000FFFFC0000000FF004000FF008000FF00FF00FF000020FF004020FF008020FF00FF20FF000040FF004040FF008040FF00FF40FF000060FF004060FF008060FF00FF60FF000080FF004080FF008080FF00FF80FF00
1004
00A0FF0040A0FF0080A0FF00FFA0FF0000C0FF0040C0FF0080C0FF00FFC0FF0000FFFF0040FFFF0080FFFF00FFFFFF0000000000000000000000000000000000000000000000000000000000000000000000000000000000000000000000000000000000000000000000000000000000000000000000000000000000000000
1004
000000000000000000000000000000000000000000000000000000000000000000000000000000000000000000000000000000000000000000000000000000000000000000000000000000000000000000000000000000000000000000000000000000000000000000000000000000000000000000000000FF000000000000
1004
00000000000000000000000000000000000000000000000000FF00000000000000000000000000000000000000000000000000000000000000FF00000000000000000000000000000000000000000000000000000000000000FF00000000000000000000000000000000000000000000000000000000000000FF0000000000
1004
0000000000000000000000000000000000000000000000000000FF00000000000000000000000000000000000000000000000000000000000000FF00000000000000000000000000000000000000000000000000000000000000FF00000000000000000000000000000000000000000000000000000000000000FF00000000
1004
000000000000000000000000000000000000000000000000000000FF00000000000000000000000000000000000000000000000000000000000000FF00000000000000000000000000000000000000000000000000000000000000FF00000000000000000000000000000000000000000000000000FFFFFFFFFFFFFFFFFFFF
1004
FF000000000000000000000000000000000000000000FFFFFFFFFFFFFFFFFFFFFFFFFFFFFFFFFFFFFFFFFFFFFFFFFFFFFFFFFFFF000000FFFFFF000000000000FFFFFFFFFFFFFFFFFFFFFFFFFFFFFFFFFFFFFF00000000FFFFFF000000000000FF00FFFF00000000000000000000000000FF0000000000FFFFFF0000000000
1004
00FF00FFFF00000000000000000000000000FF0000000000FFFFFF000000000000FFFFFFFFFFFFFFFFFFFFFFFFFFFFFFFFFFFFFF000000FFFFFFFFFFFFFFFFFFFFFFFFFFFFFFFFFFFFFFFFFFFFFFFFFFFFFFFFFFFF000000FFFFFFFF00000000FFFF0000000000000000000000000000000000000000000000000000000000
1004
00000000000000000000000000000000000000000000000000000000000000000000000000000000000000000000000000000000000000000000000000000000000000000000000000000000000000000000000000000000000000000000000000000000000000000000000000000000000000000000000000000000000000
1004
0000000000000000000000000000000000000000000000000000000000000000000000000000000000000000000000000000000000000000
  0
BLOCK_RECORD
  5
486
330
1
100
AcDbSymbolTableRecord
100
AcDbBlockTableRecord
  2
*U2
  0
BLOCK_RECORD
  5
4A2
330
1
100
AcDbSymbolTableRecord
100
AcDbBlockTableRecord
  2
*U3
  0
BLOCK_RECORD
  5
4A9
330
1
100
AcDbSymbolTableRecord
100
AcDbBlockTableRecord
  2
*U4
  0
BLOCK_RECORD
  5
4C5
330
1
100
AcDbSymbolTableRecord
100
AcDbBlockTableRecord
  2
*U5
  0
BLOCK_RECORD
  5
4D2
330
1
100
AcDbSymbolTableRecord
100
AcDbBlockTableRecord
  2
*U6
  0
BLOCK_RECORD
  5
4E1
330
1
100
AcDbSymbolTableRecord
100
AcDbBlockTableRecord
  2
*U7
  0
BLOCK_RECORD
  5
4E9
330
1
100
AcDbSymbolTableRecord
100
AcDbBlockTableRecord
  2
*U8
  0
BLOCK_RECORD
  5
500
330
1
100
AcDbSymbolTableRecord
100
AcDbBlockTableRecord
  2
*U9
  0
BLOCK_RECORD
  5
53A
330
1
100
AcDbSymbolTableRecord
100
AcDbBlockTableRecord
  2
*U10
  0
BLOCK_RECORD
  5
541
330
1
100
AcDbSymbolTableRecord
100
AcDbBlockTableRecord
  2
*U11
  0
BLOCK_RECORD
  5
548
330
1
100
AcDbSymbolTableRecord
100
AcDbBlockTableRecord
  2
*U12
  0
BLOCK_RECORD
  5
561
330
1
100
AcDbSymbolTableRecord
100
AcDbBlockTableRecord
  2
*U13
  0
BLOCK_RECORD
  5
56A
330
1
100
AcDbSymbolTableRecord
100
AcDbBlockTableRecord
  2
*U14
  0
ENDTAB
  0
ENDSEC
  0
SECTION
  2
BLOCKS
  0
BLOCK
  5
20
330
1F
100
AcDbEntity
  8
0
100
AcDbBlockBegin
  2
*MODEL_SPACE
 70
     0
 10
0.0
 20
0.0
 30
0.0
  3
*MODEL_SPACE
  1

  0
ENDBLK
  5
21
330
1F
100
AcDbEntity
  8
0
100
AcDbBlockEnd
  0
BLOCK
  5
52
330
50
100
AcDbEntity
 67
     1
  8
0
100
AcDbBlockBegin
  2
*PAPER_SPACE
 70
     0
 10
0.0
 20
0.0
 30
0.0
  3
*PAPER_SPACE
  1

  0
ENDBLK
  5
53
330
50
100
AcDbEntity
 67
     1
  8
0
100
AcDbBlockEnd
  0
BLOCK
  5
15D
330
15C
100
AcDbEntity
  8
0
100
AcDbBlockBegin
  2
ADKC1
 70
     0
 10
0.0
 20
0.0
 30
0.0
  3
ADKC1
  1

  0
INSERT
  5
453
330
15C
100
AcDbEntity
  8
HATCH
  6
CONTINUOUS
 62
     5
100
AcDbBlockReference
  2
*U2
 10
0.0
 20
0.0
 30
0.0
1001
ACAD
1002
{
1000
R14_HATCH_DATA
1000
453
1011
1.0
1021
0.0
1031
0.0
1011
0.0
1021
1.0
1031
0.0
1011
0.0
1021
0.0
1031
1.0
1040
0.0
1010
0.0
1020
0.0
1030
1.0
1000
SOLID
1070
     1
1070
     0
1071
        6
1071
        7
1070
     1
1070
     1
1071
        4
1040
1476.697491838466
1040
2879.412311462809
1040
0.0
1040
1441.697491838467
1040
2879.412311462809
1040
0.2015127546239988
1040
1434.197491838467
1040
2861.558740391451
1040
0.0
1040
1484.197491838467
1040
2861.558740391451
1040
0.2015127546240051
1071
        0
1071
        7
1070
     1
1070
     1
1071
        4
1040
1412.029267300216
1040
2879.412311462809
1040
0.0
1040
1377.029267300216
1040
2879.412311462808
1040
0.2015127546239911
1040
1369.529267300217
1040
2861.558740391451
1040
0.0
1040
1419.529267300217
1040
2861.558740391451
1040
0.2015127546240081
1071
        0
1071
        7
1070
     1
1070
     1
1071
        4
1040
1342.029267300216
1040
2879.412311462809
1040
0.0
1040
1307.029267300216
1040
2879.412311462809
1040
0.2015127546239987
1040
1299.529267300217
1040
2861.558740391451
1040
0.0
1040
1349.529267300217
1040
2861.558740391451
1040
0.2015127546240071
1071
        0
1071
        7
1070
     1
1070
     1
1071
        5
1040
1342.529267300217
1040
2828.193689003791
1040
0.0
1040
1306.529267300217
1040
2828.193689003791
1040
0.2045351541962959
1040
1312.079367702228
1040
2815.193689003791
1040
0.0
1040
1324.529267300217
1040
2815.193689003791
1040
0.0
1040
1336.979166898205
1040
2815.193689003791
1040
0.2045351541962959
1071
        0
1071
        7
1070
     1
1070
     1
1071
        4
1040
1412.529267300217
1040
2828.193689003791
1040
0.0
1040
1376.529267300217
1040
2828.193689003791
1040
0.2045351541962959
1040
1382.079367702228
1040
2815.193689003791
1040
0.0
1040
1406.979166898205
1040
2815.193689003791
1040
0.2045351541962959
1071
        0
1071
        7
1070
     1
1070
     1
1071
        4
1040
1477.197491838467
1040
2828.193689003791
1040
0.0
1040
1441.197491838467
1040
2828.193689003791
1040
0.2045351541962959
1040
1446.747592240478
1040
2815.193689003791
1040
0.0
1040
1471.647391436455
1040
2815.193689003791
1040
0.2045351541962973
1071
        0
1070
     0
1070
     1
1040
0.2916713982566252
1071
        6
1040
1456.695766493879
1040
2872.845191736611
1040
0.0
1040
1409.707904333294
1040
2873.136863223789
1040
0.0
1040
1343.749777889201
1040
2866.13674753152
1040
0.0
1040
1328.281730490403
1040
2822.094364616343
1040
0.0
1040
1398.325742333176
1040
2818.885978257387
1040
0.0
1040
1466.326820051645
1040
2819.76099271892
1040
0.0
1002
}
  0
INSERT
  5
454
330
15C
100
AcDbEntity
  8
HATCH
  6
CONTINUOUS
 62
     2
100
AcDbBlockReference
  2
*U3
 10
0.0
 20
0.0
 30
0.0
1001
ACAD
1002
{
1000
R14_HATCH_DATA
1000
454
1011
1.0
1021
0.0
1031
0.0
1011
0.0
1021
1.0
1031
0.0
1011
0.0
1021
0.0
1031
1.0
1040
0.0
1010
0.0
1020
0.0
1030
1.0
1000
SOLID
1070
     1
1070
     0
1071
        3
1071
        7
1070
     1
1070
     1
1071
        2
1040
1446.747592240478
1040
3508.494614745004
1040
0.0
1040
1471.647391436455
1040
3508.494614745004
1040
0.401609664451245
1071
        0
1071
        7
1070
     1
1070
     1
1071
        2
1040
1406.979166898205
1040
3508.494614745004
1040
0.40160966445124
1040
1382.079367702228
1040
3508.494614745004
1040
0.0
1071
        0
1071
        7
1070
     1
1070
     1
1071
        3
1040
1336.979166898205
1040
3508.494614745004
1040
0.40160966445124
1040
1312.079367702228
1040
3508.494614745004
1040
0.0
1040
1324.529267300217
1040
3508.494614745004
1040
0.0
1071
        0
1070
     0
1070
     1
1040
0.2212354527378793
1071
        3
1040
1457.28361962623
1040
3511.341300151813
1040
0.0
1040
1394.635629223064
1040
3510.898824755813
1040
0.0
1040
1327.338836498414
1040
3510.235117486156
1040
0.0
1002
}
  0
INSERT
  5
455
330
15C
100
AcDbEntity
  8
HATCH
  6
CONTINUOUS
 62
     5
100
AcDbBlockReference
  2
*U4
 10
0.0
 20
0.0
 30
0.0
1001
ACAD
1002
{
1000
R14_HATCH_DATA
1000
455
1011
1.0
1021
0.0
1031
0.0
1011
0.0
1021
1.0
1031
0.0
1011
0.0
1021
0.0
1031
1.0
1040
0.0
1010
0.0
1020
0.0
1030
1.0
1000
SOLID
1070
     1
1070
     0
1071
        6
1071
        7
1070
     1
1070
     1
1071
        4
1040
1446.747592240478
1040
3508.494614745004
1040
0.2045351541962945
1040
1441.197491838467
1040
3495.494614745004
1040
0.0
1040
1477.197491838467
1040
3495.494614745004
1040
0.2045351541962959
1040
1471.647391436455
1040
3508.494614745004
1040
0.0
1071
        0
1071
        7
1070
     1
1070
     1
1071
        4
1040
1412.529267300217
1040
3495.494614745004
1040
0.2045351541963053
1040
1406.979166898205
1040
3508.494614745004
1040
0.0
1040
1382.079367702228
1040
3508.494614745004
1040
0.2045351541962959
1040
1376.529267300217
1040
3495.494614745004
1040
0.0
1071
        0
1071
        7
1070
     1
1070
     1
1071
        5
1040
1342.529267300217
1040
3495.494614745004
1040
0.2045351541963053
1040
1336.979166898205
1040
3508.494614745004
1040
0.0
1040
1324.529267300217
1040
3508.494614745004
1040
0.0
1040
1312.079367702228
1040
3508.494614745004
1040
0.2045351541962959
1040
1306.529267300217
1040
3495.494614745004
1040
0.0
1071
        0
1071
        7
1070
     1
1070
     1
1071
        4
1040
1299.529267300217
1040
3462.129563357343
1040
0.2015127546239927
1040
1307.029267300216
1040
3444.275992285987
1040
0.0
1040
1342.029267300217
1040
3444.275992285986
1040
0.2015127546239909
1040
1349.529267300217
1040
3462.129563357343
1040
0.0
1071
        0
1071
        7
1070
     1
1070
     1
1071
        4
1040
1369.529267300216
1040
3462.129563357343
1040
0.2015127546239879
1040
1377.029267300216
1040
3444.275992285987
1040
0.0
1040
1412.029267300218
1040
3444.275992285987
1040
0.2015127546239775
1040
1419.529267300217
1040
3462.129563357343
1040
0.0
1071
        0
1071
        7
1070
     1
1070
     1
1071
        4
1040
1434.197491838467
1040
3462.129563357343
1040
0.201512754623986
1040
1441.697491838466
1040
3444.275992285987
1040
0.0
1040
1476.697491838467
1040
3444.275992285986
1040
0.2015127546239919
1040
1484.197491838467
1040
3462.129563357343
1040
0.0
1071
        0
1070
     0
1070
     1
1040
0.5782119784534303
1071
        6
1040
1463.532644027249
1040
3502.746106378061
1040
0.0
1040
1399.311803064791
1040
3501.011477019914
1040
0.0
1040
1315.998280581063
1040
3499.276836013081
1040
0.0
1040
1323.519634771235
1040
3455.332733074634
1040
0.0
1040
1399.311803064791
1040
3455.910938977786
1040
0.0
1040
1457.168422570188
1040
3455.910938977786
1040
0.0
1002
}
  0
INSERT
  5
456
330
15C
100
AcDbEntity
  8
HATCH
  6
CONTINUOUS
 62
   251
100
AcDbBlockReference
  2
*U5
 10
0.0
 20
0.0
 30
0.0
1001
ACAD
1002
{
1000
R14_HATCH_DATA
1000
456
1011
1.0
1021
0.0
1031
0.0
1011
0.0
1021
1.0
1031
0.0
1011
0.0
1021
0.0
1031
1.0
1040
0.0
1010
0.0
1020
0.0
1030
1.0
1000
SOLID
1070
     1
1070
     0
1071
        1
1071
        7
1070
     0
1070
     1
1071
       12
1040
2140.115716376718
1040
2876.844151874397
1040
2140.115716376717
1040
2898.094151874397
1040
2246.365716376718
1040
2898.094151874397
1040
2246.365716376718
1040
3425.594151874397
1040
2140.115716376718
1040
3425.594151874397
1040
2140.115716376718
1040
3471.844151874398
1040
1612.615716376716
1040
3471.844151874398
1040
1612.615716376715
1040
3425.594151874397
1040
1506.365716376718
1040
3425.594151874396
1040
1506.365716376718
1040
2898.094151874397
1040
1612.615716376716
1040
2898.094151874397
1040
1612.615716376716
1040
2876.844151874396
1071
        0
1070
     0
1070
     1
1040
6.106971112834388
1071
        1
1040
1748.981092008754
1040
3033.918770519427
1040
0.0
1002
}
  0
INSERT
  5
457
330
15C
100
AcDbEntity
  8
HATCH
  6
CONTINUOUS
 62
     2
100
AcDbBlockReference
  2
*U6
 10
0.0
 20
0.0
 30
0.0
1001
ACAD
1002
{
1000
R14_HATCH_DATA
1000
457
1011
1.0
1021
0.0
1031
0.0
1011
0.0
1021
1.0
1031
0.0
1011
0.0
1021
0.0
1031
1.0
1040
0.0
1010
0.0
1020
0.0
1030
1.0
1000
SOLID
1070
     1
1070
     0
1071
        3
1071
        7
1070
     0
1070
     1
1071
        6
1040
1476.697491838467
1040
3444.275992285986
1040
1441.697491838467
1040
3444.275992285986
1040
1441.697491838467
1040
3161.844151874397
1040
1441.697491838467
1040
2879.412311462809
1040
1476.697491838466
1040
2879.412311462808
1040
1476.697491838467
1040
3161.844151874397
1071
        0
1071
        7
1070
     0
1070
     1
1071
        6
1040
1412.029267300217
1040
3444.275992285987
1040
1377.029267300217
1040
3444.275992285987
1040
1377.029267300217
1040
3161.844151874397
1040
1377.029267300217
1040
2879.412311462808
1040
1412.029267300217
1040
2879.412311462809
1040
1412.029267300217
1040
3161.844151874397
1071
        0
1071
        7
1070
     0
1070
     1
1071
        6
1040
1342.029267300217
1040
3444.275992285986
1040
1307.029267300217
1040
3444.275992285986
1040
1307.029267300217
1040
3161.844151874397
1040
1307.029267300217
1040
2879.412311462809
1040
1342.029267300216
1040
2879.412311462808
1040
1342.029267300217
1040
3161.844151874397
1071
        0
1070
     0
1070
     1
1040
1.589694792436915
1071
        3
1040
1462.454611061395
1040
3220.504590574928
1040
0.0
1040
1395.646487018508
1040
3201.428229588731
1040
0.0
1040
1327.247757160548
1040
3191.890064786861
1040
0.0
1002
}
  0
INSERT
  5
458
330
15C
100
AcDbEntity
  8
HATCH
  6
CONTINUOUS
 62
     5
100
AcDbBlockReference
  2
*U7
 10
0.0
 20
0.0
 30
0.0
1001
ACAD
1002
{
1000
R14_HATCH_DATA
1000
458
1011
1.0
1021
0.0
1031
0.0
1011
0.0
1021
1.0
1031
0.0
1011
0.0
1021
0.0
1031
1.0
1040
0.0
1010
0.0
1020
0.0
1030
1.0
1000
SOLID
1070
     1
1070
     0
1071
        1
1071
        7
1070
     1
1070
     1
1071
        4
1040
1893.865716376715
1040
2806.844151874397
1040
0.0
1040
1858.865716376718
1040
2806.844151874397
1040
0.0
1040
1858.865716376718
1040
1534.344151874397
1040
1.0
1040
1893.865716376716
1040
1534.344151874397
1040
0.0
1071
        0
1070
     0
1070
     1
1040
2.779958442517398
1071
        1
1040
1887.094246001957
1040
2311.88544114611
1040
0.0
1002
}
  0
INSERT
  5
459
330
15C
100
AcDbEntity
  8
HATCH
  6
CONTINUOUS
 62
     2
100
AcDbBlockReference
  2
*U8
 10
0.0
 20
0.0
 30
0.0
1001
ACAD
1002
{
1000
R14_HATCH_DATA
1000
459
1011
1.0
1021
0.0
1031
0.0
1011
0.0
1021
1.0
1031
0.0
1011
0.0
1021
0.0
1031
1.0
1040
0.0
1010
0.0
1020
0.0
1030
1.0
1000
SOLID
1070
     1
1070
     0
1071
        1
1071
        7
1070
     1
1070
     1
1071
        4
1040
2252.615716376717
1040
3499.286276541724
1040
0.0
1040
2252.615716376717
1040
3464.279578866672
1040
-0.9795479416753787
1040
2252.615716376717
1040
2859.408724882122
1040
0.0
1040
2252.615716376717
1040
2824.402027207069
1040
0.9816498172140358
1071
        0
1070
     0
1070
     1
1040
1.685654804794703
1071
        1
1040
2519.590936980392
1040
3294.491310180634
1040
0.0
1002
}
  0
INSERT
  5
45A
330
15C
100
AcDbEntity
  8
HATCH
  6
CONTINUOUS
 62
     2
100
AcDbBlockReference
  2
*U9
 10
0.0
 20
0.0
 30
0.0
1001
ACAD
1002
{
1000
R14_HATCH_DATA
1000
45A
1011
1.0
1021
0.0
1031
0.0
1011
0.0
1021
1.0
1031
0.0
1011
0.0
1021
0.0
1031
1.0
1040
0.0
1010
0.0
1020
0.0
1030
1.0
1000
SOLID
1070
     1
1070
     0
1071
       12
1071
        7
1070
     1
1070
     1
1071
        4
1040
2434.400297212028
1040
3442.110536605226
1040
-0.0305474205322677
1040
2467.149146068468
1040
3417.110536605226
1040
0.0
1040
4315.192201531608
1040
3417.110536605226
1040
0.0
1040
4315.192201531609
1040
3442.110536605226
1040
0.0
1071
        0
1071
        7
1070
     1
1070
     1
1071
        8
1040
2467.149146068468
1040
3417.110536605226
1040
-0.0736924361281359
1040
2531.690584791787
1040
3342.110536605225
1040
0.0
1040
4195.445599917011
1040
3342.110536605225
1040
0.0
1040
4205.019348930811
1040
3348.688415162417
1040
0.0
1040
4235.066490549207
1040
3385.389962507764
1040
0.0
1040
4235.066490549209
1040
3402.072483100995
1040
0.0
1040
4315.192201531607
1040
3402.072483100995
1040
0.0
1040
4315.192201531607
1040
3417.110536605226
1040
0.0
1071
        0
1071
        7
1070
     1
1070
     1
1071
        9
1040
2531.690584791787
1040
3342.110536605225
1040
-0.2894335051032251
1040
2531.690584791787
1040
2981.577767143568
1040
0.0
1040
4195.445599917013
1040
2981.577767143568
1040
0.0
1040
4151.602202762609
1040
3011.701446132925
1040
0.0
1040
4131.570775017011
1040
3071.75852638927
1040
0.0
1040
4131.570775017011
1040
3161.844151874397
1040
0.0
1040
4131.570775017011
1040
3251.929777359523
1040
0.0
1040
4151.60220276261
1040
3311.98685761587
1040
0.0
1040
4195.445599917011
1040
3342.110536605225
1040
0.0
1071
        0
1071
        7
1070
     1
1070
     1
1071
        8
1040
4315.192201531609
1040
2906.577767143568
1040
0.0
1040
4315.192201531607
1040
2921.615820647799
1040
0.0
1040
4235.066490549209
1040
2921.6158206478
1040
0.0
1040
4235.066490549207
1040
2938.298341241031
1040
0.0
1040
4205.019348930809
1040
2974.999888586378
1040
0.0
1040
4195.44559991701
1040
2981.577767143568
1040
0.0
1040
2531.690584791787
1040
2981.577767143568
1040
-0.0736924361281357
1040
2467.149146068468
1040
2906.577767143568
1040
0.0
1071
        0
1071
        7
1070
     1
1070
     1
1071
        4
1040
4315.192201531609
1040
2881.577767143568
1040
0.0
1040
4315.192201531608
1040
2906.577767143567
1040
0.0
1040
2467.149146068468
1040
2906.577767143568
1040
-0.0305474205322679
1040
2434.400297212027
1040
2881.577767143568
1040
0.0
1071
        0
1071
        7
1070
     1
1070
     1
1071
        4
1040
2246.365716376718
1040
2981.577767143568
1040
0.0
1040
2246.365716376718
1040
2906.577767143568
1040
0.0
1040
2408.678139889067
1040
2906.577767143568
1040
0.0917602366987247
1040
2489.286033633379
1040
2981.577767143568
1040
0.0
1071
        0
1071
        7
1070
     1
1070
     1
1071
        6
1040
2246.365716376717
1040
2906.577767143567
1040
0.0
1040
2246.365716376718
1040
2898.094151874397
1040
0.0
1040
2252.615716376717
1040
2898.094151874397
1040
0.0
1040
2252.615716376717
1040
2881.577767143568
1040
0.0
1040
2360.194550992165
1040
2881.577767143568
1040
0.0451743108042512
1040
2408.678139889067
1040
2906.577767143568
1040
0.0
1071
        0
1071
        7
1070
     1
1070
     1
1071
        3
1040
2252.615716376716
1040
2881.577767143567
1040
0.0
1040
2252.615716376716
1040
2859.408724882122
1040
0.0915368967802064
1040
2360.194550992163
1040
2881.577767143568
1040
0.0
1071
        0
1071
        7
1070
     1
1070
     1
1071
        3
1040
2252.615716376717
1040
3464.279578866672
1040
0.0
1040
2252.615716376717
1040
3442.110536605226
1040
0.0
1040
2360.194550992166
1040
3442.110536605226
1040
0.0915368967802083
1071
        0
1071
        7
1070
     1
1070
     1
1071
        6
1040
2252.615716376717
1040
3442.110536605226
1040
0.0
1040
2252.615716376716
1040
3425.594151874397
1040
0.0
1040
2246.365716376718
1040
3425.594151874397
1040
0.0
1040
2246.365716376718
1040
3417.110536605226
1040
0.0
1040
2408.678139889067
1040
3417.110536605226
1040
0.0451743108042512
1040
2360.194550992165
1040
3442.110536605226
1040
0.0
1071
        0
1071
        7
1070
     1
1070
     1
1071
        4
1040
2489.286033633379
1040
3342.110536605225
1040
0.091760236698725
1040
2408.678139889067
1040
3417.110536605226
1040
0.0
1040
2246.365716376718
1040
3417.110536605226
1040
0.0
1040
2246.365716376718
1040
3342.110536605225
1040
0.0
1071
        0
1071
        7
1070
     1
1070
     1
1071
        4
1040
2246.365716376718
1040
3342.110536605225
1040
0.0
1040
2246.365716376717
1040
2981.577767143568
1040
0.0
1040
2489.286033633379
1040
2981.577767143568
1040
0.3305091120138819
1040
2489.286033633379
1040
3342.110536605225
1040
0.0
1071
        0
1070
     0
1070
     1
1040
11.93625843325386
1071
       12
1040
3298.209209167522
1040
3432.701258537131
1040
0.0
1040
3307.453444601669
1040
3386.508601720805
1040
0.0
1040
3330.563894576175
1040
3252.549878123991
1040
0.0
1040
3362.918579984834
1040
2938.439742731574
1040
0.0
1040
3362.918579984834
1040
2892.247085915249
1040
0.0
1040
2318.324873509918
1040
2952.297546052963
1040
0.0
1040
2263.515737120607
1040
2902.886084601297
1040
0.0
1040
2274.198891886037
1040
2872.112351511415
1040
0.0
1040
2276.351980568499
1040
3454.355719883071
1040
0.0
1040
2281.207796194496
1040
3430.900376148067
1040
0.0
1040
2307.65728936436
1040
3372.269344614648
1040
0.0
1040
2316.98432168518
1040
3294.59167128336
1040
0.0
1002
}
  0
INSERT
  5
45B
330
15C
100
AcDbEntity
  8
HATCH
  6
CONTINUOUS
 62
   251
100
AcDbBlockReference
  2
*U10
 10
0.0
 20
0.0
 30
0.0
1001
ACAD
1002
{
1000
R14_HATCH_DATA
1000
45B
1011
1.0
1021
0.0
1031
0.0
1011
0.0
1021
1.0
1031
0.0
1011
0.0
1021
0.0
1031
1.0
1040
0.0
1010
0.0
1020
0.0
1030
1.0
1000
SOLID
1070
     1
1070
     0
1071
        1
1071
        7
1070
     0
1070
     1
1071
        4
1040
2140.115716376718
1040
2806.844151874397
1040
2140.115716376718
1040
2876.844151874397
1040
1612.615716376716
1040
2876.844151874397
1040
1612.615716376716
1040
2806.844151874397
1071
        0
1070
     0
1070
     1
1040
0.999158072034843
1071
        1
1040
1880.173590607308
1040
2827.478524180664
1040
0.0
1002
}
  0
INSERT
  5
45C
330
15C
100
AcDbEntity
  8
HATCH
  6
CONTINUOUS
 62
     1
100
AcDbBlockReference
  2
*U11
 10
0.0
 20
0.0
 30
0.0
1001
ACAD
1002
{
1000
R14_HATCH_DATA
1000
45C
1011
1.0
1021
0.0
1031
0.0
1011
0.0
1021
1.0
1031
0.0
1011
0.0
1021
0.0
1031
1.0
1040
0.0
1010
0.0
1020
0.0
1030
1.0
1000
SOLID
1070
     1
1070
     0
1071
        1
1071
        7
1070
     0
1070
     1
1071
        4
1040
1612.615716376716
1040
3491.844151874397
1040
1612.615716376716
1040
3471.844151874398
1040
2140.115716376718
1040
3471.844151874398
1040
2140.115716376718
1040
3491.844151874397
1071
        0
1070
     0
1070
     1
1040
0.9386287357013898
1071
        1
1040
1919.626907754063
1040
3490.375187846945
1040
0.0
1002
}
  0
INSERT
  5
45D
330
15C
100
AcDbEntity
  8
HATCH
  6
CONTINUOUS
 62
     1
100
AcDbBlockReference
  2
*U12
 10
0.0
 20
0.0
 30
0.0
1001
ACAD
1002
{
1000
R14_HATCH_DATA
1000
45D
1011
1.0
1021
0.0
1031
0.0
1011
0.0
1021
1.0
1031
0.0
1011
0.0
1021
0.0
1031
1.0
1040
0.0
1010
0.0
1020
0.0
1030
1.0
1000
SOLID
1070
     1
1070
     0
1071
        4
1071
        7
1070
     0
1070
     1
1071
        4
1040
2140.115716376718
1040
3538.094151874397
1040
2140.115716376718
1040
3425.594151874397
1040
2252.615716376717
1040
3425.594151874396
1040
2252.615716376717
1040
3538.094151874397
1071
        0
1071
        7
1070
     0
1070
     1
1071
        4
1040
1500.115716376718
1040
3425.594151874397
1040
1612.615716376716
1040
3425.594151874397
1040
1612.615716376716
1040
3538.094151874397
1040
1500.115716376718
1040
3538.094151874397
1071
        0
1071
        7
1070
     0
1070
     1
1071
        4
1040
2252.615716376717
1040
2785.594151874397
1040
2252.615716376717
1040
2898.094151874397
1040
2140.115716376718
1040
2898.094151874397
1040
2140.115716376718
1040
2785.594151874397
1071
        0
1071
        7
1070
     0
1070
     1
1071
        4
1040
1612.615716376716
1040
2785.594151874397
1040
1612.615716376716
1040
2898.094151874397
1040
1500.115716376718
1040
2898.094151874397
1040
1500.115716376718
1040
2785.594151874397
1071
        0
1070
     0
1070
     1
1040
1.532057673074161
1071
        4
1040
2197.519041048566
1040
3501.642808562017
1040
0.0
1040
1545.995653234837
1040
3483.258116964247
1040
0.0
1040
2195.986051147381
1040
2821.40918806212
1040
0.0
1040
1558.259618647942
1040
2827.53742905553
1040
0.0
1002
}
  0
MTEXT
  5
45E
330
15C
100
AcDbEntity
  8
TEKST
100
AcDbMText
 10
1995.258819453862
 20
4215.595835884385
 30
0.0
 40
75.18097186823435
 41
868.6785999999997
 71
     1
 72
     1
  1
{\FIMPACT.TTF;Hoogte: 242 cm\PMax. valhoogte: 90 cm}
1001
ACAD
1000
MTEXTBEGIN
1070
    73
1070
     1
1070
    44
1040
1.0
1070
    74
1070
     0
1000
MTEXTEND
1000
MTEXTBEGIN
1070
    73
1070
     1
1070
    44
1040
1.0
1070
    74
1070
     0
1000
MTEXTEND
  0
POLYLINE
  5
45F
330
15C
100
AcDbEntity
  8
SAFETY
100
AcDb2dPolyline
 66
     1
 10
0.0
 20
0.0
 30
0.0
 70
     1
1001
AVE_FINISH
1002
{
1070
     0
1005
0
1002
}
  0
VERTEX
  5
553
330
45F
100
AcDbEntity
  8
SAFETY
100
AcDbVertex
100
AcDb2dVertex
 10
2234.854372540616
 20
5019.917347441708
 30
0.0
  0
VERTEX
  5
554
330
45F
100
AcDbEntity
  8
SAFETY
100
AcDbVertex
100
AcDb2dVertex
 10
1516.854372540616
 20
5019.917347441708
 30
0.0
 42
0.4142135623730951
  0
VERTEX
  5
555
330
45F
100
AcDbEntity
  8
SAFETY
100
AcDbVertex
100
AcDb2dVertex
 10
16.8543725406166
 20
3519.917347441708
 30
0.0
  0
VERTEX
  5
556
330
45F
100
AcDbEntity
  8
SAFETY
100
AcDbVertex
100
AcDb2dVertex
 10
16.8543725406166
 20
2801.917347441708
 30
0.0
 42
0.1739293414077911
  0
VERTEX
  5
557
330
45F
100
AcDbEntity
  8
SAFETY
100
AcDbVertex
100
AcDb2dVertex
 10
358.8657163767023
 20
1848.46977562893
 30
0.0
  0
VERTEX
  5
558
330
45F
100
AcDbEntity
  8
SAFETY
100
AcDbVertex
100
AcDb2dVertex
 10
358.8657163767023
 20
1534.344151874397
 30
0.0
 42
0.9999999999999998
  0
VERTEX
  5
559
330
45F
100
AcDbEntity
  8
SAFETY
100
AcDbVertex
100
AcDb2dVertex
 10
3393.865716376702
 20
1534.344151874397
 30
0.0
  0
VERTEX
  5
55A
330
45F
100
AcDbEntity
  8
SAFETY
100
AcDbVertex
100
AcDb2dVertex
 10
3393.865716376702
 20
1644.269330544067
 30
0.0
  0
VERTEX
  5
55B
330
45F
100
AcDbEntity
  8
SAFETY
100
AcDbVertex
100
AcDb2dVertex
 10
4304.351404010692
 20
1999.917215396692
 30
0.0
  0
VERTEX
  5
55C
330
45F
100
AcDbEntity
  8
SAFETY
100
AcDbVertex
100
AcDb2dVertex
 10
6304.351404010692
 20
1999.917215396692
 30
0.0
  0
VERTEX
  5
55D
330
45F
100
AcDbEntity
  8
SAFETY
100
AcDbVertex
100
AcDb2dVertex
 10
6304.351404010692
 20
4527.917347441707
 30
0.0
  0
VERTEX
  5
55E
330
45F
100
AcDbEntity
  8
SAFETY
100
AcDbVertex
100
AcDb2dVertex
 10
4304.351404010692
 20
4527.917347441707
 30
0.0
  0
VERTEX
  5
55F
330
45F
100
AcDbEntity
  8
SAFETY
100
AcDbVertex
100
AcDb2dVertex
 10
2615.360653152497
 20
4970.853242102433
 30
0.0
 42
0.0642063524682368
  0
SEQEND
  5
560
330
45F
100
AcDbEntity
  8
SAFETY
  0
INSERT
  5
460
330
15C
100
AcDbEntity
  8
HATCH
  6
CONTINUOUS
 62
     2
100
AcDbBlockReference
  2
*U13
 10
0.0
 20
0.0
 30
0.0
1001
ACAD
1002
{
1000
R14_HATCH_DATA
1000
460
1011
1.0
1021
0.0
1031
0.0
1011
0.0
1021
1.0
1031
0.0
1011
0.0
1021
0.0
1031
1.0
1040
0.0
1010
0.0
1020
0.0
1030
1.0
1000
SOLID
1070
     1
1070
     0
1071
        2
1071
        7
1070
     0
1070
     1
1071
        6
1040
1500.115716376718
1040
3462.129563357343
1040
1500.115716376718
1040
3495.494614745004
1040
1237.029267300217
1040
3495.494614745004
1040
1237.029267300217
1040
3462.129563357343
1040
1307.029267300217
1040
3462.129563357343
1040
1342.029267300217
1040
3462.129563357343
1071
        0
1071
        7
1070
     0
1070
     1
1071
        4
1040
1500.115716376718
1040
2828.193689003791
1040
1500.115716376718
1040
2861.558740391451
1040
1237.029267300217
1040
2861.558740391451
1040
1237.029267300217
1040
2828.19368900379
1071
        0
1070
     0
1070
     1
1040
1.873115226423023
1071
        2
1040
1423.701509772639
1040
3477.039996609291
1040
0.0
1040
1359.97659948231
1040
2836.434544374759
1040
0.0
1002
}
  0
INSERT
  5
461
330
15C
100
AcDbEntity
  8
HATCH
  6
CONTINUOUS
 62
     2
100
AcDbBlockReference
  2
*U14
 10
0.0
 20
0.0
 30
0.0
1001
ACAD
1002
{
1000
R14_HATCH_DATA
1000
461
1011
1.0
1021
0.0
1031
0.0
1011
0.0
1021
1.0
1031
0.0
1011
0.0
1021
0.0
1031
1.0
1040
0.0
1010
0.0
1020
0.0
1030
1.0
1000
SOLID
1070
     1
1070
     0
1071
        3
1071
        7
1070
     1
1070
     1
1071
        3
1040
1324.529267300217
1040
2815.193689003791
1040
0.0
1040
1312.079367702228
1040
2815.193689003791
1040
0.40160966445124
1040
1336.979166898205
1040
2815.193689003791
1040
0.0
1071
        0
1071
        7
1070
     1
1070
     1
1071
        2
1040
1406.979166898205
1040
2815.193689003791
1040
0.0
1040
1382.079367702228
1040
2815.193689003791
1040
0.401609664451245
1071
        0
1071
        7
1070
     1
1070
     1
1071
        2
1040
1471.647391436455
1040
2815.193689003791
1040
0.0
1040
1446.747592240478
1040
2815.193689003791
1040
0.401609664451245
1071
        0
1070
     0
1070
     1
1040
0.2916713982566252
1071
        3
1040
1326.822482030145
1040
2814.219234462539
1040
0.0
1040
1397.158336704937
1040
2812.469205539473
1040
0.0
1040
1460.197966228514
1040
2812.177534052294
1040
0.0
1002
}
  0
INSERT
  5
462
330
15C
100
AcDbEntity
  8
HATCH
100
AcDbBlockReference
  2
1
 10
0.0
 20
0.0
 30
0.0
  0
ENDBLK
  5
15E
330
15C
100
AcDbEntity
  8
0
100
AcDbBlockEnd
  0
BLOCK
  5
3EB
330
3EA
100
AcDbEntity
  8
0
100
AcDbBlockBegin
  2
1
 70
     0
 10
0.0
 20
0.0
 30
0.0
  3
1
  1

  0
LINE
  5
3ED
330
3EA
100
AcDbEntity
  8
OBJECT
100
AcDbLine
 10
4315.192201531608
 20
2881.577767143568
 30
0.0
 11
2434.400297212029
 21
2881.577767143568
 31
0.0
  0
LINE
  5
3EE
330
3EA
100
AcDbEntity
  8
OBJECT
100
AcDbLine
 10
4315.192201531608
 20
3442.110536605226
 30
0.0
 11
2434.400297212029
 21
3442.110536605226
 31
0.0
  0
LINE
  5
3EF
330
3EA
100
AcDbEntity
  8
OBJECT
100
AcDbLine
 10
4195.445599917011
 20
3342.110536605225
 30
0.0
 11
2531.690584791788
 21
3342.110536605225
 31
0.0
  0
LINE
  5
3F0
330
3EA
100
AcDbEntity
  8
OBJECT
100
AcDbLine
 10
4195.445599917011
 20
2981.577767143568
 30
0.0
 11
2531.690584791788
 21
2981.577767143568
 31
0.0
  0
LINE
  5
3F1
330
3EA
100
AcDbEntity
  8
OBJECT
100
AcDbLine
 10
4315.192201531608
 20
3417.110536605226
 30
0.0
 11
2467.14914606847
 21
3417.110536605226
 31
0.0
  0
LINE
  5
3F2
330
3EA
100
AcDbEntity
  8
OBJECT
100
AcDbLine
 10
4315.192201531608
 20
2906.577767143568
 30
0.0
 11
2467.14914606847
 21
2906.577767143568
 31
0.0
  0
LINE
  5
3F3
330
3EA
100
AcDbEntity
  8
OBJECT
100
AcDbLine
 10
1858.865716376718
 20
2806.844151874397
 30
0.0
 11
1858.865716376718
 21
1534.344151874397
 31
0.0
  0
LINE
  5
3F4
330
3EA
100
AcDbEntity
  8
OBJECT
100
AcDbLine
 10
1893.865716376716
 20
2806.844151874397
 30
0.0
 11
1893.865716376716
 21
1534.344151874397
 31
0.0
  0
ARC
  5
3F5
330
3EA
100
AcDbEntity
  8
OBJECT
100
AcDbCircle
 10
1876.365716376718
 20
1534.344151874397
 30
0.0
 40
17.5
100
AcDbArc
 50
180.0
 51
0.0
  0
POLYLINE
  5
3F6
330
3EA
100
AcDbEntity
  8
OBJECT
100
AcDb2dPolyline
 66
     1
 10
0.0
 20
0.0
 30
0.0
 70
     1
  0
VERTEX
  5
469
330
3F6
100
AcDbEntity
  8
OBJECT
100
AcDbVertex
100
AcDb2dVertex
 10
2140.115716376718
 20
2785.594151874397
 30
0.0
  0
VERTEX
  5
46A
330
3F6
100
AcDbEntity
  8
OBJECT
100
AcDbVertex
100
AcDb2dVertex
 10
2252.615716376717
 20
2785.594151874397
 30
0.0
  0
VERTEX
  5
46B
330
3F6
100
AcDbEntity
  8
OBJECT
100
AcDbVertex
100
AcDb2dVertex
 10
2252.615716376717
 20
2898.094151874397
 30
0.0
  0
VERTEX
  5
46C
330
3F6
100
AcDbEntity
  8
OBJECT
100
AcDbVertex
100
AcDb2dVertex
 10
2140.115716376718
 20
2898.094151874397
 30
0.0
  0
SEQEND
  5
46D
330
3F6
100
AcDbEntity
  8
OBJECT
  0
POLYLINE
  5
3F7
330
3EA
100
AcDbEntity
  8
OBJECT
100
AcDb2dPolyline
 66
     1
 10
0.0
 20
0.0
 30
0.0
 70
     1
  0
VERTEX
  5
46E
330
3F7
100
AcDbEntity
  8
OBJECT
100
AcDbVertex
100
AcDb2dVertex
 10
2140.115716376718
 20
3425.594151874397
 30
0.0
  0
VERTEX
  5
46F
330
3F7
100
AcDbEntity
  8
OBJECT
100
AcDbVertex
100
AcDb2dVertex
 10
2252.615716376717
 20
3425.594151874397
 30
0.0
  0
VERTEX
  5
470
330
3F7
100
AcDbEntity
  8
OBJECT
100
AcDbVertex
100
AcDb2dVertex
 10
2252.615716376717
 20
3538.094151874397
 30
0.0
  0
VERTEX
  5
471
330
3F7
100
AcDbEntity
  8
OBJECT
100
AcDbVertex
100
AcDb2dVertex
 10
2140.115716376718
 20
3538.094151874397
 30
0.0
  0
SEQEND
  5
472
330
3F7
100
AcDbEntity
  8
OBJECT
  0
LINE
  5
3F8
330
3EA
100
AcDbEntity
  8
OBJECT
100
AcDbLine
 10
1476.697491838467
 20
3161.844151874397
 30
0.0
 11
1476.697491838467
 21
3444.275992285987
 31
0.0
  0
LINE
  5
3F9
330
3EA
100
AcDbEntity
  8
OBJECT
100
AcDbLine
 10
1441.697491838467
 20
3161.844151874397
 30
0.0
 11
1441.697491838467
 21
3444.275992285987
 31
0.0
  0
LINE
  5
3FA
330
3EA
100
AcDbEntity
  8
OBJECT
100
AcDbLine
 10
1412.029267300217
 20
3161.844151874397
 30
0.0
 11
1412.029267300217
 21
3444.275992285987
 31
0.0
  0
LINE
  5
3FB
330
3EA
100
AcDbEntity
  8
OBJECT
100
AcDbLine
 10
1377.029267300217
 20
3161.844151874397
 30
0.0
 11
1377.029267300217
 21
3444.275992285987
 31
0.0
  0
LINE
  5
3FC
330
3EA
100
AcDbEntity
  8
OBJECT
100
AcDbLine
 10
1342.029267300217
 20
3161.844151874397
 30
0.0
 11
1342.029267300217
 21
3444.275992285987
 31
0.0
  0
LINE
  5
3FD
330
3EA
100
AcDbEntity
  8
OBJECT
100
AcDbLine
 10
1307.029267300217
 20
3161.844151874397
 30
0.0
 11
1307.029267300217
 21
3444.275992285987
 31
0.0
  0
POLYLINE
  5
3FE
330
3EA
100
AcDbEntity
  8
OBJECT
100
AcDb2dPolyline
 66
     1
 10
0.0
 20
0.0
 30
0.0
  0
VERTEX
  5
473
330
3FE
100
AcDbEntity
  8
OBJECT
100
AcDbVertex
100
AcDb2dVertex
 10
1506.365716376718
 20
3425.594151874397
 30
0.0
  0
VERTEX
  5
474
330
3FE
100
AcDbEntity
  8
OBJECT
100
AcDbVertex
100
AcDb2dVertex
 10
1506.365716376718
 20
2898.094151874397
 30
0.0
  0
SEQEND
  5
475
330
3FE
100
AcDbEntity
  8
OBJECT
  0
POLYLINE
  5
3FF
330
3EA
100
AcDbEntity
  8
OBJECT
100
AcDb2dPolyline
 66
     1
 10
0.0
 20
0.0
 30
0.0
  0
VERTEX
  5
476
330
3FF
100
AcDbEntity
  8
OBJECT
100
AcDbVertex
100
AcDb2dVertex
 10
1612.615716376716
 20
2791.844151874397
 30
0.0
  0
VERTEX
  5
477
330
3FF
100
AcDbEntity
  8
OBJECT
100
AcDbVertex
100
AcDb2dVertex
 10
1858.865716376718
 20
2791.844151874397
 30
0.0
  0
SEQEND
  5
478
330
3FF
100
AcDbEntity
  8
OBJECT
  0
LINE
  5
400
330
3EA
100
AcDbEntity
  8
OBJECT
100
AcDbLine
 10
1612.615716376716
 20
2876.844151874397
 30
0.0
 11
2140.115716376718
 21
2876.844151874397
 31
0.0
  0
LINE
  5
401
330
3EA
100
AcDbEntity
  8
OBJECT
100
AcDbLine
 10
1612.615716376716
 20
2806.844151874397
 30
0.0
 11
2140.115716376718
 21
2806.844151874397
 31
0.0
  0
LINE
  5
402
330
3EA
100
AcDbEntity
  8
OBJECT
100
AcDbLine
 10
1307.029267300217
 20
3161.844151874397
 30
0.0
 11
1307.029267300217
 21
2879.412311462808
 31
0.0
  0
LINE
  5
403
330
3EA
100
AcDbEntity
  8
OBJECT
100
AcDbLine
 10
1377.029267300217
 20
3161.844151874397
 30
0.0
 11
1377.029267300217
 21
2879.412311462808
 31
0.0
  0
LINE
  5
404
330
3EA
100
AcDbEntity
  8
OBJECT
100
AcDbLine
 10
1441.697491838467
 20
3161.844151874397
 30
0.0
 11
1441.697491838467
 21
2879.412311462808
 31
0.0
  0
LINE
  5
405
330
3EA
100
AcDbEntity
  8
OBJECT
100
AcDbLine
 10
1342.029267300217
 20
3161.844151874397
 30
0.0
 11
1342.029267300217
 21
2879.412311462809
 31
0.0
  0
LINE
  5
406
330
3EA
100
AcDbEntity
  8
OBJECT
100
AcDbLine
 10
1412.029267300217
 20
3161.844151874397
 30
0.0
 11
1412.029267300217
 21
2879.412311462808
 31
0.0
  0
LINE
  5
407
330
3EA
100
AcDbEntity
  8
OBJECT
100
AcDbLine
 10
1476.697491838467
 20
3161.844151874397
 30
0.0
 11
1476.697491838467
 21
2879.412311462809
 31
0.0
  0
LINE
  5
408
330
3EA
100
AcDbEntity
  8
OBJECT
100
AcDbLine
 10
1500.115716376718
 20
2828.193689003791
 30
0.0
 11
1237.029267300217
 21
2828.193689003791
 31
0.0
  0
LINE
  5
409
330
3EA
100
AcDbEntity
  8
OBJECT
100
AcDbLine
 10
1237.029267300217
 20
2861.558740391451
 30
0.0
 11
1500.115716376718
 21
2861.558740391451
 31
0.0
  0
ARC
  5
40A
330
3EA
100
AcDbEntity
  8
OBJECT
100
AcDbCircle
 10
1324.529267300217
 20
2861.558740391451
 30
0.0
 40
25.0
100
AcDbArc
 50
134.427004000809
 51
180.0
  0
LINE
  5
40B
330
3EA
100
AcDbEntity
  8
OBJECT
100
AcDbLine
 10
1237.029267300217
 20
2828.193689003791
 30
0.0
 11
1237.029267300217
 21
2861.558740391451
 31
0.0
  0
LINE
  5
40C
330
3EA
100
AcDbEntity
  8
OBJECT
100
AcDbLine
 10
1307.029267300217
 20
2861.558740391451
 30
0.0
 11
1342.029267300217
 21
2861.558740391451
 31
0.0
  0
ARC
  5
40D
330
3EA
100
AcDbEntity
  8
OBJECT
100
AcDbCircle
 10
1324.529267300217
 20
2828.193689003791
 30
0.0
 40
18.0
100
AcDbArc
 50
180.0
 51
0.0
  0
LINE
  5
40E
330
3EA
100
AcDbEntity
  8
OBJECT
100
AcDbLine
 10
1324.529267300217
 20
2815.193689003791
 30
0.0
 11
1336.979166898206
 21
2815.193689003791
 31
0.0
  0
LINE
  5
40F
330
3EA
100
AcDbEntity
  8
OBJECT
100
AcDbLine
 10
1324.529267300217
 20
2815.193689003791
 30
0.0
 11
1312.079367702227
 21
2815.193689003791
 31
0.0
  0
LINE
  5
410
330
3EA
100
AcDbEntity
  8
OBJECT
100
AcDbLine
 10
1307.029267300217
 20
2879.412311462809
 30
0.0
 11
1342.029267300217
 21
2879.412311462809
 31
0.0
  0
ARC
  5
411
330
3EA
100
AcDbEntity
  8
OBJECT
100
AcDbCircle
 10
1324.529267300217
 20
2861.558740391451
 30
0.0
 40
25.0
100
AcDbArc
 50
0.0
 51
45.57299599919092
  0
LINE
  5
412
330
3EA
100
AcDbEntity
  8
OBJECT
100
AcDbLine
 10
1377.029267300217
 20
2861.558740391451
 30
0.0
 11
1412.029267300217
 21
2861.558740391451
 31
0.0
  0
ARC
  5
413
330
3EA
100
AcDbEntity
  8
OBJECT
100
AcDbCircle
 10
1394.529267300217
 20
2828.193689003791
 30
0.0
 40
18.0
100
AcDbArc
 50
180.0
 51
0.0
  0
LINE
  5
414
330
3EA
100
AcDbEntity
  8
OBJECT
100
AcDbLine
 10
1382.079367702228
 20
2815.193689003791
 30
0.0
 11
1406.979166898206
 21
2815.193689003791
 31
0.0
  0
ARC
  5
415
330
3EA
100
AcDbEntity
  8
OBJECT
100
AcDbCircle
 10
1394.529267300217
 20
2861.558740391451
 30
0.0
 40
25.0
100
AcDbArc
 50
134.427004000809
 51
180.0
  0
ARC
  5
416
330
3EA
100
AcDbEntity
  8
OBJECT
100
AcDbCircle
 10
1394.529267300217
 20
2861.558740391451
 30
0.0
 40
25.0
100
AcDbArc
 50
0.0
 51
45.57299599919092
  0
LINE
  5
417
330
3EA
100
AcDbEntity
  8
OBJECT
100
AcDbLine
 10
1377.029267300217
 20
2879.412311462808
 30
0.0
 11
1412.029267300217
 21
2879.412311462809
 31
0.0
  0
POLYLINE
  5
418
330
3EA
100
AcDbEntity
  8
OBJECT
100
AcDb2dPolyline
 66
     1
 10
0.0
 20
0.0
 30
0.0
 70
     1
  0
VERTEX
  5
479
330
418
100
AcDbEntity
  8
OBJECT
100
AcDbVertex
100
AcDb2dVertex
 10
1500.115716376718
 20
2785.594151874397
 30
0.0
  0
VERTEX
  5
47A
330
418
100
AcDbEntity
  8
OBJECT
100
AcDbVertex
100
AcDb2dVertex
 10
1612.615716376716
 20
2785.594151874397
 30
0.0
  0
VERTEX
  5
47B
330
418
100
AcDbEntity
  8
OBJECT
100
AcDbVertex
100
AcDb2dVertex
 10
1612.615716376716
 20
2898.094151874397
 30
0.0
  0
VERTEX
  5
47C
330
418
100
AcDbEntity
  8
OBJECT
100
AcDbVertex
100
AcDb2dVertex
 10
1500.115716376718
 20
2898.094151874397
 30
0.0
  0
SEQEND
  5
47D
330
418
100
AcDbEntity
  8
OBJECT
  0
LINE
  5
419
330
3EA
100
AcDbEntity
  8
OBJECT
100
AcDbLine
 10
1441.697491838467
 20
2861.558740391451
 30
0.0
 11
1476.697491838467
 21
2861.558740391451
 31
0.0
  0
ARC
  5
41A
330
3EA
100
AcDbEntity
  8
OBJECT
100
AcDbCircle
 10
1459.197491838467
 20
2828.193689003791
 30
0.0
 40
18.0
100
AcDbArc
 50
180.0
 51
0.0
  0
LINE
  5
41B
330
3EA
100
AcDbEntity
  8
OBJECT
100
AcDbLine
 10
1446.747592240479
 20
2815.193689003791
 30
0.0
 11
1471.647391436456
 21
2815.193689003791
 31
0.0
  0
ARC
  5
41C
330
3EA
100
AcDbEntity
  8
OBJECT
100
AcDbCircle
 10
1459.197491838467
 20
2861.558740391451
 30
0.0
 40
25.0
100
AcDbArc
 50
134.427004000809
 51
180.0
  0
ARC
  5
41D
330
3EA
100
AcDbEntity
  8
OBJECT
100
AcDbCircle
 10
1459.197491838467
 20
2861.558740391451
 30
0.0
 40
25.0
100
AcDbArc
 50
0.0
 51
45.57299599919092
  0
LINE
  5
41E
330
3EA
100
AcDbEntity
  8
OBJECT
100
AcDbLine
 10
1441.697491838467
 20
2879.412311462809
 30
0.0
 11
1476.697491838467
 21
2879.412311462809
 31
0.0
  0
POLYLINE
  5
41F
330
3EA
100
AcDbEntity
  8
OBJECT
100
AcDb2dPolyline
 66
     1
 10
0.0
 20
0.0
 30
0.0
  0
VERTEX
  5
47E
330
41F
100
AcDbEntity
  8
OBJECT
100
AcDbVertex
100
AcDb2dVertex
 10
1893.865716376716
 20
2791.844151874397
 30
0.0
  0
VERTEX
  5
47F
330
41F
100
AcDbEntity
  8
OBJECT
100
AcDbVertex
100
AcDb2dVertex
 10
2140.115716376718
 20
2791.844151874397
 30
0.0
  0
SEQEND
  5
480
330
41F
100
AcDbEntity
  8
OBJECT
  0
LINE
  5
420
330
3EA
100
AcDbEntity
  8
OBJECT
100
AcDbLine
 10
1612.615716376716
 20
3491.844151874397
 30
0.0
 11
2140.115716376718
 21
3491.844151874397
 31
0.0
  0
LINE
  5
421
330
3EA
100
AcDbEntity
  8
OBJECT
100
AcDbLine
 10
1612.615716376716
 20
3471.844151874398
 30
0.0
 11
2140.115716376718
 21
3471.844151874398
 31
0.0
  0
LINE
  5
422
330
3EA
100
AcDbEntity
  8
OBJECT
100
AcDbLine
 10
1237.029267300217
 20
3462.129563357343
 30
0.0
 11
1500.115716376718
 21
3462.129563357343
 31
0.0
  0
LINE
  5
423
330
3EA
100
AcDbEntity
  8
OBJECT
100
AcDbLine
 10
1500.115716376718
 20
3495.494614745004
 30
0.0
 11
1237.029267300217
 21
3495.494614745004
 31
0.0
  0
LINE
  5
424
330
3EA
100
AcDbEntity
  8
OBJECT
100
AcDbLine
 10
1237.029267300217
 20
3495.494614745004
 30
0.0
 11
1237.029267300217
 21
3462.129563357343
 31
0.0
  0
LINE
  5
425
330
3EA
100
AcDbEntity
  8
OBJECT
100
AcDbLine
 10
1237.029267300217
 20
3462.129563357343
 30
0.0
 11
1307.029267300217
 21
3462.129563357343
 31
0.0
  0
ARC
  5
426
330
3EA
100
AcDbEntity
  8
OBJECT
100
AcDbCircle
 10
1324.529267300217
 20
3462.129563357343
 30
0.0
 40
25.0
100
AcDbArc
 50
180.0
 51
225.5729959991909
  0
LINE
  5
427
330
3EA
100
AcDbEntity
  8
OBJECT
100
AcDbLine
 10
1307.029267300217
 20
3444.275992285987
 30
0.0
 11
1342.029267300217
 21
3444.275992285986
 31
0.0
  0
LINE
  5
428
330
3EA
100
AcDbEntity
  8
OBJECT
100
AcDbLine
 10
1307.029267300217
 20
3462.129563357343
 30
0.0
 11
1342.029267300217
 21
3462.129563357343
 31
0.0
  0
ARC
  5
429
330
3EA
100
AcDbEntity
  8
OBJECT
100
AcDbCircle
 10
1324.529267300217
 20
3462.129563357343
 30
0.0
 40
25.0
100
AcDbArc
 50
314.427004000809
 51
0.0
  0
LINE
  5
42A
330
3EA
100
AcDbEntity
  8
OBJECT
100
AcDbLine
 10
1377.029267300217
 20
3444.275992285987
 30
0.0
 11
1412.029267300217
 21
3444.275992285987
 31
0.0
  0
LINE
  5
42B
330
3EA
100
AcDbEntity
  8
OBJECT
100
AcDbLine
 10
1377.029267300217
 20
3462.129563357343
 30
0.0
 11
1412.029267300217
 21
3462.129563357343
 31
0.0
  0
ARC
  5
42C
330
3EA
100
AcDbEntity
  8
OBJECT
100
AcDbCircle
 10
1394.529267300217
 20
3462.129563357343
 30
0.0
 40
25.0
100
AcDbArc
 50
180.0
 51
225.5729959991909
  0
ARC
  5
42D
330
3EA
100
AcDbEntity
  8
OBJECT
100
AcDbCircle
 10
1394.529267300217
 20
3462.129563357343
 30
0.0
 40
25.0
100
AcDbArc
 50
314.427004000809
 51
0.0
  0
LINE
  5
42E
330
3EA
100
AcDbEntity
  8
OBJECT
100
AcDbLine
 10
1324.529267300217
 20
3508.494614745004
 30
0.0
 11
1336.979166898206
 21
3508.494614745004
 31
0.0
  0
LINE
  5
42F
330
3EA
100
AcDbEntity
  8
OBJECT
100
AcDbLine
 10
1324.529267300217
 20
3508.494614745004
 30
0.0
 11
1312.079367702227
 21
3508.494614745004
 31
0.0
  0
ARC
  5
430
330
3EA
100
AcDbEntity
  8
OBJECT
100
AcDbCircle
 10
1324.529267300217
 20
3495.494614745004
 30
0.0
 40
18.0
100
AcDbArc
 50
0.0
 51
180.0
  0
LINE
  5
431
330
3EA
100
AcDbEntity
  8
OBJECT
100
AcDbLine
 10
1382.079367702228
 20
3508.494614745004
 30
0.0
 11
1406.979166898206
 21
3508.494614745004
 31
0.0
  0
ARC
  5
432
330
3EA
100
AcDbEntity
  8
OBJECT
100
AcDbCircle
 10
1394.529267300217
 20
3495.494614745004
 30
0.0
 40
18.0
100
AcDbArc
 50
0.0
 51
180.0
  0
POLYLINE
  5
433
330
3EA
100
AcDbEntity
  8
OBJECT
100
AcDb2dPolyline
 66
     1
 10
0.0
 20
0.0
 30
0.0
 70
     1
  0
VERTEX
  5
481
330
433
100
AcDbEntity
  8
OBJECT
100
AcDbVertex
100
AcDb2dVertex
 10
1500.115716376718
 20
3425.594151874397
 30
0.0
  0
VERTEX
  5
482
330
433
100
AcDbEntity
  8
OBJECT
100
AcDbVertex
100
AcDb2dVertex
 10
1612.615716376716
 20
3425.594151874397
 30
0.0
  0
VERTEX
  5
483
330
433
100
AcDbEntity
  8
OBJECT
100
AcDbVertex
100
AcDb2dVertex
 10
1612.615716376716
 20
3538.094151874397
 30
0.0
  0
VERTEX
  5
484
330
433
100
AcDbEntity
  8
OBJECT
100
AcDbVertex
100
AcDb2dVertex
 10
1500.115716376718
 20
3538.094151874397
 30
0.0
  0
SEQEND
  5
485
330
433
100
AcDbEntity
  8
OBJECT
  0
LINE
  5
434
330
3EA
100
AcDbEntity
  8
OBJECT
100
AcDbLine
 10
1441.697491838467
 20
3444.275992285987
 30
0.0
 11
1476.697491838467
 21
3444.275992285986
 31
0.0
  0
LINE
  5
435
330
3EA
100
AcDbEntity
  8
OBJECT
100
AcDbLine
 10
1441.697491838467
 20
3462.129563357343
 30
0.0
 11
1476.697491838467
 21
3462.129563357343
 31
0.0
  0
ARC
  5
436
330
3EA
100
AcDbEntity
  8
OBJECT
100
AcDbCircle
 10
1459.197491838467
 20
3462.129563357343
 30
0.0
 40
25.0
100
AcDbArc
 50
180.0
 51
225.5729959991909
  0
ARC
  5
437
330
3EA
100
AcDbEntity
  8
OBJECT
100
AcDbCircle
 10
1459.197491838467
 20
3462.129563357343
 30
0.0
 40
25.0
100
AcDbArc
 50
314.427004000809
 51
0.0
  0
LINE
  5
438
330
3EA
100
AcDbEntity
  8
OBJECT
100
AcDbLine
 10
1446.747592240479
 20
3508.494614745004
 30
0.0
 11
1471.647391436456
 21
3508.494614745004
 31
0.0
  0
ARC
  5
439
330
3EA
100
AcDbEntity
  8
OBJECT
100
AcDbCircle
 10
1459.197491838467
 20
3495.494614745004
 30
0.0
 40
18.0
100
AcDbArc
 50
0.0
 51
180.0
  0
ARC
  5
43A
330
3EA
100
AcDbEntity
  8
OBJECT
100
AcDbCircle
 10
2246.365716376718
 20
3161.844151874397
 30
0.0
 40
302.4999999999999
100
AcDbArc
 50
271.1838813374475
 51
88.81611866255218
  0
ARC
  5
43B
330
3EA
100
AcDbEntity
  8
OBJECT
100
AcDbCircle
 10
2246.365716376718
 20
3161.844151874397
 30
0.0
 40
337.5
100
AcDbArc
 50
271.0610936076335
 51
88.93890639236635
  0
LINE
  5
43C
330
3EA
100
AcDbEntity
  8
OBJECT
100
AcDbLine
 10
2246.365716376718
 20
3425.594151874397
 30
0.0
 11
2246.365716376718
 21
2898.094151874397
 31
0.0
  0
LINE
  5
43D
330
3EA
100
AcDbEntity
  8
OBJECT
100
AcDbLine
 10
2360.194550992166
 20
2881.577767143568
 30
0.0
 11
2252.615716376717
 21
2881.577767143568
 31
0.0
  0
LINE
  5
43E
330
3EA
100
AcDbEntity
  8
OBJECT
100
AcDbLine
 10
2489.286033633379
 20
2981.577767143568
 30
0.0
 11
2246.365716376718
 21
2981.577767143568
 31
0.0
  0
LINE
  5
43F
330
3EA
100
AcDbEntity
  8
OBJECT
100
AcDbLine
 10
2408.678139889067
 20
2906.577767143568
 30
0.0
 11
2246.365716376718
 21
2906.577767143568
 31
0.0
  0
LINE
  5
440
330
3EA
100
AcDbEntity
  8
OBJECT
100
AcDbLine
 10
2489.286033633379
 20
3342.110536605225
 30
0.0
 11
2246.365716376718
 21
3342.110536605225
 31
0.0
  0
LINE
  5
441
330
3EA
100
AcDbEntity
  8
OBJECT
100
AcDbLine
 10
2408.678139889067
 20
3417.110536605226
 30
0.0
 11
2246.365716376718
 21
3417.110536605226
 31
0.0
  0
LINE
  5
442
330
3EA
100
AcDbEntity
  8
OBJECT
100
AcDbLine
 10
2360.194550992166
 20
3442.110536605226
 30
0.0
 11
2252.615716376717
 21
3442.110536605226
 31
0.0
  0
LINE
  5
443
330
3EA
100
AcDbEntity
  8
OBJECT
100
AcDbLine
 10
4131.570775017011
 20
3251.929777359522
 30
0.0
 11
4151.602202762609
 21
3311.986857615869
 31
0.0
  0
LINE
  5
444
330
3EA
100
AcDbEntity
  8
OBJECT
100
AcDbLine
 10
4131.570775017011
 20
3071.758526389273
 30
0.0
 11
4151.602202762609
 21
3011.701446132924
 31
0.0
  0
LINE
  5
445
330
3EA
100
AcDbEntity
  8
OBJECT
100
AcDbLine
 10
4131.570775017011
 20
3161.844151874397
 30
0.0
 11
4131.570775017011
 21
3071.758526389273
 31
0.0
  0
LINE
  5
446
330
3EA
100
AcDbEntity
  8
OBJECT
100
AcDbLine
 10
4131.570775017011
 20
3161.844151874397
 30
0.0
 11
4131.570775017011
 21
3251.929777359522
 31
0.0
  0
LINE
  5
447
330
3EA
100
AcDbEntity
  8
OBJECT
100
AcDbLine
 10
4315.192201531608
 20
2921.6158206478
 30
0.0
 11
4315.192201531608
 21
2881.577767143568
 31
0.0
  0
LINE
  5
448
330
3EA
100
AcDbEntity
  8
OBJECT
100
AcDbLine
 10
4235.066490549209
 20
2921.6158206478
 30
0.0
 11
4315.192201531608
 21
2921.6158206478
 31
0.0
  0
LINE
  5
449
330
3EA
100
AcDbEntity
  8
OBJECT
100
AcDbLine
 10
4151.602202762609
 20
3011.701446132924
 30
0.0
 11
4205.019348930811
 21
2974.999888586378
 31
0.0
  0
LINE
  5
44A
330
3EA
100
AcDbEntity
  8
OBJECT
100
AcDbLine
 10
4205.019348930811
 20
2974.999888586378
 30
0.0
 11
4235.066490549209
 21
2938.298341241031
 31
0.0
  0
LINE
  5
44B
330
3EA
100
AcDbEntity
  8
OBJECT
100
AcDbLine
 10
4235.066490549209
 20
2938.298341241031
 30
0.0
 11
4235.066490549209
 21
2921.6158206478
 31
0.0
  0
LINE
  5
44C
330
3EA
100
AcDbEntity
  8
OBJECT
100
AcDbLine
 10
4235.066490549209
 20
3402.072483100995
 30
0.0
 11
4315.192201531608
 21
3402.072483100995
 31
0.0
  0
LINE
  5
44D
330
3EA
100
AcDbEntity
  8
OBJECT
100
AcDbLine
 10
4235.066490549209
 20
3385.389962507764
 30
0.0
 11
4235.066490549209
 21
3402.072483100995
 31
0.0
  0
LINE
  5
44E
330
3EA
100
AcDbEntity
  8
OBJECT
100
AcDbLine
 10
4151.602202762609
 20
3311.986857615869
 30
0.0
 11
4205.019348930811
 21
3348.688415162417
 31
0.0
  0
LINE
  5
44F
330
3EA
100
AcDbEntity
  8
OBJECT
100
AcDbLine
 10
4205.019348930811
 20
3348.688415162417
 30
0.0
 11
4235.066490549209
 21
3385.389962507764
 31
0.0
  0
LINE
  5
450
330
3EA
100
AcDbEntity
  8
OBJECT
100
AcDbLine
 10
4315.192201531608
 20
3402.072483100995
 30
0.0
 11
4315.192201531608
 21
3442.110536605226
 31
0.0
  0
ENDBLK
  5
3EC
330
3EA
100
AcDbEntity
  8
0
100
AcDbBlockEnd
  0
BLOCK
  5
4A0
330
486
100
AcDbEntity
  8
0
100
AcDbBlockBegin
  2
*U2
 70
     1
 10
0.0
 20
0.0
 30
0.0
  3
*U2
  1

  0
SOLID
  5
487
330
486
100
AcDbEntity
  8
HATCH
  6
CONTINUOUS
 62
     5
100
AcDbTrace
 10
1411.083695601487
 20
2821.126093683025
 30
0.0
 11
1382.079367702228
 21
2815.193689003791
 31
0.0
 12
1406.979166898205
 22
2815.193689003791
 32
0.0
 13
1406.979166898205
 23
2815.193689003791
 33
0.0
210
0.0
220
0.0
230
1.0
  0
SOLID
  5
488
330
486
100
AcDbEntity
  8
HATCH
  6
CONTINUOUS
 62
     5
100
AcDbTrace
 10
1341.083695601487
 20
2821.126093683025
 30
0.0
 11
1324.529267300217
 21
2815.193689003791
 31
0.0
 12
1336.979166898205
 22
2815.193689003791
 32
0.0
 13
1336.979166898205
 23
2815.193689003791
 33
0.0
210
0.0
220
0.0
230
1.0
  0
SOLID
  5
489
330
486
100
AcDbEntity
  8
HATCH
  6
CONTINUOUS
 62
     5
100
AcDbTrace
 10
1341.083695601487
 20
2821.126093683025
 30
0.0
 11
1312.079367702228
 21
2815.193689003791
 31
0.0
 12
1324.529267300217
 22
2815.193689003791
 32
0.0
 13
1324.529267300217
 23
2815.193689003791
 33
0.0
210
0.0
220
0.0
230
1.0
  0
SOLID
  5
48A
330
486
100
AcDbEntity
  8
HATCH
  6
CONTINUOUS
 62
     5
100
AcDbTrace
 10
1475.751920139737
 20
2821.126093683025
 30
0.0
 11
1446.747592240478
 21
2815.193689003791
 31
0.0
 12
1471.647391436455
 22
2815.193689003791
 32
0.0
 13
1471.647391436455
 23
2815.193689003791
 33
0.0
210
0.0
220
0.0
230
1.0
  0
SOLID
  5
48B
330
486
100
AcDbEntity
  8
HATCH
  6
CONTINUOUS
 62
     5
100
AcDbTrace
 10
1307.974838998946
 20
2821.126093683025
 30
0.0
 11
1312.079367702228
 21
2815.193689003791
 31
0.0
 12
1341.083695601487
 22
2821.126093683025
 32
0.0
 13
1341.083695601487
 23
2821.126093683025
 33
0.0
210
0.0
220
0.0
230
1.0
  0
SOLID
  5
48C
330
486
100
AcDbEntity
  8
HATCH
  6
CONTINUOUS
 62
     5
100
AcDbTrace
 10
1377.974838998946
 20
2821.126093683025
 30
0.0
 11
1382.079367702228
 21
2815.193689003791
 31
0.0
 12
1411.083695601487
 22
2821.126093683025
 32
0.0
 13
1411.083695601487
 23
2821.126093683025
 33
0.0
210
0.0
220
0.0
230
1.0
  0
SOLID
  5
48D
330
486
100
AcDbEntity
  8
HATCH
  6
CONTINUOUS
 62
     5
100
AcDbTrace
 10
1442.643063537197
 20
2821.126093683025
 30
0.0
 11
1446.747592240478
 21
2815.193689003791
 31
0.0
 12
1475.751920139737
 22
2821.126093683025
 32
0.0
 13
1475.751920139737
 23
2821.126093683025
 33
0.0
210
0.0
220
0.0
230
1.0
  0
SOLID
  5
48E
330
486
100
AcDbEntity
  8
HATCH
  6
CONTINUOUS
 62
     5
100
AcDbTrace
 10
1307.974838998946
 20
2821.126093683025
 30
0.0
 11
1342.529267300217
 21
2828.193689003791
 31
0.0
 12
1306.529267300217
 22
2828.193689003791
 32
0.0
 13
1306.529267300217
 23
2828.193689003791
 33
0.0
210
0.0
220
0.0
230
1.0
  0
SOLID
  5
48F
330
486
100
AcDbEntity
  8
HATCH
  6
CONTINUOUS
 62
     5
100
AcDbTrace
 10
1342.529267300217
 20
2828.193689003791
 30
0.0
 11
1307.974838998946
 21
2821.126093683025
 31
0.0
 12
1341.083695601487
 22
2821.126093683025
 32
0.0
 13
1341.083695601487
 23
2821.126093683025
 33
0.0
210
0.0
220
0.0
230
1.0
  0
SOLID
  5
490
330
486
100
AcDbEntity
  8
HATCH
  6
CONTINUOUS
 62
     5
100
AcDbTrace
 10
1377.974838998946
 20
2821.126093683025
 30
0.0
 11
1412.529267300217
 21
2828.193689003791
 31
0.0
 12
1376.529267300217
 22
2828.193689003791
 32
0.0
 13
1376.529267300217
 23
2828.193689003791
 33
0.0
210
0.0
220
0.0
230
1.0
  0
SOLID
  5
491
330
486
100
AcDbEntity
  8
HATCH
  6
CONTINUOUS
 62
     5
100
AcDbTrace
 10
1412.529267300217
 20
2828.193689003791
 30
0.0
 11
1377.974838998946
 21
2821.126093683025
 31
0.0
 12
1411.083695601487
 22
2821.126093683025
 32
0.0
 13
1411.083695601487
 23
2821.126093683025
 33
0.0
210
0.0
220
0.0
230
1.0
  0
SOLID
  5
492
330
486
100
AcDbEntity
  8
HATCH
  6
CONTINUOUS
 62
     5
100
AcDbTrace
 10
1442.643063537197
 20
2821.126093683025
 30
0.0
 11
1477.197491838467
 21
2828.193689003791
 31
0.0
 12
1441.197491838467
 22
2828.193689003791
 32
0.0
 13
1441.197491838467
 23
2828.193689003791
 33
0.0
210
0.0
220
0.0
230
1.0
  0
SOLID
  5
493
330
486
100
AcDbEntity
  8
HATCH
  6
CONTINUOUS
 62
     5
100
AcDbTrace
 10
1477.197491838467
 20
2828.193689003791
 30
0.0
 11
1442.643063537197
 21
2821.126093683025
 31
0.0
 12
1475.751920139737
 22
2821.126093683025
 32
0.0
 13
1475.751920139737
 23
2821.126093683025
 33
0.0
210
0.0
220
0.0
230
1.0
  0
SOLID
  5
494
330
486
100
AcDbEntity
  8
HATCH
  6
CONTINUOUS
 62
     5
100
AcDbTrace
 10
1371.480406156984
 20
2871.241198756969
 30
0.0
 11
1369.529267300217
 21
2861.558740391451
 31
0.0
 12
1419.529267300217
 22
2861.558740391451
 32
0.0
 13
1419.529267300217
 23
2861.558740391451
 33
0.0
210
0.0
220
0.0
230
1.0
  0
SOLID
  5
495
330
486
100
AcDbEntity
  8
HATCH
  6
CONTINUOUS
 62
     5
100
AcDbTrace
 10
1482.246352981699
 20
2871.241198756969
 30
0.0
 11
1434.197491838467
 21
2861.558740391451
 31
0.0
 12
1484.197491838467
 22
2861.558740391451
 32
0.0
 13
1484.197491838467
 23
2861.558740391451
 33
0.0
210
0.0
220
0.0
230
1.0
  0
SOLID
  5
496
330
486
100
AcDbEntity
  8
HATCH
  6
CONTINUOUS
 62
     5
100
AcDbTrace
 10
1347.578128443449
 20
2871.241198756969
 30
0.0
 11
1299.529267300217
 21
2861.558740391451
 31
0.0
 12
1349.529267300217
 22
2861.558740391451
 32
0.0
 13
1349.529267300217
 23
2861.558740391451
 33
0.0
210
0.0
220
0.0
230
1.0
  0
SOLID
  5
497
330
486
100
AcDbEntity
  8
HATCH
  6
CONTINUOUS
 62
     5
100
AcDbTrace
 10
1417.578128443449
 20
2871.241198756969
 30
0.0
 11
1371.480406156984
 21
2871.241198756969
 31
0.0
 12
1419.529267300217
 22
2861.558740391451
 32
0.0
 13
1419.529267300217
 23
2861.558740391451
 33
0.0
210
0.0
220
0.0
230
1.0
  0
SOLID
  5
498
330
486
100
AcDbEntity
  8
HATCH
  6
CONTINUOUS
 62
     5
100
AcDbTrace
 10
1436.148630695234
 20
2871.241198756969
 30
0.0
 11
1434.197491838467
 21
2861.558740391451
 31
0.0
 12
1482.246352981699
 22
2871.241198756969
 32
0.0
 13
1482.246352981699
 23
2871.241198756969
 33
0.0
210
0.0
220
0.0
230
1.0
  0
SOLID
  5
499
330
486
100
AcDbEntity
  8
HATCH
  6
CONTINUOUS
 62
     5
100
AcDbTrace
 10
1301.480406156984
 20
2871.241198756969
 30
0.0
 11
1299.529267300217
 21
2861.558740391451
 31
0.0
 12
1347.578128443449
 22
2871.241198756969
 32
0.0
 13
1347.578128443449
 23
2871.241198756969
 33
0.0
210
0.0
220
0.0
230
1.0
  0
SOLID
  5
49A
330
486
100
AcDbEntity
  8
HATCH
  6
CONTINUOUS
 62
     5
100
AcDbTrace
 10
1377.029267300216
 20
2879.412311462808
 30
0.0
 11
1371.480406156984
 21
2871.241198756969
 31
0.0
 12
1417.578128443449
 22
2871.241198756969
 32
0.0
 13
1417.578128443449
 23
2871.241198756969
 33
0.0
210
0.0
220
0.0
230
1.0
  0
SOLID
  5
49B
330
486
100
AcDbEntity
  8
HATCH
  6
CONTINUOUS
 62
     5
100
AcDbTrace
 10
1436.148630695234
 20
2871.241198756969
 30
0.0
 11
1476.697491838466
 21
2879.412311462809
 31
0.0
 12
1441.697491838467
 22
2879.412311462809
 32
0.0
 13
1441.697491838467
 23
2879.412311462809
 33
0.0
210
0.0
220
0.0
230
1.0
  0
SOLID
  5
49C
330
486
100
AcDbEntity
  8
HATCH
  6
CONTINUOUS
 62
     5
100
AcDbTrace
 10
1476.697491838466
 20
2879.412311462809
 30
0.0
 11
1436.148630695234
 21
2871.241198756969
 31
0.0
 12
1482.246352981699
 22
2871.241198756969
 32
0.0
 13
1482.246352981699
 23
2871.241198756969
 33
0.0
210
0.0
220
0.0
230
1.0
  0
SOLID
  5
49D
330
486
100
AcDbEntity
  8
HATCH
  6
CONTINUOUS
 62
     5
100
AcDbTrace
 10
1412.029267300216
 20
2879.412311462809
 30
0.0
 11
1377.029267300216
 21
2879.412311462808
 31
0.0
 12
1417.578128443449
 22
2871.241198756969
 32
0.0
 13
1417.578128443449
 23
2871.241198756969
 33
0.0
  0
SOLID
  5
49E
330
486
100
AcDbEntity
  8
HATCH
  6
CONTINUOUS
 62
     5
100
AcDbTrace
 10
1301.480406156984
 20
2871.241198756969
 30
0.0
 11
1342.029267300216
 21
2879.412311462809
 31
0.0
 12
1307.029267300216
 22
2879.412311462809
 32
0.0
 13
1307.029267300216
 23
2879.412311462809
 33
0.0
210
0.0
220
0.0
230
1.0
  0
SOLID
  5
49F
330
486
100
AcDbEntity
  8
HATCH
  6
CONTINUOUS
 62
     5
100
AcDbTrace
 10
1342.029267300216
 20
2879.412311462809
 30
0.0
 11
1301.480406156984
 21
2871.241198756969
 31
0.0
 12
1347.578128443449
 22
2871.241198756969
 32
0.0
 13
1347.578128443449
 23
2871.241198756969
 33
0.0
210
0.0
220
0.0
230
1.0
  0
ENDBLK
  5
4A1
330
486
100
AcDbEntity
  8
0
100
AcDbBlockEnd
  0
BLOCK
  5
4A7
330
4A2
100
AcDbEntity
  8
0
100
AcDbBlockBegin
  2
*U3
 70
     1
 10
0.0
 20
0.0
 30
0.0
  3
*U3
  1

  0
SOLID
  5
4A3
330
4A2
100
AcDbEntity
  8
HATCH
  6
CONTINUOUS
 62
     2
100
AcDbTrace
 10
1394.529267300217
 20
3513.494614745003
 30
0.0
 11
1382.079367702228
 21
3508.494614745004
 31
0.0
 12
1406.979166898205
 22
3508.494614745004
 32
0.0
 13
1406.979166898205
 23
3508.494614745004
 33
0.0
210
0.0
220
0.0
230
1.0
  0
SOLID
  5
4A4
330
4A2
100
AcDbEntity
  8
HATCH
  6
CONTINUOUS
 62
     2
100
AcDbTrace
 10
1324.529267300217
 20
3513.494614745003
 30
0.0
 11
1324.529267300217
 21
3508.494614745004
 31
0.0
 12
1336.979166898205
 22
3508.494614745004
 32
0.0
 13
1336.979166898205
 23
3508.494614745004
 33
0.0
210
0.0
220
0.0
230
1.0
  0
SOLID
  5
4A5
330
4A2
100
AcDbEntity
  8
HATCH
  6
CONTINUOUS
 62
     2
100
AcDbTrace
 10
1324.529267300217
 20
3513.494614745003
 30
0.0
 11
1312.079367702228
 21
3508.494614745004
 31
0.0
 12
1324.529267300217
 22
3508.494614745004
 32
0.0
 13
1324.529267300217
 23
3508.494614745004
 33
0.0
210
0.0
220
0.0
230
1.0
  0
SOLID
  5
4A6
330
4A2
100
AcDbEntity
  8
HATCH
  6
CONTINUOUS
 62
     2
100
AcDbTrace
 10
1459.197491838467
 20
3513.494614745004
 30
0.0
 11
1446.747592240478
 21
3508.494614745004
 31
0.0
 12
1471.647391436455
 22
3508.494614745004
 32
0.0
 13
1471.647391436455
 23
3508.494614745004
 33
0.0
210
0.0
220
0.0
230
1.0
  0
ENDBLK
  5
4A8
330
4A2
100
AcDbEntity
  8
0
100
AcDbBlockEnd
  0
BLOCK
  5
4C3
330
4A9
100
AcDbEntity
  8
0
100
AcDbBlockBegin
  2
*U4
 70
     1
 10
0.0
 20
0.0
 30
0.0
  3
*U4
  1

  0
SOLID
  5
4AA
330
4A9
100
AcDbEntity
  8
HATCH
  6
CONTINUOUS
 62
     5
100
AcDbTrace
 10
1347.578128443449
 20
3452.447104991824
 30
0.0
 11
1307.029267300216
 21
3444.275992285987
 31
0.0
 12
1342.029267300217
 22
3444.275992285986
 32
0.0
 13
1342.029267300217
 23
3444.275992285986
 33
0.0
210
0.0
220
0.0
230
1.0
  0
SOLID
  5
4AB
330
4A9
100
AcDbEntity
  8
HATCH
  6
CONTINUOUS
 62
     5
100
AcDbTrace
 10
1482.246352981699
 20
3452.447104991824
 30
0.0
 11
1441.697491838466
 21
3444.275992285987
 31
0.0
 12
1476.697491838467
 22
3444.275992285986
 32
0.0
 13
1476.697491838467
 23
3444.275992285986
 33
0.0
210
0.0
220
0.0
230
1.0
  0
SOLID
  5
4AC
330
4A9
100
AcDbEntity
  8
HATCH
  6
CONTINUOUS
 62
     5
100
AcDbTrace
 10
1417.57812844345
 20
3452.447104991825
 30
0.0
 11
1377.029267300216
 21
3444.275992285987
 31
0.0
 12
1412.029267300218
 22
3444.275992285987
 32
0.0
 13
1412.029267300218
 23
3444.275992285987
 33
0.0
210
0.0
220
0.0
230
1.0
  0
SOLID
  5
4AD
330
4A9
100
AcDbEntity
  8
HATCH
  6
CONTINUOUS
 62
     5
100
AcDbTrace
 10
1301.480406156984
 20
3452.447104991825
 30
0.0
 11
1307.029267300216
 21
3444.275992285987
 31
0.0
 12
1347.578128443449
 22
3452.447104991824
 32
0.0
 13
1347.578128443449
 23
3452.447104991824
 33
0.0
210
0.0
220
0.0
230
1.0
  0
SOLID
  5
4AE
330
4A9
100
AcDbEntity
  8
HATCH
  6
CONTINUOUS
 62
     5
100
AcDbTrace
 10
1371.480406156984
 20
3452.447104991825
 30
0.0
 11
1377.029267300216
 21
3444.275992285987
 31
0.0
 12
1417.57812844345
 22
3452.447104991825
 32
0.0
 13
1417.57812844345
 23
3452.447104991825
 33
0.0
210
0.0
220
0.0
230
1.0
  0
SOLID
  5
4AF
330
4A9
100
AcDbEntity
  8
HATCH
  6
CONTINUOUS
 62
     5
100
AcDbTrace
 10
1436.148630695234
 20
3452.447104991825
 30
0.0
 11
1441.697491838466
 21
3444.275992285987
 31
0.0
 12
1482.246352981699
 22
3452.447104991824
 32
0.0
 13
1482.246352981699
 23
3452.447104991824
 33
0.0
210
0.0
220
0.0
230
1.0
  0
SOLID
  5
4B0
330
4A9
100
AcDbEntity
  8
HATCH
  6
CONTINUOUS
 62
     5
100
AcDbTrace
 10
1371.480406156984
 20
3452.447104991825
 30
0.0
 11
1419.529267300217
 21
3462.129563357343
 31
0.0
 12
1369.529267300216
 22
3462.129563357343
 32
0.0
 13
1369.529267300216
 23
3462.129563357343
 33
0.0
  0
SOLID
  5
4B1
330
4A9
100
AcDbEntity
  8
HATCH
  6
CONTINUOUS
 62
     5
100
AcDbTrace
 10
1419.529267300217
 20
3462.129563357343
 30
0.0
 11
1371.480406156984
 21
3452.447104991825
 31
0.0
 12
1417.57812844345
 22
3452.447104991825
 32
0.0
 13
1417.57812844345
 23
3452.447104991825
 33
0.0
  0
SOLID
  5
4B2
330
4A9
100
AcDbEntity
  8
HATCH
  6
CONTINUOUS
 62
     5
100
AcDbTrace
 10
1436.148630695234
 20
3452.447104991825
 30
0.0
 11
1484.197491838467
 21
3462.129563357343
 31
0.0
 12
1434.197491838467
 22
3462.129563357343
 32
0.0
 13
1434.197491838467
 23
3462.129563357343
 33
0.0
  0
SOLID
  5
4B3
330
4A9
100
AcDbEntity
  8
HATCH
  6
CONTINUOUS
 62
     5
100
AcDbTrace
 10
1484.197491838467
 20
3462.129563357343
 30
0.0
 11
1436.148630695234
 21
3452.447104991825
 31
0.0
 12
1482.246352981699
 22
3452.447104991824
 32
0.0
 13
1482.246352981699
 23
3452.447104991824
 33
0.0
210
0.0
220
0.0
230
1.0
  0
SOLID
  5
4B4
330
4A9
100
AcDbEntity
  8
HATCH
  6
CONTINUOUS
 62
     5
100
AcDbTrace
 10
1349.529267300217
 20
3462.129563357343
 30
0.0
 11
1301.480406156984
 21
3452.447104991825
 31
0.0
 12
1347.578128443449
 22
3452.447104991824
 32
0.0
 13
1347.578128443449
 23
3452.447104991824
 33
0.0
210
0.0
220
0.0
230
1.0
  0
SOLID
  5
4B5
330
4A9
100
AcDbEntity
  8
HATCH
  6
CONTINUOUS
 62
     5
100
AcDbTrace
 10
1299.529267300217
 20
3462.129563357343
 30
0.0
 11
1301.480406156984
 21
3452.447104991825
 31
0.0
 12
1349.529267300217
 22
3462.129563357343
 32
0.0
 13
1349.529267300217
 23
3462.129563357343
 33
0.0
210
0.0
220
0.0
230
1.0
  0
SOLID
  5
4B6
330
4A9
100
AcDbEntity
  8
HATCH
  6
CONTINUOUS
 62
     5
100
AcDbTrace
 10
1411.083695601487
 20
3502.562210065769
 30
0.0
 11
1376.529267300217
 21
3495.494614745004
 31
0.0
 12
1412.529267300217
 22
3495.494614745004
 32
0.0
 13
1412.529267300217
 23
3495.494614745004
 33
0.0
  0
SOLID
  5
4B7
330
4A9
100
AcDbEntity
  8
HATCH
  6
CONTINUOUS
 62
     5
100
AcDbTrace
 10
1475.751920139737
 20
3502.562210065769
 30
0.0
 11
1441.197491838467
 21
3495.494614745004
 31
0.0
 12
1477.197491838467
 22
3495.494614745004
 32
0.0
 13
1477.197491838467
 23
3495.494614745004
 33
0.0
  0
SOLID
  5
4B8
330
4A9
100
AcDbEntity
  8
HATCH
  6
CONTINUOUS
 62
     5
100
AcDbTrace
 10
1341.083695601487
 20
3502.562210065769
 30
0.0
 11
1306.529267300217
 21
3495.494614745004
 31
0.0
 12
1342.529267300217
 22
3495.494614745004
 32
0.0
 13
1342.529267300217
 23
3495.494614745004
 33
0.0
  0
SOLID
  5
4B9
330
4A9
100
AcDbEntity
  8
HATCH
  6
CONTINUOUS
 62
     5
100
AcDbTrace
 10
1307.974838998946
 20
3502.562210065769
 30
0.0
 11
1306.529267300217
 21
3495.494614745004
 31
0.0
 12
1341.083695601487
 22
3502.562210065769
 32
0.0
 13
1341.083695601487
 23
3502.562210065769
 33
0.0
  0
SOLID
  5
4BA
330
4A9
100
AcDbEntity
  8
HATCH
  6
CONTINUOUS
 62
     5
100
AcDbTrace
 10
1377.974838998946
 20
3502.562210065769
 30
0.0
 11
1376.529267300217
 21
3495.494614745004
 31
0.0
 12
1411.083695601487
 22
3502.562210065769
 32
0.0
 13
1411.083695601487
 23
3502.562210065769
 33
0.0
  0
SOLID
  5
4BB
330
4A9
100
AcDbEntity
  8
HATCH
  6
CONTINUOUS
 62
     5
100
AcDbTrace
 10
1442.643063537197
 20
3502.562210065769
 30
0.0
 11
1441.197491838467
 21
3495.494614745004
 31
0.0
 12
1475.751920139737
 22
3502.562210065769
 32
0.0
 13
1475.751920139737
 23
3502.562210065769
 33
0.0
  0
SOLID
  5
4BC
330
4A9
100
AcDbEntity
  8
HATCH
  6
CONTINUOUS
 62
     5
100
AcDbTrace
 10
1442.643063537197
 20
3502.562210065769
 30
0.0
 11
1471.647391436455
 21
3508.494614745004
 31
0.0
 12
1446.747592240478
 22
3508.494614745004
 32
0.0
 13
1446.747592240478
 23
3508.494614745004
 33
0.0
210
0.0
220
0.0
230
1.0
  0
SOLID
  5
4BD
330
4A9
100
AcDbEntity
  8
HATCH
  6
CONTINUOUS
 62
     5
100
AcDbTrace
 10
1471.647391436455
 20
3508.494614745004
 30
0.0
 11
1442.643063537197
 21
3502.562210065769
 31
0.0
 12
1475.751920139737
 22
3502.562210065769
 32
0.0
 13
1475.751920139737
 23
3502.562210065769
 33
0.0
210
0.0
220
0.0
230
1.0
  0
SOLID
  5
4BE
330
4A9
100
AcDbEntity
  8
HATCH
  6
CONTINUOUS
 62
     5
100
AcDbTrace
 10
1377.974838998946
 20
3502.562210065769
 30
0.0
 11
1406.979166898205
 21
3508.494614745004
 31
0.0
 12
1382.079367702228
 22
3508.494614745004
 32
0.0
 13
1382.079367702228
 23
3508.494614745004
 33
0.0
210
0.0
220
0.0
230
1.0
  0
SOLID
  5
4BF
330
4A9
100
AcDbEntity
  8
HATCH
  6
CONTINUOUS
 62
     5
100
AcDbTrace
 10
1406.979166898205
 20
3508.494614745004
 30
0.0
 11
1377.974838998946
 21
3502.562210065769
 31
0.0
 12
1411.083695601487
 22
3502.562210065769
 32
0.0
 13
1411.083695601487
 23
3502.562210065769
 33
0.0
210
0.0
220
0.0
230
1.0
  0
SOLID
  5
4C0
330
4A9
100
AcDbEntity
  8
HATCH
  6
CONTINUOUS
 62
     5
100
AcDbTrace
 10
1307.974838998946
 20
3502.562210065769
 30
0.0
 11
1336.979166898205
 21
3508.494614745004
 31
0.0
 12
1324.529267300217
 22
3508.494614745004
 32
0.0
 13
1324.529267300217
 23
3508.494614745004
 33
0.0
210
0.0
220
0.0
230
1.0
  0
SOLID
  5
4C1
330
4A9
100
AcDbEntity
  8
HATCH
  6
CONTINUOUS
 62
     5
100
AcDbTrace
 10
1307.974838998946
 20
3502.562210065769
 30
0.0
 11
1324.529267300217
 21
3508.494614745004
 31
0.0
 12
1312.079367702228
 22
3508.494614745004
 32
0.0
 13
1312.079367702228
 23
3508.494614745004
 33
0.0
210
0.0
220
0.0
230
1.0
  0
SOLID
  5
4C2
330
4A9
100
AcDbEntity
  8
HATCH
  6
CONTINUOUS
 62
     5
100
AcDbTrace
 10
1336.979166898205
 20
3508.494614745004
 30
0.0
 11
1307.974838998946
 21
3502.562210065769
 31
0.0
 12
1341.083695601487
 22
3502.562210065769
 32
0.0
 13
1341.083695601487
 23
3502.562210065769
 33
0.0
210
0.0
220
0.0
230
1.0
  0
ENDBLK
  5
4C4
330
4A9
100
AcDbEntity
  8
0
100
AcDbBlockEnd
  0
BLOCK
  5
4D0
330
4C5
100
AcDbEntity
  8
0
100
AcDbBlockBegin
  2
*U5
 70
     1
 10
0.0
 20
0.0
 30
0.0
  3
*U5
  1

  0
SOLID
  5
4C6
330
4C5
100
AcDbEntity
  8
HATCH
  6
CONTINUOUS
 62
   251
100
AcDbTrace
 10
2140.115716376717
 20
2898.094151874397
 30
0.0
 11
1612.615716376716
 21
2876.844151874396
 31
0.0
 12
2140.115716376718
 22
2876.844151874397
 32
0.0
 13
2140.115716376718
 23
2876.844151874397
 33
0.0
  0
SOLID
  5
4C7
330
4C5
100
AcDbEntity
  8
HATCH
  6
CONTINUOUS
 62
   251
100
AcDbTrace
 10
1612.615716376716
 20
2898.094151874397
 30
0.0
 11
2140.115716376717
 21
2898.094151874397
 31
0.0
 12
2246.365716376718
 22
2898.094151874397
 32
0.0
 13
2246.365716376718
 23
2898.094151874397
 33
0.0
210
0.0
220
0.0
230
1.0
  0
SOLID
  5
4C8
330
4C5
100
AcDbEntity
  8
HATCH
  6
CONTINUOUS
 62
   251
100
AcDbTrace
 10
1612.615716376716
 20
2898.094151874397
 30
0.0
 11
1612.615716376716
 21
2876.844151874396
 31
0.0
 12
2140.115716376717
 22
2898.094151874397
 32
0.0
 13
2140.115716376717
 23
2898.094151874397
 33
0.0
  0
SOLID
  5
4C9
330
4C5
100
AcDbEntity
  8
HATCH
  6
CONTINUOUS
 62
   251
100
AcDbTrace
 10
1506.365716376718
 20
3425.594151874396
 30
0.0
 11
1506.365716376718
 21
2898.094151874397
 31
0.0
 12
1612.615716376716
 22
2898.094151874397
 32
0.0
 13
1612.615716376716
 23
2898.094151874397
 33
0.0
210
0.0
220
0.0
230
1.0
  0
SOLID
  5
4CA
330
4C5
100
AcDbEntity
  8
HATCH
  6
CONTINUOUS
 62
   251
100
AcDbTrace
 10
2246.365716376718
 20
3425.594151874397
 30
0.0
 11
1506.365716376718
 21
3425.594151874396
 31
0.0
 12
1612.615716376716
 22
2898.094151874397
 32
0.0
 13
1612.615716376716
 23
2898.094151874397
 33
0.0
  0
SOLID
  5
4CB
330
4C5
100
AcDbEntity
  8
HATCH
  6
CONTINUOUS
 62
   251
100
AcDbTrace
 10
2246.365716376718
 20
3425.594151874397
 30
0.0
 11
1612.615716376716
 21
2898.094151874397
 31
0.0
 12
2246.365716376718
 22
2898.094151874397
 32
0.0
 13
2246.365716376718
 23
2898.094151874397
 33
0.0
210
0.0
220
0.0
230
1.0
  0
SOLID
  5
4CC
330
4C5
100
AcDbEntity
  8
HATCH
  6
CONTINUOUS
 62
   251
100
AcDbTrace
 10
1506.365716376718
 20
3425.594151874396
 30
0.0
 11
2246.365716376718
 21
3425.594151874397
 31
0.0
 12
2140.115716376718
 22
3425.594151874397
 32
0.0
 13
2140.115716376718
 23
3425.594151874397
 33
0.0
210
0.0
220
0.0
230
1.0
  0
SOLID
  5
4CD
330
4C5
100
AcDbEntity
  8
HATCH
  6
CONTINUOUS
 62
   251
100
AcDbTrace
 10
1612.615716376715
 20
3425.594151874397
 30
0.0
 11
1506.365716376718
 21
3425.594151874396
 31
0.0
 12
2140.115716376718
 22
3425.594151874397
 32
0.0
 13
2140.115716376718
 23
3425.594151874397
 33
0.0
210
0.0
220
0.0
230
1.0
  0
SOLID
  5
4CE
330
4C5
100
AcDbEntity
  8
HATCH
  6
CONTINUOUS
 62
   251
100
AcDbTrace
 10
1612.615716376715
 20
3425.594151874397
 30
0.0
 11
2140.115716376718
 21
3471.844151874398
 31
0.0
 12
1612.615716376716
 22
3471.844151874398
 32
0.0
 13
1612.615716376716
 23
3471.844151874398
 33
0.0
  0
SOLID
  5
4CF
330
4C5
100
AcDbEntity
  8
HATCH
  6
CONTINUOUS
 62
   251
100
AcDbTrace
 10
2140.115716376718
 20
3471.844151874398
 30
0.0
 11
1612.615716376715
 21
3425.594151874397
 31
0.0
 12
2140.115716376718
 22
3425.594151874397
 32
0.0
 13
2140.115716376718
 23
3425.594151874397
 33
0.0
  0
ENDBLK
  5
4D1
330
4C5
100
AcDbEntity
  8
0
100
AcDbBlockEnd
  0
BLOCK
  5
4DF
330
4D2
100
AcDbEntity
  8
0
100
AcDbBlockBegin
  2
*U6
 70
     1
 10
0.0
 20
0.0
 30
0.0
  3
*U6
  1

  0
SOLID
  5
4D3
330
4D2
100
AcDbEntity
  8
HATCH
  6
CONTINUOUS
 62
     2
100
AcDbTrace
 10
1476.697491838467
 20
3161.844151874397
 30
0.0
 11
1441.697491838467
 21
2879.412311462809
 31
0.0
 12
1476.697491838466
 22
2879.412311462808
 32
0.0
 13
1476.697491838466
 23
2879.412311462808
 33
0.0
210
0.0
220
0.0
230
1.0
  0
SOLID
  5
4D4
330
4D2
100
AcDbEntity
  8
HATCH
  6
CONTINUOUS
 62
     2
100
AcDbTrace
 10
1412.029267300217
 20
3161.844151874397
 30
0.0
 11
1377.029267300217
 21
2879.412311462808
 31
0.0
 12
1412.029267300217
 22
2879.412311462809
 32
0.0
 13
1412.029267300217
 23
2879.412311462809
 33
0.0
  0
SOLID
  5
4D5
330
4D2
100
AcDbEntity
  8
HATCH
  6
CONTINUOUS
 62
     2
100
AcDbTrace
 10
1342.029267300217
 20
3161.844151874397
 30
0.0
 11
1307.029267300217
 21
2879.412311462809
 31
0.0
 12
1342.029267300216
 22
2879.412311462808
 32
0.0
 13
1342.029267300216
 23
2879.412311462808
 33
0.0
210
0.0
220
0.0
230
1.0
  0
SOLID
  5
4D6
330
4D2
100
AcDbEntity
  8
HATCH
  6
CONTINUOUS
 62
     2
100
AcDbTrace
 10
1441.697491838467
 20
3161.844151874397
 30
0.0
 11
1441.697491838467
 21
2879.412311462809
 31
0.0
 12
1476.697491838467
 22
3161.844151874397
 32
0.0
 13
1476.697491838467
 23
3161.844151874397
 33
0.0
  0
SOLID
  5
4D7
330
4D2
100
AcDbEntity
  8
HATCH
  6
CONTINUOUS
 62
     2
100
AcDbTrace
 10
1377.029267300217
 20
3161.844151874397
 30
0.0
 11
1377.029267300217
 21
2879.412311462808
 31
0.0
 12
1412.029267300217
 22
3161.844151874397
 32
0.0
 13
1412.029267300217
 23
3161.844151874397
 33
0.0
210
0.0
220
0.0
230
1.0
  0
SOLID
  5
4D8
330
4D2
100
AcDbEntity
  8
HATCH
  6
CONTINUOUS
 62
     2
100
AcDbTrace
 10
1307.029267300217
 20
3161.844151874397
 30
0.0
 11
1307.029267300217
 21
2879.412311462809
 31
0.0
 12
1342.029267300217
 22
3161.844151874397
 32
0.0
 13
1342.029267300217
 23
3161.844151874397
 33
0.0
  0
SOLID
  5
4D9
330
4D2
100
AcDbEntity
  8
HATCH
  6
CONTINUOUS
 62
     2
100
AcDbTrace
 10
1476.697491838467
 20
3444.275992285986
 30
0.0
 11
1441.697491838467
 21
3161.844151874397
 31
0.0
 12
1476.697491838467
 22
3161.844151874397
 32
0.0
 13
1476.697491838467
 23
3161.844151874397
 33
0.0
  0
SOLID
  5
4DA
330
4D2
100
AcDbEntity
  8
HATCH
  6
CONTINUOUS
 62
     2
100
AcDbTrace
 10
1441.697491838467
 20
3444.275992285986
 30
0.0
 11
1441.697491838467
 21
3161.844151874397
 31
0.0
 12
1476.697491838467
 22
3444.275992285986
 32
0.0
 13
1476.697491838467
 23
3444.275992285986
 33
0.0
210
0.0
220
0.0
230
1.0
  0
SOLID
  5
4DB
330
4D2
100
AcDbEntity
  8
HATCH
  6
CONTINUOUS
 62
     2
100
AcDbTrace
 10
1307.029267300217
 20
3161.844151874397
 30
0.0
 11
1342.029267300217
 21
3444.275992285986
 31
0.0
 12
1307.029267300217
 22
3444.275992285986
 32
0.0
 13
1307.029267300217
 23
3444.275992285986
 33
0.0
  0
SOLID
  5
4DC
330
4D2
100
AcDbEntity
  8
HATCH
  6
CONTINUOUS
 62
     2
100
AcDbTrace
 10
1342.029267300217
 20
3444.275992285986
 30
0.0
 11
1307.029267300217
 21
3161.844151874397
 31
0.0
 12
1342.029267300217
 22
3161.844151874397
 32
0.0
 13
1342.029267300217
 23
3161.844151874397
 33
0.0
  0
SOLID
  5
4DD
330
4D2
100
AcDbEntity
  8
HATCH
  6
CONTINUOUS
 62
     2
100
AcDbTrace
 10
1377.029267300217
 20
3161.844151874397
 30
0.0
 11
1412.029267300217
 21
3444.275992285987
 31
0.0
 12
1377.029267300217
 22
3444.275992285987
 32
0.0
 13
1377.029267300217
 23
3444.275992285987
 33
0.0
  0
SOLID
  5
4DE
330
4D2
100
AcDbEntity
  8
HATCH
  6
CONTINUOUS
 62
     2
100
AcDbTrace
 10
1412.029267300217
 20
3444.275992285987
 30
0.0
 11
1377.029267300217
 21
3161.844151874397
 31
0.0
 12
1412.029267300217
 22
3161.844151874397
 32
0.0
 13
1412.029267300217
 23
3161.844151874397
 33
0.0
  0
ENDBLK
  5
4E0
330
4D2
100
AcDbEntity
  8
0
100
AcDbBlockEnd
  0
BLOCK
  5
4E7
330
4E1
100
AcDbEntity
  8
0
100
AcDbBlockBegin
  2
*U7
 70
     1
 10
0.0
 20
0.0
 30
0.0
  3
*U7
  1

  0
SOLID
  5
4E2
330
4E1
100
AcDbEntity
  8
HATCH
  6
CONTINUOUS
 62
     5
100
AcDbTrace
 10
1893.865716376715
 20
2806.844151874397
 30
0.0
 11
1858.865716376718
 21
2806.844151874397
 31
0.0
 12
1893.865716376716
 22
1534.344151874397
 32
0.0
 13
1893.865716376716
 23
1534.344151874397
 33
0.0
  0
SOLID
  5
4E3
330
4E1
100
AcDbEntity
  8
HATCH
  6
CONTINUOUS
 62
     5
100
AcDbTrace
 10
1858.865716376718
 20
1534.344151874397
 30
0.0
 11
1893.865716376716
 21
1534.344151874397
 31
0.0
 12
1858.865716376718
 22
2806.844151874397
 32
0.0
 13
1858.865716376718
 23
2806.844151874397
 33
0.0
  0
SOLID
  5
4E4
330
4E1
100
AcDbEntity
  8
HATCH
  6
CONTINUOUS
 62
     5
100
AcDbTrace
 10
1893.865716376716
 20
1534.344151874397
 30
0.0
 11
1858.865716376718
 21
1534.344151874397
 31
0.0
 12
1888.74008504748
 22
1521.969783203633
 32
0.0
 13
1888.74008504748
 23
1521.969783203633
 33
0.0
210
0.0
220
0.0
230
1.0
  0
SOLID
  5
4E5
330
4E1
100
AcDbEntity
  8
HATCH
  6
CONTINUOUS
 62
     5
100
AcDbTrace
 10
1863.991347705953
 20
1521.969783203633
 30
0.0
 11
1888.74008504748
 21
1521.969783203633
 31
0.0
 12
1858.865716376718
 22
1534.344151874397
 32
0.0
 13
1858.865716376718
 23
1534.344151874397
 33
0.0
210
0.0
220
0.0
230
1.0
  0
SOLID
  5
4E6
330
4E1
100
AcDbEntity
  8
HATCH
  6
CONTINUOUS
 62
     5
100
AcDbTrace
 10
1888.74008504748
 20
1521.969783203633
 30
0.0
 11
1863.991347705953
 21
1521.969783203633
 31
0.0
 12
1876.365716376717
 22
1516.844151874398
 32
0.0
 13
1876.365716376717
 23
1516.844151874398
 33
0.0
210
0.0
220
0.0
230
1.0
  0
ENDBLK
  5
4E8
330
4E1
100
AcDbEntity
  8
0
100
AcDbBlockEnd
  0
BLOCK
  5
4FE
330
4E9
100
AcDbEntity
  8
0
100
AcDbBlockBegin
  2
*U8
 70
     1
 10
0.0
 20
0.0
 30
0.0
  3
*U8
  1

  0
SOLID
  5
4EA
330
4E9
100
AcDbEntity
  8
HATCH
  6
CONTINUOUS
 62
     2
100
AcDbTrace
 10
2252.615716376717
 20
2859.408724882122
 30
0.0
 11
2252.615716376716
 21
2824.402027207069
 31
0.0
 12
2355.402886246049
 22
2842.442922091407
 32
0.0
 13
2355.402886246049
 23
2842.442922091407
 33
0.0
  0
SOLID
  5
4EB
330
4E9
100
AcDbEntity
  8
HATCH
  6
CONTINUOUS
 62
     2
100
AcDbTrace
 10
2344.585990751525
 20
2875.733984802801
 30
0.0
 11
2252.615716376717
 21
2859.408724882122
 31
0.0
 12
2355.402886246049
 22
2842.442922091407
 32
0.0
 13
2355.402886246049
 23
2842.442922091407
 33
0.0
210
0.0
220
0.0
230
1.0
  0
SOLID
  5
4EC
330
4E9
100
AcDbEntity
  8
HATCH
  6
CONTINUOUS
 62
     2
100
AcDbTrace
 10
2447.7649169469
 20
2891.022047884176
 30
0.0
 11
2344.585990751525
 21
2875.733984802801
 31
0.0
 12
2355.402886246049
 22
2842.442922091407
 32
0.0
 13
2355.402886246049
 23
2842.442922091407
 33
0.0
  0
SOLID
  5
4ED
330
4E9
100
AcDbEntity
  8
HATCH
  6
CONTINUOUS
 62
     2
100
AcDbTrace
 10
2427.191042958625
 20
2919.339613222962
 30
0.0
 11
2344.585990751525
 21
2875.733984802801
 31
0.0
 12
2447.7649169469
 22
2891.022047884176
 32
0.0
 13
2447.7649169469
 23
2891.022047884176
 33
0.0
210
0.0
220
0.0
230
1.0
  0
SOLID
  5
4EE
330
4E9
100
AcDbEntity
  8
HATCH
  6
CONTINUOUS
 62
     2
100
AcDbTrace
 10
2520.870993949751
 20
2965.494711883981
 30
0.0
 11
2427.191042958625
 21
2919.339613222962
 31
0.0
 12
2447.7649169469
 22
2891.022047884176
 32
0.0
 13
2447.7649169469
 23
2891.022047884176
 33
0.0
210
0.0
220
0.0
230
1.0
  0
SOLID
  5
4EF
330
4E9
100
AcDbEntity
  8
HATCH
  6
CONTINUOUS
 62
     2
100
AcDbTrace
 10
2492.554549387454
 20
2986.067849430609
 30
0.0
 11
2427.191042958625
 21
2919.339613222962
 31
0.0
 12
2520.870993949751
 22
2965.494711883981
 32
0.0
 13
2520.870993949751
 23
2965.494711883981
 33
0.0
210
0.0
220
0.0
230
1.0
  0
SOLID
  5
4F0
330
4E9
100
AcDbEntity
  8
HATCH
  6
CONTINUOUS
 62
     2
100
AcDbTrace
 10
2567.731381298233
 20
3058.740517556541
 30
0.0
 11
2492.554549387454
 21
2986.067849430609
 31
0.0
 12
2520.870993949751
 22
2965.494711883981
 32
0.0
 13
2520.870993949751
 23
2965.494711883981
 33
0.0
  0
SOLID
  5
4F1
330
4E9
100
AcDbEntity
  8
HATCH
  6
CONTINUOUS
 62
     2
100
AcDbTrace
 10
2534.444153599764
 20
3069.55621112846
 30
0.0
 11
2492.554549387454
 21
2986.067849430609
 31
0.0
 12
2567.731381298233
 22
3058.740517556541
 32
0.0
 13
2567.731381298233
 23
3058.740517556541
 33
0.0
210
0.0
220
0.0
230
1.0
  0
SOLID
  5
4F2
330
4E9
100
AcDbEntity
  8
HATCH
  6
CONTINUOUS
 62
     2
100
AcDbTrace
 10
2583.865716376714
 20
3161.844151874396
 30
0.0
 11
2534.444153599764
 21
3069.55621112846
 31
0.0
 12
2567.731381298233
 22
3058.740517556541
 32
0.0
 13
2567.731381298233
 23
3058.740517556541
 33
0.0
210
0.0
220
0.0
230
1.0
  0
SOLID
  5
4F3
330
4E9
100
AcDbEntity
  8
HATCH
  6
CONTINUOUS
 62
     2
100
AcDbTrace
 10
2548.865716376714
 20
3161.844151874397
 30
0.0
 11
2534.444153599764
 21
3069.55621112846
 31
0.0
 12
2583.865716376714
 22
3161.844151874396
 32
0.0
 13
2583.865716376714
 23
3161.844151874396
 33
0.0
  0
SOLID
  5
4F4
330
4E9
100
AcDbEntity
  8
HATCH
  6
CONTINUOUS
 62
     2
100
AcDbTrace
 10
2534.444153599764
 20
3254.132092620334
 30
0.0
 11
2548.865716376714
 21
3161.844151874397
 31
0.0
 12
2583.865716376714
 22
3161.844151874396
 32
0.0
 13
2583.865716376714
 23
3161.844151874396
 33
0.0
  0
SOLID
  5
4F5
330
4E9
100
AcDbEntity
  8
HATCH
  6
CONTINUOUS
 62
     2
100
AcDbTrace
 10
2567.731381298233
 20
3264.947786192251
 30
0.0
 11
2534.444153599764
 21
3254.132092620334
 31
0.0
 12
2583.865716376714
 22
3161.844151874396
 32
0.0
 13
2583.865716376714
 23
3161.844151874396
 33
0.0
  0
SOLID
  5
4F6
330
4E9
100
AcDbEntity
  8
HATCH
  6
CONTINUOUS
 62
     2
100
AcDbTrace
 10
2492.554549387454
 20
3337.620454318185
 30
0.0
 11
2534.444153599764
 21
3254.132092620334
 31
0.0
 12
2567.731381298233
 22
3264.947786192251
 32
0.0
 13
2567.731381298233
 23
3264.947786192251
 33
0.0
210
0.0
220
0.0
230
1.0
  0
SOLID
  5
4F7
330
4E9
100
AcDbEntity
  8
HATCH
  6
CONTINUOUS
 62
     2
100
AcDbTrace
 10
2520.870993949751
 20
3358.193591864812
 30
0.0
 11
2492.554549387454
 21
3337.620454318185
 31
0.0
 12
2567.731381298233
 22
3264.947786192251
 32
0.0
 13
2567.731381298233
 23
3264.947786192251
 33
0.0
210
0.0
220
0.0
230
1.0
  0
SOLID
  5
4F8
330
4E9
100
AcDbEntity
  8
HATCH
  6
CONTINUOUS
 62
     2
100
AcDbTrace
 10
2427.191042958625
 20
3404.348690525832
 30
0.0
 11
2492.554549387454
 21
3337.620454318185
 31
0.0
 12
2520.870993949751
 22
3358.193591864812
 32
0.0
 13
2520.870993949751
 23
3358.193591864812
 33
0.0
210
0.0
220
0.0
230
1.0
  0
SOLID
  5
4F9
330
4E9
100
AcDbEntity
  8
HATCH
  6
CONTINUOUS
 62
     2
100
AcDbTrace
 10
2447.7649169469
 20
3432.666255864617
 30
0.0
 11
2427.191042958625
 21
3404.348690525832
 31
0.0
 12
2520.870993949751
 22
3358.193591864812
 32
0.0
 13
2520.870993949751
 23
3358.193591864812
 33
0.0
210
0.0
220
0.0
230
1.0
  0
SOLID
  5
4FA
330
4E9
100
AcDbEntity
  8
HATCH
  6
CONTINUOUS
 62
     2
100
AcDbTrace
 10
2344.585990751524
 20
3447.954318945994
 30
0.0
 11
2427.191042958625
 21
3404.348690525832
 31
0.0
 12
2447.7649169469
 22
3432.666255864617
 32
0.0
 13
2447.7649169469
 23
3432.666255864617
 33
0.0
  0
SOLID
  5
4FB
330
4E9
100
AcDbEntity
  8
HATCH
  6
CONTINUOUS
 62
     2
100
AcDbTrace
 10
2252.615716376717
 20
3464.279578866672
 30
0.0
 11
2344.585990751524
 21
3447.954318945994
 31
0.0
 12
2447.7649169469
 22
3432.666255864617
 32
0.0
 13
2447.7649169469
 23
3432.666255864617
 33
0.0
210
0.0
220
0.0
230
1.0
  0
SOLID
  5
4FC
330
4E9
100
AcDbEntity
  8
HATCH
  6
CONTINUOUS
 62
     2
100
AcDbTrace
 10
2355.402886246049
 20
3481.245381657385
 30
0.0
 11
2252.615716376717
 21
3464.279578866672
 31
0.0
 12
2447.7649169469
 22
3432.666255864617
 32
0.0
 13
2447.7649169469
 23
3432.666255864617
 33
0.0
210
0.0
220
0.0
230
1.0
  0
SOLID
  5
4FD
330
4E9
100
AcDbEntity
  8
HATCH
  6
CONTINUOUS
 62
     2
100
AcDbTrace
 10
2252.615716376717
 20
3499.286276541724
 30
0.0
 11
2252.615716376717
 21
3464.279578866672
 31
0.0
 12
2355.402886246049
 22
3481.245381657385
 32
0.0
 13
2355.402886246049
 23
3481.245381657385
 33
0.0
  0
ENDBLK
  5
4FF
330
4E9
100
AcDbEntity
  8
0
100
AcDbBlockEnd
  0
BLOCK
  5
538
330
500
100
AcDbEntity
  8
0
100
AcDbBlockBegin
  2
*U9
 70
     1
 10
0.0
 20
0.0
 30
0.0
  3
*U9
  1

  0
SOLID
  5
501
330
500
100
AcDbEntity
  8
HATCH
  6
CONTINUOUS
 62
     2
100
AcDbTrace
 10
2451.156564396901
 20
3430.110733034208
 30
0.0
 11
2467.149146068468
 21
3417.110536605226
 31
0.0
 12
4315.192201531608
 22
3417.110536605226
 32
0.0
 13
4315.192201531608
 23
3417.110536605226
 33
0.0
210
0.0
220
0.0
230
1.0
  0
SOLID
  5
502
330
500
100
AcDbEntity
  8
HATCH
  6
CONTINUOUS
 62
     2
100
AcDbTrace
 10
2451.156564396901
 20
3430.110733034208
 30
0.0
 11
4315.192201531609
 21
3442.110536605226
 31
0.0
 12
2434.400297212028
 22
3442.110536605226
 32
0.0
 13
2434.400297212028
 23
3442.110536605226
 33
0.0
210
0.0
220
0.0
230
1.0
  0
SOLID
  5
503
330
500
100
AcDbEntity
  8
HATCH
  6
CONTINUOUS
 62
     2
100
AcDbTrace
 10
4315.192201531609
 20
3442.110536605226
 30
0.0
 11
2451.156564396901
 21
3430.110733034208
 31
0.0
 12
4315.192201531608
 22
3417.110536605226
 32
0.0
 13
4315.192201531608
 23
3417.110536605226
 33
0.0
210
0.0
220
0.0
230
1.0
  0
SOLID
  5
504
330
500
100
AcDbEntity
  8
HATCH
  6
CONTINUOUS
 62
     2
100
AcDbTrace
 10
4205.019348930811
 20
3348.688415162417
 30
0.0
 11
2531.690584791787
 21
3342.110536605225
 31
0.0
 12
4195.445599917011
 22
3342.110536605225
 32
0.0
 13
4195.445599917011
 23
3342.110536605225
 33
0.0
210
0.0
220
0.0
230
1.0
  0
SOLID
  5
505
330
500
100
AcDbEntity
  8
HATCH
  6
CONTINUOUS
 62
     2
100
AcDbTrace
 10
2502.183331784933
 20
3381.988644530594
 30
0.0
 11
2531.690584791787
 21
3342.110536605225
 31
0.0
 12
4205.019348930811
 22
3348.688415162417
 32
0.0
 13
4205.019348930811
 23
3348.688415162417
 33
0.0
210
0.0
220
0.0
230
1.0
  0
SOLID
  5
506
330
500
100
AcDbEntity
  8
HATCH
  6
CONTINUOUS
 62
     2
100
AcDbTrace
 10
4235.066490549207
 20
3385.389962507764
 30
0.0
 11
2502.183331784933
 21
3381.988644530594
 31
0.0
 12
4205.019348930811
 22
3348.688415162417
 32
0.0
 13
4205.019348930811
 23
3348.688415162417
 33
0.0
210
0.0
220
0.0
230
1.0
  0
SOLID
  5
507
330
500
100
AcDbEntity
  8
HATCH
  6
CONTINUOUS
 62
     2
100
AcDbTrace
 10
4235.066490549209
 20
3402.072483100995
 30
0.0
 11
2502.183331784933
 21
3381.988644530594
 31
0.0
 12
4235.066490549207
 22
3385.389962507764
 32
0.0
 13
4235.066490549207
 23
3385.389962507764
 33
0.0
210
0.0
220
0.0
230
1.0
  0
SOLID
  5
508
330
500
100
AcDbEntity
  8
HATCH
  6
CONTINUOUS
 62
     2
100
AcDbTrace
 10
2467.149146068468
 20
3417.110536605226
 30
0.0
 11
2502.183331784933
 21
3381.988644530594
 31
0.0
 12
4235.066490549209
 22
3402.072483100995
 32
0.0
 13
4235.066490549209
 23
3402.072483100995
 33
0.0
210
0.0
220
0.0
230
1.0
  0
SOLID
  5
509
330
500
100
AcDbEntity
  8
HATCH
  6
CONTINUOUS
 62
     2
100
AcDbTrace
 10
4315.192201531607
 20
3417.110536605226
 30
0.0
 11
2467.149146068468
 21
3417.110536605226
 31
0.0
 12
4235.066490549209
 22
3402.072483100995
 32
0.0
 13
4235.066490549209
 23
3402.072483100995
 33
0.0
210
0.0
220
0.0
230
1.0
  0
SOLID
  5
50A
330
500
100
AcDbEntity
  8
HATCH
  6
CONTINUOUS
 62
     2
100
AcDbTrace
 10
4315.192201531607
 20
3417.110536605226
 30
0.0
 11
4235.066490549209
 21
3402.072483100995
 31
0.0
 12
4315.192201531607
 22
3402.072483100995
 32
0.0
 13
4315.192201531607
 23
3402.072483100995
 33
0.0
  0
SOLID
  5
50B
330
500
100
AcDbEntity
  8
HATCH
  6
CONTINUOUS
 62
     2
100
AcDbTrace
 10
4151.602202762609
 20
3011.701446132925
 30
0.0
 11
2531.690584791787
 21
2981.577767143568
 31
0.0
 12
4195.445599917013
 22
2981.577767143568
 32
0.0
 13
4195.445599917013
 23
2981.577767143568
 33
0.0
210
0.0
220
0.0
230
1.0
  0
SOLID
  5
50C
330
500
100
AcDbEntity
  8
HATCH
  6
CONTINUOUS
 62
     2
100
AcDbTrace
 10
2570.559634495245
 20
3068.011569820203
 30
0.0
 11
2531.690584791787
 21
2981.577767143568
 31
0.0
 12
4151.602202762609
 22
3011.701446132925
 32
0.0
 13
4151.602202762609
 23
3011.701446132925
 33
0.0
210
0.0
220
0.0
230
1.0
  0
SOLID
  5
50D
330
500
100
AcDbEntity
  8
HATCH
  6
CONTINUOUS
 62
     2
100
AcDbTrace
 10
4131.570775017011
 20
3071.75852638927
 30
0.0
 11
2570.559634495245
 21
3068.011569820203
 31
0.0
 12
4151.602202762609
 22
3011.701446132925
 32
0.0
 13
4151.602202762609
 23
3011.701446132925
 33
0.0
210
0.0
220
0.0
230
1.0
  0
SOLID
  5
50E
330
500
100
AcDbEntity
  8
HATCH
  6
CONTINUOUS
 62
     2
100
AcDbTrace
 10
2583.865716376717
 20
3161.844151874396
 30
0.0
 11
2570.559634495245
 21
3068.011569820203
 31
0.0
 12
4131.570775017011
 22
3071.75852638927
 32
0.0
 13
4131.570775017011
 23
3071.75852638927
 33
0.0
210
0.0
220
0.0
230
1.0
  0
SOLID
  5
50F
330
500
100
AcDbEntity
  8
HATCH
  6
CONTINUOUS
 62
     2
100
AcDbTrace
 10
4131.570775017011
 20
3161.844151874397
 30
0.0
 11
2583.865716376717
 21
3161.844151874396
 31
0.0
 12
4131.570775017011
 22
3071.75852638927
 32
0.0
 13
4131.570775017011
 23
3071.75852638927
 33
0.0
210
0.0
220
0.0
230
1.0
  0
SOLID
  5
510
330
500
100
AcDbEntity
  8
HATCH
  6
CONTINUOUS
 62
     2
100
AcDbTrace
 10
4131.570775017011
 20
3251.929777359523
 30
0.0
 11
2583.865716376717
 21
3161.844151874396
 31
0.0
 12
4131.570775017011
 22
3161.844151874397
 32
0.0
 13
4131.570775017011
 23
3161.844151874397
 33
0.0
210
0.0
220
0.0
230
1.0
  0
SOLID
  5
511
330
500
100
AcDbEntity
  8
HATCH
  6
CONTINUOUS
 62
     2
100
AcDbTrace
 10
2570.559634495245
 20
3255.67673392859
 30
0.0
 11
2583.865716376717
 21
3161.844151874396
 31
0.0
 12
4131.570775017011
 22
3251.929777359523
 32
0.0
 13
4131.570775017011
 23
3251.929777359523
 33
0.0
210
0.0
220
0.0
230
1.0
  0
SOLID
  5
512
330
500
100
AcDbEntity
  8
HATCH
  6
CONTINUOUS
 62
     2
100
AcDbTrace
 10
4151.60220276261
 20
3311.98685761587
 30
0.0
 11
2570.559634495245
 21
3255.67673392859
 31
0.0
 12
4131.570775017011
 22
3251.929777359523
 32
0.0
 13
4131.570775017011
 23
3251.929777359523
 33
0.0
210
0.0
220
0.0
230
1.0
  0
SOLID
  5
513
330
500
100
AcDbEntity
  8
HATCH
  6
CONTINUOUS
 62
     2
100
AcDbTrace
 10
4151.60220276261
 20
3311.98685761587
 30
0.0
 11
4195.445599917011
 21
3342.110536605225
 31
0.0
 12
2531.690584791787
 22
3342.110536605225
 32
0.0
 13
2531.690584791787
 23
3342.110536605225
 33
0.0
210
0.0
220
0.0
230
1.0
  0
SOLID
  5
514
330
500
100
AcDbEntity
  8
HATCH
  6
CONTINUOUS
 62
     2
100
AcDbTrace
 10
2531.690584791787
 20
3342.110536605225
 30
0.0
 11
2570.559634495245
 21
3255.67673392859
 31
0.0
 12
4151.60220276261
 22
3311.98685761587
 32
0.0
 13
4151.60220276261
 23
3311.98685761587
 33
0.0
210
0.0
220
0.0
230
1.0
  0
SOLID
  5
515
330
500
100
AcDbEntity
  8
HATCH
  6
CONTINUOUS
 62
     2
100
AcDbTrace
 10
4315.192201531607
 20
2921.615820647799
 30
0.0
 11
2467.149146068468
 21
2906.577767143568
 31
0.0
 12
4315.192201531609
 22
2906.577767143568
 32
0.0
 13
4315.192201531609
 23
2906.577767143568
 33
0.0
210
0.0
220
0.0
230
1.0
  0
SOLID
  5
516
330
500
100
AcDbEntity
  8
HATCH
  6
CONTINUOUS
 62
     2
100
AcDbTrace
 10
4235.066490549209
 20
2921.6158206478
 30
0.0
 11
2467.149146068468
 21
2906.577767143568
 31
0.0
 12
4315.192201531607
 22
2921.615820647799
 32
0.0
 13
4315.192201531607
 23
2921.615820647799
 33
0.0
210
0.0
220
0.0
230
1.0
  0
SOLID
  5
517
330
500
100
AcDbEntity
  8
HATCH
  6
CONTINUOUS
 62
     2
100
AcDbTrace
 10
4235.066490549207
 20
2938.298341241031
 30
0.0
 11
2467.149146068468
 21
2906.577767143568
 31
0.0
 12
4235.066490549209
 22
2921.6158206478
 32
0.0
 13
4235.066490549209
 23
2921.6158206478
 33
0.0
210
0.0
220
0.0
230
1.0
  0
SOLID
  5
518
330
500
100
AcDbEntity
  8
HATCH
  6
CONTINUOUS
 62
     2
100
AcDbTrace
 10
2502.183331784932
 20
2941.699659218199
 30
0.0
 11
2467.149146068468
 21
2906.577767143568
 31
0.0
 12
4235.066490549207
 22
2938.298341241031
 32
0.0
 13
4235.066490549207
 23
2938.298341241031
 33
0.0
210
0.0
220
0.0
230
1.0
  0
SOLID
  5
519
330
500
100
AcDbEntity
  8
HATCH
  6
CONTINUOUS
 62
     2
100
AcDbTrace
 10
4205.019348930809
 20
2974.999888586378
 30
0.0
 11
2502.183331784932
 21
2941.699659218199
 31
0.0
 12
4235.066490549207
 22
2938.298341241031
 32
0.0
 13
4235.066490549207
 23
2938.298341241031
 33
0.0
210
0.0
220
0.0
230
1.0
  0
SOLID
  5
51A
330
500
100
AcDbEntity
  8
HATCH
  6
CONTINUOUS
 62
     2
100
AcDbTrace
 10
2531.690584791787
 20
2981.577767143568
 30
0.0
 11
2502.183331784932
 21
2941.699659218199
 31
0.0
 12
4205.019348930809
 22
2974.999888586378
 32
0.0
 13
4205.019348930809
 23
2974.999888586378
 33
0.0
  0
SOLID
  5
51B
330
500
100
AcDbEntity
  8
HATCH
  6
CONTINUOUS
 62
     2
100
AcDbTrace
 10
4195.44559991701
 20
2981.577767143568
 30
0.0
 11
2531.690584791787
 21
2981.577767143568
 31
0.0
 12
4205.019348930809
 22
2974.999888586378
 32
0.0
 13
4205.019348930809
 23
2974.999888586378
 33
0.0
210
0.0
220
0.0
230
1.0
  0
SOLID
  5
51C
330
500
100
AcDbEntity
  8
HATCH
  6
CONTINUOUS
 62
     2
100
AcDbTrace
 10
2451.156564396901
 20
2893.577570714585
 30
0.0
 11
2434.400297212027
 21
2881.577767143568
 31
0.0
 12
4315.192201531609
 22
2881.577767143568
 32
0.0
 13
4315.192201531609
 23
2881.577767143568
 33
0.0
210
0.0
220
0.0
230
1.0
  0
SOLID
  5
51D
330
500
100
AcDbEntity
  8
HATCH
  6
CONTINUOUS
 62
     2
100
AcDbTrace
 10
4315.192201531608
 20
2906.577767143567
 30
0.0
 11
2451.156564396901
 21
2893.577570714585
 31
0.0
 12
4315.192201531609
 22
2881.577767143568
 32
0.0
 13
4315.192201531609
 23
2881.577767143568
 33
0.0
210
0.0
220
0.0
230
1.0
  0
SOLID
  5
51E
330
500
100
AcDbEntity
  8
HATCH
  6
CONTINUOUS
 62
     2
100
AcDbTrace
 10
2467.149146068468
 20
2906.577767143568
 30
0.0
 11
2451.156564396901
 21
2893.577570714585
 31
0.0
 12
4315.192201531608
 22
2906.577767143567
 32
0.0
 13
4315.192201531608
 23
2906.577767143567
 33
0.0
210
0.0
220
0.0
230
1.0
  0
SOLID
  5
51F
330
500
100
AcDbEntity
  8
HATCH
  6
CONTINUOUS
 62
     2
100
AcDbTrace
 10
2452.423095637425
 20
2940.379467438686
 30
0.0
 11
2246.365716376718
 21
2906.577767143568
 31
0.0
 12
2408.678139889067
 22
2906.577767143568
 32
0.0
 13
2408.678139889067
 23
2906.577767143568
 33
0.0
210
0.0
220
0.0
230
1.0
  0
SOLID
  5
520
330
500
100
AcDbEntity
  8
HATCH
  6
CONTINUOUS
 62
     2
100
AcDbTrace
 10
2452.423095637425
 20
2940.379467438686
 30
0.0
 11
2489.286033633379
 21
2981.577767143568
 31
0.0
 12
2246.365716376718
 22
2981.577767143568
 32
0.0
 13
2246.365716376718
 23
2981.577767143568
 33
0.0
210
0.0
220
0.0
230
1.0
  0
SOLID
  5
521
330
500
100
AcDbEntity
  8
HATCH
  6
CONTINUOUS
 62
     2
100
AcDbTrace
 10
2246.365716376718
 20
2981.577767143568
 30
0.0
 11
2246.365716376718
 21
2906.577767143568
 31
0.0
 12
2452.423095637425
 22
2940.379467438686
 32
0.0
 13
2452.423095637425
 23
2940.379467438686
 33
0.0
  0
SOLID
  5
522
330
500
100
AcDbEntity
  8
HATCH
  6
CONTINUOUS
 62
     2
100
AcDbTrace
 10
2385.001024325669
 20
2892.9826607867
 30
0.0
 11
2252.615716376717
 21
2881.577767143568
 31
0.0
 12
2360.194550992165
 22
2881.577767143568
 32
0.0
 13
2360.194550992165
 23
2881.577767143568
 33
0.0
210
0.0
220
0.0
230
1.0
  0
SOLID
  5
523
330
500
100
AcDbEntity
  8
HATCH
  6
CONTINUOUS
 62
     2
100
AcDbTrace
 10
2252.615716376717
 20
2898.094151874397
 30
0.0
 11
2252.615716376717
 21
2881.577767143568
 31
0.0
 12
2385.001024325669
 22
2892.9826607867
 32
0.0
 13
2385.001024325669
 23
2892.9826607867
 33
0.0
210
0.0
220
0.0
230
1.0
  0
SOLID
  5
524
330
500
100
AcDbEntity
  8
HATCH
  6
CONTINUOUS
 62
     2
100
AcDbTrace
 10
2246.365716376717
 20
2906.577767143567
 30
0.0
 11
2246.365716376718
 21
2898.094151874397
 31
0.0
 12
2252.615716376717
 22
2898.094151874397
 32
0.0
 13
2252.615716376717
 23
2898.094151874397
 33
0.0
210
0.0
220
0.0
230
1.0
  0
SOLID
  5
525
330
500
100
AcDbEntity
  8
HATCH
  6
CONTINUOUS
 62
     2
100
AcDbTrace
 10
2246.365716376717
 20
2906.577767143567
 30
0.0
 11
2252.615716376717
 21
2898.094151874397
 31
0.0
 12
2385.001024325669
 22
2892.9826607867
 32
0.0
 13
2385.001024325669
 23
2892.9826607867
 33
0.0
210
0.0
220
0.0
230
1.0
  0
SOLID
  5
526
330
500
100
AcDbEntity
  8
HATCH
  6
CONTINUOUS
 62
     2
100
AcDbTrace
 10
2408.678139889067
 20
2906.577767143568
 30
0.0
 11
2246.365716376717
 21
2906.577767143567
 31
0.0
 12
2385.001024325669
 22
2892.9826607867
 32
0.0
 13
2385.001024325669
 23
2892.9826607867
 33
0.0
210
0.0
220
0.0
230
1.0
  0
SOLID
  5
527
330
500
100
AcDbEntity
  8
HATCH
  6
CONTINUOUS
 62
     2
100
AcDbTrace
 10
2252.615716376716
 20
2881.577767143567
 30
0.0
 11
2252.615716376716
 21
2859.408724882122
 31
0.0
 12
2307.419776351041
 22
2865.56952967288
 32
0.0
 13
2307.419776351041
 23
2865.56952967288
 33
0.0
210
0.0
220
0.0
230
1.0
  0
SOLID
  5
528
330
500
100
AcDbEntity
  8
HATCH
  6
CONTINUOUS
 62
     2
100
AcDbTrace
 10
2360.194550992163
 20
2881.577767143568
 30
0.0
 11
2252.615716376716
 21
2881.577767143567
 31
0.0
 12
2307.419776351041
 22
2865.56952967288
 32
0.0
 13
2307.419776351041
 23
2865.56952967288
 33
0.0
210
0.0
220
0.0
230
1.0
  0
SOLID
  5
529
330
500
100
AcDbEntity
  8
HATCH
  6
CONTINUOUS
 62
     2
100
AcDbTrace
 10
2307.419776351042
 20
3458.118774075914
 30
0.0
 11
2252.615716376717
 21
3442.110536605226
 31
0.0
 12
2360.194550992166
 22
3442.110536605226
 32
0.0
 13
2360.194550992166
 23
3442.110536605226
 33
0.0
210
0.0
220
0.0
230
1.0
  0
SOLID
  5
52A
330
500
100
AcDbEntity
  8
HATCH
  6
CONTINUOUS
 62
     2
100
AcDbTrace
 10
2252.615716376717
 20
3464.279578866672
 30
0.0
 11
2252.615716376717
 21
3442.110536605226
 31
0.0
 12
2307.419776351042
 22
3458.118774075914
 32
0.0
 13
2307.419776351042
 23
3458.118774075914
 33
0.0
210
0.0
220
0.0
230
1.0
  0
SOLID
  5
52B
330
500
100
AcDbEntity
  8
HATCH
  6
CONTINUOUS
 62
     2
100
AcDbTrace
 10
2246.365716376718
 20
3425.594151874397
 30
0.0
 11
2246.365716376718
 21
3417.110536605226
 31
0.0
 12
2408.678139889067
 22
3417.110536605226
 32
0.0
 13
2408.678139889067
 23
3417.110536605226
 33
0.0
210
0.0
220
0.0
230
1.0
  0
SOLID
  5
52C
330
500
100
AcDbEntity
  8
HATCH
  6
CONTINUOUS
 62
     2
100
AcDbTrace
 10
2408.678139889067
 20
3417.110536605226
 30
0.0
 11
2252.615716376716
 21
3425.594151874397
 31
0.0
 12
2246.365716376718
 22
3425.594151874397
 32
0.0
 13
2246.365716376718
 23
3425.594151874397
 33
0.0
210
0.0
220
0.0
230
1.0
  0
SOLID
  5
52D
330
500
100
AcDbEntity
  8
HATCH
  6
CONTINUOUS
 62
     2
100
AcDbTrace
 10
2385.00102432567
 20
3430.705642962093
 30
0.0
 11
2252.615716376716
 21
3425.594151874397
 31
0.0
 12
2408.678139889067
 22
3417.110536605226
 32
0.0
 13
2408.678139889067
 23
3417.110536605226
 33
0.0
210
0.0
220
0.0
230
1.0
  0
SOLID
  5
52E
330
500
100
AcDbEntity
  8
HATCH
  6
CONTINUOUS
 62
     2
100
AcDbTrace
 10
2385.00102432567
 20
3430.705642962093
 30
0.0
 11
2360.194550992165
 21
3442.110536605226
 31
0.0
 12
2252.615716376717
 22
3442.110536605226
 32
0.0
 13
2252.615716376717
 23
3442.110536605226
 33
0.0
  0
SOLID
  5
52F
330
500
100
AcDbEntity
  8
HATCH
  6
CONTINUOUS
 62
     2
100
AcDbTrace
 10
2252.615716376717
 20
3442.110536605226
 30
0.0
 11
2252.615716376716
 21
3425.594151874397
 31
0.0
 12
2385.00102432567
 22
3430.705642962093
 32
0.0
 13
2385.00102432567
 23
3430.705642962093
 33
0.0
210
0.0
220
0.0
230
1.0
  0
SOLID
  5
530
330
500
100
AcDbEntity
  8
HATCH
  6
CONTINUOUS
 62
     2
100
AcDbTrace
 10
2489.286033633379
 20
3342.110536605225
 30
0.0
 11
2452.423095637425
 21
3383.308836310107
 31
0.0
 12
2246.365716376718
 22
3342.110536605225
 32
0.0
 13
2246.365716376718
 23
3342.110536605225
 33
0.0
210
0.0
220
0.0
230
1.0
  0
SOLID
  5
531
330
500
100
AcDbEntity
  8
HATCH
  6
CONTINUOUS
 62
     2
100
AcDbTrace
 10
2408.678139889067
 20
3417.110536605226
 30
0.0
 11
2246.365716376718
 21
3342.110536605225
 31
0.0
 12
2452.423095637425
 22
3383.308836310107
 32
0.0
 13
2452.423095637425
 23
3383.308836310107
 33
0.0
210
0.0
220
0.0
230
1.0
  0
SOLID
  5
532
330
500
100
AcDbEntity
  8
HATCH
  6
CONTINUOUS
 62
     2
100
AcDbTrace
 10
2246.365716376718
 20
3342.110536605225
 30
0.0
 11
2408.678139889067
 21
3417.110536605226
 31
0.0
 12
2246.365716376718
 22
3417.110536605226
 32
0.0
 13
2246.365716376718
 23
3417.110536605226
 33
0.0
210
0.0
220
0.0
230
1.0
  0
SOLID
  5
533
330
500
100
AcDbEntity
  8
HATCH
  6
CONTINUOUS
 62
     2
100
AcDbTrace
 10
2246.365716376718
 20
3342.110536605225
 30
0.0
 11
2246.365716376717
 21
2981.577767143568
 31
0.0
 12
2489.286033633379
 22
3342.110536605225
 32
0.0
 13
2489.286033633379
 23
3342.110536605225
 33
0.0
210
0.0
220
0.0
230
1.0
  0
SOLID
  5
534
330
500
100
AcDbEntity
  8
HATCH
  6
CONTINUOUS
 62
     2
100
AcDbTrace
 10
2489.286033633379
 20
2981.577767143568
 30
0.0
 11
2489.286033633379
 21
3342.110536605225
 31
0.0
 12
2246.365716376717
 22
2981.577767143568
 32
0.0
 13
2246.365716376717
 23
2981.577767143568
 33
0.0
210
0.0
220
0.0
230
1.0
  0
SOLID
  5
535
330
500
100
AcDbEntity
  8
HATCH
  6
CONTINUOUS
 62
     2
100
AcDbTrace
 10
2489.286033633379
 20
3342.110536605225
 30
0.0
 11
2489.286033633379
 21
2981.577767143568
 31
0.0
 12
2533.584836535997
 22
3256.772688231647
 32
0.0
 13
2533.584836535997
 23
3256.772688231647
 33
0.0
210
0.0
220
0.0
230
1.0
  0
SOLID
  5
536
330
500
100
AcDbEntity
  8
HATCH
  6
CONTINUOUS
 62
     2
100
AcDbTrace
 10
2533.584836535996
 20
3066.915615517145
 30
0.0
 11
2533.584836535997
 21
3256.772688231647
 31
0.0
 12
2489.286033633379
 22
2981.577767143568
 32
0.0
 13
2489.286033633379
 23
2981.577767143568
 33
0.0
210
0.0
220
0.0
230
1.0
  0
SOLID
  5
537
330
500
100
AcDbEntity
  8
HATCH
  6
CONTINUOUS
 62
     2
100
AcDbTrace
 10
2533.584836535997
 20
3256.772688231647
 30
0.0
 11
2533.584836535996
 21
3066.915615517145
 31
0.0
 12
2548.865716376718
 22
3161.844151874396
 32
0.0
 13
2548.865716376718
 23
3161.844151874396
 33
0.0
210
0.0
220
0.0
230
1.0
  0
ENDBLK
  5
539
330
500
100
AcDbEntity
  8
0
100
AcDbBlockEnd
  0
BLOCK
  5
53F
330
53A
100
AcDbEntity
  8
0
100
AcDbBlockBegin
  2
*U10
 70
     1
 10
0.0
 20
0.0
 30
0.0
  3
*U10
  1

  0
SOLID
  5
53B
330
53A
100
AcDbEntity
  8
HATCH
  6
CONTINUOUS
 62
   251
100
AcDbTrace
 10
1876.365716376717
 20
2841.844151874397
 30
0.0
 11
2140.115716376718
 21
2806.844151874397
 31
0.0
 12
2140.115716376718
 22
2876.844151874397
 32
0.0
 13
2140.115716376718
 23
2876.844151874397
 33
0.0
210
0.0
220
0.0
230
1.0
  0
SOLID
  5
53C
330
53A
100
AcDbEntity
  8
HATCH
  6
CONTINUOUS
 62
   251
100
AcDbTrace
 10
1876.365716376717
 20
2841.844151874397
 30
0.0
 11
2140.115716376718
 21
2876.844151874397
 31
0.0
 12
1612.615716376716
 22
2876.844151874397
 32
0.0
 13
1612.615716376716
 23
2876.844151874397
 33
0.0
210
0.0
220
0.0
230
1.0
  0
SOLID
  5
53D
330
53A
100
AcDbEntity
  8
HATCH
  6
CONTINUOUS
 62
   251
100
AcDbTrace
 10
1876.365716376717
 20
2841.844151874397
 30
0.0
 11
1612.615716376716
 21
2876.844151874397
 31
0.0
 12
1612.615716376716
 22
2806.844151874397
 32
0.0
 13
1612.615716376716
 23
2806.844151874397
 33
0.0
210
0.0
220
0.0
230
1.0
  0
SOLID
  5
53E
330
53A
100
AcDbEntity
  8
HATCH
  6
CONTINUOUS
 62
   251
100
AcDbTrace
 10
1876.365716376717
 20
2841.844151874397
 30
0.0
 11
1612.615716376716
 21
2806.844151874397
 31
0.0
 12
2140.115716376718
 22
2806.844151874397
 32
0.0
 13
2140.115716376718
 23
2806.844151874397
 33
0.0
210
0.0
220
0.0
230
1.0
  0
ENDBLK
  5
540
330
53A
100
AcDbEntity
  8
0
100
AcDbBlockEnd
  0
BLOCK
  5
546
330
541
100
AcDbEntity
  8
0
100
AcDbBlockBegin
  2
*U11
 70
     1
 10
0.0
 20
0.0
 30
0.0
  3
*U11
  1

  0
SOLID
  5
542
330
541
100
AcDbEntity
  8
HATCH
  6
CONTINUOUS
 62
     1
100
AcDbTrace
 10
1876.365716376717
 20
3481.844151874397
 30
0.0
 11
1612.615716376716
 21
3491.844151874397
 31
0.0
 12
1612.615716376716
 22
3471.844151874398
 32
0.0
 13
1612.615716376716
 23
3471.844151874398
 33
0.0
210
0.0
220
0.0
230
1.0
  0
SOLID
  5
543
330
541
100
AcDbEntity
  8
HATCH
  6
CONTINUOUS
 62
     1
100
AcDbTrace
 10
1876.365716376717
 20
3481.844151874397
 30
0.0
 11
1612.615716376716
 21
3471.844151874398
 31
0.0
 12
2140.115716376718
 22
3471.844151874398
 32
0.0
 13
2140.115716376718
 23
3471.844151874398
 33
0.0
210
0.0
220
0.0
230
1.0
  0
SOLID
  5
544
330
541
100
AcDbEntity
  8
HATCH
  6
CONTINUOUS
 62
     1
100
AcDbTrace
 10
1876.365716376717
 20
3481.844151874397
 30
0.0
 11
2140.115716376718
 21
3471.844151874398
 31
0.0
 12
2140.115716376718
 22
3491.844151874397
 32
0.0
 13
2140.115716376718
 23
3491.844151874397
 33
0.0
210
0.0
220
0.0
230
1.0
  0
SOLID
  5
545
330
541
100
AcDbEntity
  8
HATCH
  6
CONTINUOUS
 62
     1
100
AcDbTrace
 10
1876.365716376717
 20
3481.844151874397
 30
0.0
 11
2140.115716376718
 21
3491.844151874397
 31
0.0
 12
1612.615716376716
 22
3491.844151874397
 32
0.0
 13
1612.615716376716
 23
3491.844151874397
 33
0.0
210
0.0
220
0.0
230
1.0
  0
ENDBLK
  5
547
330
541
100
AcDbEntity
  8
0
100
AcDbBlockEnd
  0
BLOCK
  5
551
330
548
100
AcDbEntity
  8
0
100
AcDbBlockBegin
  2
*U12
 70
     1
 10
0.0
 20
0.0
 30
0.0
  3
*U12
  1

  0
SOLID
  5
549
330
548
100
AcDbEntity
  8
HATCH
  6
CONTINUOUS
 62
     1
100
AcDbTrace
 10
2252.615716376717
 20
2785.594151874397
 30
0.0
 11
2252.615716376717
 21
2898.094151874397
 31
0.0
 12
2140.115716376718
 22
2898.094151874397
 32
0.0
 13
2140.115716376718
 23
2898.094151874397
 33
0.0
210
0.0
220
0.0
230
1.0
  0
SOLID
  5
54A
330
548
100
AcDbEntity
  8
HATCH
  6
CONTINUOUS
 62
     1
100
AcDbTrace
 10
2140.115716376718
 20
2898.094151874397
 30
0.0
 11
2140.115716376718
 21
2785.594151874397
 31
0.0
 12
2252.615716376717
 22
2785.594151874397
 32
0.0
 13
2252.615716376717
 23
2785.594151874397
 33
0.0
210
0.0
220
0.0
230
1.0
  0
SOLID
  5
54B
330
548
100
AcDbEntity
  8
HATCH
  6
CONTINUOUS
 62
     1
100
AcDbTrace
 10
1612.615716376716
 20
2785.594151874397
 30
0.0
 11
1612.615716376716
 21
2898.094151874397
 31
0.0
 12
1500.115716376718
 22
2898.094151874397
 32
0.0
 13
1500.115716376718
 23
2898.094151874397
 33
0.0
210
0.0
220
0.0
230
1.0
  0
SOLID
  5
54C
330
548
100
AcDbEntity
  8
HATCH
  6
CONTINUOUS
 62
     1
100
AcDbTrace
 10
1500.115716376718
 20
2898.094151874397
 30
0.0
 11
1500.115716376718
 21
2785.594151874397
 31
0.0
 12
1612.615716376716
 22
2785.594151874397
 32
0.0
 13
1612.615716376716
 23
2785.594151874397
 33
0.0
210
0.0
220
0.0
230
1.0
  0
SOLID
  5
54D
330
548
100
AcDbEntity
  8
HATCH
  6
CONTINUOUS
 62
     1
100
AcDbTrace
 10
1612.615716376716
 20
3425.594151874397
 30
0.0
 11
1612.615716376716
 21
3538.094151874397
 31
0.0
 12
1500.115716376718
 22
3538.094151874397
 32
0.0
 13
1500.115716376718
 23
3538.094151874397
 33
0.0
210
0.0
220
0.0
230
1.0
  0
SOLID
  5
54E
330
548
100
AcDbEntity
  8
HATCH
  6
CONTINUOUS
 62
     1
100
AcDbTrace
 10
1500.115716376718
 20
3538.094151874397
 30
0.0
 11
1500.115716376718
 21
3425.594151874397
 31
0.0
 12
1612.615716376716
 22
3425.594151874397
 32
0.0
 13
1612.615716376716
 23
3425.594151874397
 33
0.0
210
0.0
220
0.0
230
1.0
  0
SOLID
  5
54F
330
548
100
AcDbEntity
  8
HATCH
  6
CONTINUOUS
 62
     1
100
AcDbTrace
 10
2252.615716376717
 20
3538.094151874397
 30
0.0
 11
2140.115716376718
 21
3425.594151874397
 31
0.0
 12
2252.615716376717
 22
3425.594151874396
 32
0.0
 13
2252.615716376717
 23
3425.594151874396
 33
0.0
210
0.0
220
0.0
230
1.0
  0
SOLID
  5
550
330
548
100
AcDbEntity
  8
HATCH
  6
CONTINUOUS
 62
     1
100
AcDbTrace
 10
2140.115716376718
 20
3538.094151874397
 30
0.0
 11
2140.115716376718
 21
3425.594151874397
 31
0.0
 12
2252.615716376717
 22
3538.094151874397
 32
0.0
 13
2252.615716376717
 23
3538.094151874397
 33
0.0
210
0.0
220
0.0
230
1.0
  0
ENDBLK
  5
552
330
548
100
AcDbEntity
  8
0
100
AcDbBlockEnd
  0
BLOCK
  5
568
330
561
100
AcDbEntity
  8
0
100
AcDbBlockBegin
  2
*U13
 70
     1
 10
0.0
 20
0.0
 30
0.0
  3
*U13
  1

  0
SOLID
  5
562
330
561
100
AcDbEntity
  8
HATCH
  6
CONTINUOUS
 62
     2
100
AcDbTrace
 10
1500.115716376718
 20
2828.193689003791
 30
0.0
 11
1500.115716376718
 21
2861.558740391451
 31
0.0
 12
1237.029267300217
 22
2861.558740391451
 32
0.0
 13
1237.029267300217
 23
2861.558740391451
 33
0.0
210
0.0
220
0.0
230
1.0
  0
SOLID
  5
563
330
561
100
AcDbEntity
  8
HATCH
  6
CONTINUOUS
 62
     2
100
AcDbTrace
 10
1237.029267300217
 20
2861.558740391451
 30
0.0
 11
1237.029267300217
 21
2828.19368900379
 31
0.0
 12
1500.115716376718
 22
2828.193689003791
 32
0.0
 13
1500.115716376718
 23
2828.193689003791
 33
0.0
210
0.0
220
0.0
230
1.0
  0
SOLID
  5
564
330
561
100
AcDbEntity
  8
HATCH
  6
CONTINUOUS
 62
     2
100
AcDbTrace
 10
1237.029267300217
 20
3495.494614745004
 30
0.0
 11
1342.029267300217
 21
3462.129563357343
 31
0.0
 12
1500.115716376718
 22
3462.129563357343
 32
0.0
 13
1500.115716376718
 23
3462.129563357343
 33
0.0
210
0.0
220
0.0
230
1.0
  0
SOLID
  5
565
330
561
100
AcDbEntity
  8
HATCH
  6
CONTINUOUS
 62
     2
100
AcDbTrace
 10
1237.029267300217
 20
3495.494614745004
 30
0.0
 11
1307.029267300217
 21
3462.129563357343
 31
0.0
 12
1342.029267300217
 22
3462.129563357343
 32
0.0
 13
1342.029267300217
 23
3462.129563357343
 33
0.0
  0
SOLID
  5
566
330
561
100
AcDbEntity
  8
HATCH
  6
CONTINUOUS
 62
     2
100
AcDbTrace
 10
1237.029267300217
 20
3495.494614745004
 30
0.0
 11
1237.029267300217
 21
3462.129563357343
 31
0.0
 12
1307.029267300217
 22
3462.129563357343
 32
0.0
 13
1307.029267300217
 23
3462.129563357343
 33
0.0
210
0.0
220
0.0
230
1.0
  0
SOLID
  5
567
330
561
100
AcDbEntity
  8
HATCH
  6
CONTINUOUS
 62
     2
100
AcDbTrace
 10
1500.115716376718
 20
3495.494614745004
 30
0.0
 11
1237.029267300217
 21
3495.494614745004
 31
0.0
 12
1500.115716376718
 22
3462.129563357343
 32
0.0
 13
1500.115716376718
 23
3462.129563357343
 33
0.0
210
0.0
220
0.0
230
1.0
  0
ENDBLK
  5
569
330
561
100
AcDbEntity
  8
0
100
AcDbBlockEnd
  0
BLOCK
  5
56F
330
56A
100
AcDbEntity
  8
0
100
AcDbBlockBegin
  2
*U14
 70
     1
 10
0.0
 20
0.0
 30
0.0
  3
*U14
  1

  0
SOLID
  5
56B
330
56A
100
AcDbEntity
  8
HATCH
  6
CONTINUOUS
 62
     2
100
AcDbTrace
 10
1324.529267300216
 20
2810.193689003791
 30
0.0
 11
1336.979166898205
 21
2815.193689003791
 31
0.0
 12
1324.529267300217
 22
2815.193689003791
 32
0.0
 13
1324.529267300217
 23
2815.193689003791
 33
0.0
210
0.0
220
0.0
230
1.0
  0
SOLID
  5
56C
330
56A
100
AcDbEntity
  8
HATCH
  6
CONTINUOUS
 62
     2
100
AcDbTrace
 10
1324.529267300216
 20
2810.193689003791
 30
0.0
 11
1324.529267300217
 21
2815.193689003791
 31
0.0
 12
1312.079367702228
 22
2815.193689003791
 32
0.0
 13
1312.079367702228
 23
2815.193689003791
 33
0.0
210
0.0
220
0.0
230
1.0
  0
SOLID
  5
56D
330
56A
100
AcDbEntity
  8
HATCH
  6
CONTINUOUS
 62
     2
100
AcDbTrace
 10
1394.529267300217
 20
2810.19368900379
 30
0.0
 11
1406.979166898205
 21
2815.193689003791
 31
0.0
 12
1382.079367702228
 22
2815.193689003791
 32
0.0
 13
1382.079367702228
 23
2815.193689003791
 33
0.0
210
0.0
220
0.0
230
1.0
  0
SOLID
  5
56E
330
56A
100
AcDbEntity
  8
HATCH
  6
CONTINUOUS
 62
     2
100
AcDbTrace
 10
1459.197491838467
 20
2810.19368900379
 30
0.0
 11
1471.647391436455
 21
2815.193689003791
 31
0.0
 12
1446.747592240478
 22
2815.193689003791
 32
0.0
 13
1446.747592240478
 23
2815.193689003791
 33
0.0
210
0.0
220
0.0
230
1.0
  0
ENDBLK
  5
570
330
56A
100
AcDbEntity
  8
0
100
AcDbBlockEnd
  0
ENDSEC
  0
SECTION
  2
ENTITIES
  0
INSERT
  5
463
330
1F
100
AcDbEntity
  8
HATCH
100
AcDbBlockReference
  2
ADKC1
 10
0.0
 20
0.0
 30
0.0
  0
ENDSEC
  0
SECTION
  2
OBJECTS
  0
DICTIONARY
  5
C
330
0
100
AcDbDictionary
  3
ACAD_GROUP
350
D
  3
ACAD_LAYOUT
350
1A
  3
ACAD_MLINESTYLE
350
17
  3
ACAD_PLOTSETTINGS
350
19
1001
ACAD
1000
TREAT_AS_HARD
1070
     0
1000
TREAT_AS_HARD
1070
     0
  0
DICTIONARY
  5
150
330
1F
100
AcDbDictionary
  3
ACAD_LAYOUTSELFREF
350
465
  3
ACAD_SORTENTS
350
360
1001
ACAD
1000
TREAT_AS_HARD
1070
     1
1000
TREAT_AS_HARD
1070
     0
  0
DICTIONARY
  5
152
330
50
100
AcDbDictionary
  3
ACAD_LAYOUTSELFREF
350
466
1001
ACAD
1000
TREAT_AS_HARD
1070
     1
1000
TREAT_AS_HARD
1070
     0
  0
DICTIONARY
  5
D
102
{ACAD_REACTORS
330
C
102
}
330
C
100
AcDbDictionary
1001
ACAD
1000
TREAT_AS_HARD
1070
     0
1000
TREAT_AS_HARD
1070
     0
  0
DICTIONARY
  5
1A
102
{ACAD_REACTORS
330
C
102
}
330
C
100
AcDbDictionary
1001
ACAD
1000
TREAT_AS_HARD
1070
     0
1000
TREAT_AS_HARD
1070
     0
  0
DICTIONARY
  5
17
102
{ACAD_REACTORS
330
C
102
}
330
C
100
AcDbDictionary
  3
STANDARD
350
18
1001
ACAD
1000
TREAT_AS_HARD
1070
     0
1000
TREAT_AS_HARD
1070
     0
  0
DICTIONARY
  5
19
102
{ACAD_REACTORS
330
C
102
}
330
C
100
AcDbDictionary
1001
ACAD
1000
TREAT_AS_HARD
1070
     0
1000
TREAT_AS_HARD
1070
     0
  0
XRECORD
  5
465
102
{ACAD_REACTORS
330
150
102
}
330
150
100
AcDbXrecord
340
1F
  0
SORTENTSTABLE
  5
360
102
{ACAD_REACTORS
330
150
102
}
330
150
100
AcDbSortentsTable
330
1F
331
288
  5
293
331
277
  5
282
331
255
  5
260
331
266
  5
271
331
244
  5
24F
331
237
  5
242
331
275
  5
280
331
253
  5
25E
331
242
  5
24D
331
235
  5
240
331
3DF
  5
1F7
331
286
  5
291
331
264
  5
26F
331
372
  5
234
331
273
  5
27E
331
251
  5
25C
331
35F
  5
239
331
284
  5
28F
331
262
  5
26D
331
240
  5
24B
331
233
  5
23E
331
3BB
  5
231
331
293
  5
3BB
331
271
  5
27C
331
24F
  5
25A
331
282
  5
28D
331
260
  5
26B
331
23E
  5
249
331
231
  5
23C
331
2DD
  5
235
331
291
  5
394
331
26F
  5
27A
331
24D
  5
258
331
23C
  5
247
331
280
  5
28B
331
25E
  5
269
331
36C
  5
237
331
28F
  5
372
331
26D
  5
278
331
24B
  5
256
331
27E
  5
289
331
25C
  5
267
331
23A
  5
245
331
3E8
  5
3E8
331
28D
  5
366
331
26B
  5
276
331
249
  5
254
331
27C
  5
287
331
25A
  5
265
331
238
  5
243
331
1F7
  5
23A
331
2D7
  5
236
331
3C4
  5
230
331
28B
  5
2DD
331
269
  5
274
331
3A0
  5
3DF
331
258
  5
263
331
366
  5
238
331
27A
  5
285
331
247
  5
252
331
289
  5
294
331
256
  5
261
331
278
  5
283
331
386
  5
233
331
267
  5
272
331
245
  5
250
331
276
  5
281
331
254
  5
25F
331
287
  5
292
331
265
  5
270
331
243
  5
24E
331
236
  5
241
331
274
  5
27F
331
252
  5
25D
331
285
  5
290
331
263
  5
26E
331
241
  5
24C
331
234
  5
23F
331
294
  5
3C4
331
272
  5
27D
331
250
  5
25B
331
283
  5
28E
331
261
  5
26C
331
23F
  5
24A
331
232
  5
23D
331
292
  5
3A0
331
270
  5
27B
331
24E
  5
259
331
281
  5
28C
331
25F
  5
26A
331
23D
  5
248
331
230
  5
23B
331
24C
  5
257
331
290
  5
386
331
26E
  5
279
331
394
  5
232
331
27F
  5
28A
331
25D
  5
268
331
23B
  5
246
331
28E
  5
36C
331
26C
  5
277
331
24A
  5
255
331
27D
  5
288
331
25B
  5
266
331
239
  5
244
331
28C
  5
35F
331
26A
  5
275
331
248
  5
253
331
27B
  5
286
331
259
  5
264
331
28A
  5
2D7
331
268
  5
273
331
279
  5
284
331
257
  5
262
331
246
  5
251
  0
XRECORD
  5
466
102
{ACAD_REACTORS
330
152
102
}
330
152
100
AcDbXrecord
340
50
  0
MLINESTYLE
  5
18
102
{ACAD_REACTORS
330
17
102
}
330
17
100
AcDbMlineStyle
  2
STANDARD
 70
     0
  3

 62
   256
 51
90.0
 52
90.0
 71
     2
 49
0.5
 62
   256
  6
BYLAYER
 49
-0.5
 62
   256
  6
BYLAYER
  0
ENDSEC
  0
EOF
