  0
SECTION
  2
HEADER
  9
$ACADVER
  1
AC1012
  9
$DWGCODEPAGE
  3
ANSI_1252
  9
$INSBASE
 10
0.0
 20
0.0
 30
0.0
  9
$EXTMIN
 10
0.0000029251532396
 20
0.0000019481162781
 30
0.0
  9
$EXTMAX
 10
4847.520864331954
 20
4847.520863354917
 30
0.0
  9
$LIMMIN
 10
0.0
 20
0.0
  9
$LIMMAX
 10
420.0
 20
297.0
  9
$ORTHOMODE
 70
     0
  9
$REGENMODE
 70
     1
  9
$FILLMODE
 70
     1
  9
$QTEXTMODE
 70
     0
  9
$MIRRTEXT
 70
     1
  9
$DRAGMODE
 70
     2
  9
$LTSCALE
 40
1.0
  9
$OSMODE
 70
  2559
  9
$ATTMODE
 70
     1
  9
$TEXTSIZE
 40
2.5
  9
$TRACEWID
 40
1.0
  9
$TEXTSTYLE
  7
STANDARD
  9
$CLAYER
  8
HATCH
  9
$CELTYPE
  6
BYLAYER
  9
$CECOLOR
 62
    30
  9
$CELTSCALE
 40
1.0
  9
$DELOBJ
 70
     1
  9
$DISPSILH
 70
     0
  9
$DIMSCALE
 40
1.0
  9
$DIMASZ
 40
2.5
  9
$DIMEXO
 40
0.625
  9
$DIMDLI
 40
3.75
  9
$DIMRND
 40
0.0
  9
$DIMDLE
 40
0.0
  9
$DIMEXE
 40
1.25
  9
$DIMTP
 40
0.0
  9
$DIMTM
 40
0.0
  9
$DIMTXT
 40
2.5
  9
$DIMCEN
 40
2.5
  9
$DIMTSZ
 40
0.0
  9
$DIMTOL
 70
     0
  9
$DIMLIM
 70
     0
  9
$DIMTIH
 70
     0
  9
$DIMTOH
 70
     0
  9
$DIMSE1
 70
     0
  9
$DIMSE2
 70
     0
  9
$DIMTAD
 70
     1
  9
$DIMZIN
 70
     8
  9
$DIMBLK
  1

  9
$DIMASO
 70
     1
  9
$DIMSHO
 70
     1
  9
$DIMPOST
  1

  9
$DIMAPOST
  1

  9
$DIMALT
 70
     0
  9
$DIMALTD
 70
     3
  9
$DIMALTF
 40
0.03937007874016
  9
$DIMLFAC
 40
1.0
  9
$DIMTOFL
 70
     1
  9
$DIMTVP
 40
0.0
  9
$DIMTIX
 70
     0
  9
$DIMSOXD
 70
     0
  9
$DIMSAH
 70
     0
  9
$DIMBLK1
  1

  9
$DIMBLK2
  1

  9
$DIMSTYLE
  2
ISO-25
  9
$DIMCLRD
 70
     0
  9
$DIMCLRE
 70
     0
  9
$DIMCLRT
 70
     0
  9
$DIMTFAC
 40
1.0
  9
$DIMGAP
 40
0.625
  9
$DIMJUST
 70
     0
  9
$DIMSD1
 70
     0
  9
$DIMSD2
 70
     0
  9
$DIMTOLJ
 70
     0
  9
$DIMTZIN
 70
     8
  9
$DIMALTZ
 70
     0
  9
$DIMALTTZ
 70
     0
  9
$DIMFIT
 70
     3
  9
$DIMUPT
 70
     0
  9
$DIMUNIT
 70
     2
  9
$DIMDEC
 70
     2
  9
$DIMTDEC
 70
     2
  9
$DIMALTU
 70
     2
  9
$DIMALTTD
 70
     3
  9
$DIMTXSTY
  7
STANDARD
  9
$DIMAUNIT
 70
     0
  9
$LUNITS
 70
     2
  9
$LUPREC
 70
     4
  9
$SKETCHINC
 40
1.0
  9
$FILLETRAD
 40
100.0
  9
$AUNITS
 70
     0
  9
$AUPREC
 70
     0
  9
$MENU
  1
.
  9
$ELEVATION
 40
0.0
  9
$PELEVATION
 40
0.0
  9
$THICKNESS
 40
0.0
  9
$LIMCHECK
 70
     0
  9
$BLIPMODE
 70
     0
  9
$CHAMFERA
 40
10.0
  9
$CHAMFERB
 40
10.0
  9
$CHAMFERC
 40
20.0
  9
$CHAMFERD
 40
0.0
  9
$SKPOLY
 70
     0
  9
$TDCREATE
 40
2452626.554848495
  9
$TDUPDATE
 40
2452773.589908680
  9
$TDINDWG
 40
0.0170898148
  9
$TDUSRTIMER
 40
0.0170898148
  9
$USRTIMER
 70
     1
  9
$ANGBASE
 50
0.0
  9
$ANGDIR
 70
     0
  9
$PDMODE
 70
     0
  9
$PDSIZE
 40
0.0
  9
$PLINEWID
 40
0.0
  9
$COORDS
 70
     2
  9
$SPLFRAME
 70
     0
  9
$SPLINETYPE
 70
     6
  9
$SPLINESEGS
 70
     8
  9
$ATTDIA
 70
     0
  9
$ATTREQ
 70
     1
  9
$HANDLING
 70
-16383
  9
$HANDSEED
  5
21A
  9
$SURFTAB1
 70
     6
  9
$SURFTAB2
 70
     6
  9
$SURFTYPE
 70
     6
  9
$SURFU
 70
     6
  9
$SURFV
 70
     6
  9
$UCSNAME
  2

  9
$UCSORG
 10
0.0
 20
0.0
 30
0.0
  9
$UCSXDIR
 10
1.0
 20
0.0
 30
0.0
  9
$UCSYDIR
 10
0.0
 20
1.0
 30
0.0
  9
$PUCSNAME
  2

  9
$PUCSORG
 10
0.0
 20
0.0
 30
0.0
  9
$PUCSXDIR
 10
1.0
 20
0.0
 30
0.0
  9
$PUCSYDIR
 10
0.0
 20
1.0
 30
0.0
  9
$USERI1
 70
     0
  9
$USERI2
 70
     0
  9
$USERI3
 70
     0
  9
$USERI4
 70
     0
  9
$USERI5
 70
     0
  9
$USERR1
 40
0.0
  9
$USERR2
 40
0.0
  9
$USERR3
 40
0.0
  9
$USERR4
 40
0.0
  9
$USERR5
 40
0.0
  9
$WORLDVIEW
 70
     1
  9
$SHADEDGE
 70
     3
  9
$SHADEDIF
 70
    70
  9
$TILEMODE
 70
     1
  9
$MAXACTVP
 70
    64
  9
$PINSBASE
 10
0.0
 20
0.0
 30
0.0
  9
$PLIMCHECK
 70
     0
  9
$PEXTMIN
 10
0.0
 20
0.0
 30
0.0
  9
$PEXTMAX
 10
0.0
 20
0.0
 30
0.0
  9
$PLIMMIN
 10
0.0
 20
0.0
  9
$PLIMMAX
 10
12.0
 20
9.0
  9
$UNITMODE
 70
     0
  9
$VISRETAIN
 70
     1
  9
$PLINEGEN
 70
     0
  9
$PSLTSCALE
 70
     1
  9
$TREEDEPTH
 70
  3020
  9
$PICKSTYLE
 70
     1
  9
$CMLSTYLE
  2
STANDARD
  9
$CMLJUST
 70
     0
  9
$CMLSCALE
 40
20.0
  9
$SAVEIMAGES
 70
     1
  0
ENDSEC
  0
SECTION
  2
CLASSES
  0
CLASS
  1
ACDBDICTIONARYWDFLT
  2
AcDbDictionaryWithDefault
  3
AutoCAD 2000
 90
    32768
280
     0
281
     0
  0
CLASS
  1
ACDBPLACEHOLDER
  2
AcDbPlaceHolder
  3
AutoCAD 2000
 90
    32768
280
     0
281
     0
  0
CLASS
  1
LAYOUT
  2
AcDbLayout
  3
AutoCAD 2000
 90
    32768
280
     0
281
     0
  0
CLASS
  1
LONG_TRANSACTION
  2
AcDbLongTransaction
  3
AutoCAD 2000
 90
    32768
280
     0
281
     0
  0
CLASS
  1
LWPOLYLINE
  2
AcDbPolyline
  3
AutoCAD 2000
 90
    32768
280
     0
281
     1
  0
CLASS
  1
HATCH
  2
AcDbHatch
  3
AutoCAD 2000
 90
    32768
280
     0
281
     1
  0
CLASS
  1
XRECORD
  2
AcDbXrecord
  3
AutoCAD 2000
 90
    32768
280
     0
281
     0
  0
CLASS
  1
LONG_TRANSACTION
  2
AcDbLongTransaction
  3
AutoCAD 2000
 90
    32768
280
     0
281
     0
  0
CLASS
  1
LWPOLYLINE
  2
AcDbPolyline
  3
AutoCAD 2000
 90
    32768
280
     0
281
     1
  0
CLASS
  1
HATCH
  2
AcDbHatch
  3
AutoCAD 2000
 90
    32768
280
     0
281
     1
  0
CLASS
  1
XRECORD
  2
AcDbXrecord
  3
AutoCAD 2000
 90
    32768
280
     0
281
     0
  0
CLASS
  1
LONG_TRANSACTION
  2
AcDbLongTransaction
  3
AutoCAD 2000
 90
    32768
280
     0
281
     0
  0
CLASS
  1
LWPOLYLINE
  2
AcDbPolyline
  3
AutoCAD 2000
 90
    32768
280
     0
281
     1
  0
CLASS
  1
HATCH
  2
AcDbHatch
  3
AutoCAD 2000
 90
    32768
280
     0
281
     1
  0
CLASS
  1
XRECORD
  2
AcDbXrecord
  3
AutoCAD 2000
 90
    32768
280
     0
281
     0
  0
CLASS
  1
DICTIONARYVAR
  2
AcDbDictionaryVar
  3
AutoCAD 2000
 90
    32768
280
     0
281
     0
  0
CLASS
  1
LONG_TRANSACTION
  2
AcDbLongTransaction
  3
AutoCAD 2000
 90
    32768
280
     0
281
     0
  0
CLASS
  1
LWPOLYLINE
  2
AcDbPolyline
  3
AutoCAD 2000
 90
    32768
280
     0
281
     1
  0
CLASS
  1
HATCH
  2
AcDbHatch
  3
AutoCAD 2000
 90
    32768
280
     0
281
     1
  0
CLASS
  1
XRECORD
  2
AcDbXrecord
  3
AutoCAD 2000
 90
    32768
280
     0
281
     0
  0
CLASS
  1
SORTENTSTABLE
  2
AcDbSortentsTable
  3
AutoCAD 2000
 90
    32768
280
     0
281
     0
  0
CLASS
  1
LONG_TRANSACTION
  2
AcDbLongTransaction
  3
AutoCAD 2000
 90
    32768
280
     0
281
     0
  0
CLASS
  1
LWPOLYLINE
  2
AcDbPolyline
  3
AutoCAD 2000
 90
    32768
280
     0
281
     1
  0
CLASS
  1
HATCH
  2
AcDbHatch
  3
AutoCAD 2000
 90
    32768
280
     0
281
     1
  0
CLASS
  1
XRECORD
  2
AcDbXrecord
  3
AutoCAD 2000
 90
    32768
280
     0
281
     0
  0
ENDSEC
  0
SECTION
  2
TABLES
  0
TABLE
  2
VPORT
  5
8
330
0
100
AcDbSymbolTable
 70
     2
  0
VPORT
  5
1FB
330
8
100
AcDbSymbolTableRecord
100
AcDbViewportTableRecord
  2
*ACTIVE
 70
     0
 10
0.0
 20
0.0
 11
1.0
 21
1.0
 12
5025.285832509606
 22
2184.855892270916
 13
0.0
 23
0.0
 14
10.0
 24
10.0
 15
10.0
 25
10.0
 16
0.0
 26
0.0
 36
1.0
 17
0.0
 27
0.0
 37
0.0
 40
8759.197230687055
 41
1.81453154875717
 42
50.0
 43
0.0
 44
0.0
 50
0.0
 51
0.0
 71
     0
 72
   100
 73
     1
 74
     3
 75
     0
 76
     0
 77
     0
 78
     0
  0
ENDTAB
  0
TABLE
  2
LTYPE
  5
5
330
0
100
AcDbSymbolTable
 70
     1
  0
LTYPE
  5
14
330
5
100
AcDbSymbolTableRecord
100
AcDbLinetypeTableRecord
  2
BYBLOCK
 70
     0
  3

 72
    65
 73
     0
 40
0.0
  0
LTYPE
  5
15
330
5
100
AcDbSymbolTableRecord
100
AcDbLinetypeTableRecord
  2
BYLAYER
 70
     0
  3

 72
    65
 73
     0
 40
0.0
  0
LTYPE
  5
16
330
5
100
AcDbSymbolTableRecord
100
AcDbLinetypeTableRecord
  2
CONTINUOUS
 70
     0
  3
Solid line
 72
    65
 73
     0
 40
0.0
  0
ENDTAB
  0
TABLE
  2
LAYER
  5
2
330
0
100
AcDbSymbolTable
 70
     5
  0
LAYER
  5
10
330
2
100
AcDbSymbolTableRecord
100
AcDbLayerTableRecord
  2
0
 70
     0
 62
     7
  6
CONTINUOUS
  0
LAYER
  5
5D
330
2
100
AcDbSymbolTableRecord
100
AcDbLayerTableRecord
  2
OBJECT
 70
     0
 62
     7
  6
CONTINUOUS
  0
LAYER
  5
5E
330
2
100
AcDbSymbolTableRecord
100
AcDbLayerTableRecord
  2
SAFETY
 70
     0
 62
     7
  6
CONTINUOUS
  0
LAYER
  5
F9
330
2
100
AcDbSymbolTableRecord
100
AcDbLayerTableRecord
  2
TEKST
 70
     0
 62
     7
  6
CONTINUOUS
  0
LAYER
  5
128
330
2
100
AcDbSymbolTableRecord
100
AcDbLayerTableRecord
  2
HATCH
 70
     0
 62
     7
  6
CONTINUOUS
  0
ENDTAB
  0
TABLE
  2
STYLE
  5
3
330
0
100
AcDbSymbolTable
 70
     1
  0
STYLE
  5
11
330
3
100
AcDbSymbolTableRecord
100
AcDbTextStyleTableRecord
  2
STANDARD
 70
     0
 40
0.0
 41
1.0
 50
0.0
 71
     0
 42
2.5
  3
txt
  4

  0
ENDTAB
  0
TABLE
  2
VIEW
  5
6
330
0
100
AcDbSymbolTable
 70
     0
  0
ENDTAB
  0
TABLE
  2
UCS
  5
7
330
0
100
AcDbSymbolTable
 70
     0
  0
ENDTAB
  0
TABLE
  2
APPID
  5
9
330
0
100
AcDbSymbolTable
 70
     2
  0
APPID
  5
12
330
9
100
AcDbSymbolTableRecord
100
AcDbRegAppTableRecord
  2
ACAD
 70
     0
  0
APPID
  5
F2
330
9
100
AcDbSymbolTableRecord
100
AcDbRegAppTableRecord
  2
CONTENTBLOCKICON
 70
     0
  0
ENDTAB
  0
TABLE
  2
DIMSTYLE
  5
A
330
0
100
AcDbSymbolTable
 70
     1
  0
DIMSTYLE
105
27
330
A
100
AcDbSymbolTableRecord
100
AcDbDimStyleTableRecord
  2
ISO-25
 70
     0
  3

  4

  5

  6

  7

 40
1.0
 41
2.5
 42
0.625
 43
3.75
 44
1.25
 45
0.0
 46
0.0
 47
0.0
 48
0.0
140
2.5
141
2.5
142
0.0
143
0.03937007874016
144
1.0
145
0.0
146
1.0
147
0.625
 71
     0
 72
     0
 73
     0
 74
     0
 75
     0
 76
     0
 77
     1
 78
     8
170
     0
171
     3
172
     1
173
     0
174
     0
175
     0
176
     0
177
     0
178
     0
270
     2
271
     2
272
     2
273
     2
274
     3
340
11
275
     0
280
     0
281
     0
282
     0
283
     0
284
     8
285
     0
286
     0
287
     3
288
     0
  0
ENDTAB
  0
TABLE
  2
BLOCK_RECORD
  5
1
330
0
100
AcDbSymbolTable
 70
     5
  0
BLOCK_RECORD
  5
1F
102
{ACAD_XDICTIONARY
360
AB
102
}
330
1
100
AcDbSymbolTableRecord
100
AcDbBlockTableRecord
  2
*MODEL_SPACE
  0
BLOCK_RECORD
  5
50
102
{ACAD_XDICTIONARY
360
AD
102
}
330
1
100
AcDbSymbolTableRecord
100
AcDbBlockTableRecord
  2
*PAPER_SPACE
  0
BLOCK_RECORD
  5
B7
330
1
100
AcDbSymbolTableRecord
100
AcDbBlockTableRecord
  2
ADKN
1001
ACAD
1000
DesignCenter Data
1002
{
1070
     1
1070
     4
1002
}
1001
CONTENTBLOCKICON
1071
        0
1004
28000000200000002000000001000800000000000004000000000000000000000000000000000000000000004000000080000000FF000000002000004020000080200000FF200000004000004040000080400000FF400000006000004060000080600000FF600000008000004080000080800000FF80000000A0000040A000
1004
0080A00000FFA0000000C0000040C0000080C00000FFC0000000FF000040FF000080FF0000FFFF0000000020004000200080002000FF002000002020004020200080202000FF202000004020004040200080402000FF402000006020004060200080602000FF602000008020004080200080802000FF80200000A0200040A0
1004
200080A02000FFA0200000C0200040C0200080C02000FFC0200000FF200040FF200080FF2000FFFF2000000040004000400080004000FF004000002040004020400080204000FF204000004040004040400080404000FF404000006040004060400080604000FF604000008040004080400080804000FF80400000A0400040
1004
A0400080A04000FFA0400000C0400040C0400080C04000FFC0400000FF400040FF400080FF4000FFFF4000000060004000600080006000FF006000002060004020600080206000FF206000004060004040600080406000FF406000006060004060600080606000FF606000008060004080600080806000FF80600000A06000
1004
40A0600080A06000FFA0600000C0600040C0600080C06000FFC0600000FF600040FF600080FF6000FFFF6000000080004000800080008000FF008000002080004020800080208000FF208000004080004040800080408000FF408000006080004060800080608000FF608000008080004080800080808000FF80800000A080
1004
0040A0800080A08000FFA0800000C0800040C0800080C08000FFC0800000FF800040FF800080FF8000FFFF80000000A0004000A0008000A000FF00A0000020A0004020A0008020A000FF20A0000040A0004040A0008040A000FF40A0000060A0004060A0008060A000FF60A0000080A0004080A0008080A000FF80A00000A0
1004
A00040A0A00080A0A000FFA0A00000C0A00040C0A00080C0A000FFC0A00000FFA00040FFA00080FFA000FFFFA0000000C0004000C0008000C000FF00C0000020C0004020C0008020C000FF20C0000040C0004040C0008040C000FF40C0000060C0004060C0008060C000FF60C0000080C0004080C0008080C000FF80C00000
1004
A0C00040A0C00080A0C000FFA0C00000C0C00040C0C00080C0C000FFC0C00000FFC00040FFC00080FFC000FFFFC0000000FF004000FF008000FF00FF00FF000020FF004020FF008020FF00FF20FF000040FF004040FF008040FF00FF40FF000060FF004060FF008060FF00FF60FF000080FF004080FF008080FF00FF80FF00
1004
00A0FF0040A0FF0080A0FF00FFA0FF0000C0FF0040C0FF0080C0FF00FFC0FF0000FFFF0040FFFF0080FFFF00FFFFFF0000000000000000000000000000000000000000000000000000000000000000000000000000000000000000000000FFFFFF0000000000000000000000000000000000000000000000000000FFFFFF00
1004
0000FFFFFFFF0000000000000000000000000000000000000000FFFF00000000000000000000FFFFFF000000000000000000000000000000FFFF000000000000000000000000000000FF00000000000000000000000000FF000000000000000000000000000000000000FF0000000000000000000000FF0000000000000000
1004
000000000000000000000000FF00000000000000000000FF000000000000000000000000000000000000000000FF0000000000000000FF0000000000000000000000000000000000000000000000FF000000000000FF000000000000000000000000000000000000000000000000FF000000000000FF000000000000000000
1004
00000000000000000000000000000000FF00000000FF0000000000000000000000000000000000000000000000000000FF00000000FF0000000000000000000000000000000000000000000000000000FF00000000FF0000000000000000FFFFFFFFFFFFFFFFFFFF0000000000000000FF00000000FF000000000000000000
1004
FFFFFFFFFFFFFFFF000000000000000000FF000000FF00000000000000000000FFFFFF00FFFF00FF00000000000000000000FF0000FF0000000000000000000000FFFFFF00FFFF0000000000000000000000FF000000FF00000000000000000000FFFFFFFF00FF00000000000000000000FF00000000FF0000000000000000
1004
000000FFFFFFFF0000000000000000000000FF00000000FF0000000000000000000000FFFFFF000000000000000000000000FF00000000FF000000000000000000000000FFFF000000000000000000000000FF0000000000FF0000000000000000000000FF00000000000000000000000000FF0000000000FF000000000000
1004
000000000000000000000000000000000000FF00000000000000FF0000000000000000000000000000000000000000000000FF0000000000000000FF000000000000000000000000000000000000000000FF000000000000000000FF0000000000000000000000000000000000000000FF0000000000000000000000FF0000
1004
00000000000000000000000000000000FF00000000000000000000000000FF00000000000000000000000000000000FF000000000000000000000000000000FFFF0000000000000000000000FFFFFF000000000000000000000000000000000000FFFFFF0000000000FFFFFF00000000000000000000000000000000000000
1004
0000000000FFFFFFFFFF00000000000000000000000000000000000000000000000000000000000000000000000000000000000000000000
  0
BLOCK_RECORD
  5
171
330
1
100
AcDbSymbolTableRecord
100
AcDbBlockTableRecord
  2
*U1
  0
BLOCK_RECORD
  5
18A
330
1
100
AcDbSymbolTableRecord
100
AcDbBlockTableRecord
  2
*U2
  0
BLOCK_RECORD
  5
1DD
330
1
100
AcDbSymbolTableRecord
100
AcDbBlockTableRecord
  2
ACKH
1001
CONTENTBLOCKICON
1071
        0
1004
28000000200000002000000001000800000000000004000000000000000000000000000000000000000000004000000080000000FF000000002000004020000080200000FF200000004000004040000080400000FF400000006000004060000080600000FF600000008000004080000080800000FF80000000A0000040A000
1004
0080A00000FFA0000000C0000040C0000080C00000FFC0000000FF000040FF000080FF0000FFFF0000000020004000200080002000FF002000002020004020200080202000FF202000004020004040200080402000FF402000006020004060200080602000FF602000008020004080200080802000FF80200000A0200040A0
1004
200080A02000FFA0200000C0200040C0200080C02000FFC0200000FF200040FF200080FF2000FFFF2000000040004000400080004000FF004000002040004020400080204000FF204000004040004040400080404000FF404000006040004060400080604000FF604000008040004080400080804000FF80400000A0400040
1004
A0400080A04000FFA0400000C0400040C0400080C04000FFC0400000FF400040FF400080FF4000FFFF4000000060004000600080006000FF006000002060004020600080206000FF206000004060004040600080406000FF406000006060004060600080606000FF606000008060004080600080806000FF80600000A06000
1004
40A0600080A06000FFA0600000C0600040C0600080C06000FFC0600000FF600040FF600080FF6000FFFF6000000080004000800080008000FF008000002080004020800080208000FF208000004080004040800080408000FF408000006080004060800080608000FF608000008080004080800080808000FF80800000A080
1004
0040A0800080A08000FFA0800000C0800040C0800080C08000FFC0800000FF800040FF800080FF8000FFFF80000000A0004000A0008000A000FF00A0000020A0004020A0008020A000FF20A0000040A0004040A0008040A000FF40A0000060A0004060A0008060A000FF60A0000080A0004080A0008080A000FF80A00000A0
1004
A00040A0A00080A0A000FFA0A00000C0A00040C0A00080C0A000FFC0A00000FFA00040FFA00080FFA000FFFFA0000000C0004000C0008000C000FF00C0000020C0004020C0008020C000FF20C0000040C0004040C0008040C000FF40C0000060C0004060C0008060C000FF60C0000080C0004080C0008080C000FF80C00000
1004
A0C00040A0C00080A0C000FFA0C00000C0C00040C0C00080C0C000FFC0C00000FFC00040FFC00080FFC000FFFFC0000000FF004000FF008000FF00FF00FF000020FF004020FF008020FF00FF20FF000040FF004040FF008040FF00FF40FF000060FF004060FF008060FF00FF60FF000080FF004080FF008080FF00FF80FF00
1004
00A0FF0040A0FF0080A0FF00FFA0FF0000C0FF0040C0FF0080C0FF00FFC0FF0000FFFF0040FFFF0080FFFF00FFFFFF0000000000000000000000000000000000000000000000000000000000000000000000000000000000000000000000FFFFFF0000000000000000000000000000000000000000000000000000FFFFFF00
1004
0000FFFFFFFF0000000000000000000000000000000000000000FFFF00000000000000000000FFFFFF000000000000000000000000000000FFFF000000000000000000000000000000FF00000000000000000000000000FF000000000000000000000000000000000000FF0000000000000000000000FF0000000000000000
1004
000000000000000000000000FF00000000000000000000FF000000000000000000000000000000000000000000FF0000000000000000FF0000000000000000000000000000000000000000000000FF000000000000FF000000000000000000000000000000000000000000000000FF000000000000FF000000000000000000
1004
00000000000000000000000000000000FF00000000FF0000000000000000000000000000000000000000000000000000FF00000000FF0000000000000000000000000000000000000000000000000000FF00000000FF0000000000000000030303030303030303030000000000000000FF00000000FF000000000000000000
1004
03ECECECECECEC03000000000000000000FF000000FF0000000000000000000003ECEC00ECEC000300000000000000000000FF0000FF000000000000000000000003ECEC00EC030000000000000000000000FF000000FF0000000000000000000003ECECEC030300000000000000000000FF00000000FF0000000000000000
1004
00000003EC03030000000000000000000000FF00000000FF000000000000000000000003EC03EC0000000000000000000000FF00000000FF0000000000000000000000000303000000000000000000000000FF0000000000FF00000000000000000000000300000000000000000000000000FF0000000000FF000000000000
1004
000000000000000000000000000000000000FF00000000000000FF0000000000000000FFFFFFFFFFFF000000000000000000FF0000000000000000FF00000000000000FFFFFFFFFFFF0000000000000000FF000000000000000000FF0000000000000000000000000000000000000000FF0000000000000000000000FF0000
1004
00000000000000000000000000000000FF00000000000000000000000000FF00000000000000000000000000000000FF000000000000000000000000000000FFFF0000000000000000000000FFFFFF000000000000000000000000000000000000FFFFFF0000000000FFFFFF00000000000000000000000000000000000000
1004
0000000000FFFFFFFFFF00000000000000000000000000000000000000000000000000000000000000000000000000000000000000000000
  0
BLOCK_RECORD
  5
200
330
1
100
AcDbSymbolTableRecord
100
AcDbBlockTableRecord
  2
*U4
  0
ENDTAB
  0
ENDSEC
  0
SECTION
  2
BLOCKS
  0
BLOCK
  5
20
330
1F
100
AcDbEntity
  8
0
100
AcDbBlockBegin
  2
*MODEL_SPACE
 70
     0
 10
0.0
 20
0.0
 30
0.0
  3
*MODEL_SPACE
  1

  0
ENDBLK
  5
21
330
1F
100
AcDbEntity
  8
0
100
AcDbBlockEnd
  0
BLOCK
  5
52
330
50
100
AcDbEntity
 67
     1
  8
0
100
AcDbBlockBegin
  2
*PAPER_SPACE
 70
     0
 10
0.0
 20
0.0
 30
0.0
  3
*PAPER_SPACE
  1

  0
ENDBLK
  5
53
330
50
100
AcDbEntity
 67
     1
  8
0
100
AcDbBlockEnd
  0
BLOCK
  5
B8
330
B7
100
AcDbEntity
  8
0
100
AcDbBlockBegin
  2
ADKN
 70
     0
 10
0.0
 20
0.0
 30
0.0
  3
ADKN
  1

  0
CIRCLE
  5
BA
330
B7
100
AcDbEntity
  8
SAFETY
100
AcDbCircle
 10
2423.760433628554
 20
2423.760432651517
 30
0.0
 40
2423.760430703401
  0
LINE
  5
BB
330
B7
100
AcDbEntity
  8
OBJECT
100
AcDbLine
 10
1623.760433628555
 20
1961.880217299816
 30
0.0
 11
3223.760433628555
 21
1961.880217299816
 31
0.0
  0
LINE
  5
BC
330
B7
100
AcDbEntity
  8
OBJECT
100
AcDbLine
 10
3223.760433628555
 20
1961.880217299816
 30
0.0
 11
2423.760433628554
 21
3347.520863354918
 31
0.0
  0
LINE
  5
BD
330
B7
100
AcDbEntity
  8
OBJECT
100
AcDbLine
 10
2193.760433628554
 20
1980.880217299816
 30
0.0
 11
2653.757136553462
 21
1980.880217299816
 31
0.0
  0
LINE
  5
BE
330
B7
100
AcDbEntity
  8
OBJECT
100
AcDbLine
 10
2423.760433628554
 20
2947.417126806508
 30
0.0
 11
2877.260433628554
 21
2161.932085574022
 31
0.0
  0
LINE
  5
BF
330
B7
100
AcDbEntity
  8
OBJECT
100
AcDbLine
 10
1970.260433628554
 20
2161.932085574022
 30
0.0
 11
2877.260433628554
 21
2161.932085574022
 31
0.0
  0
LINE
  5
C0
330
B7
100
AcDbEntity
  8
OBJECT
100
AcDbLine
 10
3223.760433628555
 20
1961.880217299816
 30
0.0
 11
2423.760433628554
 21
2423.760432651517
 31
0.0
  0
LINE
  5
C1
330
B7
100
AcDbEntity
  8
OBJECT
100
AcDbLine
 10
2423.760433628554
 20
1961.880217299816
 30
0.0
 11
2673.760433628554
 21
1961.880217299816
 31
0.0
  0
ARC
  5
C2
330
B7
100
AcDbEntity
  8
OBJECT
100
AcDbCircle
 10
2422.115310852723
 20
1509.876450042914
 30
0.0
 40
613.1941462836177
100
AcDbArc
 50
72.81291596807363
 51
106.8029681872735
  0
LINE
  5
C3
330
B7
100
AcDbEntity
  8
OBJECT
100
AcDbLine
 10
1623.760433628555
 20
1961.880217299816
 30
0.0
 11
2423.760433628554
 21
3347.520863354918
 31
0.0
  0
LINE
  5
C4
330
B7
100
AcDbEntity
  8
OBJECT
100
AcDbLine
 10
1970.260433628554
 20
2161.932085574022
 30
0.0
 11
2423.760433628554
 21
2947.417126806508
 31
0.0
  0
LINE
  5
C5
330
B7
100
AcDbEntity
  8
OBJECT
100
AcDbLine
 10
2423.760433628554
 20
3347.520863354918
 30
0.0
 11
2423.760433628554
 21
2423.760432651517
 31
0.0
  0
LINE
  5
C6
330
B7
100
AcDbEntity
  8
OBJECT
100
AcDbLine
 10
1623.760433628555
 20
1961.880217299816
 30
0.0
 11
2423.760433628554
 21
2423.760432651517
 31
0.0
  0
LINE
  5
C7
330
B7
100
AcDbEntity
  8
OBJECT
100
AcDbLine
 10
1623.760433628555
 20
1961.880217299816
 30
0.0
 11
1656.669398972363
 21
1980.880217299816
 31
0.0
  0
ARC
  5
C8
330
B7
100
AcDbEntity
  8
OBJECT
100
AcDbCircle
 10
2273.760433628555
 20
2001.159527487653
 30
0.0
 40
100.0
100
AcDbArc
 50
106.8029681872735
 51
180.0
  0
ARC
  5
C9
330
B7
100
AcDbEntity
  8
OBJECT
100
AcDbCircle
 10
2193.760433628554
 20
2000.880217299815
 30
0.0
 40
20.0
100
AcDbArc
 50
180.0
 51
270.0
  0
LINE
  5
CA
330
B7
100
AcDbEntity
  8
OBJECT
100
AcDbLine
 10
2173.760433628554
 20
2001.159527487653
 30
0.0
 11
2173.760433628554
 21
2000.880217299815
 31
0.0
  0
ARC
  5
CB
330
B7
100
AcDbEntity
  8
OBJECT
100
AcDbCircle
 10
2573.757136553462
 20
2001.159527487653
 30
0.0
 40
100.0
100
AcDbArc
 50
0.0
 51
73.19703181272629
  0
ARC
  5
CC
330
B7
100
AcDbEntity
  8
OBJECT
100
AcDbCircle
 10
2653.757136553462
 20
2000.880217299815
 30
0.0
 40
20.0
100
AcDbArc
 50
270.0
 51
0.0
  0
ENDBLK
  5
B9
330
B7
100
AcDbEntity
  8
0
100
AcDbBlockEnd
  0
BLOCK
  5
188
330
171
100
AcDbEntity
  8
0
 62
    30
100
AcDbBlockBegin
  2
*U1
 70
     1
 10
0.0
 20
0.0
 30
0.0
  3
*U1
  1

  0
SOLID
  5
172
330
171
100
AcDbEntity
  8
HATCH
  6
CONTINUOUS
 62
     5
100
AcDbTrace
 10
2423.760433628554
 20
3347.520863354918
 30
0.0
 11
2423.760433628553
 21
3247.520863354917
 31
0.0
 12
3223.760433628554
 22
1961.880217299817
 32
0.0
 13
3223.760433628554
 23
1961.880217299817
 33
0.0
  0
SOLID
  5
173
330
171
100
AcDbEntity
  8
HATCH
  6
CONTINUOUS
 62
     5
100
AcDbTrace
 10
3137.15789325011
 20
2011.880217299816
 30
0.0
 11
3223.760433628554
 21
1961.880217299817
 31
0.0
 12
2423.760433628553
 22
3247.520863354917
 32
0.0
 13
2423.760433628553
 23
3247.520863354917
 33
0.0
  0
SOLID
  5
174
330
171
100
AcDbEntity
  8
HATCH
  6
CONTINUOUS
 62
     5
100
AcDbTrace
 10
2423.760433628554
 20
3247.520863354917
 30
0.0
 11
1656.669398972363
 21
1980.880217299816
 31
0.0
 12
1710.362974006999
 22
2011.880217299816
 32
0.0
 13
1710.362974006999
 23
2011.880217299816
 33
0.0
  0
SOLID
  5
175
330
171
100
AcDbEntity
  8
HATCH
  6
CONTINUOUS
 62
     5
100
AcDbTrace
 10
2423.760433628554
 20
3247.520863354917
 30
0.0
 11
1623.760433628555
 21
1961.880217299816
 31
0.0
 12
1656.669398972363
 22
1980.880217299816
 32
0.0
 13
1656.669398972363
 23
1980.880217299816
 33
0.0
  0
SOLID
  5
176
330
171
100
AcDbEntity
  8
HATCH
  6
CONTINUOUS
 62
     5
100
AcDbTrace
 10
2423.760433628554
 20
3347.520863354918
 30
0.0
 11
1623.760433628555
 21
1961.880217299816
 31
0.0
 12
2423.760433628554
 22
3247.520863354917
 32
0.0
 13
2423.760433628554
 23
3247.520863354917
 33
0.0
  0
SOLID
  5
177
330
171
100
AcDbEntity
  8
HATCH
  6
CONTINUOUS
 62
     5
100
AcDbTrace
 10
2653.757136553462
 20
1980.880217299816
 30
0.0
 11
1623.760433628555
 21
1961.880217299816
 31
0.0
 12
3223.760433628555
 22
1961.880217299816
 32
0.0
 13
3223.760433628555
 23
1961.880217299816
 33
0.0
  0
SOLID
  5
178
330
171
100
AcDbEntity
  8
HATCH
  6
CONTINUOUS
 62
     5
100
AcDbTrace
 10
1623.760433628555
 20
1961.880217299816
 30
0.0
 11
2653.757136553462
 21
1980.880217299816
 31
0.0
 12
2193.760433628554
 22
1980.880217299816
 32
0.0
 13
2193.760433628554
 23
1980.880217299816
 33
0.0
  0
SOLID
  5
179
330
171
100
AcDbEntity
  8
HATCH
  6
CONTINUOUS
 62
     5
100
AcDbTrace
 10
2186.106764981252
 20
1982.402626649589
 30
0.0
 11
1623.760433628555
 21
1961.880217299816
 31
0.0
 12
2193.760433628554
 22
1980.880217299816
 32
0.0
 13
2193.760433628554
 23
1980.880217299816
 33
0.0
  0
SOLID
  5
17A
330
171
100
AcDbEntity
  8
HATCH
  6
CONTINUOUS
 62
     5
100
AcDbTrace
 10
2661.430736157565
 20
1982.410894921453
 30
0.0
 11
2653.757136553462
 21
1980.880217299816
 31
0.0
 12
3223.760433628555
 22
1961.880217299816
 32
0.0
 13
3223.760433628555
 23
1961.880217299816
 33
0.0
  0
SOLID
  5
17B
330
171
100
AcDbEntity
  8
HATCH
  6
CONTINUOUS
 62
     5
100
AcDbTrace
 10
2179.618298004823
 20
1986.738081676083
 30
0.0
 11
1623.760433628555
 21
1961.880217299816
 31
0.0
 12
2186.106764981252
 22
1982.402626649589
 32
0.0
 13
2186.106764981252
 23
1982.402626649589
 33
0.0
  0
SOLID
  5
17C
330
171
100
AcDbEntity
  8
HATCH
  6
CONTINUOUS
 62
     5
100
AcDbTrace
 10
2667.929755042528
 20
1986.768630388225
 30
0.0
 11
2661.430736157565
 21
1982.410894921453
 31
0.0
 12
3223.760433628555
 22
1961.880217299816
 32
0.0
 13
3223.760433628555
 23
1961.880217299816
 33
0.0
  0
SOLID
  5
17D
330
171
100
AcDbEntity
  8
HATCH
  6
CONTINUOUS
 62
     5
100
AcDbTrace
 10
2175.282842978328
 20
1993.226548652513
 30
0.0
 11
1623.760433628555
 21
1961.880217299816
 31
0.0
 12
2179.618298004823
 22
1986.738081676083
 32
0.0
 13
2179.618298004823
 23
1986.738081676083
 33
0.0
  0
SOLID
  5
17E
330
171
100
AcDbEntity
  8
HATCH
  6
CONTINUOUS
 62
     5
100
AcDbTrace
 10
2672.25940293137
 20
1993.286394884134
 30
0.0
 11
2667.929755042528
 21
1986.768630388225
 31
0.0
 12
3223.760433628555
 22
1961.880217299816
 32
0.0
 13
3223.760433628555
 23
1961.880217299816
 33
0.0
  0
SOLID
  5
17F
330
171
100
AcDbEntity
  8
HATCH
  6
CONTINUOUS
 62
     5
100
AcDbTrace
 10
2173.760433628554
 20
2000.880217299815
 30
0.0
 11
1623.760433628555
 21
1961.880217299816
 31
0.0
 12
2175.282842978328
 22
1993.226548652513
 32
0.0
 13
2175.282842978328
 23
1993.226548652513
 33
0.0
  0
SOLID
  5
180
330
171
100
AcDbEntity
  8
HATCH
  6
CONTINUOUS
 62
     5
100
AcDbTrace
 10
2673.756950310789
 20
2000.966528783478
 30
0.0
 11
2672.25940293137
 21
1993.286394884134
 31
0.0
 12
3223.760433628555
 22
1961.880217299816
 32
0.0
 13
3223.760433628555
 23
1961.880217299816
 33
0.0
  0
SOLID
  5
181
330
171
100
AcDbEntity
  8
HATCH
  6
CONTINUOUS
 62
     5
100
AcDbTrace
 10
2173.760433628554
 20
2001.159527487652
 30
0.0
 11
1623.760433628555
 21
1961.880217299816
 31
0.0
 12
2173.760433628554
 22
2000.880217299815
 32
0.0
 13
2173.760433628554
 23
2000.880217299815
 33
0.0
  0
SOLID
  5
182
330
171
100
AcDbEntity
  8
HATCH
  6
CONTINUOUS
 62
     5
100
AcDbTrace
 10
2673.618084603855
 20
2006.431249642374
 30
0.0
 11
2673.756950310789
 21
2000.966528783478
 31
0.0
 12
3223.760433628555
 22
1961.880217299816
 32
0.0
 13
3223.760433628555
 23
1961.880217299816
 33
0.0
  0
SOLID
  5
183
330
171
100
AcDbEntity
  8
HATCH
  6
CONTINUOUS
 62
     5
100
AcDbTrace
 10
2173.904619254187
 20
2006.527612400549
 30
0.0
 11
1623.760433628555
 21
1961.880217299816
 31
0.0
 12
2173.760433628554
 22
2001.159527487652
 32
0.0
 13
2173.760433628554
 23
2001.159527487652
 33
0.0
  0
SOLID
  5
184
330
171
100
AcDbEntity
  8
HATCH
  6
CONTINUOUS
 62
     5
100
AcDbTrace
 10
2673.618084603855
 20
2006.431249642374
 30
0.0
 11
3137.157893250112
 21
2011.880217299815
 31
0.0
 12
2673.18080984082
 22
2011.880217299815
 32
0.0
 13
2673.18080984082
 23
2011.880217299815
 33
0.0
  0
SOLID
  5
185
330
171
100
AcDbEntity
  8
HATCH
  6
CONTINUOUS
 62
     5
100
AcDbTrace
 10
3137.157893250112
 20
2011.880217299815
 30
0.0
 11
2673.618084603855
 21
2006.431249642374
 31
0.0
 12
3223.760433628555
 22
1961.880217299816
 32
0.0
 13
3223.760433628555
 23
1961.880217299816
 33
0.0
  0
SOLID
  5
186
330
171
100
AcDbEntity
  8
HATCH
  6
CONTINUOUS
 62
     5
100
AcDbTrace
 10
2174.336760341196
 20
2011.880217299816
 30
0.0
 11
1623.760433628555
 21
1961.880217299816
 31
0.0
 12
2173.904619254187
 22
2006.527612400549
 32
0.0
 13
2173.904619254187
 23
2006.527612400549
 33
0.0
  0
SOLID
  5
187
330
171
100
AcDbEntity
  8
HATCH
  6
CONTINUOUS
 62
     5
100
AcDbTrace
 10
1710.362974006998
 20
2011.880217299816
 30
0.0
 11
1623.760433628555
 21
1961.880217299816
 31
0.0
 12
2174.336760341196
 22
2011.880217299816
 32
0.0
 13
2174.336760341196
 23
2011.880217299816
 33
0.0
  0
ENDBLK
  5
189
330
171
100
AcDbEntity
  8
0
 62
    30
100
AcDbBlockEnd
  0
BLOCK
  5
191
330
18A
100
AcDbEntity
  8
0
 62
    30
100
AcDbBlockBegin
  2
*U2
 70
     1
 10
0.0
 20
0.0
 30
0.0
  3
*U2
  1

  0
SOLID
  5
18B
330
18A
100
AcDbEntity
  8
HATCH
  6
CONTINUOUS
 62
     7
100
AcDbTrace
 10
2423.760433628554
 20
2947.417126806509
 30
0.0
 11
2423.760433628554
 21
2847.417126806505
 31
0.0
 12
2877.260433628554
 22
2161.932085574022
 32
0.0
 13
2877.260433628554
 23
2161.932085574022
 33
0.0
  0
SOLID
  5
18C
330
18A
100
AcDbEntity
  8
HATCH
  6
CONTINUOUS
 62
     7
100
AcDbTrace
 10
2790.657893250109
 20
2211.932085574022
 30
0.0
 11
2877.260433628554
 21
2161.932085574022
 31
0.0
 12
2423.760433628554
 22
2847.417126806505
 32
0.0
 13
2423.760433628554
 23
2847.417126806505
 33
0.0
  0
SOLID
  5
18D
330
18A
100
AcDbEntity
  8
HATCH
  6
CONTINUOUS
 62
     7
100
AcDbTrace
 10
2423.760433628554
 20
2847.417126806508
 30
0.0
 11
2423.760433628554
 21
2947.417126806509
 31
0.0
 12
2056.862974006996
 22
2211.932085574019
 32
0.0
 13
2056.862974006996
 23
2211.932085574019
 33
0.0
  0
SOLID
  5
18E
330
18A
100
AcDbEntity
  8
HATCH
  6
CONTINUOUS
 62
     7
100
AcDbTrace
 10
1970.260433628554
 20
2161.932085574021
 30
0.0
 11
2056.862974006996
 21
2211.932085574019
 31
0.0
 12
2423.760433628554
 22
2947.417126806509
 32
0.0
 13
2423.760433628554
 23
2947.417126806509
 33
0.0
  0
SOLID
  5
18F
330
18A
100
AcDbEntity
  8
HATCH
  6
CONTINUOUS
 62
     7
100
AcDbTrace
 10
2056.862974006998
 20
2211.932085574022
 30
0.0
 11
1970.260433628554
 21
2161.932085574022
 31
0.0
 12
2790.657893250109
 22
2211.932085574022
 32
0.0
 13
2790.657893250109
 23
2211.932085574022
 33
0.0
  0
SOLID
  5
190
330
18A
100
AcDbEntity
  8
HATCH
  6
CONTINUOUS
 62
     7
100
AcDbTrace
 10
2877.260433628554
 20
2161.932085574022
 30
0.0
 11
2790.657893250109
 21
2211.932085574022
 31
0.0
 12
1970.260433628554
 22
2161.932085574022
 32
0.0
 13
1970.260433628554
 23
2161.932085574022
 33
0.0
  0
ENDBLK
  5
192
330
18A
100
AcDbEntity
  8
0
 62
    30
100
AcDbBlockEnd
  0
BLOCK
  5
1DE
330
1DD
100
AcDbEntity
  8
0
 62
    30
100
AcDbBlockBegin
  2
ACKH
 70
     0
 10
0.0
 20
0.0
 30
0.0
  3
ACKH
  1

  0
INSERT
  5
1E0
330
1DD
100
AcDbEntity
  8
HATCH
  6
CONTINUOUS
 62
     5
100
AcDbBlockReference
  2
*U1
 10
0.0
 20
0.0
 30
0.0
1001
ACAD
1002
{
1000
R14_HATCH_DATA
1000
140
1011
1.0
1021
0.0
1031
0.0
1011
0.0
1021
1.0
1031
0.0
1011
0.0
1021
0.0
1031
1.0
1040
0.0
1010
0.0
1020
0.0
1030
1.0
1000
SOLID
1070
     1
1070
     0
1071
        3
1071
        7
1070
     0
1070
     1
1071
        4
1040
2423.760433628554
1040
3347.520863354918
1040
2423.760433628553
1040
3247.520863354917
1040
3137.15789325011
1040
2011.880217299816
1040
3223.760433628554
1040
1961.880217299817
1071
        0
1071
        7
1070
     0
1070
     1
1071
        5
1040
2423.760433628554
1040
3247.520863354917
1040
2423.760433628554
1040
3347.520863354918
1040
1623.760433628555
1040
1961.880217299816
1040
1656.669398972363
1040
1980.880217299816
1040
1710.362974006999
1040
2011.880217299816
1071
        0
1071
        7
1070
     1
1070
     1
1071
       11
1040
2173.760433628554
1040
2000.880217299815
1040
0.0
1040
2173.760433628554
1040
2001.159527487652
1040
-0.0268597885415656
1040
2174.336760341196
1040
2011.880217299816
1040
0.0
1040
1710.362974006998
1040
2011.880217299816
1040
0.0
1040
1623.760433628555
1040
1961.880217299816
1040
0.0
1040
3223.760433628555
1040
1961.880217299816
1040
0.0
1040
3137.157893250112
1040
2011.880217299815
1040
0.0
1040
2673.18080984082
1040
2011.880217299815
1040
-0.0273426399933049
1040
2673.756950310789
1040
2000.966528783478
1040
-0.4154781343300982
1040
2653.757136553462
1040
1980.880217299816
1040
0.0
1040
2193.760433628554
1040
1980.880217299816
1040
-0.4142135623730851
1071
        0
1070
     0
1070
     1
1040
5.155437415182078
1071
        3
1040
2626.76214504107
1040
2960.642259704787
1040
0.0
1040
2214.028282127161
1040
2929.709633277202
1040
0.0
1040
2054.093896685358
1040
1986.26458429323
1040
0.0
1002
}
  0
INSERT
  5
1E1
330
1DD
100
AcDbEntity
  8
HATCH
  6
CONTINUOUS
 62
    30
100
AcDbBlockReference
  2
*U4
 10
0.0
 20
0.0
 30
0.0
1001
ACAD
1002
{
1000
R14_HATCH_DATA
1000
1E1
1011
1.0
1021
0.0
1031
0.0
1011
0.0
1021
1.0
1031
0.0
1011
0.0
1021
0.0
1031
1.0
1040
0.0
1010
0.0
1020
0.0
1030
1.0
1000
SOLID
1070
     1
1070
     1
1071
        6
1071
        7
1070
     0
1070
     1
1071
        3
1040
2056.862974006998
1040
2211.932085574021
1040
2790.65789325011
1040
2211.932085574022
1040
2423.760433628554
1040
2423.760432651517
1071
        3
1005
1EE
1005
1F3
1005
1E9
1071
       23
1070
     0
1070
     1
1071
        3
1040
2423.760433628554
1040
2423.760432651517
1040
2423.760433628554
1040
2847.417126806508
1040
2056.862974006996
1040
2211.93208557402
1071
        3
1005
1ED
1005
1F1
1005
1EE
1071
       23
1070
     0
1070
     1
1071
        3
1040
2790.657893250109
1040
2211.932085574022
1040
2423.760433628554
1040
2847.417126806508
1040
2423.760433628554
1040
2423.760432651517
1071
        3
1005
1ED
1005
1E9
1005
1F2
1071
        7
1070
     1
1070
     1
1071
        8
1040
3137.157893250113
1040
2011.880217299815
1040
0.0
1040
2877.260433628555
1040
2161.932085574022
1040
0.0
1040
1970.260433628554
1040
2161.932085574022
1040
0.0
1040
1710.362974006998
1040
2011.880217299816
1040
0.0
1040
2174.336760341197
1040
2011.880217299816
1040
-0.301169047722738
1040
2244.852294613644
1040
2096.889979793564
1040
-0.1494066267695857
1040
2603.309703407671
1040
2095.688410609731
1040
-0.3058785970921295
1040
2673.255361635607
1040
2011.880217299815
1040
0.0
1071
        6
1005
1E8
1005
1EE
1005
1F5
1005
1F9
1005
1F7
1005
1E9
1071
        7
1070
     0
1070
     1
1071
        4
1040
2877.260433628554
1040
2161.932085574022
1040
3137.157893250107
1040
2011.880217299818
1040
2423.760433628554
1040
3247.520863354916
1040
2423.760433628554
1040
2947.417126806508
1071
        4
1005
1ED
1005
1E7
1005
1E9
1005
1F4
1071
        7
1070
     0
1070
     1
1071
        4
1040
2423.760433628554
1040
2947.417126806508
1040
2423.760433628554
1040
3247.520863354917
1040
1710.362974006998
1040
2011.880217299816
1040
1970.260433628554
1040
2161.932085574021
1071
        4
1005
1ED
1005
1F6
1005
1EE
1005
1EC
1070
     0
1070
     1
1040
3.420884112179156
1071
        6
1040
2342.494859305428
1040
2291.374901880439
1040
0.0
1040
2311.680502969586
1040
2421.368499177253
1040
0.0
1040
2551.34771208763
1040
2421.368499177253
1040
0.0
1040
2732.810019077223
1040
2075.859201692979
1040
0.0
1040
2886.881800756448
1040
2222.957217310344
1040
0.0
1040
1948.755888990396
1040
2257.166065239338
1040
0.0
1002
}
  0
MTEXT
  5
1E2
330
1DD
100
AcDbEntity
  8
TEKST
100
AcDbMText
 10
1976.135749541077
 20
3938.935840673471
 30
0.0
 40
75.18097186823435
 41
1124.989366404442
 71
     1
 72
     1
  1
{\FIMPACT.TTF;Hoogte: 205 cm\PMax. valhoogte: 145 cm}
1001
ACAD
1000
MTEXTBEGIN
1070
    73
1070
     1
1070
    44
1040
1.0
1070
    74
1070
     0
1000
MTEXTEND
1000
MTEXTBEGIN
1070
    73
1070
     1
1070
    44
1040
1.0
1070
    74
1070
     0
1000
MTEXTEND
1000
MTEXTBEGIN
1070
    73
1070
     1
1070
    44
1040
1.0
1070
    74
1070
     0
1000
MTEXTEND
  0
CIRCLE
  5
1E3
330
1DD
100
AcDbEntity
  8
SAFETY
100
AcDbCircle
 10
2423.760433628554
 20
2423.760432651517
 30
0.0
 40
2423.760430703401
  0
LINE
  5
1E4
330
1DD
100
AcDbEntity
  8
OBJECT
100
AcDbLine
 10
1623.760433628555
 20
1961.880217299816
 30
0.0
 11
3223.760433628555
 21
1961.880217299816
 31
0.0
  0
LINE
  5
1E5
330
1DD
100
AcDbEntity
  8
OBJECT
100
AcDbLine
 10
3223.760433628555
 20
1961.880217299816
 30
0.0
 11
2423.760433628554
 21
3347.520863354918
 31
0.0
  0
LINE
  5
1E6
330
1DD
100
AcDbEntity
  8
OBJECT
100
AcDbLine
 10
2193.760433628554
 20
1980.880217299816
 30
0.0
 11
2653.757136553462
 21
1980.880217299816
 31
0.0
  0
LINE
  5
1E7
330
1DD
100
AcDbEntity
  8
OBJECT
100
AcDbLine
 10
2423.760433628554
 20
2947.417126806508
 30
0.0
 11
2877.260433628554
 21
2161.932085574022
 31
0.0
  0
LINE
  5
1E8
330
1DD
100
AcDbEntity
  8
OBJECT
100
AcDbLine
 10
1970.260433628554
 20
2161.932085574022
 30
0.0
 11
2877.260433628554
 21
2161.932085574022
 31
0.0
  0
LINE
  5
1E9
330
1DD
100
AcDbEntity
  8
OBJECT
100
AcDbLine
 10
3223.760433628555
 20
1961.880217299816
 30
0.0
 11
2423.760433628554
 21
2423.760432651517
 31
0.0
  0
LINE
  5
1EA
330
1DD
100
AcDbEntity
  8
OBJECT
100
AcDbLine
 10
2423.760433628554
 20
1961.880217299816
 30
0.0
 11
2673.760433628554
 21
1961.880217299816
 31
0.0
  0
LINE
  5
1EB
330
1DD
100
AcDbEntity
  8
OBJECT
100
AcDbLine
 10
1623.760433628555
 20
1961.880217299816
 30
0.0
 11
2423.760433628554
 21
3347.520863354918
 31
0.0
  0
LINE
  5
1EC
330
1DD
100
AcDbEntity
  8
OBJECT
100
AcDbLine
 10
1970.260433628554
 20
2161.932085574022
 30
0.0
 11
2423.760433628554
 21
2947.417126806508
 31
0.0
  0
LINE
  5
1ED
330
1DD
100
AcDbEntity
  8
OBJECT
100
AcDbLine
 10
2423.760433628554
 20
3347.520863354918
 30
0.0
 11
2423.760433628554
 21
2423.760432651517
 31
0.0
  0
LINE
  5
1EE
330
1DD
100
AcDbEntity
  8
OBJECT
100
AcDbLine
 10
1623.760433628555
 20
1961.880217299816
 30
0.0
 11
2423.760433628554
 21
2423.760432651517
 31
0.0
  0
LINE
  5
1EF
330
1DD
100
AcDbEntity
  8
OBJECT
100
AcDbLine
 10
1623.760433628555
 20
1961.880217299816
 30
0.0
 11
1656.669398972363
 21
1980.880217299816
 31
0.0
  0
LINE
  5
1F0
330
1DD
100
AcDbEntity
  8
OBJECT
100
AcDbLine
 10
2173.760433628554
 20
2001.159527487653
 30
0.0
 11
2173.760433628554
 21
2000.880217299815
 31
0.0
  0
LINE
  5
1F1
330
1DD
100
AcDbEntity
  8
OBJECT
100
AcDbLine
 10
2056.862974006997
 20
2211.932085574022
 30
0.0
 11
2423.760433628554
 21
2847.417126806508
 31
0.0
  0
LINE
  5
1F2
330
1DD
100
AcDbEntity
  8
OBJECT
100
AcDbLine
 10
2423.760433628553
 20
2847.417126806508
 30
0.0
 11
2790.657893250109
 21
2211.932085574022
 31
0.0
  0
LINE
  5
1F3
330
1DD
100
AcDbEntity
  8
OBJECT
100
AcDbLine
 10
2056.862974006997
 20
2211.932085574022
 30
0.0
 11
2790.657893250109
 21
2211.932085574022
 31
0.0
  0
LINE
  5
1F4
330
1DD
100
AcDbEntity
  8
OBJECT
100
AcDbLine
 10
3137.15789325011
 20
2011.880217299815
 30
0.0
 11
2423.760433628554
 21
3247.520863354917
 31
0.0
  0
LINE
  5
1F5
330
1DD
100
AcDbEntity
  8
OBJECT
100
AcDbLine
 10
1710.362974006998
 20
2011.880217299816
 30
0.0
 11
2174.336760341196
 21
2011.880217299816
 31
0.0
  0
LINE
  5
1F6
330
1DD
100
AcDbEntity
  8
OBJECT
100
AcDbLine
 10
1710.362974006998
 20
2011.880217299815
 30
0.0
 11
2423.760433628554
 21
3247.520863354917
 31
0.0
  0
LINE
  5
1F7
330
1DD
100
AcDbEntity
  8
OBJECT
100
AcDbLine
 10
2673.18080984082
 20
2011.880217299815
 30
0.0
 11
3137.15789325011
 21
2011.880217299815
 31
0.0
  0
INSERT
  5
1F8
330
1DD
100
AcDbEntity
  8
HATCH
  6
CONTINUOUS
 62
     7
100
AcDbBlockReference
  2
*U2
 10
0.0
 20
0.0
 30
0.0
1001
ACAD
1002
{
1000
R14_HATCH_DATA
1000
14E
1011
1.0
1021
0.0
1031
0.0
1011
0.0
1021
1.0
1031
0.0
1011
0.0
1021
0.0
1031
1.0
1040
0.0
1010
0.0
1020
0.0
1030
1.0
1000
SOLID
1070
     1
1070
     1
1071
        3
1071
        7
1070
     0
1070
     1
1071
        4
1040
2423.760433628554
1040
2947.417126806509
1040
2423.760433628554
1040
2847.417126806505
1040
2790.657893250109
1040
2211.932085574022
1040
2877.260433628554
1040
2161.932085574022
1071
        4
1005
1ED
1005
1F2
1005
1E9
1005
1E7
1071
        7
1070
     0
1070
     1
1071
        4
1040
2423.760433628554
1040
2847.417126806508
1040
2423.760433628554
1040
2947.417126806509
1040
1970.260433628554
1040
2161.932085574021
1040
2056.862974006996
1040
2211.932085574019
1071
        4
1005
1ED
1005
1EC
1005
1EE
1005
1F1
1071
        7
1070
     0
1070
     1
1071
        4
1040
2056.862974006998
1040
2211.932085574022
1040
1970.260433628554
1040
2161.932085574022
1040
2877.260433628554
1040
2161.932085574022
1040
2790.657893250109
1040
2211.932085574022
1071
        4
1005
1F3
1005
1EE
1005
1E8
1005
1E9
1070
     0
1070
     1
1040
5.155437415182078
1071
        3
1040
2616.443793576769
1040
2573.984452182923
1040
0.0
1040
2291.415873641663
1040
2656.471444578346
1040
0.0
1040
2368.803482943266
1040
2187.326644661059
1040
0.0
1002
}
  0
POLYLINE
  5
1F9
330
1DD
100
AcDbEntity
  8
OBJECT
100
AcDb2dPolyline
 66
     1
 10
0.0
 20
0.0
 30
0.0
  0
VERTEX
  5
213
330
1F9
100
AcDbEntity
  8
OBJECT
100
AcDbVertex
100
AcDb2dVertex
 10
2673.75683317988
 20
2000.770059005346
 30
0.0
 42
0.0003894712277712
  0
VERTEX
  5
214
330
1F9
100
AcDbEntity
  8
OBJECT
100
AcDbVertex
100
AcDb2dVertex
 10
2673.757136553462
 20
2001.159527487653
 30
0.0
 42
0.336229957104123
  0
VERTEX
  5
215
330
1F9
100
AcDbEntity
  8
OBJECT
100
AcDbVertex
100
AcDb2dVertex
 10
2603.309703407662
 20
2095.688410609734
 30
0.0
 42
0.1494066267695698
  0
VERTEX
  5
216
330
1F9
100
AcDbEntity
  8
OBJECT
100
AcDbVertex
100
AcDb2dVertex
 10
2244.852294613671
 20
2096.889979793572
 30
0.0
 42
0.3307040124475091
  0
VERTEX
  5
217
330
1F9
100
AcDbEntity
  8
OBJECT
100
AcDbVertex
100
AcDb2dVertex
 10
2173.760433628554
 20
2001.159527487653
 30
0.0
 42
0.0003894712351243
  0
VERTEX
  5
218
330
1F9
100
AcDbEntity
  8
OBJECT
100
AcDbVertex
100
AcDb2dVertex
 10
2173.760737002148
 20
2000.770058997992
 30
0.0
 42
0.0003894712351243
  0
SEQEND
  5
219
330
1F9
100
AcDbEntity
  8
OBJECT
  0
ENDBLK
  5
1DF
330
1DD
100
AcDbEntity
  8
0
 62
    30
100
AcDbBlockEnd
  0
BLOCK
  5
211
330
200
100
AcDbEntity
  8
0
 62
    30
100
AcDbBlockBegin
  2
*U4
 70
     1
 10
0.0
 20
0.0
 30
0.0
  3
*U4
  1

  0
SOLID
  5
201
330
200
100
AcDbEntity
  8
HATCH
  6
CONTINUOUS
 62
    30
100
AcDbTrace
 10
2056.862974006998
 20
2211.932085574021
 30
0.0
 11
2790.65789325011
 21
2211.932085574022
 31
0.0
 12
2423.760433628554
 22
2423.760432651517
 32
0.0
 13
2423.760433628554
 23
2423.760432651517
 33
0.0
210
0.0
220
0.0
230
1.0
  0
SOLID
  5
202
330
200
100
AcDbEntity
  8
HATCH
  6
CONTINUOUS
 62
    30
100
AcDbTrace
 10
2423.760433628554
 20
2423.760432651517
 30
0.0
 11
2423.760433628554
 21
2847.417126806508
 31
0.0
 12
2056.862974006996
 22
2211.93208557402
 32
0.0
 13
2056.862974006996
 23
2211.93208557402
 33
0.0
210
0.0
220
0.0
230
1.0
  0
SOLID
  5
203
330
200
100
AcDbEntity
  8
HATCH
  6
CONTINUOUS
 62
    30
100
AcDbTrace
 10
2651.100098818871
 20
2064.481753860496
 30
0.0
 11
2673.255361635607
 21
2011.880217299815
 31
0.0
 12
3137.157893250113
 22
2011.880217299815
 32
0.0
 13
3137.157893250113
 23
2011.880217299815
 33
0.0
210
0.0
220
0.0
230
1.0
  0
SOLID
  5
204
330
200
100
AcDbEntity
  8
HATCH
  6
CONTINUOUS
 62
    30
100
AcDbTrace
 10
2196.793372868732
 20
2065.003646699936
 30
0.0
 11
1710.362974006998
 21
2011.880217299816
 31
0.0
 12
2174.336760341197
 22
2011.880217299816
 32
0.0
 13
2174.336760341197
 23
2011.880217299816
 33
0.0
210
0.0
220
0.0
230
1.0
  0
SOLID
  5
205
330
200
100
AcDbEntity
  8
HATCH
  6
CONTINUOUS
 62
    30
100
AcDbTrace
 10
2603.309703407671
 20
2095.688410609731
 30
0.0
 11
2651.100098818871
 21
2064.481753860496
 31
0.0
 12
3137.157893250113
 22
2011.880217299815
 32
0.0
 13
3137.157893250113
 23
2011.880217299815
 33
0.0
  0
SOLID
  5
206
330
200
100
AcDbEntity
  8
HATCH
  6
CONTINUOUS
 62
    30
100
AcDbTrace
 10
2244.852294613644
 20
2096.889979793564
 30
0.0
 11
1710.362974006998
 21
2011.880217299816
 31
0.0
 12
2196.793372868732
 22
2065.003646699936
 32
0.0
 13
2196.793372868732
 23
2065.003646699936
 33
0.0
  0
SOLID
  5
207
330
200
100
AcDbEntity
  8
HATCH
  6
CONTINUOUS
 62
    30
100
AcDbTrace
 10
1970.260433628554
 20
2161.932085574022
 30
0.0
 11
2244.852294613644
 21
2096.889979793564
 31
0.0
 12
2424.170760209952
 22
2123.067151345888
 32
0.0
 13
2424.170760209952
 23
2123.067151345888
 33
0.0
210
0.0
220
0.0
230
1.0
  0
SOLID
  5
208
330
200
100
AcDbEntity
  8
HATCH
  6
CONTINUOUS
 62
    30
100
AcDbTrace
 10
1970.260433628554
 20
2161.932085574022
 30
0.0
 11
1710.362974006998
 21
2011.880217299816
 31
0.0
 12
2244.852294613644
 22
2096.889979793564
 32
0.0
 13
2244.852294613644
 23
2096.889979793564
 33
0.0
210
0.0
220
0.0
230
1.0
  0
SOLID
  5
209
330
200
100
AcDbEntity
  8
HATCH
  6
CONTINUOUS
 62
    30
100
AcDbTrace
 10
2877.260433628555
 20
2161.932085574022
 30
0.0
 11
1970.260433628554
 21
2161.932085574022
 31
0.0
 12
2424.170760209952
 22
2123.067151345888
 32
0.0
 13
2424.170760209952
 23
2123.067151345888
 33
0.0
  0
SOLID
  5
20A
330
200
100
AcDbEntity
  8
HATCH
  6
CONTINUOUS
 62
    30
100
AcDbTrace
 10
2877.260433628555
 20
2161.932085574022
 30
0.0
 11
2424.170760209952
 21
2123.067151345888
 31
0.0
 12
2603.309703407671
 22
2095.688410609731
 32
0.0
 13
2603.309703407671
 23
2095.688410609731
 33
0.0
210
0.0
220
0.0
230
1.0
  0
SOLID
  5
20B
330
200
100
AcDbEntity
  8
HATCH
  6
CONTINUOUS
 62
    30
100
AcDbTrace
 10
2877.260433628555
 20
2161.932085574022
 30
0.0
 11
2603.309703407671
 21
2095.688410609731
 31
0.0
 12
3137.157893250113
 22
2011.880217299815
 32
0.0
 13
3137.157893250113
 23
2011.880217299815
 33
0.0
210
0.0
220
0.0
230
1.0
  0
SOLID
  5
20C
330
200
100
AcDbEntity
  8
HATCH
  6
CONTINUOUS
 62
    30
100
AcDbTrace
 10
2423.760433628554
 20
2847.417126806508
 30
0.0
 11
2423.760433628554
 21
2423.760432651517
 31
0.0
 12
2790.657893250109
 22
2211.932085574022
 32
0.0
 13
2790.657893250109
 23
2211.932085574022
 33
0.0
210
0.0
220
0.0
230
1.0
  0
SOLID
  5
20D
330
200
100
AcDbEntity
  8
HATCH
  6
CONTINUOUS
 62
    30
100
AcDbTrace
 10
2877.260433628554
 20
2161.932085574022
 30
0.0
 11
3137.157893250107
 21
2011.880217299818
 31
0.0
 12
2423.760433628554
 22
2947.417126806508
 32
0.0
 13
2423.760433628554
 23
2947.417126806508
 33
0.0
210
0.0
220
0.0
230
1.0
  0
SOLID
  5
20E
330
200
100
AcDbEntity
  8
HATCH
  6
CONTINUOUS
 62
    30
100
AcDbTrace
 10
2423.760433628554
 20
3247.520863354916
 30
0.0
 11
2423.760433628554
 21
2947.417126806508
 31
0.0
 12
3137.157893250107
 22
2011.880217299818
 32
0.0
 13
3137.157893250107
 23
2011.880217299818
 33
0.0
  0
SOLID
  5
20F
330
200
100
AcDbEntity
  8
HATCH
  6
CONTINUOUS
 62
    30
100
AcDbTrace
 10
2423.760433628554
 20
2947.417126806508
 30
0.0
 11
2423.760433628554
 21
3247.520863354917
 31
0.0
 12
1970.260433628554
 22
2161.932085574021
 32
0.0
 13
1970.260433628554
 23
2161.932085574021
 33
0.0
210
0.0
220
0.0
230
1.0
  0
SOLID
  5
210
330
200
100
AcDbEntity
  8
HATCH
  6
CONTINUOUS
 62
    30
100
AcDbTrace
 10
1710.362974006998
 20
2011.880217299816
 30
0.0
 11
1970.260433628554
 21
2161.932085574021
 31
0.0
 12
2423.760433628554
 22
3247.520863354917
 32
0.0
 13
2423.760433628554
 23
3247.520863354917
 33
0.0
210
0.0
220
0.0
230
1.0
  0
ENDBLK
  5
212
330
200
100
AcDbEntity
  8
0
 62
    30
100
AcDbBlockEnd
  0
ENDSEC
  0
SECTION
  2
ENTITIES
  0
INSERT
  5
1FA
330
1F
100
AcDbEntity
  8
HATCH
 62
    30
100
AcDbBlockReference
  2
ACKH
 10
0.0
 20
0.0
 30
0.0
  0
ENDSEC
  0
SECTION
  2
OBJECTS
  0
DICTIONARY
  5
C
330
0
100
AcDbDictionary
  3
ACAD_GROUP
350
D
  3
ACAD_LAYOUT
350
1A
  3
ACAD_MLINESTYLE
350
17
  3
ACAD_PLOTSETTINGS
350
19
1001
ACAD
1000
TREAT_AS_HARD
1070
     0
1000
TREAT_AS_HARD
1070
     0
1000
TREAT_AS_HARD
1070
     0
  0
DICTIONARY
  5
AB
330
1F
100
AcDbDictionary
  3
ACAD_LAYOUTSELFREF
350
1FC
  3
ACAD_SORTENTS
350
1DC
1001
ACAD
1000
TREAT_AS_HARD
1070
     1
1000
TREAT_AS_HARD
1070
     0
1000
TREAT_AS_HARD
1070
     0
  0
DICTIONARY
  5
AD
330
50
100
AcDbDictionary
  3
ACAD_LAYOUTSELFREF
350
1FD
1001
ACAD
1000
TREAT_AS_HARD
1070
     1
1000
TREAT_AS_HARD
1070
     0
1000
TREAT_AS_HARD
1070
     0
  0
DICTIONARY
  5
D
102
{ACAD_REACTORS
330
C
102
}
330
C
100
AcDbDictionary
1001
ACAD
1000
TREAT_AS_HARD
1070
     0
1000
TREAT_AS_HARD
1070
     0
1000
TREAT_AS_HARD
1070
     0
  0
DICTIONARY
  5
1A
102
{ACAD_REACTORS
330
C
102
}
330
C
100
AcDbDictionary
1001
ACAD
1000
TREAT_AS_HARD
1070
     0
1000
TREAT_AS_HARD
1070
     0
1000
TREAT_AS_HARD
1070
     0
  0
DICTIONARY
  5
17
102
{ACAD_REACTORS
330
C
102
}
330
C
100
AcDbDictionary
  3
STANDARD
350
18
1001
ACAD
1000
TREAT_AS_HARD
1070
     0
1000
TREAT_AS_HARD
1070
     0
1000
TREAT_AS_HARD
1070
     0
  0
DICTIONARY
  5
19
102
{ACAD_REACTORS
330
C
102
}
330
C
100
AcDbDictionary
1001
ACAD
1000
TREAT_AS_HARD
1070
     0
1000
TREAT_AS_HARD
1070
     0
1000
TREAT_AS_HARD
1070
     0
  0
XRECORD
  5
1FC
102
{ACAD_REACTORS
330
AB
102
}
330
AB
100
AcDbXrecord
340
1F
  0
SORTENTSTABLE
  5
1DC
102
{ACAD_REACTORS
330
AB
102
}
330
AB
100
AcDbSortentsTable
330
1F
331
111
  5
113
331
122
  5
124
331
100
  5
10F
331
10F
  5
111
331
11E
  5
122
331
11A
  5
11E
331
118
  5
11A
331
127
  5
14E
331
114
  5
117
331
125
  5
127
331
14E
  5
16C
331
123
  5
125
331
112
  5
114
331
121
  5
123
331
110
  5
112
331
10E
  5
110
331
1DB
  5
10E
331
11B
  5
121
331
119
  5
11B
331
117
  5
119
331
140
  5
100
331
16C
  5
1DB
331
126
  5
140
331
115
  5
118
331
124
  5
126
331
113
  5
115
  0
XRECORD
  5
1FD
102
{ACAD_REACTORS
330
AD
102
}
330
AD
100
AcDbXrecord
340
50
  0
MLINESTYLE
  5
18
102
{ACAD_REACTORS
330
17
102
}
330
17
100
AcDbMlineStyle
  2
STANDARD
 70
     0
  3

 62
   256
 51
90.0
 52
90.0
 71
     2
 49
0.5
 62
   256
  6
BYLAYER
 49
-0.5
 62
   256
  6
BYLAYER
  0
ENDSEC
  0
EOF
