  0
SECTION
  2
HEADER
  9
$ACADVER
  1
AC1012
  9
$DWGCODEPAGE
  3
ANSI_1252
  9
$INSBASE
 10
0.0
 20
0.0
 30
0.0
  9
$EXTMIN
 10
-300.5587923911416
 20
-292.8535624630783
 30
-0.0015258207003583
  9
$EXTMAX
 10
4566.016558498543
 20
6332.726379943102
 30
0.0000000349246037
  9
$LIMMIN
 10
0.0
 20
0.0
  9
$LIMMAX
 10
420.0
 20
297.0
  9
$ORTHOMODE
 70
     0
  9
$REGENMODE
 70
     1
  9
$FILLMODE
 70
     1
  9
$QTEXTMODE
 70
     0
  9
$MIRRTEXT
 70
     1
  9
$DRAGMODE
 70
     2
  9
$LTSCALE
 40
1.0
  9
$OSMODE
 70
  3071
  9
$ATTMODE
 70
     1
  9
$TEXTSIZE
 40
2.5
  9
$TRACEWID
 40
1.0
  9
$TEXTSTYLE
  7
STANDARD
  9
$CLAYER
  8
HATCH
  9
$CELTYPE
  6
BYLAYER
  9
$CECOLOR
 62
   256
  9
$CELTSCALE
 40
1.0
  9
$DELOBJ
 70
     1
  9
$DISPSILH
 70
     0
  9
$DIMSCALE
 40
1.0
  9
$DIMASZ
 40
2.5
  9
$DIMEXO
 40
0.625
  9
$DIMDLI
 40
3.75
  9
$DIMRND
 40
0.0
  9
$DIMDLE
 40
0.0
  9
$DIMEXE
 40
1.25
  9
$DIMTP
 40
0.0
  9
$DIMTM
 40
0.0
  9
$DIMTXT
 40
2.5
  9
$DIMCEN
 40
2.5
  9
$DIMTSZ
 40
0.0
  9
$DIMTOL
 70
     0
  9
$DIMLIM
 70
     0
  9
$DIMTIH
 70
     0
  9
$DIMTOH
 70
     0
  9
$DIMSE1
 70
     0
  9
$DIMSE2
 70
     0
  9
$DIMTAD
 70
     1
  9
$DIMZIN
 70
     8
  9
$DIMBLK
  1

  9
$DIMASO
 70
     1
  9
$DIMSHO
 70
     1
  9
$DIMPOST
  1

  9
$DIMAPOST
  1

  9
$DIMALT
 70
     0
  9
$DIMALTD
 70
     3
  9
$DIMALTF
 40
0.03937007874016
  9
$DIMLFAC
 40
1.0
  9
$DIMTOFL
 70
     1
  9
$DIMTVP
 40
0.0
  9
$DIMTIX
 70
     0
  9
$DIMSOXD
 70
     0
  9
$DIMSAH
 70
     0
  9
$DIMBLK1
  1

  9
$DIMBLK2
  1

  9
$DIMSTYLE
  2
ISO-25
  9
$DIMCLRD
 70
     0
  9
$DIMCLRE
 70
     0
  9
$DIMCLRT
 70
     0
  9
$DIMTFAC
 40
1.0
  9
$DIMGAP
 40
0.625
  9
$DIMJUST
 70
     0
  9
$DIMSD1
 70
     0
  9
$DIMSD2
 70
     0
  9
$DIMTOLJ
 70
     0
  9
$DIMTZIN
 70
     8
  9
$DIMALTZ
 70
     0
  9
$DIMALTTZ
 70
     0
  9
$DIMFIT
 70
     3
  9
$DIMUPT
 70
     0
  9
$DIMUNIT
 70
     2
  9
$DIMDEC
 70
     2
  9
$DIMTDEC
 70
     2
  9
$DIMALTU
 70
     2
  9
$DIMALTTD
 70
     3
  9
$DIMTXSTY
  7
STANDARD
  9
$DIMAUNIT
 70
     0
  9
$LUNITS
 70
     2
  9
$LUPREC
 70
     4
  9
$SKETCHINC
 40
1.0
  9
$FILLETRAD
 40
10.0
  9
$AUNITS
 70
     0
  9
$AUPREC
 70
     0
  9
$MENU
  1
.
  9
$ELEVATION
 40
0.0
  9
$PELEVATION
 40
0.0
  9
$THICKNESS
 40
0.0
  9
$LIMCHECK
 70
     0
  9
$BLIPMODE
 70
     0
  9
$CHAMFERA
 40
10.0
  9
$CHAMFERB
 40
10.0
  9
$CHAMFERC
 40
20.0
  9
$CHAMFERD
 40
0.0
  9
$SKPOLY
 70
     0
  9
$TDCREATE
 40
2452626.524443634
  9
$TDUPDATE
 40
2452772.569536574
  9
$TDINDWG
 40
0.0163410880
  9
$TDUSRTIMER
 40
0.0163410880
  9
$USRTIMER
 70
     1
  9
$ANGBASE
 50
0.0
  9
$ANGDIR
 70
     0
  9
$PDMODE
 70
     0
  9
$PDSIZE
 40
0.0
  9
$PLINEWID
 40
0.0
  9
$COORDS
 70
     2
  9
$SPLFRAME
 70
     0
  9
$SPLINETYPE
 70
     6
  9
$SPLINESEGS
 70
     8
  9
$ATTDIA
 70
     0
  9
$ATTREQ
 70
     1
  9
$HANDLING
 70
-16383
  9
$HANDSEED
  5
508
  9
$SURFTAB1
 70
     6
  9
$SURFTAB2
 70
     6
  9
$SURFTYPE
 70
     6
  9
$SURFU
 70
     6
  9
$SURFV
 70
     6
  9
$UCSNAME
  2

  9
$UCSORG
 10
0.0
 20
0.0
 30
0.0
  9
$UCSXDIR
 10
1.0
 20
0.0
 30
0.0
  9
$UCSYDIR
 10
0.0
 20
1.0
 30
0.0
  9
$PUCSNAME
  2

  9
$PUCSORG
 10
0.0
 20
0.0
 30
0.0
  9
$PUCSXDIR
 10
1.0
 20
0.0
 30
0.0
  9
$PUCSYDIR
 10
0.0
 20
1.0
 30
0.0
  9
$USERI1
 70
     0
  9
$USERI2
 70
     0
  9
$USERI3
 70
     0
  9
$USERI4
 70
     0
  9
$USERI5
 70
     0
  9
$USERR1
 40
0.0
  9
$USERR2
 40
0.0
  9
$USERR3
 40
0.0
  9
$USERR4
 40
0.0
  9
$USERR5
 40
0.0
  9
$WORLDVIEW
 70
     1
  9
$SHADEDGE
 70
     3
  9
$SHADEDIF
 70
    70
  9
$TILEMODE
 70
     1
  9
$MAXACTVP
 70
    64
  9
$PINSBASE
 10
0.0
 20
0.0
 30
0.0
  9
$PLIMCHECK
 70
     0
  9
$PEXTMIN
 10
0.0
 20
0.0
 30
0.0
  9
$PEXTMAX
 10
0.0
 20
0.0
 30
0.0
  9
$PLIMMIN
 10
0.0
 20
0.0
  9
$PLIMMAX
 10
12.0
 20
9.0
  9
$UNITMODE
 70
     0
  9
$VISRETAIN
 70
     1
  9
$PLINEGEN
 70
     0
  9
$PSLTSCALE
 70
     1
  9
$TREEDEPTH
 70
  3020
  9
$PICKSTYLE
 70
     1
  9
$CMLSTYLE
  2
STANDARD
  9
$CMLJUST
 70
     0
  9
$CMLSCALE
 40
20.0
  9
$SAVEIMAGES
 70
     1
  0
ENDSEC
  0
SECTION
  2
CLASSES
  0
CLASS
  1
ACDBDICTIONARYWDFLT
  2
AcDbDictionaryWithDefault
  3
AutoCAD 2000
 90
    32768
280
     0
281
     0
  0
CLASS
  1
ACDBPLACEHOLDER
  2
AcDbPlaceHolder
  3
AutoCAD 2000
 90
    32768
280
     0
281
     0
  0
CLASS
  1
LAYOUT
  2
AcDbLayout
  3
AutoCAD 2000
 90
    32768
280
     0
281
     0
  0
CLASS
  1
LONG_TRANSACTION
  2
AcDbLongTransaction
  3
AutoCAD 2000
 90
    32768
280
     0
281
     0
  0
CLASS
  1
LWPOLYLINE
  2
AcDbPolyline
  3
AutoCAD 2000
 90
    32768
280
     0
281
     1
  0
CLASS
  1
HATCH
  2
AcDbHatch
  3
AutoCAD 2000
 90
    32768
280
     0
281
     1
  0
CLASS
  1
XRECORD
  2
AcDbXrecord
  3
AutoCAD 2000
 90
    32768
280
     0
281
     0
  0
CLASS
  1
LONG_TRANSACTION
  2
AcDbLongTransaction
  3
AutoCAD 2000
 90
    32768
280
     0
281
     0
  0
CLASS
  1
LWPOLYLINE
  2
AcDbPolyline
  3
AutoCAD 2000
 90
    32768
280
     0
281
     1
  0
CLASS
  1
HATCH
  2
AcDbHatch
  3
AutoCAD 2000
 90
    32768
280
     0
281
     1
  0
CLASS
  1
XRECORD
  2
AcDbXrecord
  3
AutoCAD 2000
 90
    32768
280
     0
281
     0
  0
CLASS
  1
LONG_TRANSACTION
  2
AcDbLongTransaction
  3
AutoCAD 2000
 90
    32768
280
     0
281
     0
  0
CLASS
  1
LWPOLYLINE
  2
AcDbPolyline
  3
AutoCAD 2000
 90
    32768
280
     0
281
     1
  0
CLASS
  1
HATCH
  2
AcDbHatch
  3
AutoCAD 2000
 90
    32768
280
     0
281
     1
  0
CLASS
  1
XRECORD
  2
AcDbXrecord
  3
AutoCAD 2000
 90
    32768
280
     0
281
     0
  0
CLASS
  1
DICTIONARYVAR
  2
AcDbDictionaryVar
  3
AutoCAD 2000
 90
    32768
280
     0
281
     0
  0
CLASS
  1
SORTENTSTABLE
  2
AcDbSortentsTable
  3
AutoCAD 2000
 90
    32768
280
     0
281
     0
  0
CLASS
  1
LONG_TRANSACTION
  2
AcDbLongTransaction
  3
AutoCAD 2000
 90
    32768
280
     0
281
     0
  0
CLASS
  1
LWPOLYLINE
  2
AcDbPolyline
  3
AutoCAD 2000
 90
    32768
280
     0
281
     1
  0
CLASS
  1
HATCH
  2
AcDbHatch
  3
AutoCAD 2000
 90
    32768
280
     0
281
     1
  0
CLASS
  1
XRECORD
  2
AcDbXrecord
  3
AutoCAD 2000
 90
    32768
280
     0
281
     0
  0
ENDSEC
  0
SECTION
  2
TABLES
  0
TABLE
  2
VPORT
  5
8
330
0
100
AcDbSymbolTable
 70
     2
  0
VPORT
  5
43C
330
8
100
AcDbSymbolTableRecord
100
AcDbViewportTableRecord
  2
*ACTIVE
 70
     0
 10
0.0
 20
0.0
 11
1.0
 21
1.0
 12
5794.156236812915
 22
1816.441762071192
 13
0.0
 23
0.0
 14
10.0
 24
10.0
 15
10.0
 25
10.0
 16
0.0
 26
0.0
 36
1.0
 17
0.0
 27
0.0
 37
0.0
 40
11910.80715917343
 41
1.610878661087865
 42
50.0
 43
0.0
 44
0.0
 50
0.0
 51
0.0
 71
     0
 72
   100
 73
     1
 74
     3
 75
     0
 76
     0
 77
     0
 78
     0
  0
ENDTAB
  0
TABLE
  2
LTYPE
  5
5
330
0
100
AcDbSymbolTable
 70
     1
  0
LTYPE
  5
14
330
5
100
AcDbSymbolTableRecord
100
AcDbLinetypeTableRecord
  2
BYBLOCK
 70
     0
  3

 72
    65
 73
     0
 40
0.0
  0
LTYPE
  5
15
330
5
100
AcDbSymbolTableRecord
100
AcDbLinetypeTableRecord
  2
BYLAYER
 70
     0
  3

 72
    65
 73
     0
 40
0.0
  0
LTYPE
  5
16
330
5
100
AcDbSymbolTableRecord
100
AcDbLinetypeTableRecord
  2
CONTINUOUS
 70
     0
  3
Solid line
 72
    65
 73
     0
 40
0.0
  0
ENDTAB
  0
TABLE
  2
LAYER
  5
2
330
0
100
AcDbSymbolTable
 70
     5
  0
LAYER
  5
10
330
2
100
AcDbSymbolTableRecord
100
AcDbLayerTableRecord
  2
0
 70
     0
 62
     7
  6
CONTINUOUS
  0
LAYER
  5
5D
330
2
100
AcDbSymbolTableRecord
100
AcDbLayerTableRecord
  2
SAFETY
 70
     0
 62
     7
  6
CONTINUOUS
  0
LAYER
  5
5E
330
2
100
AcDbSymbolTableRecord
100
AcDbLayerTableRecord
  2
OBJECT
 70
     0
 62
     7
  6
CONTINUOUS
  0
LAYER
  5
219
330
2
100
AcDbSymbolTableRecord
100
AcDbLayerTableRecord
  2
TEKST
 70
     0
 62
     7
  6
CONTINUOUS
  0
LAYER
  5
2AD
330
2
100
AcDbSymbolTableRecord
100
AcDbLayerTableRecord
  2
HATCH
 70
     0
 62
     7
  6
CONTINUOUS
  0
ENDTAB
  0
TABLE
  2
STYLE
  5
3
330
0
100
AcDbSymbolTable
 70
     1
  0
STYLE
  5
11
330
3
100
AcDbSymbolTableRecord
100
AcDbTextStyleTableRecord
  2
STANDARD
 70
     0
 40
0.0
 41
1.0
 50
0.0
 71
     0
 42
2.5
  3
txt
  4

  0
ENDTAB
  0
TABLE
  2
VIEW
  5
6
330
0
100
AcDbSymbolTable
 70
     0
  0
ENDTAB
  0
TABLE
  2
UCS
  5
7
330
0
100
AcDbSymbolTable
 70
     0
  0
ENDTAB
  0
TABLE
  2
APPID
  5
9
330
0
100
AcDbSymbolTable
 70
     2
  0
APPID
  5
12
330
9
100
AcDbSymbolTableRecord
100
AcDbRegAppTableRecord
  2
ACAD
 70
     0
  0
APPID
  5
212
330
9
100
AcDbSymbolTableRecord
100
AcDbRegAppTableRecord
  2
CONTENTBLOCKICON
 70
     0
  0
ENDTAB
  0
TABLE
  2
DIMSTYLE
  5
A
330
0
100
AcDbSymbolTable
 70
     1
  0
DIMSTYLE
105
27
330
A
100
AcDbSymbolTableRecord
100
AcDbDimStyleTableRecord
  2
ISO-25
 70
     0
  3

  4

  5

  6

  7

 40
1.0
 41
2.5
 42
0.625
 43
3.75
 44
1.25
 45
0.0
 46
0.0
 47
0.0
 48
0.0
140
2.5
141
2.5
142
0.0
143
0.03937007874016
144
1.0
145
0.0
146
1.0
147
0.625
 71
     0
 72
     0
 73
     0
 74
     0
 75
     0
 76
     0
 77
     1
 78
     8
170
     0
171
     3
172
     1
173
     0
174
     0
175
     0
176
     0
177
     0
178
     0
270
     2
271
     2
272
     2
273
     2
274
     3
340
11
275
     0
280
     0
281
     0
282
     0
283
     0
284
     8
285
     0
286
     0
287
     3
288
     0
  0
ENDTAB
  0
TABLE
  2
BLOCK_RECORD
  5
1
330
0
100
AcDbSymbolTable
 70
    14
  0
BLOCK_RECORD
  5
1F
102
{ACAD_XDICTIONARY
360
16B
102
}
330
1
100
AcDbSymbolTableRecord
100
AcDbBlockTableRecord
  2
*MODEL_SPACE
  0
BLOCK_RECORD
  5
50
102
{ACAD_XDICTIONARY
360
16D
102
}
330
1
100
AcDbSymbolTableRecord
100
AcDbBlockTableRecord
  2
*PAPER_SPACE
  0
BLOCK_RECORD
  5
177
330
1
100
AcDbSymbolTableRecord
100
AcDbBlockTableRecord
  2
ACKB
1001
ACAD
1000
DesignCenter Data
1002
{
1070
     1
1070
     4
1002
}
  0
BLOCK_RECORD
  5
43F
330
1
100
AcDbSymbolTableRecord
100
AcDbBlockTableRecord
  2
*U1
  0
BLOCK_RECORD
  5
44C
330
1
100
AcDbSymbolTableRecord
100
AcDbBlockTableRecord
  2
*U2
  0
BLOCK_RECORD
  5
455
330
1
100
AcDbSymbolTableRecord
100
AcDbBlockTableRecord
  2
*U3
  0
BLOCK_RECORD
  5
470
330
1
100
AcDbSymbolTableRecord
100
AcDbBlockTableRecord
  2
*U4
  0
BLOCK_RECORD
  5
47C
330
1
100
AcDbSymbolTableRecord
100
AcDbBlockTableRecord
  2
*U5
  0
BLOCK_RECORD
  5
485
330
1
100
AcDbSymbolTableRecord
100
AcDbBlockTableRecord
  2
*U6
  0
BLOCK_RECORD
  5
48C
330
1
100
AcDbSymbolTableRecord
100
AcDbBlockTableRecord
  2
*U7
  0
BLOCK_RECORD
  5
4A3
330
1
100
AcDbSymbolTableRecord
100
AcDbBlockTableRecord
  2
*U8
  0
BLOCK_RECORD
  5
4AC
330
1
100
AcDbSymbolTableRecord
100
AcDbBlockTableRecord
  2
*U9
  0
BLOCK_RECORD
  5
4C4
330
1
100
AcDbSymbolTableRecord
100
AcDbBlockTableRecord
  2
*U10
  0
BLOCK_RECORD
  5
4D1
330
1
100
AcDbSymbolTableRecord
100
AcDbBlockTableRecord
  2
*U11
  0
BLOCK_RECORD
  5
4E6
330
1
100
AcDbSymbolTableRecord
100
AcDbBlockTableRecord
  2
*U12
  0
BLOCK_RECORD
  5
4F9
330
1
100
AcDbSymbolTableRecord
100
AcDbBlockTableRecord
  2
*U13
  0
ENDTAB
  0
ENDSEC
  0
SECTION
  2
BLOCKS
  0
BLOCK
  5
20
330
1F
100
AcDbEntity
  8
0
100
AcDbBlockBegin
  2
*MODEL_SPACE
 70
     0
 10
0.0
 20
0.0
 30
0.0
  3
*MODEL_SPACE
  1

  0
ENDBLK
  5
21
330
1F
100
AcDbEntity
  8
0
100
AcDbBlockEnd
  0
BLOCK
  5
52
330
50
100
AcDbEntity
 67
     1
  8
0
100
AcDbBlockBegin
  2
*PAPER_SPACE
 70
     0
 10
0.0
 20
0.0
 30
0.0
  3
*PAPER_SPACE
  1

  0
ENDBLK
  5
53
330
50
100
AcDbEntity
 67
     1
  8
0
100
AcDbBlockEnd
  0
BLOCK
  5
178
330
177
100
AcDbEntity
  8
0
100
AcDbBlockBegin
  2
ACKB
 70
     0
 10
0.0
 20
0.0
 30
0.0
  3
ACKB
  1

  0
INSERT
  5
3B9
330
177
100
AcDbEntity
  8
HATCH
  6
CONTINUOUS
 62
     2
100
AcDbBlockReference
  2
*U1
 10
0.0
 20
0.0
 30
0.0
1001
ACAD
1002
{
1000
R14_HATCH_DATA
1000
3B9
1011
1.0
1021
0.0
1031
0.0
1011
0.0
1021
1.0
1031
0.0
1011
0.0
1021
0.0
1031
1.0
1040
0.0
1010
0.0
1020
0.0
1030
1.0
1000
SOLID
1070
     1
1070
     0
1071
        2
1071
        7
1070
     0
1070
     1
1071
        7
1040
2767.734047845861
1040
4394.306609316742
1040
2748.73404784586
1040
4394.306609316742
1040
2748.73404784586
1040
4269.306609316742
1040
2748.73404784586
1040
4144.306609316742
1040
2767.73404784586
1040
4144.306609316742
1040
2767.73404784586
1040
4269.306609316742
1040
2767.73404784586
1040
4269.306610946266
1071
        0
1071
        7
1070
     0
1070
     1
1071
        7
1040
1516.734047845861
1040
4269.306609316742
1040
1516.734047845861
1040
4394.306609316742
1040
1497.73404784586
1040
4394.306609316742
1040
1497.73404784586
1040
4269.306609316742
1040
1497.73404784586
1040
4269.306608824552
1040
1497.73404784586
1040
4144.306609316742
1040
1516.734047845861
1040
4144.306609316742
1071
        0
1070
     0
1070
     1
1040
3.504355010014748
1071
        2
1040
2756.099202183912
1040
4297.195338658668
1040
0.0
1040
1507.560334988542
1040
4269.160505129304
1040
0.0
1002
}
  0
INSERT
  5
3BA
330
177
100
AcDbEntity
  8
HATCH
  6
CONTINUOUS
 62
     5
100
AcDbBlockReference
  2
*U2
 10
0.0
 20
0.0
 30
0.0
1001
ACAD
1002
{
1000
R14_HATCH_DATA
1000
3BA
1011
1.0
1021
0.0
1031
0.0
1011
0.0
1021
1.0
1031
0.0
1011
0.0
1021
0.0
1031
1.0
1040
0.0
1010
0.0
1020
0.0
1030
1.0
1000
SOLID
1070
     1
1070
     1
1071
        1
1071
        7
1070
     0
1070
     1
1071
        8
1040
2707.73404784586
1040
4517.806609316743
1040
2732.734047845861
1040
4517.806609316743
1040
2732.734047845861
1040
4536.806609316744
1040
2707.73404784586
1040
4536.806609316744
1040
1557.734047845861
1040
4536.806609316744
1040
1532.734047845861
1040
4536.806609316744
1040
1532.734047845861
1040
4517.806609316743
1040
1557.734047845861
1040
4517.806609316743
1071
        8
1005
432
1005
3C9
1005
3FA
1005
3FE
1005
3FB
1005
3CA
1005
431
1005
430
1070
     0
1070
     1
1040
3.504355010014748
1071
        1
1040
2405.38604622773
1040
4524.978425628335
1040
0.0
1002
}
  0
INSERT
  5
3BB
330
177
100
AcDbEntity
  8
HATCH
  6
CONTINUOUS
 62
   251
100
AcDbBlockReference
  2
*U3
 10
0.0
 20
0.0
 30
0.0
1001
ACAD
1002
{
1000
R14_HATCH_DATA
1000
3BB
1011
1.0
1021
0.0
1031
0.0
1011
0.0
1021
1.0
1031
0.0
1011
0.0
1021
0.0
1031
1.0
1040
0.0
1010
0.0
1020
0.0
1030
1.0
1000
SOLID
1070
     1
1070
     0
1071
        1
1071
        7
1070
     0
1070
     1
1071
       26
1040
2729.73404784586
1040
4269.306609316742
1040
2729.734047845861
1040
4446.856602276471
1040
2729.734047845861
1040
4517.806609316743
1040
2707.73404784586
1040
4517.806609316743
1040
1557.734047845861
1040
4517.806609316743
1040
1535.734047845861
1040
4517.806609316743
1040
1535.734047845861
1040
4446.856602276471
1040
1535.734047845861
1040
4269.306609316742
1040
1535.734047845861
1040
4091.756616357014
1040
1535.73404784586
1040
3916.806609316742
1040
1671.513553695195
1040
3916.806609316741
1040
1671.513553695195
1040
4497.806609316742
1040
1762.691143613842
1040
4497.80660931674
1040
1762.691143613843
1040
4506.806609316742
1040
1882.691143613843
1040
4506.806609316742
1040
1882.691143613843
1040
4497.80660931674
1040
2132.648239381826
1040
4497.806609316742
1040
2132.734047845861
1040
4497.806609316742
1040
2382.691143613843
1040
4497.806609316742
1040
2382.691143613843
1040
4506.806609316742
1040
2502.691143613844
1040
4506.806609316742
1040
2502.691143613844
1040
4497.806609316742
1040
2593.868733532476
1040
4497.80660931674
1040
2593.868733532474
1040
3916.806609316742
1040
2729.73404784586
1040
3916.806609316741
1040
2729.73404784586
1040
4091.756616357014
1071
        0
1070
     0
1070
     1
1040
3.504355010014748
1071
        1
1040
2696.477949675689
1040
4269.160505129304
1040
0.0
1002
}
  0
INSERT
  5
3BC
330
177
100
AcDbEntity
  8
HATCH
  6
CONTINUOUS
 62
     2
100
AcDbBlockReference
  2
*U4
 10
0.0
 20
0.0
 30
0.0
1001
ACAD
1002
{
1000
R14_HATCH_DATA
1000
3BC
1011
1.0
1021
0.0
1031
0.0
1011
0.0
1021
1.0
1031
0.0
1011
0.0
1021
0.0
1031
1.0
1040
0.0
1010
0.0
1020
0.0
1030
1.0
1000
SOLID
1070
     1
1070
     0
1071
        2
1071
        7
1070
     0
1070
     1
1071
        6
1040
2767.73404784586
1040
2391.306609316742
1040
2748.73404784586
1040
2391.306609316742
1040
2748.73404784586
1040
2266.306609316742
1040
2748.73404784586
1040
2141.306609316742
1040
2767.73404784586
1040
2141.306609316741
1040
2767.73404784586
1040
2266.306609316742
1071
        0
1071
        7
1070
     0
1070
     1
1071
        7
1040
1516.73404784586
1040
2266.306609316742
1040
1516.73404784586
1040
2391.306609316742
1040
1497.73404784586
1040
2391.306609316742
1040
1497.73404784586
1040
2266.306609316742
1040
1497.73404784586
1040
2266.306608824553
1040
1497.73404784586
1040
2141.306609316741
1040
1516.73404784586
1040
2141.306609316742
1071
        0
1070
     0
1070
     1
1040
3.604968397885807
1071
        4
1040
2759.754718487904
1040
2293.184084129881
1040
0.0
1040
1507.839553546753
1040
2271.554277897061
1040
0.0
1040
2756.146892157958
1040
2278.764213308
1040
0.0
1040
1507.839553546753
1040
2260.739367067461
1040
0.0
1002
}
  0
INSERT
  5
3BD
330
177
100
AcDbEntity
  8
HATCH
  6
CONTINUOUS
 62
     1
100
AcDbBlockReference
  2
*U5
 10
0.0
 20
0.0
 30
0.0
1001
ACAD
1002
{
1000
R14_HATCH_DATA
1000
3BD
1011
1.0
1021
0.0
1031
0.0
1011
0.0
1021
1.0
1031
0.0
1011
0.0
1021
0.0
1031
1.0
1040
0.0
1010
0.0
1020
0.0
1030
1.0
1000
SOLID
1070
     1
1070
     0
1071
        3
1071
        7
1070
     0
1070
     1
1071
        4
1040
2624.73404784586
1040
3116.80660931674
1040
2605.73404784586
1040
3116.80660931674
1040
2605.73404784586
1040
1667.806609316742
1040
2624.73404784586
1040
1667.806609316742
1071
        0
1071
        7
1070
     0
1070
     1
1071
        4
1040
1659.73404784586
1040
3116.80660931674
1040
1640.73404784586
1040
3116.80660931674
1040
1640.73404784586
1040
1667.806609316742
1040
1659.734047845859
1040
1667.806609316742
1071
        0
1071
        7
1070
     0
1070
     1
1071
        4
1040
2579.73404784586
1040
1622.806609316742
1040
2579.73404784586
1040
1641.806609316741
1040
1685.734047845859
1040
1641.806609316741
1040
1685.734047845859
1040
1622.806609316741
1071
        0
1070
     0
1070
     1
1040
3.541239237829924
1071
        3
1040
2615.794521052885
1040
2721.409245767157
1040
0.0
1040
1651.814284111311
1040
2438.110096956094
1040
0.0
1040
2027.483059270649
1040
1630.707550647952
1040
0.0
1002
}
  0
INSERT
  5
3BE
330
177
100
AcDbEntity
  8
HATCH
  6
CONTINUOUS
 62
     1
100
AcDbBlockReference
  2
*U6
 10
0.0
 20
0.0
 30
0.0
1001
ACAD
1002
{
1000
R14_HATCH_DATA
1000
3BE
1011
1.0
1021
0.0
1031
0.0
1011
0.0
1021
1.0
1031
0.0
1011
0.0
1021
0.0
1031
1.0
1040
0.0
1010
0.0
1020
0.0
1030
1.0
1000
SOLID
1070
     1
1070
     1
1071
        2
1071
        7
1070
     0
1070
     1
1071
        4
1040
2579.73404784586
1040
1597.806609316742
1040
2649.73404784586
1040
1597.806609316742
1040
2649.73404784586
1040
1667.806609316742
1040
2579.73404784586
1040
1667.806609316742
1071
        4
1005
40A
1005
407
1005
408
1005
406
1071
        7
1070
     0
1070
     1
1071
        4
1040
1615.73404784586
1040
1667.806609316742
1040
1615.73404784586
1040
1597.806609316741
1040
1685.734047845859
1040
1597.806609316742
1040
1685.734047845859
1040
1667.806609316742
1071
        4
1005
3D7
1005
3D5
1005
3D6
1005
3D4
1070
     0
1070
     1
1040
1.961144505666363
1071
        2
1040
2596.305603745401
1040
1623.934171099388
1040
0.0
1040
1638.508773932644
1040
1645.506760887157
1040
0.0
1002
}
  0
INSERT
  5
3BF
330
177
100
AcDbEntity
  8
HATCH
  6
CONTINUOUS
 62
   251
100
AcDbBlockReference
  2
*U7
 10
0.0
 20
0.0
 30
0.0
1001
ACAD
1002
{
1000
R14_HATCH_DATA
1000
3BF
1011
1.0
1021
0.0
1031
0.0
1011
0.0
1021
1.0
1031
0.0
1011
0.0
1021
0.0
1031
1.0
1040
0.0
1010
0.0
1020
0.0
1030
1.0
1000
SOLID
1070
     1
1070
     1
1071
        1
1071
        7
1070
     0
1070
     1
1071
       22
1040
2729.73404784586
1040
3116.80660931674
1040
2624.73404784586
1040
3116.80660931674
1040
2624.73404784586
1040
1667.806609316742
1040
2649.73404784586
1040
1667.806609316742
1040
2649.73404784586
1040
1597.806609316742
1040
2579.73404784586
1040
1597.806609316742
1040
2579.73404784586
1040
1622.806609316741
1040
1685.734047845859
1040
1622.806609316741
1040
1685.734047845859
1040
1597.806609316742
1040
1615.73404784586
1040
1597.806609316741
1040
1615.73404784586
1040
1667.806609316742
1040
1640.734047845859
1040
1667.806609316742
1040
1640.73404784586
1040
3116.806609316741
1040
1535.73404784586
1040
3116.80660931674
1040
1535.73404784586
1040
2443.85660227647
1040
1535.73404784586
1040
2266.306609316742
1040
1535.73404784586
1040
2088.756616357014
1040
1535.73404784586
1040
1517.806609316742
1040
2729.73404784586
1040
1517.806609316741
1040
2729.73404784586
1040
2088.756616357014
1040
2729.73404784586
1040
2266.306609316742
1040
2729.73404784586
1040
2443.85660227647
1071
       21
1005
3CC
1005
401
1005
40A
1005
406
1005
408
1005
407
1005
3CD
1005
3D4
1005
3D6
1005
3D5
1005
3D7
1005
3D0
1005
3D1
1005
3DB
1005
3DE
1005
3D3
1005
3C8
1005
405
1005
410
1005
40D
1005
403
1070
     0
1070
     1
1040
3.541239237829924
1071
        1
1040
2693.763515745355
1040
2593.924624830266
1040
0.0
1002
}
  0
INSERT
  5
3C0
330
177
100
AcDbEntity
  8
HATCH
  6
CONTINUOUS
 62
   251
100
AcDbBlockReference
  2
*U8
 10
0.0
 20
0.0
 30
0.0
1001
ACAD
1002
{
1000
R14_HATCH_DATA
1000
3C0
1011
1.0
1021
0.0
1031
0.0
1011
0.0
1021
1.0
1031
0.0
1011
0.0
1021
0.0
1031
1.0
1040
0.0
1010
0.0
1020
0.0
1030
1.0
1000
SOLID
1070
     1
1070
     1
1071
        1
1071
        7
1070
     0
1070
     1
1071
        8
1040
2605.734047845861
1040
3116.806609316741
1040
1659.73404784586
1040
3116.806609316741
1040
1659.734047845859
1040
1667.806609316742
1040
1685.734047845859
1040
1667.806609316742
1040
1685.734047845859
1040
1641.806609316741
1040
2579.73404784586
1040
1641.806609316741
1040
2579.73404784586
1040
1667.806609316741
1040
2605.73404784586
1040
1667.806609316742
1071
        8
1005
3CC
1005
3CF
1005
3D7
1005
3D4
1005
3CE
1005
407
1005
40A
1005
402
1070
     0
1070
     1
1040
3.541239237829924
1071
        1
1040
2236.581712313476
1040
2601.007101564588
1040
0.0
1002
}
  0
INSERT
  5
3C1
330
177
100
AcDbEntity
  8
HATCH
  6
CONTINUOUS
 62
   251
100
AcDbBlockReference
  2
*U9
 10
0.0
 20
0.0
 30
0.0
1001
ACAD
1002
{
1000
R14_HATCH_DATA
1000
3C1
1011
1.0
1021
0.0
1031
0.0
1011
0.0
1021
1.0
1031
0.0
1011
0.0
1021
0.0
1031
1.0
1040
0.0
1010
0.0
1020
0.0
1030
1.0
1000
SOLID
1070
     1
1070
     0
1071
        2
1071
        7
1070
     1
1070
     1
1071
       10
1040
2882.73404784586
1040
3897.806609316742
1040
0.4142135623730951
1040
2832.73404784586
1040
3947.806609316742
1040
0.0
1040
2729.73404784586
1040
3947.806609316742
1040
0.0
1040
2729.734047845861
1040
3916.806609316742
1040
0.0
1040
2782.73404784586
1040
3916.806609316742
1040
-0.4142135623730925
1040
2832.73404784586
1040
3866.806609316741
1040
0.0
1040
2832.73404784586
1040
3166.806609316742
1040
-0.0977587196328422
1040
2828.983372165248
1040
3147.806609316742
1040
0.0
1040
2832.73404784586
1040
3147.806609316742
1040
0.4142135623730952
1040
2882.73404784586
1040
3197.806609316741
1040
0.0
1071
        0
1071
        7
1070
     1
1070
     1
1071
        8
1040
1432.734047845861
1040
3866.806609316741
1040
-0.4142135623731004
1040
1482.734047845861
1040
3916.806609316742
1040
0.0
1040
1535.73404784586
1040
3916.806609316742
1040
0.0
1040
1535.73404784586
1040
3966.806609316742
1040
0.0
1040
1432.73404784586
1040
3966.806609316742
1040
0.414213562373099
1040
1382.73404784586
1040
3916.806609316742
1040
0.0
1040
1382.73404784586
1040
3216.806609316742
1040
0.4142135623730951
1040
1432.73404784586
1040
3166.806609316742
1040
0.0
1071
        0
1070
     0
1070
     1
1040
3.504355010014748
1071
        2
1040
2868.327412089893
1040
3641.880950998162
1040
0.0
1040
1409.36065132081
1040
3578.802565627309
1040
0.0
1002
}
  0
INSERT
  5
3C2
330
177
100
AcDbEntity
  8
HATCH
  6
CONTINUOUS
 62
     3
100
AcDbBlockReference
  2
*U10
 10
0.0
 20
0.0
 30
0.0
1001
ACAD
1002
{
1000
R14_HATCH_DATA
1000
3C2
1011
1.0
1021
0.0
1031
0.0
1011
0.0
1021
1.0
1031
0.0
1011
0.0
1021
0.0
1031
1.0
1040
0.0
1010
0.0
1020
0.0
1030
1.0
1000
SOLID
1070
     1
1070
     1
1071
        1
1071
        7
1070
     1
1070
     1
1071
        8
1040
2782.73404784586
1040
3116.806609316741
1040
0.4142135623730951
1040
2832.73404784586
1040
3166.80660931674
1040
0.0
1040
2832.73404784586
1040
3866.806609316741
1040
0.4142135623731004
1040
2782.73404784586
1040
3916.806609316742
1040
0.0
1040
1482.734047845861
1040
3916.806609316742
1040
0.4142135623730951
1040
1432.734047845861
1040
3866.806609316741
1040
0.0
1040
1432.73404784586
1040
3166.806609316742
1040
0.4142135623731004
1040
1482.73404784586
1040
3116.806609316741
1040
0.0
1071
        8
1005
417
1005
3CB
1005
3E5
1005
3EA
1005
3E7
1005
3CC
1005
419
1005
435
1070
     0
1070
     1
1040
3.504355010014748
1071
        1
1040
2184.436741979654
1040
3435.1239991053
1040
0.0
1002
}
  0
INSERT
  5
3C3
330
177
100
AcDbEntity
  8
HATCH
  6
CONTINUOUS
 62
     1
100
AcDbBlockReference
  2
*U11
 10
0.0
 20
0.0
 30
0.0
1001
ACAD
1002
{
1000
R14_HATCH_DATA
1000
3C3
1011
1.0
1021
0.0
1031
0.0
1011
0.0
1021
1.0
1031
0.0
1011
0.0
1021
0.0
1031
1.0
1040
0.0
1010
0.0
1020
0.0
1030
1.0
1000
SOLID
1070
     1
1070
     1
1071
        2
1071
        7
1070
     0
1070
     1
1071
        4
1040
2132.734047845861
1040
4497.806609316742
1040
2132.734047845861
1040
3916.806609316742
1040
2593.868733532473
1040
3916.806609316742
1040
2593.868733532476
1040
4497.806609316742
1071
        4
1005
41E
1005
41A
1005
3CB
1005
41B
1071
        7
1070
     0
1070
     1
1071
        6
1040
2132.734047845861
1040
4497.806609316742
1040
2132.691143613843
1040
4497.806609316742
1040
2132.648239381826
1040
4497.806609316742
1040
1671.513553695195
1040
4497.806609316742
1040
1671.513553695195
1040
3916.806609316742
1040
2132.734047845861
1040
3916.806609316742
1071
        6
1005
420
1005
41F
1005
3C5
1005
3EC
1005
3CB
1005
41A
1070
     0
1070
     1
1040
3.504355010014748
1071
        2
1040
2391.357519989476
1040
4300.699697814729
1040
0.0
1040
2093.251321431045
1040
4265.656145973244
1040
0.0
1002
}
  0
MTEXT
  5
3C4
330
177
100
AcDbEntity
  8
TEKST
100
AcDbMText
 10
1668.386075665079
 20
5312.798906956333
 30
0.0
 40
75.18097186823435
 41
868.6785999999997
 71
     1
 72
     1
  1
{\FIMPACT.TTF;Hoogte: 173 cm\PMax. valhoogte: 73 cm}
1001
ACAD
1000
MTEXTBEGIN
1070
    73
1070
     1
1070
    44
1040
1.0
1070
    74
1070
     0
1000
MTEXTEND
1000
MTEXTBEGIN
1070
    73
1070
     1
1070
    44
1040
1.0
1070
    74
1070
     0
1000
MTEXTEND
  0
LINE
  5
3C5
330
177
100
AcDbEntity
  8
OBJECT
100
AcDbLine
 10
2132.648239381826
 20
4497.806609316742
 30
0.0
 11
1671.513553695195
 21
4497.806609316742
 31
0.0
  0
POLYLINE
  5
3C6
330
177
100
AcDbEntity
  8
SAFETY
100
AcDb2dPolyline
 66
     1
 10
0.0
 20
0.0
 30
0.0
  0
VERTEX
  5
4DA
330
3C6
100
AcDbEntity
  8
SAFETY
100
AcDbVertex
100
AcDb2dVertex
 10
4229.704090169147
 20
1508.32651793274
 30
0.0
  0
VERTEX
  5
4DB
330
3C6
100
AcDbEntity
  8
SAFETY
100
AcDbVertex
100
AcDb2dVertex
 10
4248.614218335646
 20
4500.34680521623
 30
0.0
 42
0.4179206576843609
  0
VERTEX
  5
4DC
330
3C6
100
AcDbEntity
  8
SAFETY
100
AcDbVertex
100
AcDb2dVertex
 10
2748.734047845847
 20
6019.306609316743
 30
0.0
  0
VERTEX
  5
4DD
330
3C6
100
AcDbEntity
  8
SAFETY
100
AcDbVertex
100
AcDb2dVertex
 10
1516.734047845861
 20
6019.306609316743
 30
0.0
 42
0.4179265196520439
  0
VERTEX
  5
4DE
330
3C6
100
AcDbEntity
  8
SAFETY
100
AcDbVertex
100
AcDb2dVertex
 10
16.85425611929008
 20
4500.316865499086
 30
0.0
  0
SEQEND
  5
4DF
330
3C6
100
AcDbEntity
  8
SAFETY
  0
POLYLINE
  5
3C7
330
177
100
AcDbEntity
  8
SAFETY
100
AcDb2dPolyline
 66
     1
 10
0.0
 20
0.0
 30
0.0
  0
VERTEX
  5
4E0
330
3C7
100
AcDbEntity
  8
SAFETY
100
AcDbVertex
100
AcDb2dVertex
 10
16.85425611918253
 20
4500.31686550754
 30
0.0
  0
VERTEX
  5
4E1
330
3C7
100
AcDbEntity
  8
SAFETY
100
AcDbVertex
100
AcDb2dVertex
 10
35.73404784586023
 20
1517.806609316767
 30
0.0
 42
0.4142135623730951
  0
VERTEX
  5
4E2
330
3C7
100
AcDbEntity
  8
SAFETY
100
AcDbVertex
100
AcDb2dVertex
 10
1535.73404784586
 20
17.80660931674264
 30
0.0
  0
VERTEX
  5
4E3
330
3C7
100
AcDbEntity
  8
SAFETY
100
AcDbVertex
100
AcDb2dVertex
 10
2729.73404784586
 20
17.80660931674173
 30
0.0
 42
0.4123636562261776
  0
VERTEX
  5
4E4
330
3C7
100
AcDbEntity
  8
SAFETY
100
AcDbVertex
100
AcDb2dVertex
 10
4229.704090169094
 20
1508.326517922816
 30
0.0
  0
SEQEND
  5
4E5
330
3C7
100
AcDbEntity
  8
SAFETY
  0
LINE
  5
3C8
330
177
100
AcDbEntity
  8
OBJECT
100
AcDbLine
 10
2729.73404784586
 20
1517.806609316741
 30
0.0
 11
1535.73404784586
 21
1517.806609316742
 31
0.0
  0
LINE
  5
3C9
330
177
100
AcDbEntity
  8
OBJECT
100
AcDbLine
 10
2707.73404784586
 20
4536.806609316744
 30
0.0
 11
1557.734047845861
 21
4536.806609316744
 31
0.0
  0
LINE
  5
3CA
330
177
100
AcDbEntity
  8
OBJECT
100
AcDbLine
 10
2707.73404784586
 20
4517.806609316743
 30
0.0
 11
1557.734047845861
 21
4517.806609316743
 31
0.0
  0
LINE
  5
3CB
330
177
100
AcDbEntity
  8
OBJECT
100
AcDbLine
 10
2782.73404784586
 20
3916.806609316742
 30
0.0
 11
1482.734047845861
 21
3916.806609316742
 31
0.0
  0
LINE
  5
3CC
330
177
100
AcDbEntity
  8
OBJECT
100
AcDbLine
 10
1482.73404784586
 20
3116.806609316741
 30
0.0
 11
2782.73404784586
 21
3116.806609316741
 31
0.0
  0
LINE
  5
3CD
330
177
100
AcDbEntity
  8
OBJECT
100
AcDbLine
 10
2579.73404784586
 20
1622.806609316742
 30
0.0
 11
1685.734047845859
 21
1622.806609316742
 31
0.0
  0
LINE
  5
3CE
330
177
100
AcDbEntity
  8
OBJECT
100
AcDbLine
 10
2579.73404784586
 20
1641.806609316741
 30
0.0
 11
1685.734047845859
 21
1641.806609316741
 31
0.0
  0
LINE
  5
3CF
330
177
100
AcDbEntity
  8
OBJECT
100
AcDbLine
 10
1659.73404784586
 20
3116.806609316741
 30
0.0
 11
1659.73404784586
 21
1667.806609316742
 31
0.0
  0
LINE
  5
3D0
330
177
100
AcDbEntity
  8
OBJECT
100
AcDbLine
 10
1640.73404784586
 20
3116.806609316741
 30
0.0
 11
1640.73404784586
 21
1667.806609316742
 31
0.0
  0
LINE
  5
3D1
330
177
100
AcDbEntity
  8
OBJECT
100
AcDbLine
 10
1535.73404784586
 20
2443.85660227647
 30
0.0
 11
1535.73404784586
 21
3116.806609316741
 31
0.0
  0
LINE
  5
3D2
330
177
100
AcDbEntity
  8
OBJECT
100
AcDbLine
 10
1516.73404784586
 20
2016.306609316742
 30
0.0
 11
1516.73404784586
 21
2266.306609316742
 31
0.0
  0
LINE
  5
3D3
330
177
100
AcDbEntity
  8
OBJECT
100
AcDbLine
 10
1535.73404784586
 20
1517.806609316742
 30
0.0
 11
1535.73404784586
 21
2088.756616357014
 31
0.0
  0
LINE
  5
3D4
330
177
100
AcDbEntity
  8
OBJECT
100
AcDbLine
 10
1685.734047845859
 20
1667.806609316742
 30
0.0
 11
1685.734047845859
 21
1597.806609316742
 31
0.0
  0
LINE
  5
3D5
330
177
100
AcDbEntity
  8
OBJECT
100
AcDbLine
 10
1615.73404784586
 20
1597.806609316742
 30
0.0
 11
1615.73404784586
 21
1667.806609316742
 31
0.0
  0
LINE
  5
3D6
330
177
100
AcDbEntity
  8
OBJECT
100
AcDbLine
 10
1685.734047845859
 20
1597.806609316742
 30
0.0
 11
1615.73404784586
 21
1597.806609316742
 31
0.0
  0
LINE
  5
3D7
330
177
100
AcDbEntity
  8
OBJECT
100
AcDbLine
 10
1615.73404784586
 20
1667.806609316742
 30
0.0
 11
1685.734047845859
 21
1667.806609316742
 31
0.0
  0
LINE
  5
3D8
330
177
100
AcDbEntity
  8
OBJECT
100
AcDbLine
 10
1516.73404784586
 20
2016.306609316742
 30
0.0
 11
1535.73404784586
 21
2016.306609316742
 31
0.0
  0
LINE
  5
3D9
330
177
100
AcDbEntity
  8
OBJECT
100
AcDbLine
 10
1659.73404784586
 20
1667.806609316742
 30
0.0
 11
1640.73404784586
 21
1667.806609316742
 31
0.0
  0
LINE
  5
3DA
330
177
100
AcDbEntity
  8
OBJECT
100
AcDbLine
 10
1685.734047845859
 20
1622.806609316742
 30
0.0
 11
1685.734047845859
 21
1641.806609316741
 31
0.0
  0
LINE
  5
3DB
330
177
100
AcDbEntity
  8
OBJECT
100
AcDbLine
 10
1535.73404784586
 20
2443.85660227647
 30
0.0
 11
1535.73404784586
 21
2266.306609316742
 31
0.0
  0
LINE
  5
3DC
330
177
100
AcDbEntity
  8
OBJECT
100
AcDbLine
 10
1497.73404784586
 20
2266.306609316742
 30
0.0
 11
1497.73404784586
 21
2391.306609316742
 31
0.0
  0
LINE
  5
3DD
330
177
100
AcDbEntity
  8
OBJECT
100
AcDbLine
 10
1516.73404784586
 20
2266.306609316742
 30
0.0
 11
1516.73404784586
 21
2516.306609316742
 31
0.0
  0
LINE
  5
3DE
330
177
100
AcDbEntity
  8
OBJECT
100
AcDbLine
 10
1535.73404784586
 20
2266.306609316742
 30
0.0
 11
1535.73404784586
 21
2088.756616357014
 31
0.0
  0
LINE
  5
3DF
330
177
100
AcDbEntity
  8
OBJECT
100
AcDbLine
 10
1497.73404784586
 20
2141.306609316742
 30
0.0
 11
1497.73404784586
 21
2266.306609316742
 31
0.0
  0
LINE
  5
3E0
330
177
100
AcDbEntity
  8
OBJECT
100
AcDbLine
 10
1516.73404784586
 20
2141.306609316742
 30
0.0
 11
1497.73404784586
 21
2141.306609316742
 31
0.0
  0
ARC
  5
3E1
330
177
100
AcDbEntity
  8
OBJECT
100
AcDbCircle
 10
1511.794602592195
 20
2266.306612641709
 30
0.0
 40
19.84185474633748
100
AcDbArc
 50
135.1236554804403
 51
224.8763669971554
  0
LINE
  5
3E2
330
177
100
AcDbEntity
  8
OBJECT
100
AcDbLine
 10
1497.73404784586
 20
2266.306608824553
 30
0.0
 11
1497.734045099754
 21
2280.306609883743
 31
0.0
  0
LINE
  5
3E3
330
177
100
AcDbEntity
  8
OBJECT
100
AcDbLine
 10
1516.73404784586
 20
2391.306609316742
 30
0.0
 11
1497.73404784586
 21
2391.306609316742
 31
0.0
  0
LINE
  5
3E4
330
177
100
AcDbEntity
  8
OBJECT
100
AcDbLine
 10
1516.73404784586
 20
2516.306609316742
 30
0.0
 11
1535.73404784586
 21
2516.306609316742
 31
0.0
  0
ARC
  5
3E5
330
177
100
AcDbEntity
  8
OBJECT
100
AcDbCircle
 10
1482.734047845861
 20
3866.806609316741
 30
0.0
 40
50.0
100
AcDbArc
 50
90.0
 51
180.0
  0
LINE
  5
3E6
330
177
100
AcDbEntity
  8
OBJECT
100
AcDbLine
 10
1432.734047845861
 20
3966.806609316742
 30
0.0
 11
1535.734047845861
 21
3966.806609316742
 31
0.0
  0
ARC
  5
3E7
330
177
100
AcDbEntity
  8
OBJECT
100
AcDbCircle
 10
1482.73404784586
 20
3166.806609316742
 30
0.0
 40
50.0
100
AcDbArc
 50
180.0
 51
270.0
  0
ARC
  5
3E8
330
177
100
AcDbEntity
  8
OBJECT
100
AcDbCircle
 10
1432.734047845861
 20
3916.806609316742
 30
0.0
 40
50.0
100
AcDbArc
 50
90.0
 51
180.0
  0
LINE
  5
3E9
330
177
100
AcDbEntity
  8
OBJECT
100
AcDbLine
 10
1382.73404784586
 20
3216.806609316742
 30
0.0
 11
1382.73404784586
 21
3916.806609316742
 31
0.0
  0
LINE
  5
3EA
330
177
100
AcDbEntity
  8
OBJECT
100
AcDbLine
 10
1432.734047845861
 20
3866.806609316741
 30
0.0
 11
1432.73404784586
 21
3166.806609316743
 31
0.0
  0
ARC
  5
3EB
330
177
100
AcDbEntity
  8
OBJECT
100
AcDbCircle
 10
1432.73404784586
 20
3216.806609316742
 30
0.0
 40
50.0
100
AcDbArc
 50
180.0
 51
270.0
  0
LINE
  5
3EC
330
177
100
AcDbEntity
  8
OBJECT
100
AcDbLine
 10
1671.513553695195
 20
4497.806609316742
 30
0.0
 11
1671.513553695195
 21
3916.806609316742
 31
0.0
  0
LINE
  5
3ED
330
177
100
AcDbEntity
  8
OBJECT
100
AcDbLine
 10
1535.734047845861
 20
3916.806609316742
 30
0.0
 11
1535.734047845861
 21
4091.756616357014
 31
0.0
  0
LINE
  5
3EE
330
177
100
AcDbEntity
  8
OBJECT
100
AcDbLine
 10
1762.691143613843
 20
4506.806609316742
 30
0.0
 11
1882.691143613843
 21
4506.806609316742
 31
0.0
  0
LINE
  5
3EF
330
177
100
AcDbEntity
  8
OBJECT
100
AcDbLine
 10
1516.734047845861
 20
4269.306609316742
 30
0.0
 11
1516.734047845861
 21
4519.306609316742
 31
0.0
  0
LINE
  5
3F0
330
177
100
AcDbEntity
  8
OBJECT
100
AcDbLine
 10
1535.734047845861
 20
4446.856602276471
 30
0.0
 11
1535.734047845861
 21
4269.306609316742
 31
0.0
  0
LINE
  5
3F1
330
177
100
AcDbEntity
  8
OBJECT
100
AcDbLine
 10
1535.734047845861
 20
4269.306609316742
 30
0.0
 11
1535.734047845861
 21
4091.756616357014
 31
0.0
  0
LINE
  5
3F2
330
177
100
AcDbEntity
  8
OBJECT
100
AcDbLine
 10
1497.73404784586
 20
4144.306609316742
 30
0.0
 11
1497.73404784586
 21
4269.306609316742
 31
0.0
  0
LINE
  5
3F3
330
177
100
AcDbEntity
  8
OBJECT
100
AcDbLine
 10
1516.734047845861
 20
4019.306609316742
 30
0.0
 11
1516.734047845861
 21
4269.306609316742
 31
0.0
  0
LINE
  5
3F4
330
177
100
AcDbEntity
  8
OBJECT
100
AcDbLine
 10
1516.734047845861
 20
4019.306609316742
 30
0.0
 11
1535.734047845861
 21
4019.306609316742
 31
0.0
  0
LINE
  5
3F5
330
177
100
AcDbEntity
  8
OBJECT
100
AcDbLine
 10
1516.734047845861
 20
4144.306609316742
 30
0.0
 11
1497.73404784586
 21
4144.306609316742
 31
0.0
  0
LINE
  5
3F6
330
177
100
AcDbEntity
  8
OBJECT
100
AcDbLine
 10
1497.73404784586
 20
4269.306609316742
 30
0.0
 11
1497.73404784586
 21
4394.306609316742
 31
0.0
  0
ARC
  5
3F7
330
177
100
AcDbEntity
  8
OBJECT
100
AcDbCircle
 10
1511.794602592195
 20
4269.30661264171
 30
0.0
 40
19.84185474633748
100
AcDbArc
 50
135.1236554804403
 51
224.8763669971554
  0
LINE
  5
3F8
330
177
100
AcDbEntity
  8
OBJECT
100
AcDbLine
 10
1497.73404784586
 20
4269.306608824552
 30
0.0
 11
1497.734045099754
 21
4283.306609883744
 31
0.0
  0
LINE
  5
3F9
330
177
100
AcDbEntity
  8
OBJECT
100
AcDbLine
 10
1516.734047845861
 20
4394.306609316742
 30
0.0
 11
1497.73404784586
 21
4394.306609316742
 31
0.0
  0
LINE
  5
3FA
330
177
100
AcDbEntity
  8
OBJECT
100
AcDbLine
 10
1532.734047845861
 20
4536.806609316744
 30
0.0
 11
1557.734047845861
 21
4536.806609316744
 31
0.0
  0
LINE
  5
3FB
330
177
100
AcDbEntity
  8
OBJECT
100
AcDbLine
 10
1557.734047845861
 20
4517.806609316743
 30
0.0
 11
1532.734047845861
 21
4517.806609316743
 31
0.0
  0
LINE
  5
3FC
330
177
100
AcDbEntity
  8
OBJECT
100
AcDbLine
 10
1535.734047845861
 20
4446.856602276471
 30
0.0
 11
1535.734047845861
 21
4517.806609316743
 31
0.0
  0
LINE
  5
3FD
330
177
100
AcDbEntity
  8
OBJECT
100
AcDbLine
 10
1516.734047845861
 20
4519.306609316742
 30
0.0
 11
1532.734047845861
 21
4519.306609316742
 31
0.0
  0
LINE
  5
3FE
330
177
100
AcDbEntity
  8
OBJECT
100
AcDbLine
 10
1532.734047845861
 20
4536.806609316744
 30
0.0
 11
1532.734047845861
 21
4517.806609316743
 31
0.0
  0
LINE
  5
3FF
330
177
100
AcDbEntity
  8
OBJECT
100
AcDbLine
 10
1762.691143613843
 20
4497.806609316742
 30
0.0
 11
1762.691143613843
 21
4506.806609316742
 31
0.0
  0
LINE
  5
400
330
177
100
AcDbEntity
  8
OBJECT
100
AcDbLine
 10
1882.691143613843
 20
4497.806609316742
 30
0.0
 11
1882.691143613843
 21
4506.806609316742
 31
0.0
  0
LINE
  5
401
330
177
100
AcDbEntity
  8
OBJECT
100
AcDbLine
 10
2624.73404784586
 20
3116.806609316741
 30
0.0
 11
2624.73404784586
 21
1667.806609316742
 31
0.0
  0
LINE
  5
402
330
177
100
AcDbEntity
  8
OBJECT
100
AcDbLine
 10
2605.73404784586
 20
3116.806609316741
 30
0.0
 11
2605.73404784586
 21
1667.806609316742
 31
0.0
  0
LINE
  5
403
330
177
100
AcDbEntity
  8
OBJECT
100
AcDbLine
 10
2729.73404784586
 20
3116.806609316741
 30
0.0
 11
2729.73404784586
 21
2443.85660227647
 31
0.0
  0
LINE
  5
404
330
177
100
AcDbEntity
  8
OBJECT
100
AcDbLine
 10
2748.73404784586
 20
2266.306609316742
 30
0.0
 11
2748.73404784586
 21
2016.306609316742
 31
0.0
  0
LINE
  5
405
330
177
100
AcDbEntity
  8
OBJECT
100
AcDbLine
 10
2729.73404784586
 20
2088.756616357014
 30
0.0
 11
2729.73404784586
 21
1517.806609316741
 31
0.0
  0
LINE
  5
406
330
177
100
AcDbEntity
  8
OBJECT
100
AcDbLine
 10
2649.73404784586
 20
1667.806609316742
 30
0.0
 11
2649.73404784586
 21
1597.806609316742
 31
0.0
  0
LINE
  5
407
330
177
100
AcDbEntity
  8
OBJECT
100
AcDbLine
 10
2579.73404784586
 20
1597.806609316742
 30
0.0
 11
2579.73404784586
 21
1667.806609316742
 31
0.0
  0
LINE
  5
408
330
177
100
AcDbEntity
  8
OBJECT
100
AcDbLine
 10
2649.73404784586
 20
1597.806609316742
 30
0.0
 11
2579.73404784586
 21
1597.806609316742
 31
0.0
  0
LINE
  5
409
330
177
100
AcDbEntity
  8
OBJECT
100
AcDbLine
 10
2624.73404784586
 20
1667.806609316742
 30
0.0
 11
2605.73404784586
 21
1667.806609316742
 31
0.0
  0
LINE
  5
40A
330
177
100
AcDbEntity
  8
OBJECT
100
AcDbLine
 10
2579.73404784586
 20
1667.806609316742
 30
0.0
 11
2649.73404784586
 21
1667.806609316742
 31
0.0
  0
LINE
  5
40B
330
177
100
AcDbEntity
  8
OBJECT
100
AcDbLine
 10
2579.73404784586
 20
1622.806609316742
 30
0.0
 11
2579.73404784586
 21
1641.806609316741
 31
0.0
  0
LINE
  5
40C
330
177
100
AcDbEntity
  8
OBJECT
100
AcDbLine
 10
2748.73404784586
 20
2016.306609316742
 30
0.0
 11
2729.73404784586
 21
2016.306609316742
 31
0.0
  0
LINE
  5
40D
330
177
100
AcDbEntity
  8
OBJECT
100
AcDbLine
 10
2729.73404784586
 20
2266.306609316742
 30
0.0
 11
2729.73404784586
 21
2443.85660227647
 31
0.0
  0
LINE
  5
40E
330
177
100
AcDbEntity
  8
OBJECT
100
AcDbLine
 10
2767.73404784586
 20
2391.306609316742
 30
0.0
 11
2767.73404784586
 21
2266.306609316742
 31
0.0
  0
LINE
  5
40F
330
177
100
AcDbEntity
  8
OBJECT
100
AcDbLine
 10
2748.73404784586
 20
2516.306609316742
 30
0.0
 11
2748.73404784586
 21
2266.306609316742
 31
0.0
  0
LINE
  5
410
330
177
100
AcDbEntity
  8
OBJECT
100
AcDbLine
 10
2729.73404784586
 20
2088.756616357014
 30
0.0
 11
2729.73404784586
 21
2266.306609316742
 31
0.0
  0
LINE
  5
411
330
177
100
AcDbEntity
  8
OBJECT
100
AcDbLine
 10
2767.73404784586
 20
2266.306609316742
 30
0.0
 11
2767.73404784586
 21
2141.306609316742
 31
0.0
  0
LINE
  5
412
330
177
100
AcDbEntity
  8
OBJECT
100
AcDbLine
 10
2748.73404784586
 20
2141.306609316742
 30
0.0
 11
2767.73404784586
 21
2141.306609316742
 31
0.0
  0
ARC
  5
413
330
177
100
AcDbEntity
  8
OBJECT
100
AcDbCircle
 10
2753.673493099511
 20
2266.306605991775
 30
0.0
 40
19.84185474633748
100
AcDbArc
 50
315.1236554804403
 51
44.87636699715543
  0
LINE
  5
414
330
177
100
AcDbEntity
  8
OBJECT
100
AcDbLine
 10
2767.73404784586
 20
2266.306608627898
 30
0.0
 11
2767.734050591952
 21
2252.30660874974
 31
0.0
  0
LINE
  5
415
330
177
100
AcDbEntity
  8
OBJECT
100
AcDbLine
 10
2748.73404784586
 20
2391.306609316742
 30
0.0
 11
2767.73404784586
 21
2391.306609316742
 31
0.0
  0
LINE
  5
416
330
177
100
AcDbEntity
  8
OBJECT
100
AcDbLine
 10
2748.73404784586
 20
2516.306609316742
 30
0.0
 11
2729.73404784586
 21
2516.306609316742
 31
0.0
  0
ARC
  5
417
330
177
100
AcDbEntity
  8
OBJECT
100
AcDbCircle
 10
2782.73404784586
 20
3866.806609316741
 30
0.0
 40
50.0
100
AcDbArc
 50
0.0
 51
90.0
  0
LINE
  5
418
330
177
100
AcDbEntity
  8
OBJECT
100
AcDbLine
 10
2729.73404784586
 20
3947.806609316742
 30
0.0
 11
2832.73404784586
 21
3947.806609316742
 31
0.0
  0
ARC
  5
419
330
177
100
AcDbEntity
  8
OBJECT
100
AcDbCircle
 10
2782.73404784586
 20
3166.806609316742
 30
0.0
 40
50.0
100
AcDbArc
 50
270.0
 51
0.0
  0
LINE
  5
41A
330
177
100
AcDbEntity
  8
OBJECT
100
AcDbLine
 10
2132.734047845861
 20
3916.806609316742
 30
0.0
 11
2132.734047845861
 21
4497.806609316742
 31
0.0
  0
LINE
  5
41B
330
177
100
AcDbEntity
  8
OBJECT
100
AcDbLine
 10
2593.868733532474
 20
3916.806609316742
 30
0.0
 11
2593.868733532476
 21
4497.806609316742
 31
0.0
  0
LINE
  5
41C
330
177
100
AcDbEntity
  8
OBJECT
100
AcDbLine
 10
2729.73404784586
 20
4091.756616357014
 30
0.0
 11
2729.73404784586
 21
3916.806609316742
 31
0.0
  0
LINE
  5
41D
330
177
100
AcDbEntity
  8
OBJECT
100
AcDbLine
 10
2382.691143613843
 20
4506.806609316742
 30
0.0
 11
2502.691143613844
 21
4506.806609316742
 31
0.0
  0
LINE
  5
41E
330
177
100
AcDbEntity
  8
OBJECT
100
AcDbLine
 10
2593.868733532476
 20
4497.806609316742
 30
0.0
 11
2132.734047845861
 21
4497.806609316742
 31
0.0
  0
LINE
  5
41F
330
177
100
AcDbEntity
  8
OBJECT
100
AcDbLine
 10
2132.691143613843
 20
4497.806609316742
 30
0.0
 11
2132.648239381826
 21
4497.806609316742
 31
0.0
  0
LINE
  5
420
330
177
100
AcDbEntity
  8
OBJECT
100
AcDbLine
 10
2132.734047845861
 20
4497.806609316742
 30
0.0
 11
2132.691143613843
 21
4497.806609316742
 31
0.0
  0
LINE
  5
421
330
177
100
AcDbEntity
  8
OBJECT
100
AcDbLine
 10
2382.691143613843
 20
4497.806609316742
 30
0.0
 11
2382.691143613843
 21
4506.806609316742
 31
0.0
  0
LINE
  5
422
330
177
100
AcDbEntity
  8
OBJECT
100
AcDbLine
 10
2748.734047845861
 20
4519.306609316742
 30
0.0
 11
2748.73404784586
 21
4269.306609316742
 31
0.0
  0
LINE
  5
423
330
177
100
AcDbEntity
  8
OBJECT
100
AcDbLine
 10
2729.73404784586
 20
4269.306609316742
 30
0.0
 11
2729.734047845861
 21
4446.856602276471
 31
0.0
  0
LINE
  5
424
330
177
100
AcDbEntity
  8
OBJECT
100
AcDbLine
 10
2729.73404784586
 20
4091.756616357014
 30
0.0
 11
2729.73404784586
 21
4269.306609316742
 31
0.0
  0
LINE
  5
425
330
177
100
AcDbEntity
  8
OBJECT
100
AcDbLine
 10
2767.73404784586
 20
4269.306609316742
 30
0.0
 11
2767.73404784586
 21
4144.306609316742
 31
0.0
  0
LINE
  5
426
330
177
100
AcDbEntity
  8
OBJECT
100
AcDbLine
 10
2748.73404784586
 20
4269.306609316742
 30
0.0
 11
2748.73404784586
 21
4019.306609316742
 31
0.0
  0
LINE
  5
427
330
177
100
AcDbEntity
  8
OBJECT
100
AcDbLine
 10
2748.73404784586
 20
4019.306609316742
 30
0.0
 11
2729.73404784586
 21
4019.306609316742
 31
0.0
  0
LINE
  5
428
330
177
100
AcDbEntity
  8
OBJECT
100
AcDbLine
 10
2748.73404784586
 20
4144.306609316742
 30
0.0
 11
2767.73404784586
 21
4144.306609316742
 31
0.0
  0
LINE
  5
429
330
177
100
AcDbEntity
  8
OBJECT
100
AcDbLine
 10
2767.734047845861
 20
4394.306609316742
 30
0.0
 11
2767.73404784586
 21
4269.306609316742
 31
0.0
  0
ARC
  5
42A
330
177
100
AcDbEntity
  8
OBJECT
100
AcDbCircle
 10
2753.673493099511
 20
4269.306605991775
 30
0.0
 40
19.84185474633748
100
AcDbArc
 50
315.1236554804403
 51
44.87636699715543
  0
LINE
  5
42B
330
177
100
AcDbEntity
  8
OBJECT
100
AcDbLine
 10
2767.73404784586
 20
4269.306610946266
 30
0.0
 11
2767.734050591952
 21
4255.306608749742
 31
0.0
  0
LINE
  5
42C
330
177
100
AcDbEntity
  8
OBJECT
100
AcDbLine
 10
2748.734047845861
 20
4394.306609316742
 30
0.0
 11
2767.734047845861
 21
4394.306609316742
 31
0.0
  0
LINE
  5
42D
330
177
100
AcDbEntity
  8
OBJECT
100
AcDbLine
 10
2502.691143613844
 20
4497.806609316742
 30
0.0
 11
2502.691143613844
 21
4506.806609316742
 31
0.0
  0
LINE
  5
42E
330
177
100
AcDbEntity
  8
OBJECT
100
AcDbLine
 10
2748.734047845861
 20
4519.306609316742
 30
0.0
 11
2732.734047845861
 21
4519.306609316742
 31
0.0
  0
LINE
  5
42F
330
177
100
AcDbEntity
  8
OBJECT
100
AcDbLine
 10
2729.734047845861
 20
4517.806609316743
 30
0.0
 11
2729.734047845861
 21
4446.856602276471
 31
0.0
  0
LINE
  5
430
330
177
100
AcDbEntity
  8
OBJECT
100
AcDbLine
 10
2732.734047845861
 20
4517.806609316743
 30
0.0
 11
2732.734047845861
 21
4536.806609316744
 31
0.0
  0
LINE
  5
431
330
177
100
AcDbEntity
  8
OBJECT
100
AcDbLine
 10
2732.734047845861
 20
4517.806609316743
 30
0.0
 11
2707.73404784586
 21
4517.806609316743
 31
0.0
  0
LINE
  5
432
330
177
100
AcDbEntity
  8
OBJECT
100
AcDbLine
 10
2707.73404784586
 20
4536.806609316744
 30
0.0
 11
2732.734047845861
 21
4536.806609316744
 31
0.0
  0
ARC
  5
433
330
177
100
AcDbEntity
  8
OBJECT
100
AcDbCircle
 10
2832.73404784586
 20
3897.806609316742
 30
0.0
 40
50.0
100
AcDbArc
 50
0.0
 51
90.0
  0
LINE
  5
434
330
177
100
AcDbEntity
  8
OBJECT
100
AcDbLine
 10
2882.73404784586
 20
3897.806609316742
 30
0.0
 11
2882.73404784586
 21
3197.80660931674
 31
0.0
  0
LINE
  5
435
330
177
100
AcDbEntity
  8
OBJECT
100
AcDbLine
 10
2832.73404784586
 20
3166.806609316742
 30
0.0
 11
2832.73404784586
 21
3866.806609316741
 31
0.0
  0
ARC
  5
436
330
177
100
AcDbEntity
  8
OBJECT
100
AcDbCircle
 10
2832.73404784586
 20
3197.80660931674
 30
0.0
 40
50.0
100
AcDbArc
 50
270.0
 51
0.0
  0
LINE
  5
437
330
177
100
AcDbEntity
  8
OBJECT
100
AcDbLine
 10
2832.73404784586
 20
3147.806609316742
 30
0.0
 11
2828.98337216525
 21
3147.806609316742
 31
0.0
  0
INSERT
  5
438
330
177
100
AcDbEntity
  8
HATCH
  6
CONTINUOUS
 62
     7
100
AcDbBlockReference
  2
*U12
 10
0.0
 20
0.0
 30
0.0
1001
ACAD
1002
{
1000
R14_HATCH_DATA
1000
438
1011
1.0
1021
0.0
1031
0.0
1011
0.0
1021
1.0
1031
0.0
1011
0.0
1021
0.0
1031
1.0
1040
0.0
1010
0.0
1020
0.0
1030
1.0
1000
SOLID
1070
     1
1070
     0
1071
        2
1071
        7
1070
     0
1070
     1
1071
       10
1040
2748.734047845861
1040
4519.306609316742
1040
2732.734047845861
1040
4519.306609316742
1040
2732.734047845861
1040
4517.806609316743
1040
2729.734047845861
1040
4517.806609316743
1040
2729.734047845861
1040
4446.856602276471
1040
2729.73404784586
1040
4269.306609316742
1040
2729.73404784586
1040
4091.756616357014
1040
2729.73404784586
1040
4019.306609316742
1040
2748.73404784586
1040
4019.306609316742
1040
2748.73404784586
1040
4269.306609316742
1071
        0
1071
        7
1070
     0
1070
     1
1071
       10
1040
1535.734047845861
1040
4446.856602276471
1040
1535.734047845861
1040
4517.806609316743
1040
1532.734047845861
1040
4517.806609316743
1040
1532.734047845861
1040
4519.306609316742
1040
1516.734047845861
1040
4519.306609316742
1040
1516.734047845861
1040
4269.306609316742
1040
1516.734047845861
1040
4019.306609316742
1040
1535.734047845861
1040
4019.306609316742
1040
1535.734047845861
1040
4091.756616357014
1040
1535.734047845861
1040
4269.306609316742
1071
        0
1070
     0
1070
     1
1040
3.504355010014748
1071
        2
1040
2742.070675945666
1040
4290.186640206109
1040
0.0
1040
1528.603124345914
1040
4276.169223441426
1040
0.0
1002
}
  0
LINE
  5
439
330
177
100
AcDbEntity
  8
HATCH
 62
     1
100
AcDbLine
 10
1797.055301384836
 20
4233.646311977963
 30
0.0
 11
1889.878402695558
 21
4178.497896634771
 31
0.0
  0
INSERT
  5
43A
330
177
100
AcDbEntity
  8
HATCH
  6
CONTINUOUS
100
AcDbBlockReference
  2
*U13
 10
0.0
 20
0.0
 30
0.0
1001
ACAD
1002
{
1000
R14_HATCH_DATA
1000
43A
1011
1.0
1021
0.0
1031
0.0
1011
0.0
1021
1.0
1031
0.0
1011
0.0
1021
0.0
1031
1.0
1040
0.0
1010
0.0
1020
0.0
1030
1.0
1000
SOLID
1070
     1
1070
     0
1071
        2
1071
        7
1070
     0
1070
     1
1071
        8
1040
1535.73404784586
1040
2266.306609316742
1040
1535.73404784586
1040
2443.85660227647
1040
1535.73404784586
1040
2516.306609316742
1040
1516.73404784586
1040
2516.306609316742
1040
1516.73404784586
1040
2266.306609316742
1040
1516.73404784586
1040
2016.306609316742
1040
1535.73404784586
1040
2016.306609316742
1040
1535.73404784586
1040
2088.756616357014
1071
        0
1071
        7
1070
     0
1070
     1
1071
        8
1040
2748.73404784586
1040
2266.306609316742
1040
2748.73404784586
1040
2516.306609316742
1040
2729.73404784586
1040
2516.306609316742
1040
2729.73404784586
1040
2443.85660227647
1040
2729.73404784586
1040
2266.306609316742
1040
2729.73404784586
1040
2088.756616357014
1040
2729.73404784586
1040
2016.306609316742
1040
2748.734047845861
1040
2016.306609316742
1071
        0
1070
     0
1070
     1
1040
3.604968397885807
1071
        2
1040
1529.486486676411
1040
2249.92445623786
1040
0.0
1040
2738.107785358246
1040
2239.10956083464
1040
0.0
1002
}
  0
ENDBLK
  5
179
330
177
100
AcDbEntity
  8
0
100
AcDbBlockEnd
  0
BLOCK
  5
44A
330
43F
100
AcDbEntity
  8
0
100
AcDbBlockBegin
  2
*U1
 70
     1
 10
0.0
 20
0.0
 30
0.0
  3
*U1
  1

  0
SOLID
  5
440
330
43F
100
AcDbEntity
  8
HATCH
  6
CONTINUOUS
 62
     2
100
AcDbTrace
 10
1497.73404784586
 20
4269.306608824552
 30
0.0
 11
1497.73404784586
 21
4144.306609316742
 31
0.0
 12
1516.734047845861
 22
4144.306609316742
 32
0.0
 13
1516.734047845861
 23
4144.306609316742
 33
0.0
210
0.0
220
0.0
230
1.0
  0
SOLID
  5
441
330
43F
100
AcDbEntity
  8
HATCH
  6
CONTINUOUS
 62
     2
100
AcDbTrace
 10
1516.734047845861
 20
4269.306609316742
 30
0.0
 11
1497.73404784586
 21
4269.306608824552
 31
0.0
 12
1516.734047845861
 22
4144.306609316742
 32
0.0
 13
1516.734047845861
 23
4144.306609316742
 33
0.0
210
0.0
220
0.0
230
1.0
  0
SOLID
  5
442
330
43F
100
AcDbEntity
  8
HATCH
  6
CONTINUOUS
 62
     2
100
AcDbTrace
 10
2767.73404784586
 20
4269.306609316742
 30
0.0
 11
2748.73404784586
 21
4144.306609316742
 31
0.0
 12
2767.73404784586
 22
4144.306609316742
 32
0.0
 13
2767.73404784586
 23
4144.306609316742
 33
0.0
210
0.0
220
0.0
230
1.0
  0
SOLID
  5
443
330
43F
100
AcDbEntity
  8
HATCH
  6
CONTINUOUS
 62
     2
100
AcDbTrace
 10
1497.73404784586
 20
4269.306609316742
 30
0.0
 11
1497.73404784586
 21
4269.306608824552
 31
0.0
 12
1516.734047845861
 22
4269.306609316742
 32
0.0
 13
1516.734047845861
 23
4269.306609316742
 33
0.0
210
0.0
220
0.0
230
1.0
  0
SOLID
  5
444
330
43F
100
AcDbEntity
  8
HATCH
  6
CONTINUOUS
 62
     2
100
AcDbTrace
 10
2748.73404784586
 20
4269.306609316742
 30
0.0
 11
2748.73404784586
 21
4144.306609316742
 31
0.0
 12
2767.73404784586
 22
4269.306609316742
 32
0.0
 13
2767.73404784586
 23
4269.306609316742
 33
0.0
210
0.0
220
0.0
230
1.0
  0
SOLID
  5
445
330
43F
100
AcDbEntity
  8
HATCH
  6
CONTINUOUS
 62
     2
100
AcDbTrace
 10
2767.73404784586
 20
4269.306610946266
 30
0.0
 11
2748.73404784586
 21
4269.306609316742
 31
0.0
 12
2767.73404784586
 22
4269.306609316742
 32
0.0
 13
2767.73404784586
 23
4269.306609316742
 33
0.0
210
0.0
220
0.0
230
1.0
  0
SOLID
  5
446
330
43F
100
AcDbEntity
  8
HATCH
  6
CONTINUOUS
 62
     2
100
AcDbTrace
 10
2767.73404784586
 20
4269.306610946266
 30
0.0
 11
2767.734047845861
 21
4394.306609316742
 31
0.0
 12
2748.73404784586
 22
4394.306609316742
 32
0.0
 13
2748.73404784586
 23
4394.306609316742
 33
0.0
210
0.0
220
0.0
230
1.0
  0
SOLID
  5
447
330
43F
100
AcDbEntity
  8
HATCH
  6
CONTINUOUS
 62
     2
100
AcDbTrace
 10
2748.73404784586
 20
4394.306609316742
 30
0.0
 11
2748.73404784586
 21
4269.306609316742
 31
0.0
 12
2767.73404784586
 22
4269.306610946266
 32
0.0
 13
2767.73404784586
 23
4269.306610946266
 33
0.0
210
0.0
220
0.0
230
1.0
  0
SOLID
  5
448
330
43F
100
AcDbEntity
  8
HATCH
  6
CONTINUOUS
 62
     2
100
AcDbTrace
 10
1497.73404784586
 20
4269.306609316742
 30
0.0
 11
1516.734047845861
 21
4394.306609316742
 31
0.0
 12
1497.73404784586
 22
4394.306609316742
 32
0.0
 13
1497.73404784586
 23
4394.306609316742
 33
0.0
210
0.0
220
0.0
230
1.0
  0
SOLID
  5
449
330
43F
100
AcDbEntity
  8
HATCH
  6
CONTINUOUS
 62
     2
100
AcDbTrace
 10
1516.734047845861
 20
4394.306609316742
 30
0.0
 11
1497.73404784586
 21
4269.306609316742
 31
0.0
 12
1516.734047845861
 22
4269.306609316742
 32
0.0
 13
1516.734047845861
 23
4269.306609316742
 33
0.0
210
0.0
220
0.0
230
1.0
  0
ENDBLK
  5
44B
330
43F
100
AcDbEntity
  8
0
100
AcDbBlockEnd
  0
BLOCK
  5
453
330
44C
100
AcDbEntity
  8
0
100
AcDbBlockBegin
  2
*U2
 70
     1
 10
0.0
 20
0.0
 30
0.0
  3
*U2
  1

  0
SOLID
  5
44D
330
44C
100
AcDbEntity
  8
HATCH
  6
CONTINUOUS
 62
     5
100
AcDbTrace
 10
1532.734047845861
 20
4517.806609316743
 30
0.0
 11
2732.734047845861
 21
4536.806609316744
 31
0.0
 12
2707.73404784586
 22
4536.806609316744
 32
0.0
 13
2707.73404784586
 23
4536.806609316744
 33
0.0
210
0.0
220
0.0
230
1.0
  0
SOLID
  5
44E
330
44C
100
AcDbEntity
  8
HATCH
  6
CONTINUOUS
 62
     5
100
AcDbTrace
 10
1532.734047845861
 20
4517.806609316743
 30
0.0
 11
2707.73404784586
 21
4536.806609316744
 31
0.0
 12
1557.734047845861
 22
4536.806609316744
 32
0.0
 13
1557.734047845861
 23
4536.806609316744
 33
0.0
210
0.0
220
0.0
230
1.0
  0
SOLID
  5
44F
330
44C
100
AcDbEntity
  8
HATCH
  6
CONTINUOUS
 62
     5
100
AcDbTrace
 10
1532.734047845861
 20
4517.806609316743
 30
0.0
 11
1557.734047845861
 21
4536.806609316744
 31
0.0
 12
1532.734047845861
 22
4536.806609316744
 32
0.0
 13
1532.734047845861
 23
4536.806609316744
 33
0.0
210
0.0
220
0.0
230
1.0
  0
SOLID
  5
450
330
44C
100
AcDbEntity
  8
HATCH
  6
CONTINUOUS
 62
     5
100
AcDbTrace
 10
2732.734047845861
 20
4536.806609316744
 30
0.0
 11
1532.734047845861
 21
4517.806609316743
 31
0.0
 12
1557.734047845861
 22
4517.806609316743
 32
0.0
 13
1557.734047845861
 23
4517.806609316743
 33
0.0
210
0.0
220
0.0
230
1.0
  0
SOLID
  5
451
330
44C
100
AcDbEntity
  8
HATCH
  6
CONTINUOUS
 62
     5
100
AcDbTrace
 10
2732.734047845861
 20
4536.806609316744
 30
0.0
 11
1557.734047845861
 21
4517.806609316743
 31
0.0
 12
2707.73404784586
 22
4517.806609316743
 32
0.0
 13
2707.73404784586
 23
4517.806609316743
 33
0.0
210
0.0
220
0.0
230
1.0
  0
SOLID
  5
452
330
44C
100
AcDbEntity
  8
HATCH
  6
CONTINUOUS
 62
     5
100
AcDbTrace
 10
2732.734047845861
 20
4536.806609316744
 30
0.0
 11
2707.73404784586
 21
4517.806609316743
 31
0.0
 12
2732.734047845861
 22
4517.806609316743
 32
0.0
 13
2732.734047845861
 23
4517.806609316743
 33
0.0
210
0.0
220
0.0
230
1.0
  0
ENDBLK
  5
454
330
44C
100
AcDbEntity
  8
0
100
AcDbBlockEnd
  0
BLOCK
  5
46E
330
455
100
AcDbEntity
  8
0
100
AcDbBlockBegin
  2
*U3
 70
     1
 10
0.0
 20
0.0
 30
0.0
  3
*U3
  1

  0
SOLID
  5
456
330
455
100
AcDbEntity
  8
HATCH
  6
CONTINUOUS
 62
   251
100
AcDbTrace
 10
2729.73404784586
 20
4091.756616357014
 30
0.0
 11
2593.868733532474
 21
3916.806609316742
 31
0.0
 12
2729.73404784586
 22
3916.806609316741
 32
0.0
 13
2729.73404784586
 23
3916.806609316741
 33
0.0
210
0.0
220
0.0
230
1.0
  0
SOLID
  5
457
330
455
100
AcDbEntity
  8
HATCH
  6
CONTINUOUS
 62
   251
100
AcDbTrace
 10
1535.734047845861
 20
4091.756616357014
 30
0.0
 11
1535.73404784586
 21
3916.806609316742
 31
0.0
 12
1671.513553695195
 22
3916.806609316741
 32
0.0
 13
1671.513553695195
 23
3916.806609316741
 33
0.0
210
0.0
220
0.0
230
1.0
  0
SOLID
  5
458
330
455
100
AcDbEntity
  8
HATCH
  6
CONTINUOUS
 62
   251
100
AcDbTrace
 10
2729.73404784586
 20
4269.306609316742
 30
0.0
 11
2593.868733532474
 21
3916.806609316742
 31
0.0
 12
2729.73404784586
 22
4091.756616357014
 32
0.0
 13
2729.73404784586
 23
4091.756616357014
 33
0.0
210
0.0
220
0.0
230
1.0
  0
SOLID
  5
459
330
455
100
AcDbEntity
  8
HATCH
  6
CONTINUOUS
 62
   251
100
AcDbTrace
 10
1535.734047845861
 20
4269.306609316742
 30
0.0
 11
1535.734047845861
 21
4091.756616357014
 31
0.0
 12
1671.513553695195
 22
3916.806609316741
 32
0.0
 13
1671.513553695195
 23
3916.806609316741
 33
0.0
210
0.0
220
0.0
230
1.0
  0
SOLID
  5
45A
330
455
100
AcDbEntity
  8
HATCH
  6
CONTINUOUS
 62
   251
100
AcDbTrace
 10
2729.734047845861
 20
4446.856602276471
 30
0.0
 11
2593.868733532474
 21
3916.806609316742
 31
0.0
 12
2729.73404784586
 22
4269.306609316742
 32
0.0
 13
2729.73404784586
 23
4269.306609316742
 33
0.0
  0
SOLID
  5
45B
330
455
100
AcDbEntity
  8
HATCH
  6
CONTINUOUS
 62
   251
100
AcDbTrace
 10
1535.734047845861
 20
4446.856602276471
 30
0.0
 11
1535.734047845861
 21
4269.306609316742
 31
0.0
 12
1671.513553695195
 22
3916.806609316741
 32
0.0
 13
1671.513553695195
 23
3916.806609316741
 33
0.0
  0
SOLID
  5
45C
330
455
100
AcDbEntity
  8
HATCH
  6
CONTINUOUS
 62
   251
100
AcDbTrace
 10
2593.868733532476
 20
4497.80660931674
 30
0.0
 11
2593.868733532474
 21
3916.806609316742
 31
0.0
 12
2729.734047845861
 22
4446.856602276471
 32
0.0
 13
2729.734047845861
 23
4446.856602276471
 33
0.0
210
0.0
220
0.0
230
1.0
  0
SOLID
  5
45D
330
455
100
AcDbEntity
  8
HATCH
  6
CONTINUOUS
 62
   251
100
AcDbTrace
 10
1671.513553695195
 20
4497.806609316742
 30
0.0
 11
1535.734047845861
 21
4446.856602276471
 31
0.0
 12
1671.513553695195
 22
3916.806609316741
 32
0.0
 13
1671.513553695195
 23
3916.806609316741
 33
0.0
210
0.0
220
0.0
230
1.0
  0
SOLID
  5
45E
330
455
100
AcDbEntity
  8
HATCH
  6
CONTINUOUS
 62
   251
100
AcDbTrace
 10
1762.691143613843
 20
4506.806609316742
 30
0.0
 11
1671.513553695195
 21
4497.806609316742
 31
0.0
 12
1762.691143613842
 22
4497.80660931674
 32
0.0
 13
1762.691143613842
 23
4497.80660931674
 33
0.0
210
0.0
220
0.0
230
1.0
  0
SOLID
  5
45F
330
455
100
AcDbEntity
  8
HATCH
  6
CONTINUOUS
 62
   251
100
AcDbTrace
 10
1882.691143613843
 20
4506.806609316742
 30
0.0
 11
2132.734047845861
 21
4497.806609316742
 31
0.0
 12
2382.691143613843
 22
4497.806609316742
 32
0.0
 13
2382.691143613843
 23
4497.806609316742
 33
0.0
210
0.0
220
0.0
230
1.0
  0
SOLID
  5
460
330
455
100
AcDbEntity
  8
HATCH
  6
CONTINUOUS
 62
   251
100
AcDbTrace
 10
1882.691143613843
 20
4506.806609316742
 30
0.0
 11
2132.648239381826
 21
4497.806609316742
 31
0.0
 12
2132.734047845861
 22
4497.806609316742
 32
0.0
 13
2132.734047845861
 23
4497.806609316742
 33
0.0
210
0.0
220
0.0
230
1.0
  0
SOLID
  5
461
330
455
100
AcDbEntity
  8
HATCH
  6
CONTINUOUS
 62
   251
100
AcDbTrace
 10
1882.691143613843
 20
4506.806609316742
 30
0.0
 11
1882.691143613843
 21
4497.80660931674
 31
0.0
 12
2132.648239381826
 22
4497.806609316742
 32
0.0
 13
2132.648239381826
 23
4497.806609316742
 33
0.0
210
0.0
220
0.0
230
1.0
  0
SOLID
  5
462
330
455
100
AcDbEntity
  8
HATCH
  6
CONTINUOUS
 62
   251
100
AcDbTrace
 10
2382.691143613843
 20
4506.806609316742
 30
0.0
 11
1762.691143613843
 21
4506.806609316742
 31
0.0
 12
1882.691143613843
 22
4506.806609316742
 32
0.0
 13
1882.691143613843
 23
4506.806609316742
 33
0.0
210
0.0
220
0.0
230
1.0
  0
SOLID
  5
463
330
455
100
AcDbEntity
  8
HATCH
  6
CONTINUOUS
 62
   251
100
AcDbTrace
 10
2382.691143613843
 20
4506.806609316742
 30
0.0
 11
1882.691143613843
 21
4506.806609316742
 31
0.0
 12
2382.691143613843
 22
4497.806609316742
 32
0.0
 13
2382.691143613843
 23
4497.806609316742
 33
0.0
210
0.0
220
0.0
230
1.0
  0
SOLID
  5
464
330
455
100
AcDbEntity
  8
HATCH
  6
CONTINUOUS
 62
   251
100
AcDbTrace
 10
2502.691143613844
 20
4506.806609316742
 30
0.0
 11
2502.691143613844
 21
4497.806609316742
 31
0.0
 12
2593.868733532476
 22
4497.80660931674
 32
0.0
 13
2593.868733532476
 23
4497.80660931674
 33
0.0
210
0.0
220
0.0
230
1.0
  0
SOLID
  5
465
330
455
100
AcDbEntity
  8
HATCH
  6
CONTINUOUS
 62
   251
100
AcDbTrace
 10
1535.734047845861
 20
4517.806609316743
 30
0.0
 11
1762.691143613843
 21
4506.806609316742
 31
0.0
 12
2382.691143613843
 22
4506.806609316742
 32
0.0
 13
2382.691143613843
 23
4506.806609316742
 33
0.0
210
0.0
220
0.0
230
1.0
  0
SOLID
  5
466
330
455
100
AcDbEntity
  8
HATCH
  6
CONTINUOUS
 62
   251
100
AcDbTrace
 10
1535.734047845861
 20
4517.806609316743
 30
0.0
 11
1671.513553695195
 21
4497.806609316742
 31
0.0
 12
1762.691143613843
 22
4506.806609316742
 32
0.0
 13
1762.691143613843
 23
4506.806609316742
 33
0.0
210
0.0
220
0.0
230
1.0
  0
SOLID
  5
467
330
455
100
AcDbEntity
  8
HATCH
  6
CONTINUOUS
 62
   251
100
AcDbTrace
 10
1535.734047845861
 20
4517.806609316743
 30
0.0
 11
1535.734047845861
 21
4446.856602276471
 31
0.0
 12
1671.513553695195
 22
4497.806609316742
 32
0.0
 13
1671.513553695195
 23
4497.806609316742
 33
0.0
210
0.0
220
0.0
230
1.0
  0
SOLID
  5
468
330
455
100
AcDbEntity
  8
HATCH
  6
CONTINUOUS
 62
   251
100
AcDbTrace
 10
2382.691143613843
 20
4506.806609316742
 30
0.0
 11
2729.734047845861
 21
4517.806609316743
 31
0.0
 12
2707.73404784586
 22
4517.806609316743
 32
0.0
 13
2707.73404784586
 23
4517.806609316743
 33
0.0
210
0.0
220
0.0
230
1.0
  0
SOLID
  5
469
330
455
100
AcDbEntity
  8
HATCH
  6
CONTINUOUS
 62
   251
100
AcDbTrace
 10
2382.691143613843
 20
4506.806609316742
 30
0.0
 11
2707.73404784586
 21
4517.806609316743
 31
0.0
 12
1557.734047845861
 22
4517.806609316743
 32
0.0
 13
1557.734047845861
 23
4517.806609316743
 33
0.0
210
0.0
220
0.0
230
1.0
  0
SOLID
  5
46A
330
455
100
AcDbEntity
  8
HATCH
  6
CONTINUOUS
 62
   251
100
AcDbTrace
 10
2382.691143613843
 20
4506.806609316742
 30
0.0
 11
1557.734047845861
 21
4517.806609316743
 31
0.0
 12
1535.734047845861
 22
4517.806609316743
 32
0.0
 13
1535.734047845861
 23
4517.806609316743
 33
0.0
  0
SOLID
  5
46B
330
455
100
AcDbEntity
  8
HATCH
  6
CONTINUOUS
 62
   251
100
AcDbTrace
 10
2729.734047845861
 20
4517.806609316743
 30
0.0
 11
2382.691143613843
 21
4506.806609316742
 31
0.0
 12
2502.691143613844
 22
4506.806609316742
 32
0.0
 13
2502.691143613844
 23
4506.806609316742
 33
0.0
210
0.0
220
0.0
230
1.0
  0
SOLID
  5
46C
330
455
100
AcDbEntity
  8
HATCH
  6
CONTINUOUS
 62
   251
100
AcDbTrace
 10
2729.734047845861
 20
4517.806609316743
 30
0.0
 11
2502.691143613844
 21
4506.806609316742
 31
0.0
 12
2593.868733532476
 22
4497.80660931674
 32
0.0
 13
2593.868733532476
 23
4497.80660931674
 33
0.0
210
0.0
220
0.0
230
1.0
  0
SOLID
  5
46D
330
455
100
AcDbEntity
  8
HATCH
  6
CONTINUOUS
 62
   251
100
AcDbTrace
 10
2729.734047845861
 20
4517.806609316743
 30
0.0
 11
2593.868733532476
 21
4497.80660931674
 31
0.0
 12
2729.734047845861
 22
4446.856602276471
 32
0.0
 13
2729.734047845861
 23
4446.856602276471
 33
0.0
210
0.0
220
0.0
230
1.0
  0
ENDBLK
  5
46F
330
455
100
AcDbEntity
  8
0
100
AcDbBlockEnd
  0
BLOCK
  5
47A
330
470
100
AcDbEntity
  8
0
100
AcDbBlockBegin
  2
*U4
 70
     1
 10
0.0
 20
0.0
 30
0.0
  3
*U4
  1

  0
SOLID
  5
471
330
470
100
AcDbEntity
  8
HATCH
  6
CONTINUOUS
 62
     2
100
AcDbTrace
 10
1497.73404784586
 20
2266.306608824553
 30
0.0
 11
1497.73404784586
 21
2141.306609316741
 31
0.0
 12
1516.73404784586
 22
2141.306609316742
 32
0.0
 13
1516.73404784586
 23
2141.306609316742
 33
0.0
210
0.0
220
0.0
230
1.0
  0
SOLID
  5
472
330
470
100
AcDbEntity
  8
HATCH
  6
CONTINUOUS
 62
     2
100
AcDbTrace
 10
2767.73404784586
 20
2266.306609316742
 30
0.0
 11
2748.73404784586
 21
2141.306609316742
 31
0.0
 12
2767.73404784586
 22
2141.306609316741
 32
0.0
 13
2767.73404784586
 23
2141.306609316741
 33
0.0
210
0.0
220
0.0
230
1.0
  0
SOLID
  5
473
330
470
100
AcDbEntity
  8
HATCH
  6
CONTINUOUS
 62
     2
100
AcDbTrace
 10
1516.73404784586
 20
2266.306609316742
 30
0.0
 11
1497.73404784586
 21
2266.306608824553
 31
0.0
 12
1516.73404784586
 22
2141.306609316742
 32
0.0
 13
1516.73404784586
 23
2141.306609316742
 33
0.0
210
0.0
220
0.0
230
1.0
  0
SOLID
  5
474
330
470
100
AcDbEntity
  8
HATCH
  6
CONTINUOUS
 62
     2
100
AcDbTrace
 10
2748.73404784586
 20
2266.306609316742
 30
0.0
 11
2748.73404784586
 21
2141.306609316742
 31
0.0
 12
2767.73404784586
 22
2266.306609316742
 32
0.0
 13
2767.73404784586
 23
2266.306609316742
 33
0.0
210
0.0
220
0.0
230
1.0
  0
SOLID
  5
475
330
470
100
AcDbEntity
  8
HATCH
  6
CONTINUOUS
 62
     2
100
AcDbTrace
 10
1497.73404784586
 20
2266.306609316742
 30
0.0
 11
1497.73404784586
 21
2266.306608824553
 31
0.0
 12
1516.73404784586
 22
2266.306609316742
 32
0.0
 13
1516.73404784586
 23
2266.306609316742
 33
0.0
210
0.0
220
0.0
230
1.0
  0
SOLID
  5
476
330
470
100
AcDbEntity
  8
HATCH
  6
CONTINUOUS
 62
     2
100
AcDbTrace
 10
1497.73404784586
 20
2266.306609316742
 30
0.0
 11
1516.73404784586
 21
2391.306609316742
 31
0.0
 12
1497.73404784586
 22
2391.306609316742
 32
0.0
 13
1497.73404784586
 23
2391.306609316742
 33
0.0
210
0.0
220
0.0
230
1.0
  0
SOLID
  5
477
330
470
100
AcDbEntity
  8
HATCH
  6
CONTINUOUS
 62
     2
100
AcDbTrace
 10
1516.73404784586
 20
2391.306609316742
 30
0.0
 11
1497.73404784586
 21
2266.306609316742
 31
0.0
 12
1516.73404784586
 22
2266.306609316742
 32
0.0
 13
1516.73404784586
 23
2266.306609316742
 33
0.0
210
0.0
220
0.0
230
1.0
  0
SOLID
  5
478
330
470
100
AcDbEntity
  8
HATCH
  6
CONTINUOUS
 62
     2
100
AcDbTrace
 10
2748.73404784586
 20
2391.306609316742
 30
0.0
 11
2748.73404784586
 21
2266.306609316742
 31
0.0
 12
2767.73404784586
 22
2266.306609316742
 32
0.0
 13
2767.73404784586
 23
2266.306609316742
 33
0.0
210
0.0
220
0.0
230
1.0
  0
SOLID
  5
479
330
470
100
AcDbEntity
  8
HATCH
  6
CONTINUOUS
 62
     2
100
AcDbTrace
 10
2767.73404784586
 20
2391.306609316742
 30
0.0
 11
2748.73404784586
 21
2391.306609316742
 31
0.0
 12
2767.73404784586
 22
2266.306609316742
 32
0.0
 13
2767.73404784586
 23
2266.306609316742
 33
0.0
210
0.0
220
0.0
230
1.0
  0
ENDBLK
  5
47B
330
470
100
AcDbEntity
  8
0
100
AcDbBlockEnd
  0
BLOCK
  5
483
330
47C
100
AcDbEntity
  8
0
100
AcDbBlockBegin
  2
*U5
 70
     1
 10
0.0
 20
0.0
 30
0.0
  3
*U5
  1

  0
SOLID
  5
47D
330
47C
100
AcDbEntity
  8
HATCH
  6
CONTINUOUS
 62
     1
100
AcDbTrace
 10
2579.73404784586
 20
1622.806609316742
 30
0.0
 11
2579.73404784586
 21
1641.806609316741
 31
0.0
 12
1685.734047845859
 22
1641.806609316741
 32
0.0
 13
1685.734047845859
 23
1641.806609316741
 33
0.0
210
0.0
220
0.0
230
1.0
  0
SOLID
  5
47E
330
47C
100
AcDbEntity
  8
HATCH
  6
CONTINUOUS
 62
     1
100
AcDbTrace
 10
1685.734047845859
 20
1641.806609316741
 30
0.0
 11
1685.734047845859
 21
1622.806609316741
 31
0.0
 12
2579.73404784586
 22
1622.806609316742
 32
0.0
 13
2579.73404784586
 23
1622.806609316742
 33
0.0
210
0.0
220
0.0
230
1.0
  0
SOLID
  5
47F
330
47C
100
AcDbEntity
  8
HATCH
  6
CONTINUOUS
 62
     1
100
AcDbTrace
 10
1640.73404784586
 20
3116.80660931674
 30
0.0
 11
1640.73404784586
 21
1667.806609316742
 31
0.0
 12
1659.734047845859
 22
1667.806609316742
 32
0.0
 13
1659.734047845859
 23
1667.806609316742
 33
0.0
210
0.0
220
0.0
230
1.0
  0
SOLID
  5
480
330
47C
100
AcDbEntity
  8
HATCH
  6
CONTINUOUS
 62
     1
100
AcDbTrace
 10
2624.73404784586
 20
1667.806609316742
 30
0.0
 11
2624.73404784586
 21
3116.80660931674
 31
0.0
 12
2605.73404784586
 22
3116.80660931674
 32
0.0
 13
2605.73404784586
 23
3116.80660931674
 33
0.0
210
0.0
220
0.0
230
1.0
  0
SOLID
  5
481
330
47C
100
AcDbEntity
  8
HATCH
  6
CONTINUOUS
 62
     1
100
AcDbTrace
 10
2605.73404784586
 20
3116.80660931674
 30
0.0
 11
2605.73404784586
 21
1667.806609316742
 31
0.0
 12
2624.73404784586
 22
1667.806609316742
 32
0.0
 13
2624.73404784586
 23
1667.806609316742
 33
0.0
210
0.0
220
0.0
230
1.0
  0
SOLID
  5
482
330
47C
100
AcDbEntity
  8
HATCH
  6
CONTINUOUS
 62
     1
100
AcDbTrace
 10
1659.73404784586
 20
3116.80660931674
 30
0.0
 11
1640.73404784586
 21
3116.80660931674
 31
0.0
 12
1659.734047845859
 22
1667.806609316742
 32
0.0
 13
1659.734047845859
 23
1667.806609316742
 33
0.0
210
0.0
220
0.0
230
1.0
  0
ENDBLK
  5
484
330
47C
100
AcDbEntity
  8
0
100
AcDbBlockEnd
  0
BLOCK
  5
48A
330
485
100
AcDbEntity
  8
0
100
AcDbBlockBegin
  2
*U6
 70
     1
 10
0.0
 20
0.0
 30
0.0
  3
*U6
  1

  0
SOLID
  5
486
330
485
100
AcDbEntity
  8
HATCH
  6
CONTINUOUS
 62
     1
100
AcDbTrace
 10
1685.734047845859
 20
1597.806609316742
 30
0.0
 11
1685.734047845859
 21
1667.806609316742
 31
0.0
 12
1615.73404784586
 22
1667.806609316742
 32
0.0
 13
1615.73404784586
 23
1667.806609316742
 33
0.0
210
0.0
220
0.0
230
1.0
  0
SOLID
  5
487
330
485
100
AcDbEntity
  8
HATCH
  6
CONTINUOUS
 62
     1
100
AcDbTrace
 10
1615.73404784586
 20
1667.806609316742
 30
0.0
 11
1615.73404784586
 21
1597.806609316741
 31
0.0
 12
1685.734047845859
 22
1597.806609316742
 32
0.0
 13
1685.734047845859
 23
1597.806609316742
 33
0.0
210
0.0
220
0.0
230
1.0
  0
SOLID
  5
488
330
485
100
AcDbEntity
  8
HATCH
  6
CONTINUOUS
 62
     1
100
AcDbTrace
 10
2649.73404784586
 20
1597.806609316742
 30
0.0
 11
2649.73404784586
 21
1667.806609316742
 31
0.0
 12
2579.73404784586
 22
1667.806609316742
 32
0.0
 13
2579.73404784586
 23
1667.806609316742
 33
0.0
210
0.0
220
0.0
230
1.0
  0
SOLID
  5
489
330
485
100
AcDbEntity
  8
HATCH
  6
CONTINUOUS
 62
     1
100
AcDbTrace
 10
2579.73404784586
 20
1667.806609316742
 30
0.0
 11
2579.73404784586
 21
1597.806609316742
 31
0.0
 12
2649.73404784586
 22
1597.806609316742
 32
0.0
 13
2649.73404784586
 23
1597.806609316742
 33
0.0
210
0.0
220
0.0
230
1.0
  0
ENDBLK
  5
48B
330
485
100
AcDbEntity
  8
0
100
AcDbBlockEnd
  0
BLOCK
  5
4A1
330
48C
100
AcDbEntity
  8
0
100
AcDbBlockBegin
  2
*U7
 70
     1
 10
0.0
 20
0.0
 30
0.0
  3
*U7
  1

  0
SOLID
  5
48D
330
48C
100
AcDbEntity
  8
HATCH
  6
CONTINUOUS
 62
   251
100
AcDbTrace
 10
1615.73404784586
 20
1597.806609316741
 30
0.0
 11
1535.73404784586
 21
1517.806609316742
 31
0.0
 12
2729.73404784586
 22
1517.806609316741
 32
0.0
 13
2729.73404784586
 23
1517.806609316741
 33
0.0
210
0.0
220
0.0
230
1.0
  0
SOLID
  5
48E
330
48C
100
AcDbEntity
  8
HATCH
  6
CONTINUOUS
 62
   251
100
AcDbTrace
 10
1685.734047845859
 20
1597.806609316742
 30
0.0
 11
1615.73404784586
 21
1597.806609316741
 31
0.0
 12
2729.73404784586
 22
1517.806609316741
 32
0.0
 13
2729.73404784586
 23
1517.806609316741
 33
0.0
210
0.0
220
0.0
230
1.0
  0
SOLID
  5
48F
330
48C
100
AcDbEntity
  8
HATCH
  6
CONTINUOUS
 62
   251
100
AcDbTrace
 10
2579.73404784586
 20
1597.806609316742
 30
0.0
 11
1685.734047845859
 21
1597.806609316742
 31
0.0
 12
2729.73404784586
 22
1517.806609316741
 32
0.0
 13
2729.73404784586
 23
1517.806609316741
 33
0.0
210
0.0
220
0.0
230
1.0
  0
SOLID
  5
490
330
48C
100
AcDbEntity
  8
HATCH
  6
CONTINUOUS
 62
   251
100
AcDbTrace
 10
2729.73404784586
 20
1517.806609316741
 30
0.0
 11
2649.73404784586
 21
1597.806609316742
 31
0.0
 12
2579.73404784586
 22
1597.806609316742
 32
0.0
 13
2579.73404784586
 23
1597.806609316742
 33
0.0
210
0.0
220
0.0
230
1.0
  0
SOLID
  5
491
330
48C
100
AcDbEntity
  8
HATCH
  6
CONTINUOUS
 62
   251
100
AcDbTrace
 10
2579.73404784586
 20
1597.806609316742
 30
0.0
 11
2579.73404784586
 21
1622.806609316741
 31
0.0
 12
1685.734047845859
 22
1622.806609316741
 32
0.0
 13
1685.734047845859
 23
1622.806609316741
 33
0.0
210
0.0
220
0.0
230
1.0
  0
SOLID
  5
492
330
48C
100
AcDbEntity
  8
HATCH
  6
CONTINUOUS
 62
   251
100
AcDbTrace
 10
1685.734047845859
 20
1622.806609316741
 30
0.0
 11
1685.734047845859
 21
1597.806609316742
 31
0.0
 12
2579.73404784586
 22
1597.806609316742
 32
0.0
 13
2579.73404784586
 23
1597.806609316742
 33
0.0
210
0.0
220
0.0
230
1.0
  0
SOLID
  5
493
330
48C
100
AcDbEntity
  8
HATCH
  6
CONTINUOUS
 62
   251
100
AcDbTrace
 10
2649.73404784586
 20
1667.806609316742
 30
0.0
 11
2649.73404784586
 21
1597.806609316742
 31
0.0
 12
2729.73404784586
 22
1517.806609316741
 32
0.0
 13
2729.73404784586
 23
1517.806609316741
 33
0.0
210
0.0
220
0.0
230
1.0
  0
SOLID
  5
494
330
48C
100
AcDbEntity
  8
HATCH
  6
CONTINUOUS
 62
   251
100
AcDbTrace
 10
1615.73404784586
 20
1667.806609316742
 30
0.0
 11
1535.73404784586
 21
1517.806609316742
 31
0.0
 12
1615.73404784586
 22
1597.806609316741
 32
0.0
 13
1615.73404784586
 23
1597.806609316741
 33
0.0
210
0.0
220
0.0
230
1.0
  0
SOLID
  5
495
330
48C
100
AcDbEntity
  8
HATCH
  6
CONTINUOUS
 62
   251
100
AcDbTrace
 10
2729.73404784586
 20
2088.756616357014
 30
0.0
 11
2624.73404784586
 21
1667.806609316742
 31
0.0
 12
2649.73404784586
 22
1667.806609316742
 32
0.0
 13
2649.73404784586
 23
1667.806609316742
 33
0.0
210
0.0
220
0.0
230
1.0
  0
SOLID
  5
496
330
48C
100
AcDbEntity
  8
HATCH
  6
CONTINUOUS
 62
   251
100
AcDbTrace
 10
2729.73404784586
 20
2088.756616357014
 30
0.0
 11
2649.73404784586
 21
1667.806609316742
 31
0.0
 12
2729.73404784586
 22
1517.806609316741
 32
0.0
 13
2729.73404784586
 23
1517.806609316741
 33
0.0
  0
SOLID
  5
497
330
48C
100
AcDbEntity
  8
HATCH
  6
CONTINUOUS
 62
   251
100
AcDbTrace
 10
1535.73404784586
 20
2088.756616357014
 30
0.0
 11
1615.73404784586
 21
1667.806609316742
 31
0.0
 12
1640.734047845859
 22
1667.806609316742
 32
0.0
 13
1640.734047845859
 23
1667.806609316742
 33
0.0
210
0.0
220
0.0
230
1.0
  0
SOLID
  5
498
330
48C
100
AcDbEntity
  8
HATCH
  6
CONTINUOUS
 62
   251
100
AcDbTrace
 10
1535.73404784586
 20
2088.756616357014
 30
0.0
 11
1535.73404784586
 21
1517.806609316742
 31
0.0
 12
1615.73404784586
 22
1667.806609316742
 32
0.0
 13
1615.73404784586
 23
1667.806609316742
 33
0.0
210
0.0
220
0.0
230
1.0
  0
SOLID
  5
499
330
48C
100
AcDbEntity
  8
HATCH
  6
CONTINUOUS
 62
   251
100
AcDbTrace
 10
2729.73404784586
 20
2266.306609316742
 30
0.0
 11
2624.73404784586
 21
1667.806609316742
 31
0.0
 12
2729.73404784586
 22
2088.756616357014
 32
0.0
 13
2729.73404784586
 23
2088.756616357014
 33
0.0
210
0.0
220
0.0
230
1.0
  0
SOLID
  5
49A
330
48C
100
AcDbEntity
  8
HATCH
  6
CONTINUOUS
 62
   251
100
AcDbTrace
 10
1535.73404784586
 20
2266.306609316742
 30
0.0
 11
1535.73404784586
 21
2088.756616357014
 31
0.0
 12
1640.734047845859
 22
1667.806609316742
 32
0.0
 13
1640.734047845859
 23
1667.806609316742
 33
0.0
210
0.0
220
0.0
230
1.0
  0
SOLID
  5
49B
330
48C
100
AcDbEntity
  8
HATCH
  6
CONTINUOUS
 62
   251
100
AcDbTrace
 10
2729.73404784586
 20
2443.85660227647
 30
0.0
 11
2624.73404784586
 21
1667.806609316742
 31
0.0
 12
2729.73404784586
 22
2266.306609316742
 32
0.0
 13
2729.73404784586
 23
2266.306609316742
 33
0.0
210
0.0
220
0.0
230
1.0
  0
SOLID
  5
49C
330
48C
100
AcDbEntity
  8
HATCH
  6
CONTINUOUS
 62
   251
100
AcDbTrace
 10
1535.73404784586
 20
2443.85660227647
 30
0.0
 11
1535.73404784586
 21
2266.306609316742
 31
0.0
 12
1640.734047845859
 22
1667.806609316742
 32
0.0
 13
1640.734047845859
 23
1667.806609316742
 33
0.0
210
0.0
220
0.0
230
1.0
  0
SOLID
  5
49D
330
48C
100
AcDbEntity
  8
HATCH
  6
CONTINUOUS
 62
   251
100
AcDbTrace
 10
2729.73404784586
 20
2443.85660227647
 30
0.0
 11
2729.73404784586
 21
3116.80660931674
 31
0.0
 12
2624.73404784586
 22
3116.80660931674
 32
0.0
 13
2624.73404784586
 23
3116.80660931674
 33
0.0
210
0.0
220
0.0
230
1.0
  0
SOLID
  5
49E
330
48C
100
AcDbEntity
  8
HATCH
  6
CONTINUOUS
 62
   251
100
AcDbTrace
 10
2624.73404784586
 20
3116.80660931674
 30
0.0
 11
2624.73404784586
 21
1667.806609316742
 31
0.0
 12
2729.73404784586
 22
2443.85660227647
 32
0.0
 13
2729.73404784586
 23
2443.85660227647
 33
0.0
210
0.0
220
0.0
230
1.0
  0
SOLID
  5
49F
330
48C
100
AcDbEntity
  8
HATCH
  6
CONTINUOUS
 62
   251
100
AcDbTrace
 10
1535.73404784586
 20
3116.80660931674
 30
0.0
 11
1535.73404784586
 21
2443.85660227647
 31
0.0
 12
1640.734047845859
 22
1667.806609316742
 32
0.0
 13
1640.734047845859
 23
1667.806609316742
 33
0.0
210
0.0
220
0.0
230
1.0
  0
SOLID
  5
4A0
330
48C
100
AcDbEntity
  8
HATCH
  6
CONTINUOUS
 62
   251
100
AcDbTrace
 10
1640.73404784586
 20
3116.806609316741
 30
0.0
 11
1535.73404784586
 21
3116.80660931674
 31
0.0
 12
1640.734047845859
 22
1667.806609316742
 32
0.0
 13
1640.734047845859
 23
1667.806609316742
 33
0.0
  0
ENDBLK
  5
4A2
330
48C
100
AcDbEntity
  8
0
100
AcDbBlockEnd
  0
BLOCK
  5
4AA
330
4A3
100
AcDbEntity
  8
0
100
AcDbBlockBegin
  2
*U8
 70
     1
 10
0.0
 20
0.0
 30
0.0
  3
*U8
  1

  0
SOLID
  5
4A4
330
4A3
100
AcDbEntity
  8
HATCH
  6
CONTINUOUS
 62
   251
100
AcDbTrace
 10
2579.73404784586
 20
1667.806609316741
 30
0.0
 11
1685.734047845859
 21
1641.806609316741
 31
0.0
 12
2579.73404784586
 22
1641.806609316741
 32
0.0
 13
2579.73404784586
 23
1641.806609316741
 33
0.0
210
0.0
220
0.0
230
1.0
  0
SOLID
  5
4A5
330
4A3
100
AcDbEntity
  8
HATCH
  6
CONTINUOUS
 62
   251
100
AcDbTrace
 10
1685.734047845859
 20
1667.806609316742
 30
0.0
 11
2579.73404784586
 21
1667.806609316741
 31
0.0
 12
2605.73404784586
 22
1667.806609316742
 32
0.0
 13
2605.73404784586
 23
1667.806609316742
 33
0.0
210
0.0
220
0.0
230
1.0
  0
SOLID
  5
4A6
330
4A3
100
AcDbEntity
  8
HATCH
  6
CONTINUOUS
 62
   251
100
AcDbTrace
 10
1685.734047845859
 20
1667.806609316742
 30
0.0
 11
1685.734047845859
 21
1641.806609316741
 31
0.0
 12
2579.73404784586
 22
1667.806609316741
 32
0.0
 13
2579.73404784586
 23
1667.806609316741
 33
0.0
210
0.0
220
0.0
230
1.0
  0
SOLID
  5
4A7
330
4A3
100
AcDbEntity
  8
HATCH
  6
CONTINUOUS
 62
   251
100
AcDbTrace
 10
1659.734047845859
 20
1667.806609316742
 30
0.0
 11
2605.734047845861
 21
3116.806609316741
 31
0.0
 12
1659.73404784586
 22
3116.806609316741
 32
0.0
 13
1659.73404784586
 23
3116.806609316741
 33
0.0
210
0.0
220
0.0
230
1.0
  0
SOLID
  5
4A8
330
4A3
100
AcDbEntity
  8
HATCH
  6
CONTINUOUS
 62
   251
100
AcDbTrace
 10
2605.734047845861
 20
3116.806609316741
 30
0.0
 11
1659.734047845859
 21
1667.806609316742
 31
0.0
 12
1685.734047845859
 22
1667.806609316742
 32
0.0
 13
1685.734047845859
 23
1667.806609316742
 33
0.0
210
0.0
220
0.0
230
1.0
  0
SOLID
  5
4A9
330
4A3
100
AcDbEntity
  8
HATCH
  6
CONTINUOUS
 62
   251
100
AcDbTrace
 10
2605.734047845861
 20
3116.806609316741
 30
0.0
 11
1685.734047845859
 21
1667.806609316742
 31
0.0
 12
2605.73404784586
 22
1667.806609316742
 32
0.0
 13
2605.73404784586
 23
1667.806609316742
 33
0.0
210
0.0
220
0.0
230
1.0
  0
ENDBLK
  5
4AB
330
4A3
100
AcDbEntity
  8
0
100
AcDbBlockEnd
  0
BLOCK
  5
4C2
330
4AC
100
AcDbEntity
  8
0
100
AcDbBlockBegin
  2
*U9
 70
     1
 10
0.0
 20
0.0
 30
0.0
  3
*U9
  1

  0
SOLID
  5
4AD
330
4AC
100
AcDbEntity
  8
HATCH
  6
CONTINUOUS
 62
   251
100
AcDbTrace
 10
2831.787417842066
 20
3157.123278690594
 30
0.0
 11
2828.983372165248
 21
3147.806609316742
 31
0.0
 12
2832.73404784586
 22
3147.806609316742
 32
0.0
 13
2832.73404784586
 23
3147.806609316742
 33
0.0
  0
SOLID
  5
4AE
330
4AC
100
AcDbEntity
  8
HATCH
  6
CONTINUOUS
 62
   251
100
AcDbTrace
 10
2868.089386905187
 20
3162.451270257414
 30
0.0
 11
2831.787417842066
 21
3157.123278690594
 31
0.0
 12
2832.73404784586
 22
3147.806609316742
 32
0.0
 13
2832.73404784586
 23
3147.806609316742
 33
0.0
210
0.0
220
0.0
230
1.0
  0
SOLID
  5
4AF
330
4AC
100
AcDbEntity
  8
HATCH
  6
CONTINUOUS
 62
   251
100
AcDbTrace
 10
2832.73404784586
 20
3166.806609316742
 30
0.0
 11
2831.787417842066
 21
3157.123278690594
 31
0.0
 12
2868.089386905187
 22
3162.451270257414
 32
0.0
 13
2868.089386905187
 23
3162.451270257414
 33
0.0
210
0.0
220
0.0
230
1.0
  0
SOLID
  5
4B0
330
4AC
100
AcDbEntity
  8
HATCH
  6
CONTINUOUS
 62
   251
100
AcDbTrace
 10
2882.73404784586
 20
3197.806609316741
 30
0.0
 11
2832.73404784586
 21
3166.806609316742
 31
0.0
 12
2868.089386905187
 22
3162.451270257414
 32
0.0
 13
2868.089386905187
 23
3162.451270257414
 33
0.0
  0
SOLID
  5
4B1
330
4AC
100
AcDbEntity
  8
HATCH
  6
CONTINUOUS
 62
   251
100
AcDbTrace
 10
1382.73404784586
 20
3216.806609316742
 30
0.0
 11
1397.378708786532
 21
3181.451270257414
 31
0.0
 12
1432.73404784586
 22
3166.806609316742
 32
0.0
 13
1432.73404784586
 23
3166.806609316742
 33
0.0
210
0.0
220
0.0
230
1.0
  0
SOLID
  5
4B2
330
4AC
100
AcDbEntity
  8
HATCH
  6
CONTINUOUS
 62
   251
100
AcDbTrace
 10
1432.734047845861
 20
3866.806609316741
 30
0.0
 11
1382.73404784586
 21
3216.806609316742
 31
0.0
 12
1432.73404784586
 22
3166.806609316742
 32
0.0
 13
1432.73404784586
 23
3166.806609316742
 33
0.0
210
0.0
220
0.0
230
1.0
  0
SOLID
  5
4B3
330
4AC
100
AcDbEntity
  8
HATCH
  6
CONTINUOUS
 62
   251
100
AcDbTrace
 10
2832.73404784586
 20
3866.806609316741
 30
0.0
 11
2832.73404784586
 21
3166.806609316742
 31
0.0
 12
2882.73404784586
 22
3197.806609316741
 32
0.0
 13
2882.73404784586
 23
3197.806609316741
 33
0.0
210
0.0
220
0.0
230
1.0
  0
SOLID
  5
4B4
330
4AC
100
AcDbEntity
  8
HATCH
  6
CONTINUOUS
 62
   251
100
AcDbTrace
 10
2882.73404784586
 20
3897.806609316742
 30
0.0
 11
2832.73404784586
 21
3866.806609316741
 31
0.0
 12
2882.73404784586
 22
3197.806609316741
 32
0.0
 13
2882.73404784586
 23
3197.806609316741
 33
0.0
210
0.0
220
0.0
230
1.0
  0
SOLID
  5
4B5
330
4AC
100
AcDbEntity
  8
HATCH
  6
CONTINUOUS
 62
   251
100
AcDbTrace
 10
2818.089386905187
 20
3902.161948376069
 30
0.0
 11
2832.73404784586
 21
3866.806609316741
 31
0.0
 12
2882.73404784586
 22
3897.806609316742
 32
0.0
 13
2882.73404784586
 23
3897.806609316742
 33
0.0
210
0.0
220
0.0
230
1.0
  0
SOLID
  5
4B6
330
4AC
100
AcDbEntity
  8
HATCH
  6
CONTINUOUS
 62
   251
100
AcDbTrace
 10
1382.73404784586
 20
3916.806609316742
 30
0.0
 11
1482.734047845861
 21
3916.806609316742
 31
0.0
 12
1535.73404784586
 22
3916.806609316742
 32
0.0
 13
1535.73404784586
 23
3916.806609316742
 33
0.0
210
0.0
220
0.0
230
1.0
  0
SOLID
  5
4B7
330
4AC
100
AcDbEntity
  8
HATCH
  6
CONTINUOUS
 62
   251
100
AcDbTrace
 10
1382.73404784586
 20
3916.806609316742
 30
0.0
 11
1447.378708786533
 21
3902.161948376068
 31
0.0
 12
1482.734047845861
 22
3916.806609316742
 32
0.0
 13
1482.734047845861
 23
3916.806609316742
 33
0.0
210
0.0
220
0.0
230
1.0
  0
SOLID
  5
4B8
330
4AC
100
AcDbEntity
  8
HATCH
  6
CONTINUOUS
 62
   251
100
AcDbTrace
 10
1382.73404784586
 20
3916.806609316742
 30
0.0
 11
1432.734047845861
 21
3866.806609316741
 31
0.0
 12
1447.378708786533
 22
3902.161948376068
 32
0.0
 13
1447.378708786533
 23
3902.161948376068
 33
0.0
  0
SOLID
  5
4B9
330
4AC
100
AcDbEntity
  8
HATCH
  6
CONTINUOUS
 62
   251
100
AcDbTrace
 10
1382.73404784586
 20
3916.806609316742
 30
0.0
 11
1382.73404784586
 21
3216.806609316742
 31
0.0
 12
1432.734047845861
 22
3866.806609316741
 32
0.0
 13
1432.734047845861
 23
3866.806609316741
 33
0.0
210
0.0
220
0.0
230
1.0
  0
SOLID
  5
4BA
330
4AC
100
AcDbEntity
  8
HATCH
  6
CONTINUOUS
 62
   251
100
AcDbTrace
 10
2782.73404784586
 20
3916.806609316742
 30
0.0
 11
2818.089386905187
 21
3902.161948376069
 31
0.0
 12
2882.73404784586
 22
3897.806609316742
 32
0.0
 13
2882.73404784586
 23
3897.806609316742
 33
0.0
210
0.0
220
0.0
230
1.0
  0
SOLID
  5
4BB
330
4AC
100
AcDbEntity
  8
HATCH
  6
CONTINUOUS
 62
   251
100
AcDbTrace
 10
2868.089386905187
 20
3933.161948376069
 30
0.0
 11
2729.734047845861
 21
3916.806609316742
 31
0.0
 12
2782.73404784586
 22
3916.806609316742
 32
0.0
 13
2782.73404784586
 23
3916.806609316742
 33
0.0
210
0.0
220
0.0
230
1.0
  0
SOLID
  5
4BC
330
4AC
100
AcDbEntity
  8
HATCH
  6
CONTINUOUS
 62
   251
100
AcDbTrace
 10
2868.089386905187
 20
3933.161948376069
 30
0.0
 11
2782.73404784586
 21
3916.806609316742
 31
0.0
 12
2882.73404784586
 22
3897.806609316742
 32
0.0
 13
2882.73404784586
 23
3897.806609316742
 33
0.0
210
0.0
220
0.0
230
1.0
  0
SOLID
  5
4BD
330
4AC
100
AcDbEntity
  8
HATCH
  6
CONTINUOUS
 62
   251
100
AcDbTrace
 10
2832.73404784586
 20
3947.806609316742
 30
0.0
 11
2729.734047845861
 21
3916.806609316742
 31
0.0
 12
2868.089386905187
 22
3933.161948376069
 32
0.0
 13
2868.089386905187
 23
3933.161948376069
 33
0.0
210
0.0
220
0.0
230
1.0
  0
SOLID
  5
4BE
330
4AC
100
AcDbEntity
  8
HATCH
  6
CONTINUOUS
 62
   251
100
AcDbTrace
 10
2729.73404784586
 20
3947.806609316742
 30
0.0
 11
2729.734047845861
 21
3916.806609316742
 31
0.0
 12
2832.73404784586
 22
3947.806609316742
 32
0.0
 13
2832.73404784586
 23
3947.806609316742
 33
0.0
210
0.0
220
0.0
230
1.0
  0
SOLID
  5
4BF
330
4AC
100
AcDbEntity
  8
HATCH
  6
CONTINUOUS
 62
   251
100
AcDbTrace
 10
1397.378708786533
 20
3952.161948376069
 30
0.0
 11
1382.73404784586
 21
3916.806609316742
 31
0.0
 12
1535.73404784586
 22
3916.806609316742
 32
0.0
 13
1535.73404784586
 23
3916.806609316742
 33
0.0
  0
SOLID
  5
4C0
330
4AC
100
AcDbEntity
  8
HATCH
  6
CONTINUOUS
 62
   251
100
AcDbTrace
 10
1432.73404784586
 20
3966.806609316742
 30
0.0
 11
1397.378708786533
 21
3952.161948376069
 31
0.0
 12
1535.73404784586
 22
3916.806609316742
 32
0.0
 13
1535.73404784586
 23
3916.806609316742
 33
0.0
210
0.0
220
0.0
230
1.0
  0
SOLID
  5
4C1
330
4AC
100
AcDbEntity
  8
HATCH
  6
CONTINUOUS
 62
   251
100
AcDbTrace
 10
1535.73404784586
 20
3966.806609316742
 30
0.0
 11
1432.73404784586
 21
3966.806609316742
 31
0.0
 12
1535.73404784586
 22
3916.806609316742
 32
0.0
 13
1535.73404784586
 23
3916.806609316742
 33
0.0
  0
ENDBLK
  5
4C3
330
4AC
100
AcDbEntity
  8
0
100
AcDbBlockEnd
  0
BLOCK
  5
4CF
330
4C4
100
AcDbEntity
  8
0
100
AcDbBlockBegin
  2
*U10
 70
     1
 10
0.0
 20
0.0
 30
0.0
  3
*U10
  1

  0
SOLID
  5
4C5
330
4C4
100
AcDbEntity
  8
HATCH
  6
CONTINUOUS
 62
     3
100
AcDbTrace
 10
2782.73404784586
 20
3116.806609316741
 30
0.0
 11
2818.089386905187
 21
3131.451270257413
 31
0.0
 12
1482.73404784586
 22
3116.806609316741
 32
0.0
 13
1482.73404784586
 23
3116.806609316741
 33
0.0
210
0.0
220
0.0
230
1.0
  0
SOLID
  5
4C6
330
4C4
100
AcDbEntity
  8
HATCH
  6
CONTINUOUS
 62
     3
100
AcDbTrace
 10
2832.73404784586
 20
3166.80660931674
 30
0.0
 11
1482.73404784586
 21
3116.806609316741
 31
0.0
 12
2818.089386905187
 22
3131.451270257413
 32
0.0
 13
2818.089386905187
 23
3131.451270257413
 33
0.0
210
0.0
220
0.0
230
1.0
  0
SOLID
  5
4C7
330
4C4
100
AcDbEntity
  8
HATCH
  6
CONTINUOUS
 62
     3
100
AcDbTrace
 10
1482.73404784586
 20
3116.806609316741
 30
0.0
 11
2832.73404784586
 21
3166.80660931674
 31
0.0
 12
1447.378708786532
 22
3131.451270257413
 32
0.0
 13
1447.378708786532
 23
3131.451270257413
 33
0.0
  0
SOLID
  5
4C8
330
4C4
100
AcDbEntity
  8
HATCH
  6
CONTINUOUS
 62
     3
100
AcDbTrace
 10
2832.73404784586
 20
3866.806609316741
 30
0.0
 11
1447.378708786532
 21
3131.451270257413
 31
0.0
 12
2832.73404784586
 22
3166.80660931674
 32
0.0
 13
2832.73404784586
 23
3166.80660931674
 33
0.0
210
0.0
220
0.0
230
1.0
  0
SOLID
  5
4C9
330
4C4
100
AcDbEntity
  8
HATCH
  6
CONTINUOUS
 62
     3
100
AcDbTrace
 10
1447.378708786532
 20
3131.451270257413
 30
0.0
 11
2832.73404784586
 21
3866.806609316741
 31
0.0
 12
1432.73404784586
 22
3166.806609316742
 32
0.0
 13
1432.73404784586
 23
3166.806609316742
 33
0.0
210
0.0
220
0.0
230
1.0
  0
SOLID
  5
4CA
330
4C4
100
AcDbEntity
  8
HATCH
  6
CONTINUOUS
 62
     3
100
AcDbTrace
 10
2818.089386905187
 20
3902.161948376068
 30
0.0
 11
1432.73404784586
 21
3166.806609316742
 31
0.0
 12
2832.73404784586
 22
3866.806609316741
 32
0.0
 13
2832.73404784586
 23
3866.806609316741
 33
0.0
  0
SOLID
  5
4CB
330
4C4
100
AcDbEntity
  8
HATCH
  6
CONTINUOUS
 62
     3
100
AcDbTrace
 10
1432.73404784586
 20
3166.806609316742
 30
0.0
 11
2818.089386905187
 21
3902.161948376068
 31
0.0
 12
1432.734047845861
 22
3866.806609316741
 32
0.0
 13
1432.734047845861
 23
3866.806609316741
 33
0.0
210
0.0
220
0.0
230
1.0
  0
SOLID
  5
4CC
330
4C4
100
AcDbEntity
  8
HATCH
  6
CONTINUOUS
 62
     3
100
AcDbTrace
 10
2782.73404784586
 20
3916.806609316742
 30
0.0
 11
1432.734047845861
 21
3866.806609316741
 31
0.0
 12
2818.089386905187
 22
3902.161948376068
 32
0.0
 13
2818.089386905187
 23
3902.161948376068
 33
0.0
210
0.0
220
0.0
230
1.0
  0
SOLID
  5
4CD
330
4C4
100
AcDbEntity
  8
HATCH
  6
CONTINUOUS
 62
     3
100
AcDbTrace
 10
1432.734047845861
 20
3866.806609316741
 30
0.0
 11
2782.73404784586
 21
3916.806609316742
 31
0.0
 12
1447.378708786533
 22
3902.161948376069
 32
0.0
 13
1447.378708786533
 23
3902.161948376069
 33
0.0
  0
SOLID
  5
4CE
330
4C4
100
AcDbEntity
  8
HATCH
  6
CONTINUOUS
 62
     3
100
AcDbTrace
 10
1482.734047845861
 20
3916.806609316742
 30
0.0
 11
1447.378708786533
 21
3902.161948376069
 31
0.0
 12
2782.73404784586
 22
3916.806609316742
 32
0.0
 13
2782.73404784586
 23
3916.806609316742
 33
0.0
210
0.0
220
0.0
230
1.0
  0
ENDBLK
  5
4D0
330
4C4
100
AcDbEntity
  8
0
100
AcDbBlockEnd
  0
BLOCK
  5
4D8
330
4D1
100
AcDbEntity
  8
0
100
AcDbBlockBegin
  2
*U11
 70
     1
 10
0.0
 20
0.0
 30
0.0
  3
*U11
  1

  0
SOLID
  5
4D2
330
4D1
100
AcDbEntity
  8
HATCH
  6
CONTINUOUS
 62
     1
100
AcDbTrace
 10
2132.734047845861
 20
4497.806609316742
 30
0.0
 11
2132.734047845861
 21
3916.806609316742
 31
0.0
 12
2593.868733532476
 22
4497.806609316742
 32
0.0
 13
2593.868733532476
 23
4497.806609316742
 33
0.0
  0
SOLID
  5
4D3
330
4D1
100
AcDbEntity
  8
HATCH
  6
CONTINUOUS
 62
     1
100
AcDbTrace
 10
2593.868733532473
 20
3916.806609316742
 30
0.0
 11
2593.868733532476
 21
4497.806609316742
 31
0.0
 12
2132.734047845861
 22
3916.806609316742
 32
0.0
 13
2132.734047845861
 23
3916.806609316742
 33
0.0
210
0.0
220
0.0
230
1.0
  0
SOLID
  5
4D4
330
4D1
100
AcDbEntity
  8
HATCH
  6
CONTINUOUS
 62
     1
100
AcDbTrace
 10
2132.734047845861
 20
4497.806609316742
 30
0.0
 11
2132.691143613843
 21
4497.806609316742
 31
0.0
 12
2132.734047845861
 22
3916.806609316742
 32
0.0
 13
2132.734047845861
 23
3916.806609316742
 33
0.0
210
0.0
220
0.0
230
1.0
  0
SOLID
  5
4D5
330
4D1
100
AcDbEntity
  8
HATCH
  6
CONTINUOUS
 62
     1
100
AcDbTrace
 10
2132.648239381826
 20
4497.806609316742
 30
0.0
 11
2132.734047845861
 21
3916.806609316742
 31
0.0
 12
2132.691143613843
 22
4497.806609316742
 32
0.0
 13
2132.691143613843
 23
4497.806609316742
 33
0.0
210
0.0
220
0.0
230
1.0
  0
SOLID
  5
4D6
330
4D1
100
AcDbEntity
  8
HATCH
  6
CONTINUOUS
 62
     1
100
AcDbTrace
 10
2132.734047845861
 20
3916.806609316742
 30
0.0
 11
2132.648239381826
 21
4497.806609316742
 31
0.0
 12
1671.513553695195
 22
3916.806609316742
 32
0.0
 13
1671.513553695195
 23
3916.806609316742
 33
0.0
210
0.0
220
0.0
230
1.0
  0
SOLID
  5
4D7
330
4D1
100
AcDbEntity
  8
HATCH
  6
CONTINUOUS
 62
     1
100
AcDbTrace
 10
1671.513553695195
 20
4497.806609316742
 30
0.0
 11
1671.513553695195
 21
3916.806609316742
 31
0.0
 12
2132.648239381826
 22
4497.806609316742
 32
0.0
 13
2132.648239381826
 23
4497.806609316742
 33
0.0
210
0.0
220
0.0
230
1.0
  0
ENDBLK
  5
4D9
330
4D1
100
AcDbEntity
  8
0
100
AcDbBlockEnd
  0
BLOCK
  5
4F7
330
4E6
100
AcDbEntity
  8
0
100
AcDbBlockBegin
  2
*U12
 70
     1
 10
0.0
 20
0.0
 30
0.0
  3
*U12
  1

  0
SOLID
  5
4E7
330
4E6
100
AcDbEntity
  8
HATCH
  6
CONTINUOUS
 62
     7
100
AcDbTrace
 10
1535.734047845861
 20
4091.756616357014
 30
0.0
 11
1516.734047845861
 21
4019.306609316742
 31
0.0
 12
1535.734047845861
 22
4019.306609316742
 32
0.0
 13
1535.734047845861
 23
4019.306609316742
 33
0.0
210
0.0
220
0.0
230
1.0
  0
SOLID
  5
4E8
330
4E6
100
AcDbEntity
  8
HATCH
  6
CONTINUOUS
 62
     7
100
AcDbTrace
 10
2729.73404784586
 20
4091.756616357014
 30
0.0
 11
2729.73404784586
 21
4019.306609316742
 31
0.0
 12
2748.73404784586
 22
4019.306609316742
 32
0.0
 13
2748.73404784586
 23
4019.306609316742
 33
0.0
210
0.0
220
0.0
230
1.0
  0
SOLID
  5
4E9
330
4E6
100
AcDbEntity
  8
HATCH
  6
CONTINUOUS
 62
     7
100
AcDbTrace
 10
2748.73404784586
 20
4269.306609316742
 30
0.0
 11
2729.73404784586
 21
4091.756616357014
 31
0.0
 12
2748.73404784586
 22
4019.306609316742
 32
0.0
 13
2748.73404784586
 23
4019.306609316742
 33
0.0
210
0.0
220
0.0
230
1.0
  0
SOLID
  5
4EA
330
4E6
100
AcDbEntity
  8
HATCH
  6
CONTINUOUS
 62
     7
100
AcDbTrace
 10
1535.734047845861
 20
4269.306609316742
 30
0.0
 11
1516.734047845861
 21
4019.306609316742
 31
0.0
 12
1535.734047845861
 22
4091.756616357014
 32
0.0
 13
1535.734047845861
 23
4091.756616357014
 33
0.0
210
0.0
220
0.0
230
1.0
  0
SOLID
  5
4EB
330
4E6
100
AcDbEntity
  8
HATCH
  6
CONTINUOUS
 62
     7
100
AcDbTrace
 10
1516.734047845861
 20
4269.306609316742
 30
0.0
 11
1516.734047845861
 21
4019.306609316742
 31
0.0
 12
1535.734047845861
 22
4269.306609316742
 32
0.0
 13
1535.734047845861
 23
4269.306609316742
 33
0.0
210
0.0
220
0.0
230
1.0
  0
SOLID
  5
4EC
330
4E6
100
AcDbEntity
  8
HATCH
  6
CONTINUOUS
 62
     7
100
AcDbTrace
 10
2729.73404784586
 20
4269.306609316742
 30
0.0
 11
2729.73404784586
 21
4091.756616357014
 31
0.0
 12
2748.73404784586
 22
4269.306609316742
 32
0.0
 13
2748.73404784586
 23
4269.306609316742
 33
0.0
210
0.0
220
0.0
230
1.0
  0
SOLID
  5
4ED
330
4E6
100
AcDbEntity
  8
HATCH
  6
CONTINUOUS
 62
     7
100
AcDbTrace
 10
1535.734047845861
 20
4446.856602276471
 30
0.0
 11
1516.734047845861
 21
4269.306609316742
 31
0.0
 12
1535.734047845861
 22
4269.306609316742
 32
0.0
 13
1535.734047845861
 23
4269.306609316742
 33
0.0
  0
SOLID
  5
4EE
330
4E6
100
AcDbEntity
  8
HATCH
  6
CONTINUOUS
 62
     7
100
AcDbTrace
 10
2729.734047845861
 20
4446.856602276471
 30
0.0
 11
2729.73404784586
 21
4269.306609316742
 31
0.0
 12
2748.73404784586
 22
4269.306609316742
 32
0.0
 13
2748.73404784586
 23
4269.306609316742
 33
0.0
210
0.0
220
0.0
230
1.0
  0
SOLID
  5
4EF
330
4E6
100
AcDbEntity
  8
HATCH
  6
CONTINUOUS
 62
     7
100
AcDbTrace
 10
1535.734047845861
 20
4517.806609316743
 30
0.0
 11
1516.734047845861
 21
4269.306609316742
 31
0.0
 12
1535.734047845861
 22
4446.856602276471
 32
0.0
 13
1535.734047845861
 23
4446.856602276471
 33
0.0
210
0.0
220
0.0
230
1.0
  0
SOLID
  5
4F0
330
4E6
100
AcDbEntity
  8
HATCH
  6
CONTINUOUS
 62
     7
100
AcDbTrace
 10
1516.734047845861
 20
4269.306609316742
 30
0.0
 11
1535.734047845861
 21
4517.806609316743
 31
0.0
 12
1532.734047845861
 22
4517.806609316743
 32
0.0
 13
1532.734047845861
 23
4517.806609316743
 33
0.0
210
0.0
220
0.0
230
1.0
  0
SOLID
  5
4F1
330
4E6
100
AcDbEntity
  8
HATCH
  6
CONTINUOUS
 62
     7
100
AcDbTrace
 10
2729.734047845861
 20
4517.806609316743
 30
0.0
 11
2729.734047845861
 21
4446.856602276471
 31
0.0
 12
2748.73404784586
 22
4269.306609316742
 32
0.0
 13
2748.73404784586
 23
4269.306609316742
 33
0.0
210
0.0
220
0.0
230
1.0
  0
SOLID
  5
4F2
330
4E6
100
AcDbEntity
  8
HATCH
  6
CONTINUOUS
 62
     7
100
AcDbTrace
 10
2748.73404784586
 20
4269.306609316742
 30
0.0
 11
2732.734047845861
 21
4517.806609316743
 31
0.0
 12
2729.734047845861
 22
4517.806609316743
 32
0.0
 13
2729.734047845861
 23
4517.806609316743
 33
0.0
210
0.0
220
0.0
230
1.0
  0
SOLID
  5
4F3
330
4E6
100
AcDbEntity
  8
HATCH
  6
CONTINUOUS
 62
     7
100
AcDbTrace
 10
2732.734047845861
 20
4517.806609316743
 30
0.0
 11
2748.734047845861
 21
4519.306609316742
 31
0.0
 12
2732.734047845861
 22
4519.306609316742
 32
0.0
 13
2732.734047845861
 23
4519.306609316742
 33
0.0
  0
SOLID
  5
4F4
330
4E6
100
AcDbEntity
  8
HATCH
  6
CONTINUOUS
 62
     7
100
AcDbTrace
 10
2748.734047845861
 20
4519.306609316742
 30
0.0
 11
2732.734047845861
 21
4517.806609316743
 31
0.0
 12
2748.73404784586
 22
4269.306609316742
 32
0.0
 13
2748.73404784586
 23
4269.306609316742
 33
0.0
210
0.0
220
0.0
230
1.0
  0
SOLID
  5
4F5
330
4E6
100
AcDbEntity
  8
HATCH
  6
CONTINUOUS
 62
     7
100
AcDbTrace
 10
1532.734047845861
 20
4517.806609316743
 30
0.0
 11
1532.734047845861
 21
4519.306609316742
 31
0.0
 12
1516.734047845861
 22
4519.306609316742
 32
0.0
 13
1516.734047845861
 23
4519.306609316742
 33
0.0
210
0.0
220
0.0
230
1.0
  0
SOLID
  5
4F6
330
4E6
100
AcDbEntity
  8
HATCH
  6
CONTINUOUS
 62
     7
100
AcDbTrace
 10
1516.734047845861
 20
4519.306609316742
 30
0.0
 11
1516.734047845861
 21
4269.306609316742
 31
0.0
 12
1532.734047845861
 22
4517.806609316743
 32
0.0
 13
1532.734047845861
 23
4517.806609316743
 33
0.0
210
0.0
220
0.0
230
1.0
  0
ENDBLK
  5
4F8
330
4E6
100
AcDbEntity
  8
0
100
AcDbBlockEnd
  0
BLOCK
  5
506
330
4F9
100
AcDbEntity
  8
0
100
AcDbBlockBegin
  2
*U13
 70
     1
 10
0.0
 20
0.0
 30
0.0
  3
*U13
  1

  0
SOLID
  5
4FA
330
4F9
100
AcDbEntity
  8
HATCH
  6
CONTINUOUS
100
AcDbTrace
 10
1535.73404784586
 20
2088.756616357014
 30
0.0
 11
1516.73404784586
 21
2016.306609316742
 31
0.0
 12
1535.73404784586
 22
2016.306609316742
 32
0.0
 13
1535.73404784586
 23
2016.306609316742
 33
0.0
  0
SOLID
  5
4FB
330
4F9
100
AcDbEntity
  8
HATCH
  6
CONTINUOUS
100
AcDbTrace
 10
2729.73404784586
 20
2088.756616357014
 30
0.0
 11
2729.73404784586
 21
2016.306609316742
 31
0.0
 12
2748.734047845861
 22
2016.306609316742
 32
0.0
 13
2748.734047845861
 23
2016.306609316742
 33
0.0
210
0.0
220
0.0
230
1.0
  0
SOLID
  5
4FC
330
4F9
100
AcDbEntity
  8
HATCH
  6
CONTINUOUS
100
AcDbTrace
 10
1535.73404784586
 20
2266.306609316742
 30
0.0
 11
1516.73404784586
 21
2016.306609316742
 31
0.0
 12
1535.73404784586
 22
2088.756616357014
 32
0.0
 13
1535.73404784586
 23
2088.756616357014
 33
0.0
  0
SOLID
  5
4FD
330
4F9
100
AcDbEntity
  8
HATCH
  6
CONTINUOUS
100
AcDbTrace
 10
2748.73404784586
 20
2266.306609316742
 30
0.0
 11
2729.73404784586
 21
2088.756616357014
 31
0.0
 12
2748.734047845861
 22
2016.306609316742
 32
0.0
 13
2748.734047845861
 23
2016.306609316742
 33
0.0
210
0.0
220
0.0
230
1.0
  0
SOLID
  5
4FE
330
4F9
100
AcDbEntity
  8
HATCH
  6
CONTINUOUS
100
AcDbTrace
 10
2729.73404784586
 20
2266.306609316742
 30
0.0
 11
2729.73404784586
 21
2088.756616357014
 31
0.0
 12
2748.73404784586
 22
2266.306609316742
 32
0.0
 13
2748.73404784586
 23
2266.306609316742
 33
0.0
210
0.0
220
0.0
230
1.0
  0
SOLID
  5
4FF
330
4F9
100
AcDbEntity
  8
HATCH
  6
CONTINUOUS
100
AcDbTrace
 10
1516.73404784586
 20
2266.306609316742
 30
0.0
 11
1516.73404784586
 21
2016.306609316742
 31
0.0
 12
1535.73404784586
 22
2266.306609316742
 32
0.0
 13
1535.73404784586
 23
2266.306609316742
 33
0.0
210
0.0
220
0.0
230
1.0
  0
SOLID
  5
500
330
4F9
100
AcDbEntity
  8
HATCH
  6
CONTINUOUS
100
AcDbTrace
 10
1535.73404784586
 20
2443.85660227647
 30
0.0
 11
1516.73404784586
 21
2266.306609316742
 31
0.0
 12
1535.73404784586
 22
2266.306609316742
 32
0.0
 13
1535.73404784586
 23
2266.306609316742
 33
0.0
210
0.0
220
0.0
230
1.0
  0
SOLID
  5
501
330
4F9
100
AcDbEntity
  8
HATCH
  6
CONTINUOUS
100
AcDbTrace
 10
2729.73404784586
 20
2443.85660227647
 30
0.0
 11
2729.73404784586
 21
2266.306609316742
 31
0.0
 12
2748.73404784586
 22
2266.306609316742
 32
0.0
 13
2748.73404784586
 23
2266.306609316742
 33
0.0
210
0.0
220
0.0
230
1.0
  0
SOLID
  5
502
330
4F9
100
AcDbEntity
  8
HATCH
  6
CONTINUOUS
100
AcDbTrace
 10
2729.73404784586
 20
2443.85660227647
 30
0.0
 11
2748.73404784586
 21
2516.306609316742
 31
0.0
 12
2729.73404784586
 22
2516.306609316742
 32
0.0
 13
2729.73404784586
 23
2516.306609316742
 33
0.0
210
0.0
220
0.0
230
1.0
  0
SOLID
  5
503
330
4F9
100
AcDbEntity
  8
HATCH
  6
CONTINUOUS
100
AcDbTrace
 10
2748.73404784586
 20
2516.306609316742
 30
0.0
 11
2729.73404784586
 21
2443.85660227647
 31
0.0
 12
2748.73404784586
 22
2266.306609316742
 32
0.0
 13
2748.73404784586
 23
2266.306609316742
 33
0.0
210
0.0
220
0.0
230
1.0
  0
SOLID
  5
504
330
4F9
100
AcDbEntity
  8
HATCH
  6
CONTINUOUS
100
AcDbTrace
 10
1535.73404784586
 20
2443.85660227647
 30
0.0
 11
1535.73404784586
 21
2516.306609316742
 31
0.0
 12
1516.73404784586
 22
2516.306609316742
 32
0.0
 13
1516.73404784586
 23
2516.306609316742
 33
0.0
210
0.0
220
0.0
230
1.0
  0
SOLID
  5
505
330
4F9
100
AcDbEntity
  8
HATCH
  6
CONTINUOUS
100
AcDbTrace
 10
1516.73404784586
 20
2516.306609316742
 30
0.0
 11
1516.73404784586
 21
2266.306609316742
 31
0.0
 12
1535.73404784586
 22
2443.85660227647
 32
0.0
 13
1535.73404784586
 23
2443.85660227647
 33
0.0
210
0.0
220
0.0
230
1.0
  0
ENDBLK
  5
507
330
4F9
100
AcDbEntity
  8
0
100
AcDbBlockEnd
  0
ENDSEC
  0
SECTION
  2
ENTITIES
  0
INSERT
  5
43B
330
1F
100
AcDbEntity
  8
HATCH
100
AcDbBlockReference
  2
ACKB
 10
0.0
 20
0.0
 30
0.0
  0
ENDSEC
  0
SECTION
  2
OBJECTS
  0
DICTIONARY
  5
C
330
0
100
AcDbDictionary
  3
ACAD_GROUP
350
D
  3
ACAD_LAYOUT
350
1A
  3
ACAD_MLINESTYLE
350
17
  3
ACAD_PLOTSETTINGS
350
19
1001
ACAD
1000
TREAT_AS_HARD
1070
     0
1000
TREAT_AS_HARD
1070
     0
  0
DICTIONARY
  5
16B
330
1F
100
AcDbDictionary
  3
ACAD_LAYOUTSELFREF
350
43D
  3
ACAD_SORTENTS
350
380
1001
ACAD
1000
TREAT_AS_HARD
1070
     1
1000
TREAT_AS_HARD
1070
     0
  0
DICTIONARY
  5
16D
330
50
100
AcDbDictionary
  3
ACAD_LAYOUTSELFREF
350
43E
1001
ACAD
1000
TREAT_AS_HARD
1070
     1
1000
TREAT_AS_HARD
1070
     0
  0
DICTIONARY
  5
D
102
{ACAD_REACTORS
330
C
102
}
330
C
100
AcDbDictionary
1001
ACAD
1000
TREAT_AS_HARD
1070
     0
1000
TREAT_AS_HARD
1070
     0
  0
DICTIONARY
  5
1A
102
{ACAD_REACTORS
330
C
102
}
330
C
100
AcDbDictionary
1001
ACAD
1000
TREAT_AS_HARD
1070
     0
1000
TREAT_AS_HARD
1070
     0
  0
DICTIONARY
  5
17
102
{ACAD_REACTORS
330
C
102
}
330
C
100
AcDbDictionary
  3
STANDARD
350
18
1001
ACAD
1000
TREAT_AS_HARD
1070
     0
1000
TREAT_AS_HARD
1070
     0
  0
DICTIONARY
  5
19
102
{ACAD_REACTORS
330
C
102
}
330
C
100
AcDbDictionary
1001
ACAD
1000
TREAT_AS_HARD
1070
     0
1000
TREAT_AS_HARD
1070
     0
  0
XRECORD
  5
43D
102
{ACAD_REACTORS
330
16B
102
}
330
16B
100
AcDbXrecord
340
1F
  0
SORTENTSTABLE
  5
380
102
{ACAD_REACTORS
330
16B
102
}
330
16B
100
AcDbSortentsTable
330
1F
331
28C
  5
297
331
26A
  5
275
331
248
  5
253
331
29D
  5
2A8
331
27B
  5
286
331
259
  5
264
331
244
  5
24F
331
2AC
  5
37F
331
28A
  5
295
331
268
  5
273
331
29B
  5
2A6
331
279
  5
284
331
257
  5
262
331
242
  5
24D
331
307
  5
220
331
2AA
  5
33D
331
288
  5
293
331
266
  5
271
331
299
  5
2A4
331
277
  5
282
331
255
  5
260
331
240
  5
24B
331
2A8
  5
325
331
286
  5
291
331
264
  5
26F
331
23E
  5
249
331
325
  5
242
331
2E1
  5
23A
331
297
  5
2A2
331
275
  5
280
331
253
  5
25E
331
3B8
  5
23E
331
262
  5
26D
331
2A6
  5
307
331
284
  5
28F
331
23C
  5
247
331
295
  5
2A0
331
273
  5
27E
331
251
  5
25C
331
33D
  5
240
331
392
  5
3B8
331
282
  5
28D
331
260
  5
26B
331
2A4
  5
2E1
331
2BB
  5
243
331
24F
  5
25A
331
23A
  5
245
331
293
  5
29E
331
271
  5
27C
331
37F
  5
3AE
331
2A2
  5
2BB
331
280
  5
28B
331
291
  5
29C
331
26F
  5
27A
331
24D
  5
258
331
25E
  5
269
331
2A0
  5
2AB
331
28F
  5
29A
331
26D
  5
278
331
24B
  5
256
331
27E
  5
289
331
25C
  5
267
331
247
  5
252
331
31B
  5
241
331
28D
  5
298
331
26B
  5
276
331
249
  5
254
331
3AE
  5
23C
331
29E
  5
2A9
331
27C
  5
287
331
25A
  5
265
331
245
  5
250
331
2D7
  5
23B
331
28B
  5
296
331
269
  5
274
331
355
  5
23F
331
333
  5
23D
331
2F7
  5
392
331
29C
  5
2A7
331
27A
  5
285
331
258
  5
263
331
243
  5
24E
331
2AB
  5
355
331
289
  5
294
331
267
  5
272
331
29A
  5
2A5
331
278
  5
283
331
256
  5
261
331
241
  5
24C
331
2A9
  5
333
331
287
  5
292
331
265
  5
270
331
298
  5
2A3
331
276
  5
281
331
254
  5
25F
331
23F
  5
24A
331
2A7
  5
31B
331
285
  5
290
331
263
  5
26E
331
296
  5
2A1
331
274
  5
27F
331
252
  5
25D
331
23D
  5
248
331
2A5
  5
2F7
331
283
  5
28E
331
261
  5
26C
331
294
  5
29F
331
272
  5
27D
331
250
  5
25B
331
23B
  5
246
331
2A3
  5
2D7
331
281
  5
28C
331
292
  5
29D
331
270
  5
27B
331
24E
  5
259
331
25F
  5
26A
331
2A1
  5
2AC
331
290
  5
29B
331
26E
  5
279
331
24C
  5
257
331
27F
  5
28A
331
25D
  5
268
331
28E
  5
299
331
26C
  5
277
331
24A
  5
255
331
246
  5
251
331
29F
  5
2AA
331
27D
  5
288
331
25B
  5
266
331
220
  5
244
  0
XRECORD
  5
43E
102
{ACAD_REACTORS
330
16D
102
}
330
16D
100
AcDbXrecord
340
50
  0
MLINESTYLE
  5
18
102
{ACAD_REACTORS
330
17
102
}
330
17
100
AcDbMlineStyle
  2
STANDARD
 70
     0
  3

 62
   256
 51
90.0
 52
90.0
 71
     2
 49
0.5
 62
   256
  6
BYLAYER
 49
-0.5
 62
   256
  6
BYLAYER
  0
ENDSEC
  0
EOF
