  0
SECTION
  2
HEADER
  9
$ACADVER
  1
AC1012
  9
$DWGCODEPAGE
  3
ANSI_1252
  9
$INSBASE
 10
0.0
 20
0.0
 30
0.0
  9
$EXTMIN
 10
-293.8059040218752
 20
-291.8910496839907
 30
0.0
  9
$EXTMAX
 10
5224.514439537768
 20
5226.429293875655
 30
0.0
  9
$LIMMIN
 10
0.0
 20
0.0
  9
$LIMMAX
 10
420.0
 20
297.0
  9
$ORTHOMODE
 70
     0
  9
$REGENMODE
 70
     1
  9
$FILLMODE
 70
     1
  9
$QTEXTMODE
 70
     0
  9
$MIRRTEXT
 70
     1
  9
$DRAGMODE
 70
     2
  9
$LTSCALE
 40
1.0
  9
$OSMODE
 70
  3071
  9
$ATTMODE
 70
     1
  9
$TEXTSIZE
 40
2.5
  9
$TRACEWID
 40
1.0
  9
$TEXTSTYLE
  7
STANDARD
  9
$CLAYER
  8
HATCH
  9
$CELTYPE
  6
BYLAYER
  9
$CECOLOR
 62
   256
  9
$CELTSCALE
 40
1.0
  9
$DELOBJ
 70
     1
  9
$DISPSILH
 70
     0
  9
$DIMSCALE
 40
1.0
  9
$DIMASZ
 40
2.5
  9
$DIMEXO
 40
0.625
  9
$DIMDLI
 40
3.75
  9
$DIMRND
 40
0.0
  9
$DIMDLE
 40
0.0
  9
$DIMEXE
 40
1.25
  9
$DIMTP
 40
0.0
  9
$DIMTM
 40
0.0
  9
$DIMTXT
 40
2.5
  9
$DIMCEN
 40
2.5
  9
$DIMTSZ
 40
0.0
  9
$DIMTOL
 70
     0
  9
$DIMLIM
 70
     0
  9
$DIMTIH
 70
     0
  9
$DIMTOH
 70
     0
  9
$DIMSE1
 70
     0
  9
$DIMSE2
 70
     0
  9
$DIMTAD
 70
     1
  9
$DIMZIN
 70
     8
  9
$DIMBLK
  1

  9
$DIMASO
 70
     1
  9
$DIMSHO
 70
     1
  9
$DIMPOST
  1

  9
$DIMAPOST
  1

  9
$DIMALT
 70
     0
  9
$DIMALTD
 70
     3
  9
$DIMALTF
 40
0.03937007874016
  9
$DIMLFAC
 40
1.0
  9
$DIMTOFL
 70
     1
  9
$DIMTVP
 40
0.0
  9
$DIMTIX
 70
     0
  9
$DIMSOXD
 70
     0
  9
$DIMSAH
 70
     0
  9
$DIMBLK1
  1

  9
$DIMBLK2
  1

  9
$DIMSTYLE
  2
ISO-25
  9
$DIMCLRD
 70
     0
  9
$DIMCLRE
 70
     0
  9
$DIMCLRT
 70
     0
  9
$DIMTFAC
 40
1.0
  9
$DIMGAP
 40
0.625
  9
$DIMJUST
 70
     0
  9
$DIMSD1
 70
     0
  9
$DIMSD2
 70
     0
  9
$DIMTOLJ
 70
     0
  9
$DIMTZIN
 70
     8
  9
$DIMALTZ
 70
     0
  9
$DIMALTTZ
 70
     0
  9
$DIMFIT
 70
     3
  9
$DIMUPT
 70
     0
  9
$DIMUNIT
 70
     2
  9
$DIMDEC
 70
     2
  9
$DIMTDEC
 70
     2
  9
$DIMALTU
 70
     2
  9
$DIMALTTD
 70
     3
  9
$DIMTXSTY
  7
STANDARD
  9
$DIMAUNIT
 70
     0
  9
$LUNITS
 70
     2
  9
$LUPREC
 70
     4
  9
$SKETCHINC
 40
1.0
  9
$FILLETRAD
 40
100.0
  9
$AUNITS
 70
     0
  9
$AUPREC
 70
     0
  9
$MENU
  1
.
  9
$ELEVATION
 40
0.0
  9
$PELEVATION
 40
0.0
  9
$THICKNESS
 40
0.0
  9
$LIMCHECK
 70
     0
  9
$BLIPMODE
 70
     0
  9
$CHAMFERA
 40
10.0
  9
$CHAMFERB
 40
10.0
  9
$CHAMFERC
 40
20.0
  9
$CHAMFERD
 40
0.0
  9
$SKPOLY
 70
     0
  9
$TDCREATE
 40
2452626.549069212
  9
$TDUPDATE
 40
2452772.588787268
  9
$TDINDWG
 40
0.0129787037
  9
$TDUSRTIMER
 40
0.0129787037
  9
$USRTIMER
 70
     1
  9
$ANGBASE
 50
0.0
  9
$ANGDIR
 70
     0
  9
$PDMODE
 70
     0
  9
$PDSIZE
 40
0.0
  9
$PLINEWID
 40
0.0
  9
$COORDS
 70
     2
  9
$SPLFRAME
 70
     0
  9
$SPLINETYPE
 70
     6
  9
$SPLINESEGS
 70
     8
  9
$ATTDIA
 70
     0
  9
$ATTREQ
 70
     1
  9
$HANDLING
 70
-16383
  9
$HANDSEED
  5
15D
  9
$SURFTAB1
 70
     6
  9
$SURFTAB2
 70
     6
  9
$SURFTYPE
 70
     6
  9
$SURFU
 70
     6
  9
$SURFV
 70
     6
  9
$UCSNAME
  2

  9
$UCSORG
 10
0.0
 20
0.0
 30
0.0
  9
$UCSXDIR
 10
1.0
 20
0.0
 30
0.0
  9
$UCSYDIR
 10
0.0
 20
1.0
 30
0.0
  9
$PUCSNAME
  2

  9
$PUCSORG
 10
0.0
 20
0.0
 30
0.0
  9
$PUCSXDIR
 10
1.0
 20
0.0
 30
0.0
  9
$PUCSYDIR
 10
0.0
 20
1.0
 30
0.0
  9
$USERI1
 70
     0
  9
$USERI2
 70
     0
  9
$USERI3
 70
     0
  9
$USERI4
 70
     0
  9
$USERI5
 70
     0
  9
$USERR1
 40
0.0
  9
$USERR2
 40
0.0
  9
$USERR3
 40
0.0
  9
$USERR4
 40
0.0
  9
$USERR5
 40
0.0
  9
$WORLDVIEW
 70
     1
  9
$SHADEDGE
 70
     3
  9
$SHADEDIF
 70
    70
  9
$TILEMODE
 70
     1
  9
$MAXACTVP
 70
    64
  9
$PINSBASE
 10
0.0
 20
0.0
 30
0.0
  9
$PLIMCHECK
 70
     0
  9
$PEXTMIN
 10
0.0
 20
0.0
 30
0.0
  9
$PEXTMAX
 10
0.0
 20
0.0
 30
0.0
  9
$PLIMMIN
 10
0.0
 20
0.0
  9
$PLIMMAX
 10
12.0
 20
9.0
  9
$UNITMODE
 70
     0
  9
$VISRETAIN
 70
     1
  9
$PLINEGEN
 70
     0
  9
$PSLTSCALE
 70
     1
  9
$TREEDEPTH
 70
  3020
  9
$PICKSTYLE
 70
     1
  9
$CMLSTYLE
  2
STANDARD
  9
$CMLJUST
 70
     0
  9
$CMLSCALE
 40
20.0
  9
$SAVEIMAGES
 70
     1
  0
ENDSEC
  0
SECTION
  2
CLASSES
  0
CLASS
  1
ACDBDICTIONARYWDFLT
  2
AcDbDictionaryWithDefault
  3
AutoCAD 2000
 90
    32768
280
     0
281
     0
  0
CLASS
  1
ACDBPLACEHOLDER
  2
AcDbPlaceHolder
  3
AutoCAD 2000
 90
    32768
280
     0
281
     0
  0
CLASS
  1
LAYOUT
  2
AcDbLayout
  3
AutoCAD 2000
 90
    32768
280
     0
281
     0
  0
CLASS
  1
LONG_TRANSACTION
  2
AcDbLongTransaction
  3
AutoCAD 2000
 90
    32768
280
     0
281
     0
  0
CLASS
  1
LWPOLYLINE
  2
AcDbPolyline
  3
AutoCAD 2000
 90
    32768
280
     0
281
     1
  0
CLASS
  1
HATCH
  2
AcDbHatch
  3
AutoCAD 2000
 90
    32768
280
     0
281
     1
  0
CLASS
  1
XRECORD
  2
AcDbXrecord
  3
AutoCAD 2000
 90
    32768
280
     0
281
     0
  0
CLASS
  1
LONG_TRANSACTION
  2
AcDbLongTransaction
  3
AutoCAD 2000
 90
    32768
280
     0
281
     0
  0
CLASS
  1
LWPOLYLINE
  2
AcDbPolyline
  3
AutoCAD 2000
 90
    32768
280
     0
281
     1
  0
CLASS
  1
HATCH
  2
AcDbHatch
  3
AutoCAD 2000
 90
    32768
280
     0
281
     1
  0
CLASS
  1
XRECORD
  2
AcDbXrecord
  3
AutoCAD 2000
 90
    32768
280
     0
281
     0
  0
CLASS
  1
LONG_TRANSACTION
  2
AcDbLongTransaction
  3
AutoCAD 2000
 90
    32768
280
     0
281
     0
  0
CLASS
  1
LWPOLYLINE
  2
AcDbPolyline
  3
AutoCAD 2000
 90
    32768
280
     0
281
     1
  0
CLASS
  1
HATCH
  2
AcDbHatch
  3
AutoCAD 2000
 90
    32768
280
     0
281
     1
  0
CLASS
  1
XRECORD
  2
AcDbXrecord
  3
AutoCAD 2000
 90
    32768
280
     0
281
     0
  0
CLASS
  1
DICTIONARYVAR
  2
AcDbDictionaryVar
  3
AutoCAD 2000
 90
    32768
280
     0
281
     0
  0
CLASS
  1
SORTENTSTABLE
  2
AcDbSortentsTable
  3
AutoCAD 2000
 90
    32768
280
     0
281
     0
  0
CLASS
  1
LONG_TRANSACTION
  2
AcDbLongTransaction
  3
AutoCAD 2000
 90
    32768
280
     0
281
     0
  0
CLASS
  1
LWPOLYLINE
  2
AcDbPolyline
  3
AutoCAD 2000
 90
    32768
280
     0
281
     1
  0
CLASS
  1
HATCH
  2
AcDbHatch
  3
AutoCAD 2000
 90
    32768
280
     0
281
     1
  0
CLASS
  1
XRECORD
  2
AcDbXrecord
  3
AutoCAD 2000
 90
    32768
280
     0
281
     0
  0
ENDSEC
  0
SECTION
  2
TABLES
  0
TABLE
  2
VPORT
  5
8
330
0
100
AcDbSymbolTable
 70
     2
  0
VPORT
  5
140
330
8
100
AcDbSymbolTableRecord
100
AcDbViewportTableRecord
  2
*ACTIVE
 70
     0
 10
0.0
 20
0.0
 11
1.0
 21
1.0
 12
3336.31705705466
 22
2190.173290612656
 13
0.0
 23
0.0
 14
10.0
 24
10.0
 15
10.0
 25
10.0
 16
0.0
 26
0.0
 36
1.0
 17
0.0
 27
0.0
 37
0.0
 40
6641.64419737774
 41
2.10609480812641
 42
50.0
 43
0.0
 44
0.0
 50
0.0
 51
0.0
 71
     0
 72
   100
 73
     1
 74
     3
 75
     0
 76
     0
 77
     0
 78
     0
  0
ENDTAB
  0
TABLE
  2
LTYPE
  5
5
330
0
100
AcDbSymbolTable
 70
     1
  0
LTYPE
  5
14
330
5
100
AcDbSymbolTableRecord
100
AcDbLinetypeTableRecord
  2
BYBLOCK
 70
     0
  3

 72
    65
 73
     0
 40
0.0
  0
LTYPE
  5
15
330
5
100
AcDbSymbolTableRecord
100
AcDbLinetypeTableRecord
  2
BYLAYER
 70
     0
  3

 72
    65
 73
     0
 40
0.0
  0
LTYPE
  5
16
330
5
100
AcDbSymbolTableRecord
100
AcDbLinetypeTableRecord
  2
CONTINUOUS
 70
     0
  3
Solid line
 72
    65
 73
     0
 40
0.0
  0
ENDTAB
  0
TABLE
  2
LAYER
  5
2
330
0
100
AcDbSymbolTable
 70
     5
  0
LAYER
  5
10
330
2
100
AcDbSymbolTableRecord
100
AcDbLayerTableRecord
  2
0
 70
     0
 62
     7
  6
CONTINUOUS
  0
LAYER
  5
5D
330
2
100
AcDbSymbolTableRecord
100
AcDbLayerTableRecord
  2
SAFETY
 70
     0
 62
     7
  6
CONTINUOUS
  0
LAYER
  5
5E
330
2
100
AcDbSymbolTableRecord
100
AcDbLayerTableRecord
  2
OBJECT
 70
     0
 62
     7
  6
CONTINUOUS
  0
LAYER
  5
EB
330
2
100
AcDbSymbolTableRecord
100
AcDbLayerTableRecord
  2
TEKST
 70
     0
 62
     7
  6
CONTINUOUS
  0
LAYER
  5
11D
330
2
100
AcDbSymbolTableRecord
100
AcDbLayerTableRecord
  2
HATCH
 70
     0
 62
     7
  6
CONTINUOUS
  0
ENDTAB
  0
TABLE
  2
STYLE
  5
3
330
0
100
AcDbSymbolTable
 70
     1
  0
STYLE
  5
11
330
3
100
AcDbSymbolTableRecord
100
AcDbTextStyleTableRecord
  2
STANDARD
 70
     0
 40
0.0
 41
1.0
 50
0.0
 71
     0
 42
2.5
  3
txt
  4

  0
ENDTAB
  0
TABLE
  2
VIEW
  5
6
330
0
100
AcDbSymbolTable
 70
     0
  0
ENDTAB
  0
TABLE
  2
UCS
  5
7
330
0
100
AcDbSymbolTable
 70
     0
  0
ENDTAB
  0
TABLE
  2
APPID
  5
9
330
0
100
AcDbSymbolTable
 70
     2
  0
APPID
  5
12
330
9
100
AcDbSymbolTableRecord
100
AcDbRegAppTableRecord
  2
ACAD
 70
     0
  0
APPID
  5
E4
330
9
100
AcDbSymbolTableRecord
100
AcDbRegAppTableRecord
  2
CONTENTBLOCKICON
 70
     0
  0
ENDTAB
  0
TABLE
  2
DIMSTYLE
  5
A
330
0
100
AcDbSymbolTable
 70
     2
  0
DIMSTYLE
105
27
330
A
100
AcDbSymbolTableRecord
100
AcDbDimStyleTableRecord
  2
ISO-25
 70
     0
  3

  4

  5

  6

  7

 40
1.0
 41
2.5
 42
0.625
 43
3.75
 44
1.25
 45
0.0
 46
0.0
 47
0.0
 48
0.0
140
2.5
141
2.5
142
0.0
143
0.03937007874016
144
1.0
145
0.0
146
1.0
147
0.625
 71
     0
 72
     0
 73
     0
 74
     0
 75
     0
 76
     0
 77
     1
 78
     8
170
     0
171
     3
172
     1
173
     0
174
     0
175
     0
176
     0
177
     0
178
     0
270
     2
271
     2
272
     2
273
     2
274
     3
340
11
275
     0
280
     0
281
     0
282
     0
283
     0
284
     8
285
     0
286
     0
287
     3
288
     0
  0
DIMSTYLE
105
5F
330
A
100
AcDbSymbolTableRecord
100
AcDbDimStyleTableRecord
  2
SAF-W
 70
     0
  3

  4

  5

  6

  7

 40
50.0
 41
2.5
 42
2.0
 43
0.5
 44
1.0
 45
0.0
 46
0.0
 47
0.0
 48
0.0
140
2.5
141
0.09
142
0.0
143
25.4
144
1.0
145
0.0
146
1.0
147
0.5
 71
     0
 72
     0
 73
     0
 74
     0
 75
     0
 76
     0
 77
     1
 78
     8
170
     0
171
     2
172
     1
173
     0
174
     0
175
     0
176
   256
177
   256
178
   256
270
     2
271
     0
272
     0
273
     2
274
     2
340
11
275
     0
280
     0
281
     0
282
     0
283
     1
284
     0
285
     0
286
     0
287
     3
288
     0
  0
ENDTAB
  0
TABLE
  2
BLOCK_RECORD
  5
1
330
0
100
AcDbSymbolTable
 70
     2
  0
BLOCK_RECORD
  5
1F
102
{ACAD_XDICTIONARY
360
A2
102
}
330
1
100
AcDbSymbolTableRecord
100
AcDbBlockTableRecord
  2
*MODEL_SPACE
  0
BLOCK_RECORD
  5
50
102
{ACAD_XDICTIONARY
360
A4
102
}
330
1
100
AcDbSymbolTableRecord
100
AcDbBlockTableRecord
  2
*PAPER_SPACE
  0
BLOCK_RECORD
  5
AE
330
1
100
AcDbSymbolTableRecord
100
AcDbBlockTableRecord
  2
ACKE
1001
ACAD
1000
DesignCenter Data
1002
{
1070
     1
1070
     4
1002
}
  0
BLOCK_RECORD
  5
143
330
1
100
AcDbSymbolTableRecord
100
AcDbBlockTableRecord
  2
*U1
  0
ENDTAB
  0
ENDSEC
  0
SECTION
  2
BLOCKS
  0
BLOCK
  5
20
330
1F
100
AcDbEntity
  8
0
100
AcDbBlockBegin
  2
*MODEL_SPACE
 70
     0
 10
0.0
 20
0.0
 30
0.0
  3
*MODEL_SPACE
  1

  0
ENDBLK
  5
21
330
1F
100
AcDbEntity
  8
0
100
AcDbBlockEnd
  0
BLOCK
  5
52
330
50
100
AcDbEntity
 67
     1
  8
0
100
AcDbBlockBegin
  2
*PAPER_SPACE
 70
     0
 10
0.0
 20
0.0
 30
0.0
  3
*PAPER_SPACE
  1

  0
ENDBLK
  5
53
330
50
100
AcDbEntity
 67
     1
  8
0
100
AcDbBlockEnd
  0
BLOCK
  5
AF
330
AE
100
AcDbEntity
  8
0
100
AcDbBlockBegin
  2
ACKE
 70
     0
 10
0.0
 20
0.0
 30
0.0
  3
ACKE
  1

  0
INSERT
  5
12F
330
AE
100
AcDbEntity
  8
HATCH
  6
CONTINUOUS
 62
     3
100
AcDbBlockReference
  2
*U1
 10
0.0
 20
0.0
 30
0.0
1001
ACAD
1002
{
1000
R14_HATCH_DATA
1000
12F
1011
1.0
1021
0.0
1031
0.0
1011
0.0
1021
1.0
1031
0.0
1011
0.0
1021
0.0
1031
1.0
1040
0.0
1010
0.0
1020
0.0
1030
1.0
1000
SOLID
1070
     1
1070
     1
1071
        2
1071
        7
1070
     1
1070
     1
1071
        7
1040
1416.854267757948
1040
3586.132806615756
1040
0.4142135623730951
1040
1316.854267757948
1040
3486.132806615756
1040
0.0
1040
1316.854267757948
1040
2467.26912209583
1040
0.0
1040
1321.854267757948
1040
2467.26912209583
1040
0.0
1040
3613.854267757949
1040
2467.269122095829
1040
0.0
1040
3613.854267757949
1040
3486.132806615756
1040
0.4142135623730951
1040
3513.854267757948
1040
3586.132806615756
1040
0.0
1071
        7
1005
13C
1005
132
1005
13B
1005
136
1005
137
1005
134
1005
139
1071
        7
1070
     1
1070
     1
1071
        7
1040
3513.854267757948
1040
1348.405437575903
1040
0.4142135623730951
1040
3613.854267757949
1040
1448.405437575902
1040
0.0
1040
3613.85426775795
1040
2467.26912209583
1040
0.0
1040
3608.854267757948
1040
2467.26912209583
1040
0.0
1040
1316.854267757948
1040
2467.26912209583
1040
0.0
1040
1316.854267757948
1040
1448.405437575903
1040
0.4142135623730951
1040
1416.854267757948
1040
1348.405437575903
1040
0.0
1071
        7
1005
13A
1005
134
1005
135
1005
13E
1005
133
1005
13D
1005
138
1070
     0
1070
     1
1040
14.95865810220211
1071
        2
1040
2310.4355334301
1040
3229.80002531235
1040
0.0
1040
2355.364604793263
1040
1853.60349074762
1040
0.0
1002
}
  0
MTEXT
  5
130
330
AE
100
AcDbEntity
  8
TEKST
100
AcDbMText
 10
1965.882628167906
 20
4240.425559238086
 30
0.0
 40
75.18097186823435
 41
868.6785999999997
 71
     1
 72
     1
  1
{\FIMPACT.TTF;Hoogte: 177 cm\PMax. valhoogte: 20 cm}
1001
ACAD
1000
MTEXTBEGIN
1070
    73
1070
     1
1070
    44
1040
1.0
1070
    74
1070
     0
1000
MTEXTEND
1000
MTEXTBEGIN
1070
    73
1070
     1
1070
    44
1040
1.0
1070
    74
1070
     0
1000
MTEXTEND
  0
POLYLINE
  5
131
330
AE
100
AcDbEntity
  8
SAFETY
 48
20.0
100
AcDb2dPolyline
 66
     1
 10
0.0
 20
0.0
 30
0.0
 70
     1
  0
VERTEX
  5
154
330
131
100
AcDbEntity
  8
SAFETY
 48
20.0
100
AcDbVertex
100
AcDb2dVertex
 10
1516.854267757945
 20
18.76912209583042
 30
0.0
  0
VERTEX
  5
155
330
131
100
AcDbEntity
  8
SAFETY
 48
20.0
100
AcDbVertex
100
AcDb2dVertex
 10
3413.854267757946
 20
18.76912209583223
 30
0.0
 42
0.4142135623730951
  0
VERTEX
  5
156
330
131
100
AcDbEntity
  8
SAFETY
 48
20.0
100
AcDbVertex
100
AcDb2dVertex
 10
4913.854267757947
 20
1518.769122095832
 30
0.0
  0
VERTEX
  5
157
330
131
100
AcDbEntity
  8
SAFETY
 48
20.0
100
AcDbVertex
100
AcDb2dVertex
 10
4913.854267757947
 20
3415.769122095832
 30
0.0
 42
0.4142135623730951
  0
VERTEX
  5
158
330
131
100
AcDbEntity
  8
SAFETY
 48
20.0
100
AcDbVertex
100
AcDb2dVertex
 10
3413.854267757946
 20
4915.769122095833
 30
0.0
  0
VERTEX
  5
159
330
131
100
AcDbEntity
  8
SAFETY
 48
20.0
100
AcDbVertex
100
AcDb2dVertex
 10
1516.854267757945
 20
4915.769122095831
 30
0.0
 42
0.4142135623730951
  0
VERTEX
  5
15A
330
131
100
AcDbEntity
  8
SAFETY
 48
20.0
100
AcDbVertex
100
AcDb2dVertex
 10
16.85426775794667
 20
3415.769122095829
 30
0.0
  0
VERTEX
  5
15B
330
131
100
AcDbEntity
  8
SAFETY
 48
20.0
100
AcDbVertex
100
AcDb2dVertex
 10
16.85426775794667
 20
1518.76912209583
 30
0.0
 42
0.4142135623730951
  0
SEQEND
  5
15C
330
131
100
AcDbEntity
  8
SAFETY
 48
20.0
  0
LINE
  5
132
330
AE
100
AcDbEntity
  8
OBJECT
100
AcDbLine
 10
1416.854267757948
 20
3586.132806615756
 30
0.0
 11
3513.854267757948
 21
3586.132806615756
 31
0.0
  0
LINE
  5
133
330
AE
100
AcDbEntity
  8
OBJECT
100
AcDbLine
 10
3513.854267757948
 20
1348.405437575903
 30
0.0
 11
1416.854267757948
 21
1348.405437575903
 31
0.0
  0
LINE
  5
134
330
AE
100
AcDbEntity
  8
OBJECT
100
AcDbLine
 10
1321.854267757948
 20
2467.26912209583
 30
0.0
 11
3608.854267757948
 21
2467.26912209583
 31
0.0
  0
LINE
  5
135
330
AE
100
AcDbEntity
  8
OBJECT
100
AcDbLine
 10
1316.854267757948
 20
2467.26912209583
 30
0.0
 11
1316.854267757948
 21
1448.405437575903
 31
0.0
  0
LINE
  5
136
330
AE
100
AcDbEntity
  8
OBJECT
100
AcDbLine
 10
1316.854267757948
 20
3486.132806615756
 30
0.0
 11
1316.854267757948
 21
2467.26912209583
 31
0.0
  0
LINE
  5
137
330
AE
100
AcDbEntity
  8
OBJECT
100
AcDbLine
 10
1321.854267757948
 20
2467.26912209583
 30
0.0
 11
1316.854267757948
 21
2467.26912209583
 31
0.0
  0
LINE
  5
138
330
AE
100
AcDbEntity
  8
OBJECT
100
AcDbLine
 10
3613.854267757949
 20
1448.405437575902
 30
0.0
 11
3613.854267757949
 21
2467.269122095832
 31
0.0
  0
LINE
  5
139
330
AE
100
AcDbEntity
  8
OBJECT
100
AcDbLine
 10
3613.854267757949
 20
2467.26912209583
 30
0.0
 11
3613.854267757949
 21
3486.132806615756
 31
0.0
  0
LINE
  5
13A
330
AE
100
AcDbEntity
  8
OBJECT
100
AcDbLine
 10
3608.854267757948
 20
2467.26912209583
 30
0.0
 11
3613.854267757949
 21
2467.26912209583
 31
0.0
  0
ARC
  5
13B
330
AE
100
AcDbEntity
  8
OBJECT
100
AcDbCircle
 10
1416.854267757948
 20
3486.132806615756
 30
0.0
 40
100.0
100
AcDbArc
 50
90.0
 51
180.0
  0
ARC
  5
13C
330
AE
100
AcDbEntity
  8
OBJECT
100
AcDbCircle
 10
3513.854267757948
 20
3486.132806615756
 30
0.0
 40
100.0
100
AcDbArc
 50
0.0
 51
90.0
  0
ARC
  5
13D
330
AE
100
AcDbEntity
  8
OBJECT
100
AcDbCircle
 10
3513.854267757948
 20
1448.405437575902
 30
0.0
 40
100.0
100
AcDbArc
 50
270.0
 51
0.0
  0
ARC
  5
13E
330
AE
100
AcDbEntity
  8
OBJECT
100
AcDbCircle
 10
1416.854267757948
 20
1448.405437575903
 30
0.0
 40
100.0
100
AcDbArc
 50
180.0
 51
270.0
  0
ENDBLK
  5
B0
330
AE
100
AcDbEntity
  8
0
100
AcDbBlockEnd
  0
BLOCK
  5
152
330
143
100
AcDbEntity
  8
0
100
AcDbBlockBegin
  2
*U1
 70
     1
 10
0.0
 20
0.0
 30
0.0
  3
*U1
  1

  0
SOLID
  5
144
330
143
100
AcDbEntity
  8
HATCH
  6
CONTINUOUS
 62
     3
100
AcDbTrace
 10
3613.854267757949
 20
3486.132806615756
 30
0.0
 11
1316.854267757948
 21
2467.26912209583
 31
0.0
 12
1321.854267757948
 22
2467.26912209583
 32
0.0
 13
1321.854267757948
 23
2467.26912209583
 33
0.0
210
0.0
220
0.0
230
1.0
  0
SOLID
  5
145
330
143
100
AcDbEntity
  8
HATCH
  6
CONTINUOUS
 62
     3
100
AcDbTrace
 10
3613.854267757949
 20
3486.132806615756
 30
0.0
 11
1321.854267757948
 21
2467.26912209583
 31
0.0
 12
3613.854267757949
 22
2467.269122095829
 32
0.0
 13
3613.854267757949
 23
2467.269122095829
 33
0.0
210
0.0
220
0.0
230
1.0
  0
SOLID
  5
146
330
143
100
AcDbEntity
  8
HATCH
  6
CONTINUOUS
 62
     3
100
AcDbTrace
 10
1316.854267757948
 20
3486.132806615756
 30
0.0
 11
1316.854267757948
 21
2467.26912209583
 31
0.0
 12
3613.854267757949
 22
3486.132806615756
 32
0.0
 13
3613.854267757949
 23
3486.132806615756
 33
0.0
  0
SOLID
  5
147
330
143
100
AcDbEntity
  8
HATCH
  6
CONTINUOUS
 62
     3
100
AcDbTrace
 10
3584.564945876604
 20
3556.843484734411
 30
0.0
 11
1316.854267757948
 21
3486.132806615756
 31
0.0
 12
3613.854267757949
 22
3486.132806615756
 32
0.0
 13
3613.854267757949
 23
3486.132806615756
 33
0.0
210
0.0
220
0.0
230
1.0
  0
SOLID
  5
148
330
143
100
AcDbEntity
  8
HATCH
  6
CONTINUOUS
 62
     3
100
AcDbTrace
 10
1346.143589639293
 20
3556.843484734411
 30
0.0
 11
1316.854267757948
 21
3486.132806615756
 31
0.0
 12
3584.564945876604
 22
3556.843484734411
 32
0.0
 13
3584.564945876604
 23
3556.843484734411
 33
0.0
210
0.0
220
0.0
230
1.0
  0
SOLID
  5
149
330
143
100
AcDbEntity
  8
HATCH
  6
CONTINUOUS
 62
     3
100
AcDbTrace
 10
1346.143589639293
 20
3556.843484734411
 30
0.0
 11
3513.854267757948
 21
3586.132806615756
 31
0.0
 12
1416.854267757948
 22
3586.132806615756
 32
0.0
 13
1416.854267757948
 23
3586.132806615756
 33
0.0
210
0.0
220
0.0
230
1.0
  0
SOLID
  5
14A
330
143
100
AcDbEntity
  8
HATCH
  6
CONTINUOUS
 62
     3
100
AcDbTrace
 10
3513.854267757948
 20
3586.132806615756
 30
0.0
 11
1346.143589639293
 21
3556.843484734411
 31
0.0
 12
3584.564945876604
 22
3556.843484734411
 32
0.0
 13
3584.564945876604
 23
3556.843484734411
 33
0.0
210
0.0
220
0.0
230
1.0
  0
SOLID
  5
14B
330
143
100
AcDbEntity
  8
HATCH
  6
CONTINUOUS
 62
     3
100
AcDbTrace
 10
3513.854267757948
 20
1348.405437575903
 30
0.0
 11
3584.564945876604
 21
1377.694759457248
 31
0.0
 12
1416.854267757948
 22
1348.405437575903
 32
0.0
 13
1416.854267757948
 23
1348.405437575903
 33
0.0
210
0.0
220
0.0
230
1.0
  0
SOLID
  5
14C
330
143
100
AcDbEntity
  8
HATCH
  6
CONTINUOUS
 62
     3
100
AcDbTrace
 10
3613.854267757949
 20
1448.405437575902
 30
0.0
 11
1416.854267757948
 21
1348.405437575903
 31
0.0
 12
3584.564945876604
 22
1377.694759457248
 32
0.0
 13
3584.564945876604
 23
1377.694759457248
 33
0.0
210
0.0
220
0.0
230
1.0
  0
SOLID
  5
14D
330
143
100
AcDbEntity
  8
HATCH
  6
CONTINUOUS
 62
     3
100
AcDbTrace
 10
1416.854267757948
 20
1348.405437575903
 30
0.0
 11
3613.854267757949
 21
1448.405437575902
 31
0.0
 12
1346.143589639293
 22
1377.694759457248
 32
0.0
 13
1346.143589639293
 23
1377.694759457248
 33
0.0
210
0.0
220
0.0
230
1.0
  0
SOLID
  5
14E
330
143
100
AcDbEntity
  8
HATCH
  6
CONTINUOUS
 62
     3
100
AcDbTrace
 10
3613.85426775795
 20
2467.26912209583
 30
0.0
 11
1346.143589639293
 21
1377.694759457248
 31
0.0
 12
3613.854267757949
 22
1448.405437575902
 32
0.0
 13
3613.854267757949
 23
1448.405437575902
 33
0.0
210
0.0
220
0.0
230
1.0
  0
SOLID
  5
14F
330
143
100
AcDbEntity
  8
HATCH
  6
CONTINUOUS
 62
     3
100
AcDbTrace
 10
1346.143589639293
 20
1377.694759457248
 30
0.0
 11
3613.85426775795
 21
2467.26912209583
 31
0.0
 12
1316.854267757948
 22
1448.405437575903
 32
0.0
 13
1316.854267757948
 23
1448.405437575903
 33
0.0
210
0.0
220
0.0
230
1.0
  0
SOLID
  5
150
330
143
100
AcDbEntity
  8
HATCH
  6
CONTINUOUS
 62
     3
100
AcDbTrace
 10
3608.854267757948
 20
2467.26912209583
 30
0.0
 11
1316.854267757948
 21
1448.405437575903
 31
0.0
 12
3613.85426775795
 22
2467.26912209583
 32
0.0
 13
3613.85426775795
 23
2467.26912209583
 33
0.0
  0
SOLID
  5
151
330
143
100
AcDbEntity
  8
HATCH
  6
CONTINUOUS
 62
     3
100
AcDbTrace
 10
1316.854267757948
 20
1448.405437575903
 30
0.0
 11
3608.854267757948
 21
2467.26912209583
 31
0.0
 12
1316.854267757948
 22
2467.26912209583
 32
0.0
 13
1316.854267757948
 23
2467.26912209583
 33
0.0
210
0.0
220
0.0
230
1.0
  0
ENDBLK
  5
153
330
143
100
AcDbEntity
  8
0
100
AcDbBlockEnd
  0
ENDSEC
  0
SECTION
  2
ENTITIES
  0
INSERT
  5
13F
330
1F
100
AcDbEntity
  8
HATCH
100
AcDbBlockReference
  2
ACKE
 10
0.0
 20
0.0
 30
0.0
  0
ENDSEC
  0
SECTION
  2
OBJECTS
  0
DICTIONARY
  5
C
330
0
100
AcDbDictionary
  3
ACAD_GROUP
350
D
  3
ACAD_LAYOUT
350
1A
  3
ACAD_MLINESTYLE
350
17
  3
ACAD_PLOTSETTINGS
350
19
1001
ACAD
1000
TREAT_AS_HARD
1070
     0
1000
TREAT_AS_HARD
1070
     0
  0
DICTIONARY
  5
A2
330
1F
100
AcDbDictionary
  3
ACAD_LAYOUTSELFREF
350
141
  3
ACAD_SORTENTS
350
12E
1001
ACAD
1000
TREAT_AS_HARD
1070
     1
1000
TREAT_AS_HARD
1070
     0
  0
DICTIONARY
  5
A4
330
50
100
AcDbDictionary
  3
ACAD_LAYOUTSELFREF
350
142
1001
ACAD
1000
TREAT_AS_HARD
1070
     1
1000
TREAT_AS_HARD
1070
     0
  0
DICTIONARY
  5
D
102
{ACAD_REACTORS
330
C
102
}
330
C
100
AcDbDictionary
1001
ACAD
1000
TREAT_AS_HARD
1070
     0
1000
TREAT_AS_HARD
1070
     0
  0
DICTIONARY
  5
1A
102
{ACAD_REACTORS
330
C
102
}
330
C
100
AcDbDictionary
1001
ACAD
1000
TREAT_AS_HARD
1070
     0
1000
TREAT_AS_HARD
1070
     0
  0
DICTIONARY
  5
17
102
{ACAD_REACTORS
330
C
102
}
330
C
100
AcDbDictionary
  3
STANDARD
350
18
1001
ACAD
1000
TREAT_AS_HARD
1070
     0
1000
TREAT_AS_HARD
1070
     0
  0
DICTIONARY
  5
19
102
{ACAD_REACTORS
330
C
102
}
330
C
100
AcDbDictionary
1001
ACAD
1000
TREAT_AS_HARD
1070
     0
1000
TREAT_AS_HARD
1070
     0
  0
XRECORD
  5
141
102
{ACAD_REACTORS
330
A2
102
}
330
A2
100
AcDbXrecord
340
1F
  0
SORTENTSTABLE
  5
12E
102
{ACAD_REACTORS
330
A2
102
}
330
A2
100
AcDbSortentsTable
330
1F
331
117
  5
118
331
115
  5
117
331
10F
  5
110
331
10D
  5
10F
331
10B
  5
10C
331
109
  5
10A
331
12D
  5
F2
331
11A
  5
12D
331
F2
  5
109
331
118
  5
119
331
114
  5
115
331
112
  5
114
331
110
  5
112
331
10C
  5
10D
331
10A
  5
10B
331
119
  5
11A
  0
XRECORD
  5
142
102
{ACAD_REACTORS
330
A4
102
}
330
A4
100
AcDbXrecord
340
50
  0
MLINESTYLE
  5
18
102
{ACAD_REACTORS
330
17
102
}
330
17
100
AcDbMlineStyle
  2
STANDARD
 70
     0
  3

 62
   256
 51
90.0
 52
90.0
 71
     2
 49
0.5
 62
   256
  6
BYLAYER
 49
-0.5
 62
   256
  6
BYLAYER
  0
ENDSEC
  0
EOF
