  0
SECTION
  2
HEADER
  9
$ACADVER
  1
AC1012
  9
$DWGCODEPAGE
  3
ANSI_1252
  9
$INSBASE
 10
0.0
 20
0.0
 30
0.0
  9
$EXTMIN
 10
-143.5622048164013
 20
-225.477218732795
 30
0.0
  9
$EXTMAX
 10
7174.758138743242
 20
5292.843124826847
 30
0.0
  9
$LIMMIN
 10
0.0
 20
0.0
  9
$LIMMAX
 10
420.0
 20
297.0
  9
$ORTHOMODE
 70
     0
  9
$REGENMODE
 70
     1
  9
$FILLMODE
 70
     1
  9
$QTEXTMODE
 70
     0
  9
$MIRRTEXT
 70
     1
  9
$DRAGMODE
 70
     2
  9
$LTSCALE
 40
1.0
  9
$OSMODE
 70
  3071
  9
$ATTMODE
 70
     1
  9
$TEXTSIZE
 40
2.5
  9
$TRACEWID
 40
1.0
  9
$TEXTSTYLE
  7
STANDARD
  9
$CLAYER
  8
HATCH
  9
$CELTYPE
  6
BYLAYER
  9
$CECOLOR
 62
   256
  9
$CELTSCALE
 40
1.0
  9
$DELOBJ
 70
     1
  9
$DISPSILH
 70
     0
  9
$DIMSCALE
 40
1.0
  9
$DIMASZ
 40
2.5
  9
$DIMEXO
 40
0.625
  9
$DIMDLI
 40
3.75
  9
$DIMRND
 40
0.0
  9
$DIMDLE
 40
0.0
  9
$DIMEXE
 40
1.25
  9
$DIMTP
 40
0.0
  9
$DIMTM
 40
0.0
  9
$DIMTXT
 40
2.5
  9
$DIMCEN
 40
2.5
  9
$DIMTSZ
 40
0.0
  9
$DIMTOL
 70
     0
  9
$DIMLIM
 70
     0
  9
$DIMTIH
 70
     0
  9
$DIMTOH
 70
     0
  9
$DIMSE1
 70
     0
  9
$DIMSE2
 70
     0
  9
$DIMTAD
 70
     1
  9
$DIMZIN
 70
     8
  9
$DIMBLK
  1

  9
$DIMASO
 70
     1
  9
$DIMSHO
 70
     1
  9
$DIMPOST
  1

  9
$DIMAPOST
  1

  9
$DIMALT
 70
     0
  9
$DIMALTD
 70
     3
  9
$DIMALTF
 40
0.03937007874016
  9
$DIMLFAC
 40
1.0
  9
$DIMTOFL
 70
     1
  9
$DIMTVP
 40
0.0
  9
$DIMTIX
 70
     0
  9
$DIMSOXD
 70
     0
  9
$DIMSAH
 70
     0
  9
$DIMBLK1
  1

  9
$DIMBLK2
  1

  9
$DIMSTYLE
  2
ISO-25
  9
$DIMCLRD
 70
     0
  9
$DIMCLRE
 70
     0
  9
$DIMCLRT
 70
     0
  9
$DIMTFAC
 40
1.0
  9
$DIMGAP
 40
0.625
  9
$DIMJUST
 70
     0
  9
$DIMSD1
 70
     0
  9
$DIMSD2
 70
     0
  9
$DIMTOLJ
 70
     0
  9
$DIMTZIN
 70
     8
  9
$DIMALTZ
 70
     0
  9
$DIMALTTZ
 70
     0
  9
$DIMFIT
 70
     3
  9
$DIMUPT
 70
     0
  9
$DIMUNIT
 70
     2
  9
$DIMDEC
 70
     2
  9
$DIMTDEC
 70
     2
  9
$DIMALTU
 70
     2
  9
$DIMALTTD
 70
     3
  9
$DIMTXSTY
  7
STANDARD
  9
$DIMAUNIT
 70
     0
  9
$LUNITS
 70
     2
  9
$LUPREC
 70
     4
  9
$SKETCHINC
 40
1.0
  9
$FILLETRAD
 40
100.0
  9
$AUNITS
 70
     0
  9
$AUPREC
 70
     0
  9
$MENU
  1
.
  9
$ELEVATION
 40
0.0
  9
$PELEVATION
 40
0.0
  9
$THICKNESS
 40
0.0
  9
$LIMCHECK
 70
     0
  9
$BLIPMODE
 70
     0
  9
$CHAMFERA
 40
10.0
  9
$CHAMFERB
 40
10.0
  9
$CHAMFERC
 40
20.0
  9
$CHAMFERD
 40
0.0
  9
$SKPOLY
 70
     0
  9
$TDCREATE
 40
2452626.546694907
  9
$TDUPDATE
 40
2452772.598295602
  9
$TDINDWG
 40
0.0035383102
  9
$TDUSRTIMER
 40
0.0035376157
  9
$USRTIMER
 70
     1
  9
$ANGBASE
 50
0.0
  9
$ANGDIR
 70
     0
  9
$PDMODE
 70
     0
  9
$PDSIZE
 40
0.0
  9
$PLINEWID
 40
0.0
  9
$COORDS
 70
     2
  9
$SPLFRAME
 70
     0
  9
$SPLINETYPE
 70
     6
  9
$SPLINESEGS
 70
     8
  9
$ATTDIA
 70
     0
  9
$ATTREQ
 70
     1
  9
$HANDLING
 70
-16383
  9
$HANDSEED
  5
179
  9
$SURFTAB1
 70
     6
  9
$SURFTAB2
 70
     6
  9
$SURFTYPE
 70
     6
  9
$SURFU
 70
     6
  9
$SURFV
 70
     6
  9
$UCSNAME
  2

  9
$UCSORG
 10
0.0
 20
0.0
 30
0.0
  9
$UCSXDIR
 10
1.0
 20
0.0
 30
0.0
  9
$UCSYDIR
 10
0.0
 20
1.0
 30
0.0
  9
$PUCSNAME
  2

  9
$PUCSORG
 10
0.0
 20
0.0
 30
0.0
  9
$PUCSXDIR
 10
1.0
 20
0.0
 30
0.0
  9
$PUCSYDIR
 10
0.0
 20
1.0
 30
0.0
  9
$USERI1
 70
     0
  9
$USERI2
 70
     0
  9
$USERI3
 70
     0
  9
$USERI4
 70
     0
  9
$USERI5
 70
     0
  9
$USERR1
 40
0.0
  9
$USERR2
 40
0.0
  9
$USERR3
 40
0.0
  9
$USERR4
 40
0.0
  9
$USERR5
 40
0.0
  9
$WORLDVIEW
 70
     1
  9
$SHADEDGE
 70
     3
  9
$SHADEDIF
 70
    70
  9
$TILEMODE
 70
     1
  9
$MAXACTVP
 70
    64
  9
$PINSBASE
 10
0.0
 20
0.0
 30
0.0
  9
$PLIMCHECK
 70
     0
  9
$PEXTMIN
 10
0.0
 20
0.0
 30
0.0
  9
$PEXTMAX
 10
0.0
 20
0.0
 30
0.0
  9
$PLIMMIN
 10
0.0
 20
0.0
  9
$PLIMMAX
 10
12.0
 20
9.0
  9
$UNITMODE
 70
     0
  9
$VISRETAIN
 70
     1
  9
$PLINEGEN
 70
     0
  9
$PSLTSCALE
 70
     1
  9
$TREEDEPTH
 70
  3020
  9
$PICKSTYLE
 70
     1
  9
$CMLSTYLE
  2
STANDARD
  9
$CMLJUST
 70
     0
  9
$CMLSCALE
 40
20.0
  9
$SAVEIMAGES
 70
     1
  0
ENDSEC
  0
SECTION
  2
CLASSES
  0
CLASS
  1
ACDBDICTIONARYWDFLT
  2
AcDbDictionaryWithDefault
  3
AutoCAD 2000
 90
    32768
280
     0
281
     0
  0
CLASS
  1
ACDBPLACEHOLDER
  2
AcDbPlaceHolder
  3
AutoCAD 2000
 90
    32768
280
     0
281
     0
  0
CLASS
  1
LAYOUT
  2
AcDbLayout
  3
AutoCAD 2000
 90
    32768
280
     0
281
     0
  0
CLASS
  1
LONG_TRANSACTION
  2
AcDbLongTransaction
  3
AutoCAD 2000
 90
    32768
280
     0
281
     0
  0
CLASS
  1
LWPOLYLINE
  2
AcDbPolyline
  3
AutoCAD 2000
 90
    32768
280
     0
281
     1
  0
CLASS
  1
HATCH
  2
AcDbHatch
  3
AutoCAD 2000
 90
    32768
280
     0
281
     1
  0
CLASS
  1
XRECORD
  2
AcDbXrecord
  3
AutoCAD 2000
 90
    32768
280
     0
281
     0
  0
CLASS
  1
LONG_TRANSACTION
  2
AcDbLongTransaction
  3
AutoCAD 2000
 90
    32768
280
     0
281
     0
  0
CLASS
  1
LWPOLYLINE
  2
AcDbPolyline
  3
AutoCAD 2000
 90
    32768
280
     0
281
     1
  0
CLASS
  1
HATCH
  2
AcDbHatch
  3
AutoCAD 2000
 90
    32768
280
     0
281
     1
  0
CLASS
  1
XRECORD
  2
AcDbXrecord
  3
AutoCAD 2000
 90
    32768
280
     0
281
     0
  0
CLASS
  1
LONG_TRANSACTION
  2
AcDbLongTransaction
  3
AutoCAD 2000
 90
    32768
280
     0
281
     0
  0
CLASS
  1
LWPOLYLINE
  2
AcDbPolyline
  3
AutoCAD 2000
 90
    32768
280
     0
281
     1
  0
CLASS
  1
HATCH
  2
AcDbHatch
  3
AutoCAD 2000
 90
    32768
280
     0
281
     1
  0
CLASS
  1
XRECORD
  2
AcDbXrecord
  3
AutoCAD 2000
 90
    32768
280
     0
281
     0
  0
CLASS
  1
DICTIONARYVAR
  2
AcDbDictionaryVar
  3
AutoCAD 2000
 90
    32768
280
     0
281
     0
  0
CLASS
  1
SORTENTSTABLE
  2
AcDbSortentsTable
  3
AutoCAD 2000
 90
    32768
280
     0
281
     0
  0
CLASS
  1
LONG_TRANSACTION
  2
AcDbLongTransaction
  3
AutoCAD 2000
 90
    32768
280
     0
281
     0
  0
CLASS
  1
LWPOLYLINE
  2
AcDbPolyline
  3
AutoCAD 2000
 90
    32768
280
     0
281
     1
  0
CLASS
  1
HATCH
  2
AcDbHatch
  3
AutoCAD 2000
 90
    32768
280
     0
281
     1
  0
CLASS
  1
XRECORD
  2
AcDbXrecord
  3
AutoCAD 2000
 90
    32768
280
     0
281
     0
  0
ENDSEC
  0
SECTION
  2
TABLES
  0
TABLE
  2
VPORT
  5
8
330
0
100
AcDbSymbolTable
 70
     2
  0
VPORT
  5
155
330
8
100
AcDbSymbolTableRecord
100
AcDbViewportTableRecord
  2
*ACTIVE
 70
     0
 10
0.0
 20
0.0
 11
1.0
 21
1.0
 12
5480.651317893049
 22
3616.102992057439
 13
0.0
 23
0.0
 14
10.0
 24
10.0
 15
10.0
 25
10.0
 16
0.0
 26
0.0
 36
1.0
 17
0.0
 27
0.0
 37
0.0
 40
8220.802311708549
 41
1.985355648535564
 42
50.0
 43
0.0
 44
0.0
 50
0.0
 51
0.0
 71
     0
 72
   100
 73
     1
 74
     3
 75
     0
 76
     0
 77
     0
 78
     0
  0
ENDTAB
  0
TABLE
  2
LTYPE
  5
5
330
0
100
AcDbSymbolTable
 70
     1
  0
LTYPE
  5
14
330
5
100
AcDbSymbolTableRecord
100
AcDbLinetypeTableRecord
  2
BYBLOCK
 70
     0
  3

 72
    65
 73
     0
 40
0.0
  0
LTYPE
  5
15
330
5
100
AcDbSymbolTableRecord
100
AcDbLinetypeTableRecord
  2
BYLAYER
 70
     0
  3

 72
    65
 73
     0
 40
0.0
  0
LTYPE
  5
16
330
5
100
AcDbSymbolTableRecord
100
AcDbLinetypeTableRecord
  2
CONTINUOUS
 70
     0
  3
Solid line
 72
    65
 73
     0
 40
0.0
  0
ENDTAB
  0
TABLE
  2
LAYER
  5
2
330
0
100
AcDbSymbolTable
 70
     5
  0
LAYER
  5
10
330
2
100
AcDbSymbolTableRecord
100
AcDbLayerTableRecord
  2
0
 70
     0
 62
     7
  6
CONTINUOUS
  0
LAYER
  5
5D
330
2
100
AcDbSymbolTableRecord
100
AcDbLayerTableRecord
  2
SAFETY
 70
     0
 62
     7
  6
CONTINUOUS
  0
LAYER
  5
5E
330
2
100
AcDbSymbolTableRecord
100
AcDbLayerTableRecord
  2
OBJECT
 70
     0
 62
     7
  6
CONTINUOUS
  0
LAYER
  5
F3
330
2
100
AcDbSymbolTableRecord
100
AcDbLayerTableRecord
  2
TEKST
 70
     0
 62
     7
  6
CONTINUOUS
  0
LAYER
  5
128
330
2
100
AcDbSymbolTableRecord
100
AcDbLayerTableRecord
  2
HATCH
 70
     0
 62
     7
  6
CONTINUOUS
  0
ENDTAB
  0
TABLE
  2
STYLE
  5
3
330
0
100
AcDbSymbolTable
 70
     1
  0
STYLE
  5
11
330
3
100
AcDbSymbolTableRecord
100
AcDbTextStyleTableRecord
  2
STANDARD
 70
     0
 40
0.0
 41
1.0
 50
0.0
 71
     0
 42
2.5
  3
txt
  4

  0
ENDTAB
  0
TABLE
  2
VIEW
  5
6
330
0
100
AcDbSymbolTable
 70
     0
  0
ENDTAB
  0
TABLE
  2
UCS
  5
7
330
0
100
AcDbSymbolTable
 70
     0
  0
ENDTAB
  0
TABLE
  2
APPID
  5
9
330
0
100
AcDbSymbolTable
 70
     2
  0
APPID
  5
12
330
9
100
AcDbSymbolTableRecord
100
AcDbRegAppTableRecord
  2
ACAD
 70
     0
  0
APPID
  5
EC
330
9
100
AcDbSymbolTableRecord
100
AcDbRegAppTableRecord
  2
CONTENTBLOCKICON
 70
     0
  0
ENDTAB
  0
TABLE
  2
DIMSTYLE
  5
A
330
0
100
AcDbSymbolTable
 70
     1
  0
DIMSTYLE
105
27
330
A
100
AcDbSymbolTableRecord
100
AcDbDimStyleTableRecord
  2
ISO-25
 70
     0
  3

  4

  5

  6

  7

 40
1.0
 41
2.5
 42
0.625
 43
3.75
 44
1.25
 45
0.0
 46
0.0
 47
0.0
 48
0.0
140
2.5
141
2.5
142
0.0
143
0.03937007874016
144
1.0
145
0.0
146
1.0
147
0.625
 71
     0
 72
     0
 73
     0
 74
     0
 75
     0
 76
     0
 77
     1
 78
     8
170
     0
171
     3
172
     1
173
     0
174
     0
175
     0
176
     0
177
     0
178
     0
270
     2
271
     2
272
     2
273
     2
274
     3
340
11
275
     0
280
     0
281
     0
282
     0
283
     0
284
     8
285
     0
286
     0
287
     3
288
     0
  0
ENDTAB
  0
TABLE
  2
BLOCK_RECORD
  5
1
330
0
100
AcDbSymbolTable
 70
     3
  0
BLOCK_RECORD
  5
1F
102
{ACAD_XDICTIONARY
360
A7
102
}
330
1
100
AcDbSymbolTableRecord
100
AcDbBlockTableRecord
  2
*MODEL_SPACE
  0
BLOCK_RECORD
  5
50
102
{ACAD_XDICTIONARY
360
A9
102
}
330
1
100
AcDbSymbolTableRecord
100
AcDbBlockTableRecord
  2
*PAPER_SPACE
  0
BLOCK_RECORD
  5
B3
330
1
100
AcDbSymbolTableRecord
100
AcDbBlockTableRecord
  2
ACKC
1001
ACAD
1000
DesignCenter Data
1002
{
1070
     1
1070
     4
1002
}
  0
BLOCK_RECORD
  5
158
330
1
100
AcDbSymbolTableRecord
100
AcDbBlockTableRecord
  2
*U1
  0
BLOCK_RECORD
  5
15F
330
1
100
AcDbSymbolTableRecord
100
AcDbBlockTableRecord
  2
*U2
  0
ENDTAB
  0
ENDSEC
  0
SECTION
  2
BLOCKS
  0
BLOCK
  5
20
330
1F
100
AcDbEntity
  8
0
100
AcDbBlockBegin
  2
*MODEL_SPACE
 70
     0
 10
0.0
 20
0.0
 30
0.0
  3
*MODEL_SPACE
  1

  0
ENDBLK
  5
21
330
1F
100
AcDbEntity
  8
0
100
AcDbBlockEnd
  0
BLOCK
  5
52
330
50
100
AcDbEntity
 67
     1
  8
0
100
AcDbBlockBegin
  2
*PAPER_SPACE
 70
     0
 10
0.0
 20
0.0
 30
0.0
  3
*PAPER_SPACE
  1

  0
ENDBLK
  5
53
330
50
100
AcDbEntity
 67
     1
  8
0
100
AcDbBlockEnd
  0
BLOCK
  5
B4
330
B3
100
AcDbEntity
  8
0
100
AcDbBlockBegin
  2
ACKC
 70
     0
 10
0.0
 20
0.0
 30
0.0
  3
ACKC
  1

  0
INSERT
  5
140
330
B3
100
AcDbEntity
  8
HATCH
  6
CONTINUOUS
 62
     2
100
AcDbBlockReference
  2
*U1
 10
0.0
 20
0.0
 30
0.0
1001
ACAD
1002
{
1000
R14_HATCH_DATA
1000
140
1011
1.0
1021
0.0
1031
0.0
1011
0.0
1021
1.0
1031
0.0
1011
0.0
1021
0.0
1031
1.0
1040
0.0
1010
0.0
1020
0.0
1030
1.0
1000
SOLID
1070
     1
1070
     1
1071
        1
1071
        7
1070
     0
1070
     1
1071
        4
1040
3564.09796696342
1040
3952.182953047024
1040
3467.09796696342
1040
3952.182953047023
1040
3467.097966963419
1040
3646.933292290372
1040
3564.097966963419
1040
3646.933292290372
1071
        4
1005
14D
1005
14C
1005
145
1005
14B
1070
     0
1070
     1
1040
17.16242653801367
1071
        1
1040
3547.875711883891
1040
3822.052111918557
1040
0.0
1002
}
  0
INSERT
  5
141
330
B3
100
AcDbEntity
  8
HATCH
  6
CONTINUOUS
 62
     3
100
AcDbBlockReference
  2
*U2
 10
0.0
 20
0.0
 30
0.0
1001
ACAD
1002
{
1000
R14_HATCH_DATA
1000
141
1011
1.0
1021
0.0
1031
0.0
1011
0.0
1021
1.0
1031
0.0
1011
0.0
1021
0.0
1031
1.0
1040
0.0
1010
0.0
1020
0.0
1030
1.0
1000
SOLID
1070
     1
1070
     1
1071
        2
1071
        7
1070
     1
1070
     1
1071
        7
1040
1617.097966963421
1040
3646.933292290372
1040
0.4142135623730946
1040
1517.097966963421
1040
3546.933292290372
1040
0.0
1040
1517.097966963418
1040
2533.682953047025
1040
0.0
1040
1522.09796696342
1040
2533.682953047025
1040
0.0
1040
5514.09796696342
1040
2533.682953047025
1040
0.0
1040
5514.09796696342
1040
3546.933292290372
1040
0.4142135623730951
1040
5414.097966963421
1040
3646.933292290372
1040
0.0
1071
        7
1005
151
1005
145
1005
150
1005
148
1005
149
1005
144
1005
14E
1071
        7
1070
     1
1070
     1
1071
        7
1040
5414.097966963421
1040
1420.432613803681
1040
0.4142135623730951
1040
5514.09796696342
1040
1520.432613803681
1040
0.0
1040
5514.09796696342
1040
2533.682953047025
1040
0.0
1040
5509.097966963421
1040
2533.682953047025
1040
0.0
1040
1517.097966963419
1040
2533.682953047025
1040
0.0
1040
1517.097966963419
1040
1520.432613803683
1040
0.4142135623730951
1040
1617.097966963418
1040
1420.432613803683
1040
0.0
1071
        7
1005
14F
1005
144
1005
147
1005
153
1005
146
1005
152
1005
14A
1070
     0
1070
     1
1040
17.16242653801367
1071
        2
1040
3960.201152827852
1040
3187.042332039822
1040
0.0
1040
3616.596614116504
1040
1711.07364548336
1040
0.0
1002
}
  0
MTEXT
  5
142
330
B3
100
AcDbEntity
  8
TEKST
100
AcDbMText
 10
3108.716997759445
 20
4537.902450502151
 30
0.0
 40
75.18097186823435
 41
868.6785999999997
 71
     1
 72
     1
  1
{\FIMPACT.TTF;Hoogte: 170 cm\PMax. valhoogte: 20 cm}
1001
ACAD
1000
MTEXTBEGIN
1070
    73
1070
     1
1070
    44
1040
1.0
1070
    74
1070
     0
1000
MTEXTEND
1000
MTEXTBEGIN
1070
    73
1070
     1
1070
    44
1040
1.0
1070
    74
1070
     0
1000
MTEXTEND
  0
POLYLINE
  5
143
330
B3
100
AcDbEntity
  8
SAFETY
 48
20.0
100
AcDb2dPolyline
 66
     1
 10
0.0
 20
0.0
 30
0.0
 70
     1
  0
VERTEX
  5
170
330
143
100
AcDbEntity
  8
SAFETY
 48
20.0
100
AcDbVertex
100
AcDb2dVertex
 10
6864.097966963419
 20
1585.182953047026
 30
0.0
  0
VERTEX
  5
171
330
143
100
AcDbEntity
  8
SAFETY
 48
20.0
100
AcDbVertex
100
AcDb2dVertex
 10
6864.09796696342
 20
3482.182953047026
 30
0.0
 42
0.4142135623730951
  0
VERTEX
  5
172
330
143
100
AcDbEntity
  8
SAFETY
 48
20.0
100
AcDbVertex
100
AcDb2dVertex
 10
5364.09796696342
 20
4982.182953047026
 30
0.0
  0
VERTEX
  5
173
330
143
100
AcDbEntity
  8
SAFETY
 48
20.0
100
AcDbVertex
100
AcDb2dVertex
 10
1667.09796696342
 20
4982.182953047026
 30
0.0
 42
0.4142135623730951
  0
VERTEX
  5
174
330
143
100
AcDbEntity
  8
SAFETY
 48
20.0
100
AcDbVertex
100
AcDb2dVertex
 10
167.0979669634199
 20
3482.182953047026
 30
0.0
  0
VERTEX
  5
175
330
143
100
AcDbEntity
  8
SAFETY
 48
20.0
100
AcDbVertex
100
AcDb2dVertex
 10
167.0979669634199
 20
1585.182953047026
 30
0.0
 42
0.4142135623730951
  0
VERTEX
  5
176
330
143
100
AcDbEntity
  8
SAFETY
 48
20.0
100
AcDbVertex
100
AcDb2dVertex
 10
1667.09796696342
 20
85.18295304702609
 30
0.0
  0
VERTEX
  5
177
330
143
100
AcDbEntity
  8
SAFETY
 48
20.0
100
AcDbVertex
100
AcDb2dVertex
 10
5364.097966963419
 20
85.18295304702609
 30
0.0
 42
0.4142135623730951
  0
SEQEND
  5
178
330
143
100
AcDbEntity
  8
SAFETY
 48
20.0
  0
LINE
  5
144
330
B3
100
AcDbEntity
  8
OBJECT
100
AcDbLine
 10
1522.09796696342
 20
2533.682953047025
 30
0.0
 11
5509.097966963421
 21
2533.682953047025
 31
0.0
  0
LINE
  5
145
330
B3
100
AcDbEntity
  8
OBJECT
100
AcDbLine
 10
1617.097966963421
 20
3646.933292290372
 30
0.0
 11
5414.097966963421
 21
3646.933292290372
 31
0.0
  0
LINE
  5
146
330
B3
100
AcDbEntity
  8
OBJECT
100
AcDbLine
 10
5414.097966963421
 20
1420.432613803681
 30
0.0
 11
1617.097966963418
 21
1420.432613803683
 31
0.0
  0
LINE
  5
147
330
B3
100
AcDbEntity
  8
OBJECT
100
AcDbLine
 10
1517.097966963419
 20
2533.682953047025
 30
0.0
 11
1517.097966963419
 21
1520.432613803683
 31
0.0
  0
LINE
  5
148
330
B3
100
AcDbEntity
  8
OBJECT
100
AcDbLine
 10
1517.097966963421
 20
3546.933292290372
 30
0.0
 11
1517.097966963419
 21
2533.682953047025
 31
0.0
  0
LINE
  5
149
330
B3
100
AcDbEntity
  8
OBJECT
100
AcDbLine
 10
1522.09796696342
 20
2533.682953047025
 30
0.0
 11
1517.097966963419
 21
2533.682953047025
 31
0.0
  0
LINE
  5
14A
330
B3
100
AcDbEntity
  8
OBJECT
100
AcDbLine
 10
5514.09796696342
 20
1520.432613803681
 30
0.0
 11
5514.09796696342
 21
2533.682953047025
 31
0.0
  0
LINE
  5
14B
330
B3
100
AcDbEntity
  8
OBJECT
100
AcDbLine
 10
3564.09796696342
 20
3952.182953047024
 30
0.0
 11
3564.09796696342
 21
3646.933292290372
 31
0.0
  0
LINE
  5
14C
330
B3
100
AcDbEntity
  8
OBJECT
100
AcDbLine
 10
3467.09796696342
 20
3952.182953047024
 30
0.0
 11
3467.09796696342
 21
3646.933292290372
 31
0.0
  0
LINE
  5
14D
330
B3
100
AcDbEntity
  8
OBJECT
100
AcDbLine
 10
3467.09796696342
 20
3952.182953047024
 30
0.0
 11
3564.09796696342
 21
3952.182953047024
 31
0.0
  0
LINE
  5
14E
330
B3
100
AcDbEntity
  8
OBJECT
100
AcDbLine
 10
5514.09796696342
 20
2533.682953047025
 30
0.0
 11
5514.09796696342
 21
3546.933292290372
 31
0.0
  0
LINE
  5
14F
330
B3
100
AcDbEntity
  8
OBJECT
100
AcDbLine
 10
5509.097966963421
 20
2533.682953047025
 30
0.0
 11
5514.09796696342
 21
2533.682953047025
 31
0.0
  0
ARC
  5
150
330
B3
100
AcDbEntity
  8
OBJECT
100
AcDbCircle
 10
1617.097966963421
 20
3546.933292290372
 30
0.0
 40
100.0
100
AcDbArc
 50
90.0
 51
179.9999999999998
  0
ARC
  5
151
330
B3
100
AcDbEntity
  8
OBJECT
100
AcDbCircle
 10
5414.097966963421
 20
3546.933292290372
 30
0.0
 40
100.0
100
AcDbArc
 50
0.0
 51
90.0
  0
ARC
  5
152
330
B3
100
AcDbEntity
  8
OBJECT
100
AcDbCircle
 10
5414.097966963421
 20
1520.432613803681
 30
0.0
 40
100.0
100
AcDbArc
 50
270.0
 51
0.0
  0
ARC
  5
153
330
B3
100
AcDbEntity
  8
OBJECT
100
AcDbCircle
 10
1617.097966963418
 20
1520.432613803683
 30
0.0
 40
100.0
100
AcDbArc
 50
180.0
 51
270.0
  0
ENDBLK
  5
B5
330
B3
100
AcDbEntity
  8
0
100
AcDbBlockEnd
  0
BLOCK
  5
15D
330
158
100
AcDbEntity
  8
0
100
AcDbBlockBegin
  2
*U1
 70
     1
 10
0.0
 20
0.0
 30
0.0
  3
*U1
  1

  0
SOLID
  5
159
330
158
100
AcDbEntity
  8
HATCH
  6
CONTINUOUS
 62
     2
100
AcDbTrace
 10
3515.59796696342
 20
3799.558122668698
 30
0.0
 11
3564.09796696342
 21
3952.182953047024
 31
0.0
 12
3467.09796696342
 22
3952.182953047023
 32
0.0
 13
3467.09796696342
 23
3952.182953047023
 33
0.0
210
0.0
220
0.0
230
1.0
  0
SOLID
  5
15A
330
158
100
AcDbEntity
  8
HATCH
  6
CONTINUOUS
 62
     2
100
AcDbTrace
 10
3515.59796696342
 20
3799.558122668698
 30
0.0
 11
3467.09796696342
 21
3952.182953047023
 31
0.0
 12
3467.097966963419
 22
3646.933292290372
 32
0.0
 13
3467.097966963419
 23
3646.933292290372
 33
0.0
210
0.0
220
0.0
230
1.0
  0
SOLID
  5
15B
330
158
100
AcDbEntity
  8
HATCH
  6
CONTINUOUS
 62
     2
100
AcDbTrace
 10
3515.59796696342
 20
3799.558122668698
 30
0.0
 11
3467.097966963419
 21
3646.933292290372
 31
0.0
 12
3564.097966963419
 22
3646.933292290372
 32
0.0
 13
3564.097966963419
 23
3646.933292290372
 33
0.0
210
0.0
220
0.0
230
1.0
  0
SOLID
  5
15C
330
158
100
AcDbEntity
  8
HATCH
  6
CONTINUOUS
 62
     2
100
AcDbTrace
 10
3515.59796696342
 20
3799.558122668698
 30
0.0
 11
3564.097966963419
 21
3646.933292290372
 31
0.0
 12
3564.09796696342
 22
3952.182953047024
 32
0.0
 13
3564.09796696342
 23
3952.182953047024
 33
0.0
210
0.0
220
0.0
230
1.0
  0
ENDBLK
  5
15E
330
158
100
AcDbEntity
  8
0
100
AcDbBlockEnd
  0
BLOCK
  5
16E
330
15F
100
AcDbEntity
  8
0
100
AcDbBlockBegin
  2
*U2
 70
     1
 10
0.0
 20
0.0
 30
0.0
  3
*U2
  1

  0
SOLID
  5
160
330
15F
100
AcDbEntity
  8
HATCH
  6
CONTINUOUS
 62
     3
100
AcDbTrace
 10
5514.09796696342
 20
3546.933292290372
 30
0.0
 11
1522.09796696342
 21
2533.682953047025
 31
0.0
 12
5514.09796696342
 22
2533.682953047025
 32
0.0
 13
5514.09796696342
 23
2533.682953047025
 33
0.0
210
0.0
220
0.0
230
1.0
  0
SOLID
  5
161
330
15F
100
AcDbEntity
  8
HATCH
  6
CONTINUOUS
 62
     3
100
AcDbTrace
 10
1517.097966963421
 20
3546.933292290372
 30
0.0
 11
1522.09796696342
 21
2533.682953047025
 31
0.0
 12
5514.09796696342
 22
3546.933292290372
 32
0.0
 13
5514.09796696342
 23
3546.933292290372
 33
0.0
  0
SOLID
  5
162
330
15F
100
AcDbEntity
  8
HATCH
  6
CONTINUOUS
 62
     3
100
AcDbTrace
 10
1517.097966963421
 20
3546.933292290372
 30
0.0
 11
1517.097966963418
 21
2533.682953047025
 31
0.0
 12
1522.09796696342
 22
2533.682953047025
 32
0.0
 13
1522.09796696342
 23
2533.682953047025
 33
0.0
210
0.0
220
0.0
230
1.0
  0
SOLID
  5
163
330
15F
100
AcDbEntity
  8
HATCH
  6
CONTINUOUS
 62
     3
100
AcDbTrace
 10
5484.808645082075
 20
3617.643970409027
 30
0.0
 11
1517.097966963421
 21
3546.933292290372
 31
0.0
 12
5514.09796696342
 22
3546.933292290372
 32
0.0
 13
5514.09796696342
 23
3546.933292290372
 33
0.0
210
0.0
220
0.0
230
1.0
  0
SOLID
  5
164
330
15F
100
AcDbEntity
  8
HATCH
  6
CONTINUOUS
 62
     3
100
AcDbTrace
 10
1546.387288844766
 20
3617.643970409027
 30
0.0
 11
1517.097966963421
 21
3546.933292290372
 31
0.0
 12
5484.808645082075
 22
3617.643970409027
 32
0.0
 13
5484.808645082075
 23
3617.643970409027
 33
0.0
210
0.0
220
0.0
230
1.0
  0
SOLID
  5
165
330
15F
100
AcDbEntity
  8
HATCH
  6
CONTINUOUS
 62
     3
100
AcDbTrace
 10
1546.387288844766
 20
3617.643970409027
 30
0.0
 11
5414.097966963421
 21
3646.933292290372
 31
0.0
 12
1617.097966963421
 22
3646.933292290372
 32
0.0
 13
1617.097966963421
 23
3646.933292290372
 33
0.0
210
0.0
220
0.0
230
1.0
  0
SOLID
  5
166
330
15F
100
AcDbEntity
  8
HATCH
  6
CONTINUOUS
 62
     3
100
AcDbTrace
 10
5414.097966963421
 20
3646.933292290372
 30
0.0
 11
1546.387288844766
 21
3617.643970409027
 31
0.0
 12
5484.808645082075
 22
3617.643970409027
 32
0.0
 13
5484.808645082075
 23
3617.643970409027
 33
0.0
  0
SOLID
  5
167
330
15F
100
AcDbEntity
  8
HATCH
  6
CONTINUOUS
 62
     3
100
AcDbTrace
 10
5414.097966963421
 20
1420.432613803681
 30
0.0
 11
5484.808645082075
 21
1449.721935685026
 31
0.0
 12
1617.097966963418
 22
1420.432613803683
 32
0.0
 13
1617.097966963418
 23
1420.432613803683
 33
0.0
210
0.0
220
0.0
230
1.0
  0
SOLID
  5
168
330
15F
100
AcDbEntity
  8
HATCH
  6
CONTINUOUS
 62
     3
100
AcDbTrace
 10
5514.09796696342
 20
1520.432613803681
 30
0.0
 11
1617.097966963418
 21
1420.432613803683
 31
0.0
 12
5484.808645082075
 22
1449.721935685026
 32
0.0
 13
5484.808645082075
 23
1449.721935685026
 33
0.0
210
0.0
220
0.0
230
1.0
  0
SOLID
  5
169
330
15F
100
AcDbEntity
  8
HATCH
  6
CONTINUOUS
 62
     3
100
AcDbTrace
 10
1617.097966963418
 20
1420.432613803683
 30
0.0
 11
5514.09796696342
 21
1520.432613803681
 31
0.0
 12
1546.387288844764
 22
1449.721935685028
 32
0.0
 13
1546.387288844764
 23
1449.721935685028
 33
0.0
210
0.0
220
0.0
230
1.0
  0
SOLID
  5
16A
330
15F
100
AcDbEntity
  8
HATCH
  6
CONTINUOUS
 62
     3
100
AcDbTrace
 10
5514.09796696342
 20
2533.682953047025
 30
0.0
 11
1546.387288844764
 21
1449.721935685028
 31
0.0
 12
5514.09796696342
 22
1520.432613803681
 32
0.0
 13
5514.09796696342
 23
1520.432613803681
 33
0.0
210
0.0
220
0.0
230
1.0
  0
SOLID
  5
16B
330
15F
100
AcDbEntity
  8
HATCH
  6
CONTINUOUS
 62
     3
100
AcDbTrace
 10
1546.387288844764
 20
1449.721935685028
 30
0.0
 11
5514.09796696342
 21
2533.682953047025
 31
0.0
 12
1517.097966963419
 22
1520.432613803683
 32
0.0
 13
1517.097966963419
 23
1520.432613803683
 33
0.0
210
0.0
220
0.0
230
1.0
  0
SOLID
  5
16C
330
15F
100
AcDbEntity
  8
HATCH
  6
CONTINUOUS
 62
     3
100
AcDbTrace
 10
5509.097966963421
 20
2533.682953047025
 30
0.0
 11
1517.097966963419
 21
1520.432613803683
 31
0.0
 12
5514.09796696342
 22
2533.682953047025
 32
0.0
 13
5514.09796696342
 23
2533.682953047025
 33
0.0
210
0.0
220
0.0
230
1.0
  0
SOLID
  5
16D
330
15F
100
AcDbEntity
  8
HATCH
  6
CONTINUOUS
 62
     3
100
AcDbTrace
 10
1517.097966963419
 20
1520.432613803683
 30
0.0
 11
5509.097966963421
 21
2533.682953047025
 31
0.0
 12
1517.097966963419
 22
2533.682953047025
 32
0.0
 13
1517.097966963419
 23
2533.682953047025
 33
0.0
210
0.0
220
0.0
230
1.0
  0
ENDBLK
  5
16F
330
15F
100
AcDbEntity
  8
0
100
AcDbBlockEnd
  0
ENDSEC
  0
SECTION
  2
ENTITIES
  0
INSERT
  5
154
330
1F
100
AcDbEntity
  8
HATCH
100
AcDbBlockReference
  2
ACKC
 10
0.0
 20
0.0
 30
0.0
  0
ENDSEC
  0
SECTION
  2
OBJECTS
  0
DICTIONARY
  5
C
330
0
100
AcDbDictionary
  3
ACAD_GROUP
350
D
  3
ACAD_LAYOUT
350
1A
  3
ACAD_MLINESTYLE
350
17
  3
ACAD_PLOTSETTINGS
350
19
1001
ACAD
1000
TREAT_AS_HARD
1070
     0
1000
TREAT_AS_HARD
1070
     0
  0
DICTIONARY
  5
A7
330
1F
100
AcDbDictionary
  3
ACAD_LAYOUTSELFREF
350
156
  3
ACAD_SORTENTS
350
13F
1001
ACAD
1000
TREAT_AS_HARD
1070
     1
1000
TREAT_AS_HARD
1070
     0
  0
DICTIONARY
  5
A9
330
50
100
AcDbDictionary
  3
ACAD_LAYOUTSELFREF
350
157
1001
ACAD
1000
TREAT_AS_HARD
1070
     1
1000
TREAT_AS_HARD
1070
     0
  0
DICTIONARY
  5
D
102
{ACAD_REACTORS
330
C
102
}
330
C
100
AcDbDictionary
1001
ACAD
1000
TREAT_AS_HARD
1070
     0
1000
TREAT_AS_HARD
1070
     0
  0
DICTIONARY
  5
1A
102
{ACAD_REACTORS
330
C
102
}
330
C
100
AcDbDictionary
1001
ACAD
1000
TREAT_AS_HARD
1070
     0
1000
TREAT_AS_HARD
1070
     0
  0
DICTIONARY
  5
17
102
{ACAD_REACTORS
330
C
102
}
330
C
100
AcDbDictionary
  3
STANDARD
350
18
1001
ACAD
1000
TREAT_AS_HARD
1070
     0
1000
TREAT_AS_HARD
1070
     0
  0
DICTIONARY
  5
19
102
{ACAD_REACTORS
330
C
102
}
330
C
100
AcDbDictionary
1001
ACAD
1000
TREAT_AS_HARD
1070
     0
1000
TREAT_AS_HARD
1070
     0
  0
XRECORD
  5
156
102
{ACAD_REACTORS
330
A7
102
}
330
A7
100
AcDbXrecord
340
1F
  0
SORTENTSTABLE
  5
13F
102
{ACAD_REACTORS
330
A7
102
}
330
A7
100
AcDbSortentsTable
330
1F
331
122
  5
124
331
111
  5
113
331
120
  5
123
331
11E
  5
120
331
11C
  5
11E
331
13E
  5
FA
331
11A
  5
11D
331
FA
  5
112
331
118
  5
11C
331
138
  5
111
331
125
  5
13E
331
114
  5
117
331
123
  5
125
331
112
  5
114
331
11F
  5
122
331
11D
  5
11F
331
117
  5
11A
331
115
  5
118
331
124
  5
138
331
113
  5
115
  0
XRECORD
  5
157
102
{ACAD_REACTORS
330
A9
102
}
330
A9
100
AcDbXrecord
340
50
  0
MLINESTYLE
  5
18
102
{ACAD_REACTORS
330
17
102
}
330
17
100
AcDbMlineStyle
  2
STANDARD
 70
     0
  3

 62
   256
 51
90.0
 52
90.0
 71
     2
 49
0.5
 62
   256
  6
BYLAYER
 49
-0.5
 62
   256
  6
BYLAYER
  0
ENDSEC
  0
EOF
