  0
SECTION
  2
HEADER
  9
$ACADVER
  1
AC1012
  9
$DWGCODEPAGE
  3
ANSI_1252
  9
$INSBASE
 10
0.0
 20
0.0
 30
0.0
  9
$EXTMIN
 10
-293.8780510071028
 20
-294.7886156085478
 30
-0.6118369243849884
  9
$EXTMAX
 10
4325.649803621508
 20
4635.843160764147
 30
20050.81395432071
  9
$LIMMIN
 10
0.0
 20
0.0
  9
$LIMMAX
 10
420.0
 20
297.0
  9
$ORTHOMODE
 70
     0
  9
$REGENMODE
 70
     1
  9
$FILLMODE
 70
     1
  9
$QTEXTMODE
 70
     0
  9
$MIRRTEXT
 70
     1
  9
$DRAGMODE
 70
     2
  9
$LTSCALE
 40
1.0
  9
$OSMODE
 70
  3071
  9
$ATTMODE
 70
     1
  9
$TEXTSIZE
 40
2.5
  9
$TRACEWID
 40
1.0
  9
$TEXTSTYLE
  7
STANDARD
  9
$CLAYER
  8
HATCH
  9
$CELTYPE
  6
BYLAYER
  9
$CECOLOR
 62
   256
  9
$CELTSCALE
 40
1.0
  9
$DELOBJ
 70
     1
  9
$DISPSILH
 70
     0
  9
$DIMSCALE
 40
1.0
  9
$DIMASZ
 40
2.5
  9
$DIMEXO
 40
0.625
  9
$DIMDLI
 40
3.75
  9
$DIMRND
 40
0.0
  9
$DIMDLE
 40
0.0
  9
$DIMEXE
 40
1.25
  9
$DIMTP
 40
0.0
  9
$DIMTM
 40
0.0
  9
$DIMTXT
 40
2.5
  9
$DIMCEN
 40
2.5
  9
$DIMTSZ
 40
0.0
  9
$DIMTOL
 70
     0
  9
$DIMLIM
 70
     0
  9
$DIMTIH
 70
     0
  9
$DIMTOH
 70
     0
  9
$DIMSE1
 70
     0
  9
$DIMSE2
 70
     0
  9
$DIMTAD
 70
     1
  9
$DIMZIN
 70
     8
  9
$DIMBLK
  1

  9
$DIMASO
 70
     1
  9
$DIMSHO
 70
     1
  9
$DIMPOST
  1

  9
$DIMAPOST
  1

  9
$DIMALT
 70
     0
  9
$DIMALTD
 70
     3
  9
$DIMALTF
 40
0.03937007874016
  9
$DIMLFAC
 40
1.0
  9
$DIMTOFL
 70
     1
  9
$DIMTVP
 40
0.0
  9
$DIMTIX
 70
     0
  9
$DIMSOXD
 70
     0
  9
$DIMSAH
 70
     0
  9
$DIMBLK1
  1

  9
$DIMBLK2
  1

  9
$DIMSTYLE
  2
ISO-25
  9
$DIMCLRD
 70
     0
  9
$DIMCLRE
 70
     0
  9
$DIMCLRT
 70
     0
  9
$DIMTFAC
 40
1.0
  9
$DIMGAP
 40
0.625
  9
$DIMJUST
 70
     0
  9
$DIMSD1
 70
     0
  9
$DIMSD2
 70
     0
  9
$DIMTOLJ
 70
     0
  9
$DIMTZIN
 70
     8
  9
$DIMALTZ
 70
     0
  9
$DIMALTTZ
 70
     0
  9
$DIMFIT
 70
     3
  9
$DIMUPT
 70
     0
  9
$DIMUNIT
 70
     2
  9
$DIMDEC
 70
     2
  9
$DIMTDEC
 70
     2
  9
$DIMALTU
 70
     2
  9
$DIMALTTD
 70
     3
  9
$DIMTXSTY
  7
STANDARD
  9
$DIMAUNIT
 70
     0
  9
$LUNITS
 70
     2
  9
$LUPREC
 70
     4
  9
$SKETCHINC
 40
1.0
  9
$FILLETRAD
 40
10.0
  9
$AUNITS
 70
     0
  9
$AUPREC
 70
     0
  9
$MENU
  1
.
  9
$ELEVATION
 40
0.0
  9
$PELEVATION
 40
0.0
  9
$THICKNESS
 40
0.0
  9
$LIMCHECK
 70
     0
  9
$BLIPMODE
 70
     0
  9
$CHAMFERA
 40
10.0
  9
$CHAMFERB
 40
10.0
  9
$CHAMFERC
 40
20.0
  9
$CHAMFERD
 40
0.0
  9
$SKPOLY
 70
     0
  9
$TDCREATE
 40
2452626.515093634
  9
$TDUPDATE
 40
2452772.559503241
  9
$TDINDWG
 40
0.0042368056
  9
$TDUSRTIMER
 40
0.0042234954
  9
$USRTIMER
 70
     1
  9
$ANGBASE
 50
0.0
  9
$ANGDIR
 70
     0
  9
$PDMODE
 70
     0
  9
$PDSIZE
 40
0.0
  9
$PLINEWID
 40
0.0
  9
$COORDS
 70
     2
  9
$SPLFRAME
 70
     0
  9
$SPLINETYPE
 70
     6
  9
$SPLINESEGS
 70
     8
  9
$ATTDIA
 70
     0
  9
$ATTREQ
 70
     1
  9
$HANDLING
 70
-16383
  9
$HANDSEED
  5
2E4
  9
$SURFTAB1
 70
     6
  9
$SURFTAB2
 70
     6
  9
$SURFTYPE
 70
     6
  9
$SURFU
 70
     6
  9
$SURFV
 70
     6
  9
$UCSNAME
  2

  9
$UCSORG
 10
0.0
 20
0.0
 30
0.0
  9
$UCSXDIR
 10
1.0
 20
0.0
 30
0.0
  9
$UCSYDIR
 10
0.0
 20
1.0
 30
0.0
  9
$PUCSNAME
  2

  9
$PUCSORG
 10
0.0
 20
0.0
 30
0.0
  9
$PUCSXDIR
 10
1.0
 20
0.0
 30
0.0
  9
$PUCSYDIR
 10
0.0
 20
1.0
 30
0.0
  9
$USERI1
 70
     0
  9
$USERI2
 70
     0
  9
$USERI3
 70
     0
  9
$USERI4
 70
     0
  9
$USERI5
 70
     0
  9
$USERR1
 40
0.0
  9
$USERR2
 40
0.0
  9
$USERR3
 40
0.0
  9
$USERR4
 40
0.0
  9
$USERR5
 40
0.0
  9
$WORLDVIEW
 70
     1
  9
$SHADEDGE
 70
     3
  9
$SHADEDIF
 70
    70
  9
$TILEMODE
 70
     1
  9
$MAXACTVP
 70
    64
  9
$PINSBASE
 10
0.0
 20
0.0
 30
0.0
  9
$PLIMCHECK
 70
     0
  9
$PEXTMIN
 10
0.0
 20
0.0
 30
0.0
  9
$PEXTMAX
 10
0.0
 20
0.0
 30
0.0
  9
$PLIMMIN
 10
0.0
 20
0.0
  9
$PLIMMAX
 10
12.0
 20
9.0
  9
$UNITMODE
 70
     0
  9
$VISRETAIN
 70
     1
  9
$PLINEGEN
 70
     0
  9
$PSLTSCALE
 70
     1
  9
$TREEDEPTH
 70
  3020
  9
$PICKSTYLE
 70
     1
  9
$CMLSTYLE
  2
STANDARD
  9
$CMLJUST
 70
     0
  9
$CMLSCALE
 40
20.0
  9
$SAVEIMAGES
 70
     1
  0
ENDSEC
  0
SECTION
  2
CLASSES
  0
CLASS
  1
ACDBDICTIONARYWDFLT
  2
AcDbDictionaryWithDefault
  3
AutoCAD 2000
 90
    32768
280
     0
281
     0
  0
CLASS
  1
ACDBPLACEHOLDER
  2
AcDbPlaceHolder
  3
AutoCAD 2000
 90
    32768
280
     0
281
     0
  0
CLASS
  1
LAYOUT
  2
AcDbLayout
  3
AutoCAD 2000
 90
    32768
280
     0
281
     0
  0
CLASS
  1
LONG_TRANSACTION
  2
AcDbLongTransaction
  3
AutoCAD 2000
 90
    32768
280
     0
281
     0
  0
CLASS
  1
LWPOLYLINE
  2
AcDbPolyline
  3
AutoCAD 2000
 90
    32768
280
     0
281
     1
  0
CLASS
  1
HATCH
  2
AcDbHatch
  3
AutoCAD 2000
 90
    32768
280
     0
281
     1
  0
CLASS
  1
XRECORD
  2
AcDbXrecord
  3
AutoCAD 2000
 90
    32768
280
     0
281
     0
  0
CLASS
  1
LONG_TRANSACTION
  2
AcDbLongTransaction
  3
AutoCAD 2000
 90
    32768
280
     0
281
     0
  0
CLASS
  1
LWPOLYLINE
  2
AcDbPolyline
  3
AutoCAD 2000
 90
    32768
280
     0
281
     1
  0
CLASS
  1
HATCH
  2
AcDbHatch
  3
AutoCAD 2000
 90
    32768
280
     0
281
     1
  0
CLASS
  1
XRECORD
  2
AcDbXrecord
  3
AutoCAD 2000
 90
    32768
280
     0
281
     0
  0
CLASS
  1
LONG_TRANSACTION
  2
AcDbLongTransaction
  3
AutoCAD 2000
 90
    32768
280
     0
281
     0
  0
CLASS
  1
LWPOLYLINE
  2
AcDbPolyline
  3
AutoCAD 2000
 90
    32768
280
     0
281
     1
  0
CLASS
  1
HATCH
  2
AcDbHatch
  3
AutoCAD 2000
 90
    32768
280
     0
281
     1
  0
CLASS
  1
XRECORD
  2
AcDbXrecord
  3
AutoCAD 2000
 90
    32768
280
     0
281
     0
  0
CLASS
  1
DICTIONARYVAR
  2
AcDbDictionaryVar
  3
AutoCAD 2000
 90
    32768
280
     0
281
     0
  0
CLASS
  1
SORTENTSTABLE
  2
AcDbSortentsTable
  3
AutoCAD 2000
 90
    32768
280
     0
281
     0
  0
CLASS
  1
LONG_TRANSACTION
  2
AcDbLongTransaction
  3
AutoCAD 2000
 90
    32768
280
     0
281
     0
  0
CLASS
  1
LWPOLYLINE
  2
AcDbPolyline
  3
AutoCAD 2000
 90
    32768
280
     0
281
     1
  0
CLASS
  1
HATCH
  2
AcDbHatch
  3
AutoCAD 2000
 90
    32768
280
     0
281
     1
  0
CLASS
  1
XRECORD
  2
AcDbXrecord
  3
AutoCAD 2000
 90
    32768
280
     0
281
     0
  0
ENDSEC
  0
SECTION
  2
TABLES
  0
TABLE
  2
VPORT
  5
8
330
0
100
AcDbSymbolTable
 70
     2
  0
VPORT
  5
288
330
8
100
AcDbSymbolTableRecord
100
AcDbViewportTableRecord
  2
*ACTIVE
 70
     0
 10
0.0
 20
0.0
 11
1.0
 21
1.0
 12
2015.885876307203
 22
2170.527272577799
 13
0.0
 23
0.0
 14
10.0
 24
10.0
 15
10.0
 25
10.0
 16
0.0
 26
0.0
 36
1.0
 17
0.0
 27
0.0
 37
0.0
 40
4992.393343508887
 41
1.610878661087865
 42
50.0
 43
0.0
 44
0.0
 50
0.0
 51
0.0
 71
     0
 72
   100
 73
     1
 74
     3
 75
     0
 76
     0
 77
     0
 78
     0
  0
ENDTAB
  0
TABLE
  2
LTYPE
  5
5
330
0
100
AcDbSymbolTable
 70
     1
  0
LTYPE
  5
14
330
5
100
AcDbSymbolTableRecord
100
AcDbLinetypeTableRecord
  2
BYBLOCK
 70
     0
  3

 72
    65
 73
     0
 40
0.0
  0
LTYPE
  5
15
330
5
100
AcDbSymbolTableRecord
100
AcDbLinetypeTableRecord
  2
BYLAYER
 70
     0
  3

 72
    65
 73
     0
 40
0.0
  0
LTYPE
  5
16
330
5
100
AcDbSymbolTableRecord
100
AcDbLinetypeTableRecord
  2
CONTINUOUS
 70
     0
  3
Solid line
 72
    65
 73
     0
 40
0.0
  0
ENDTAB
  0
TABLE
  2
LAYER
  5
2
330
0
100
AcDbSymbolTable
 70
     5
  0
LAYER
  5
10
330
2
100
AcDbSymbolTableRecord
100
AcDbLayerTableRecord
  2
0
 70
     0
 62
     7
  6
CONTINUOUS
  0
LAYER
  5
5E
330
2
100
AcDbSymbolTableRecord
100
AcDbLayerTableRecord
  2
SAFETY
 70
     0
 62
     7
  6
CONTINUOUS
  0
LAYER
  5
5F
330
2
100
AcDbSymbolTableRecord
100
AcDbLayerTableRecord
  2
OBJECT
 70
     0
 62
     7
  6
CONTINUOUS
  0
LAYER
  5
183
330
2
100
AcDbSymbolTableRecord
100
AcDbLayerTableRecord
  2
TEKST
 70
     0
 62
     7
  6
CONTINUOUS
  0
LAYER
  5
1E2
330
2
100
AcDbSymbolTableRecord
100
AcDbLayerTableRecord
  2
HATCH
 70
     0
 62
     7
  6
CONTINUOUS
  0
ENDTAB
  0
TABLE
  2
STYLE
  5
3
330
0
100
AcDbSymbolTable
 70
     2
  0
STYLE
  5
11
330
3
100
AcDbSymbolTableRecord
100
AcDbTextStyleTableRecord
  2
STANDARD
 70
     0
 40
0.0
 41
1.0
 50
0.0
 71
     0
 42
2.5
  3
txt
  4

  0
STYLE
  5
60
330
3
100
AcDbSymbolTableRecord
100
AcDbTextStyleTableRecord
  2
STYLE1
 70
     0
 40
15.0
 41
1.0
 50
0.0
 71
     0
 42
15.0
  3
romans.shx
  4

  0
ENDTAB
  0
TABLE
  2
VIEW
  5
6
330
0
100
AcDbSymbolTable
 70
     0
  0
ENDTAB
  0
TABLE
  2
UCS
  5
7
330
0
100
AcDbSymbolTable
 70
     0
  0
ENDTAB
  0
TABLE
  2
APPID
  5
9
330
0
100
AcDbSymbolTable
 70
     3
  0
APPID
  5
12
330
9
100
AcDbSymbolTableRecord
100
AcDbRegAppTableRecord
  2
ACAD
 70
     0
  0
APPID
  5
62
330
9
100
AcDbSymbolTableRecord
100
AcDbRegAppTableRecord
  2
AVE_FINISH
 70
     0
  0
APPID
  5
17B
330
9
100
AcDbSymbolTableRecord
100
AcDbRegAppTableRecord
  2
CONTENTBLOCKICON
 70
     0
  0
ENDTAB
  0
TABLE
  2
DIMSTYLE
  5
A
330
0
100
AcDbSymbolTable
 70
     2
  0
DIMSTYLE
105
27
330
A
100
AcDbSymbolTableRecord
100
AcDbDimStyleTableRecord
  2
ISO-25
 70
     0
  3

  4

  5

  6

  7

 40
1.0
 41
2.5
 42
0.625
 43
3.75
 44
1.25
 45
0.0
 46
0.0
 47
0.0
 48
0.0
140
2.5
141
2.5
142
0.0
143
0.03937007874016
144
1.0
145
0.0
146
1.0
147
0.625
 71
     0
 72
     0
 73
     0
 74
     0
 75
     0
 76
     0
 77
     1
 78
     8
170
     0
171
     3
172
     1
173
     0
174
     0
175
     0
176
     0
177
     0
178
     0
270
     2
271
     2
272
     2
273
     2
274
     3
340
11
275
     0
280
     0
281
     0
282
     0
283
     0
284
     8
285
     0
286
     0
287
     3
288
     0
  0
DIMSTYLE
105
61
330
A
100
AcDbSymbolTableRecord
100
AcDbDimStyleTableRecord
  2
STANDARD
 70
     0
  3

  4

  5

  6

  7

 40
5.0
 41
2.0
 42
1.0
 43
8.0
 44
1.0
 45
0.0
 46
0.0
 47
0.0
 48
0.0
140
15.0
141
0.09
142
0.0
143
25.4
144
1.0
145
0.0
146
1.0
147
1.0
 71
     0
 72
     0
 73
     0
 74
     0
 75
     0
 76
     0
 77
     1
 78
     8
170
     0
171
     2
172
     1
173
     0
174
     0
175
     0
176
     1
177
     1
178
     1
270
     2
271
     1
272
     0
273
     2
274
     2
340
60
275
     0
280
     0
281
     0
282
     0
283
     1
284
     0
285
     0
286
     0
287
     3
288
     0
  0
ENDTAB
  0
TABLE
  2
BLOCK_RECORD
  5
1
330
0
100
AcDbSymbolTable
 70
     3
  0
BLOCK_RECORD
  5
1F
102
{ACAD_XDICTIONARY
360
10A
102
}
330
1
100
AcDbSymbolTableRecord
100
AcDbBlockTableRecord
  2
*MODEL_SPACE
  0
BLOCK_RECORD
  5
50
102
{ACAD_XDICTIONARY
360
10C
102
}
330
1
100
AcDbSymbolTableRecord
100
AcDbBlockTableRecord
  2
*PAPER_SPACE
  0
BLOCK_RECORD
  5
117
330
1
100
AcDbSymbolTableRecord
100
AcDbBlockTableRecord
  2
ACKA
1001
ACAD
1000
DesignCenter Data
1002
{
1070
     1
1070
     4
1002
}
  0
BLOCK_RECORD
  5
28B
330
1
100
AcDbSymbolTableRecord
100
AcDbBlockTableRecord
  2
*U1
  0
BLOCK_RECORD
  5
2C6
330
1
100
AcDbSymbolTableRecord
100
AcDbBlockTableRecord
  2
*U2
  0
ENDTAB
  0
ENDSEC
  0
SECTION
  2
BLOCKS
  0
BLOCK
  5
20
330
1F
100
AcDbEntity
  8
0
100
AcDbBlockBegin
  2
*MODEL_SPACE
 70
     0
 10
0.0
 20
0.0
 30
0.0
  3
*MODEL_SPACE
  1

  0
ENDBLK
  5
21
330
1F
100
AcDbEntity
  8
0
100
AcDbBlockEnd
  0
BLOCK
  5
52
330
50
100
AcDbEntity
 67
     1
  8
0
100
AcDbBlockBegin
  2
*PAPER_SPACE
 70
     0
 10
0.0
 20
0.0
 30
0.0
  3
*PAPER_SPACE
  1

  0
ENDBLK
  5
53
330
50
100
AcDbEntity
 67
     1
  8
0
100
AcDbBlockEnd
  0
BLOCK
  5
118
330
117
100
AcDbEntity
  8
0
100
AcDbBlockBegin
  2
ACKA
 70
     0
 10
0.0
 20
0.0
 30
0.0
  3
ACKA
  1

  0
INSERT
  5
248
330
117
100
AcDbEntity
  8
HATCH
  6
CONTINUOUS
 62
     3
100
AcDbBlockReference
  2
*U1
 10
0.0
 20
0.0
 30
0.0
1001
ACAD
1002
{
1000
R14_HATCH_DATA
1000
248
1011
1.0
1021
0.0
1031
0.0
1011
0.0
1021
1.0
1031
0.0
1011
0.0
1021
0.0
1031
1.0
1040
0.0
1010
0.0
1020
0.0
1030
1.0
1000
SOLID
1070
     1
1070
     1
1071
        4
1071
        7
1070
     0
1070
     1
1071
       19
1040
2438.921628728285
1040
2694.265319015896
1040
2438.921628728168
1040
2794.265319015901
1040
2471.709845399493
1040
2794.265319015895
1040
2471.709845399551
1040
2694.265319015896
1040
2649.702998147123
1040
2694.265319015896
1040
2649.702998147123
1040
2959.156839391354
1040
2567.73246468267
1040
2994.265319015894
1040
2471.709845399377
1040
2994.265319015894
1040
2438.921628728053
1040
2994.265319015894
1040
2015.924440485202
1040
2994.265319015894
1040
1592.927252242351
1040
2994.265319015894
1040
1560.139035571026
1040
2994.265319015894
1040
1464.116416287733
1040
2994.265319015894
1040
1382.14588282328
1040
2959.156839391353
1040
1382.145882823281
1040
2694.265319015896
1040
1560.139035571026
1040
2694.265319015903
1040
1560.139035571026
1040
2794.265319015894
1040
1592.927252242351
1040
2794.265319015902
1040
1592.927252242351
1040
2694.265319015903
1071
       19
1005
25C
1005
25A
1005
25D
1005
284
1005
24E
1005
24D
1005
250
1005
258
1005
251
1005
257
1005
253
1005
252
1005
283
1005
25E
1005
25F
1005
261
1005
260
1005
265
1005
259
1071
        7
1070
     0
1070
     1
1071
       12
1040
2649.702998147123
1040
2170.386355485301
1040
2649.702998147123
1040
2694.265319015896
1040
2471.709845399551
1040
2694.265319015896
1040
2471.70984539961
1040
2594.265319015894
1040
2438.921628728402
1040
2594.265319015894
1040
2438.921628728285
1040
2694.265319015896
1040
1592.927252242351
1040
2694.265319015903
1040
1592.927252242351
1040
2594.265319015895
1040
1560.139035571026
1040
2594.265319015895
1040
1560.139035571026
1040
2694.265319015903
1040
1382.145882823281
1040
2694.265319015896
1040
1382.145882823281
1040
2170.386355485301
1071
       12
1005
25D
1005
25A
1005
25B
1005
259
1005
265
1005
260
1005
262
1005
25F
1005
25E
1005
283
1005
263
1005
284
1071
        7
1070
     0
1070
     1
1071
       13
1040
1592.927252242232
1040
1746.507391955253
1040
1592.927252242233
1040
1646.507391955345
1040
2015.924440485202
1040
1646.507391955346
1040
2438.92162872811
1040
1646.507391955346
1040
2438.921628728053
1040
1746.507391955353
1040
2471.709845399377
1040
1746.507391955353
1040
2471.709845399377
1040
1646.507391955346
1040
2649.702998147123
1040
1646.507391955345
1040
2649.702998147123
1040
2170.386355485301
1040
1382.145882823281
1040
2170.386355485301
1040
1382.145882823281
1040
1646.507391955346
1040
1560.139035571026
1040
1646.507391955345
1040
1560.139035571026
1040
1746.507391955345
1071
       13
1005
263
1005
282
1005
278
1005
27C
1005
279
1005
27B
1005
27D
1005
27F
1005
26F
1005
26D
1005
270
1005
26C
1005
281
1071
        7
1070
     0
1070
     1
1071
       20
1040
2015.924440485202
1040
1346.507391955346
1040
2438.921628728053
1040
1346.507391955346
1040
2471.709845399377
1040
1346.507391955346
1040
2567.73246468267
1040
1346.507391955346
1040
2649.702998147123
1040
1381.615871579888
1040
2649.702998147123
1040
1646.507391955346
1040
2471.709845399377
1040
1646.507391955346
1040
2471.709845399377
1040
1546.507391955346
1040
2438.921628728168
1040
1546.507391955346
1040
2438.92162872811
1040
1646.507391955346
1040
2015.924440485202
1040
1646.507391955346
1040
1592.927252242233
1040
1646.507391955346
1040
1592.927252242233
1040
1546.507391955346
1040
1560.139035571026
1040
1546.507391955346
1040
1560.139035571026
1040
1646.507391955346
1040
1382.14588282328
1040
1646.507391955345
1040
1382.145882823281
1040
1381.615871579888
1040
1464.116416287734
1040
1346.507391955346
1040
1560.139035571026
1040
1346.507391955346
1040
1592.927252242351
1040
1346.507391955346
1071
       20
1005
26C
1005
270
1005
26E
1005
26F
1005
27F
1005
27D
1005
27B
1005
27A
1005
27C
1005
278
1005
282
1005
276
1005
275
1005
277
1005
271
1005
27E
1005
26B
1005
267
1005
266
1005
281
1070
     0
1070
     1
1040
10.42253307621897
1071
        4
1040
1859.424010122915
1040
2785.456730663949
1040
0.0
1040
1869.854799302731
1040
2399.823001223463
1040
0.0
1040
1734.254519827383
1040
1857.851284874977
1040
0.0
1040
1775.977676546659
1040
1399.259820096258
1040
0.0
1002
}
  0
INSERT
  5
249
330
117
100
AcDbEntity
  8
HATCH
  6
CONTINUOUS
 62
     2
100
AcDbBlockReference
  2
*U2
 10
0.0
 20
0.0
 30
0.0
1001
ACAD
1002
{
1000
R14_HATCH_DATA
1000
249
1011
1.0
1021
0.0
1031
0.0
1011
0.0
1021
1.0
1031
0.0
1011
0.0
1021
0.0
1031
1.0
1040
0.0
1010
0.0
1020
0.0
1030
1.0
1000
SOLID
1070
     1
1070
     0
1071
        8
1071
        7
1070
     0
1070
     1
1071
        4
1040
1560.139035571026
1040
2994.265319015894
1040
1592.927252242351
1040
2994.265319015894
1040
1592.927252242351
1040
3048.098315703107
1040
1560.139035571026
1040
3048.098315703107
1071
        0
1071
        7
1070
     0
1070
     1
1071
        4
1040
2471.709845399377
1040
3048.098315703107
1040
2438.921628728053
1040
3048.098315703107
1040
2438.921628728053
1040
2994.265319015893
1040
2471.709845399377
1040
2994.265319015894
1071
        0
1071
        7
1070
     0
1070
     1
1071
        4
1040
2438.921628728402
1040
2594.265319015895
1040
2471.70984539961
1040
2594.265319015895
1040
2471.709845399493
1040
2794.265319015893
1040
2438.921628728168
1040
2794.265319015902
1071
        0
1071
        7
1070
     0
1070
     1
1071
        4
1040
1560.139035571026
1040
2594.265319015895
1040
1592.927252242351
1040
2594.265319015895
1040
1592.927252242351
1040
2794.265319015901
1040
1560.139035571026
1040
2794.265319015895
1071
        0
1071
        7
1070
     0
1070
     1
1071
        4
1040
1560.139035571026
1040
1546.507391955346
1040
1592.927252242233
1040
1546.507391955346
1040
1592.927252242233
1040
1746.507391955346
1040
1560.139035571026
1040
1746.507391955346
1071
        0
1071
        7
1070
     0
1070
     1
1071
        4
1040
1560.139035571026
1040
1292.674395268134
1040
1592.927252242351
1040
1292.674395268134
1040
1592.92725224235
1040
1346.507391955346
1040
1560.139035571025
1040
1346.507391955346
1071
        0
1071
        7
1070
     0
1070
     1
1071
        4
1040
2471.709845399377
1040
1746.507391955353
1040
2438.921628728053
1040
1746.507391955353
1040
2438.921628728168
1040
1546.507391955346
1040
2471.709845399377
1040
1546.507391955346
1071
        0
1071
        7
1070
     0
1070
     1
1071
        4
1040
2438.921628728053
1040
1292.674395268134
1040
2471.709845399377
1040
1292.674395268134
1040
2471.709845399377
1040
1346.507391955346
1040
2438.921628728053
1040
1346.507391955346
1071
        0
1070
     0
1070
     1
1040
4.11243998476213
1071
        8
1040
1566.991661183245
1040
3020.986396563134
1040
0.0
1040
2455.982514108757
1040
3025.098834853845
1040
0.0
1040
2451.866809562394
1040
2712.553392899106
1040
0.0
1040
1571.107365729607
1040
2671.428989705737
1040
0.0
1040
1575.223050138261
1040
1655.65631603174
1040
0.0
1040
1571.107365729607
1040
1314.323795898892
1040
0.0
1040
2455.982514108757
1040
1647.431429307193
1040
0.0
1040
2451.866809562394
1040
1314.323795898892
1040
0.0
1002
}
  0
MTEXT
  5
24A
330
117
100
AcDbEntity
  8
TEKST
100
AcDbMText
 10
1606.955774838803
 20
3650.7807396522
 30
0.0
 40
75.18097186823435
 41
868.6785999999997
 71
     1
 72
     1
  1
{\FIMPACT.TTF;Hoogte: 170 cm\PMax. valhoogte: 51 cm}
1001
ACAD
1000
MTEXTBEGIN
1070
    73
1070
     1
1070
    44
1040
1.0
1070
    74
1070
     0
1000
MTEXTEND
1000
MTEXTBEGIN
1070
    73
1070
     1
1070
    44
1040
1.0
1070
    74
1070
     0
1000
MTEXTEND
  0
LINE
  5
24B
330
117
100
AcDbEntity
  8
OBJECT
100
AcDbLine
 10
2438.921628728053
 20
3048.098315703107
 30
20050.20202403029
 11
2438.921628728053
 21
2994.265319015894
 31
20050.20202403029
  0
LINE
  5
24C
330
117
100
AcDbEntity
  8
OBJECT
100
AcDbLine
 10
2471.709845399377
 20
2994.265319015894
 30
20050.20202403029
 11
2471.709845399377
 21
3048.098315703107
 31
20050.20202403029
  0
LINE
  5
24D
330
117
100
AcDbEntity
  8
OBJECT
100
AcDbLine
 10
2567.73246468267
 20
2994.265319015894
 30
20050.20202403029
 11
2471.709845399377
 21
2994.265319015894
 31
20050.20202403029
  0
LINE
  5
24E
330
117
100
AcDbEntity
  8
OBJECT
100
AcDbLine
 10
2649.702998147123
 20
2959.156839391354
 30
20050.20202403029
 11
2567.73246468267
 21
2994.265319015894
 31
20050.20202403029
  0
LINE
  5
24F
330
117
100
AcDbEntity
  8
OBJECT
100
AcDbLine
 10
2438.921628728053
 20
3048.098315703107
 30
20050.20202403029
 11
2471.709845399377
 21
3048.098315703107
 31
20050.20202403029
  0
LINE
  5
250
330
117
100
AcDbEntity
  8
OBJECT
100
AcDbLine
 10
2438.921628728053
 20
2994.265319015894
 30
20050.20202403029
 11
2471.709845399377
 21
2994.265319015894
 31
20050.20202403029
  0
LINE
  5
251
330
117
100
AcDbEntity
  8
OBJECT
100
AcDbLine
 10
1592.927252242351
 20
2994.265319015894
 30
20050.20202403029
 11
2015.924440485202
 21
2994.265319015894
 31
20050.20202403029
  0
LINE
  5
252
330
117
100
AcDbEntity
  8
OBJECT
100
AcDbLine
 10
1382.145882823281
 20
2959.156839391354
 30
20050.20202403029
 11
1464.116416287734
 21
2994.265319015894
 31
20050.20202403029
  0
LINE
  5
253
330
117
100
AcDbEntity
  8
OBJECT
100
AcDbLine
 10
1464.116416287734
 20
2994.265319015894
 30
20050.20202403029
 11
1560.139035571026
 21
2994.265319015894
 31
20050.20202403029
  0
LINE
  5
254
330
117
100
AcDbEntity
  8
OBJECT
100
AcDbLine
 10
1560.139035571026
 20
2994.265319015894
 30
20050.20202403029
 11
1560.139035571026
 21
3048.098315703107
 31
20050.20202403029
  0
LINE
  5
255
330
117
100
AcDbEntity
  8
OBJECT
100
AcDbLine
 10
1592.927252242351
 20
3048.098315703107
 30
20050.20202403029
 11
1592.927252242351
 21
2994.265319015894
 31
20050.20202403029
  0
LINE
  5
256
330
117
100
AcDbEntity
  8
OBJECT
100
AcDbLine
 10
1560.139035571026
 20
3048.098315703107
 30
20050.20202403029
 11
1592.927252242351
 21
3048.098315703107
 31
20050.20202403029
  0
LINE
  5
257
330
117
100
AcDbEntity
  8
OBJECT
100
AcDbLine
 10
1560.139035571026
 20
2994.265319015894
 30
20050.20202403029
 11
1592.927252242351
 21
2994.265319015894
 31
20050.20202403029
  0
LINE
  5
258
330
117
100
AcDbEntity
  8
OBJECT
100
AcDbLine
 10
2438.921628728053
 20
2994.265319015894
 30
20050.20202403029
 11
2015.924440485202
 21
2994.265319015894
 31
20050.20202403029
  0
LINE
  5
259
330
117
100
AcDbEntity
  8
OBJECT
100
AcDbLine
 10
2438.921628728168
 20
2794.265319015902
 30
20050.20202403029
 11
2438.921628728402
 21
2594.265319015895
 31
20050.20202403029
  0
LINE
  5
25A
330
117
100
AcDbEntity
  8
OBJECT
100
AcDbLine
 10
2471.709845399493
 20
2794.265319015902
 30
20050.20202403029
 11
2471.70984539961
 21
2594.265319015895
 31
20050.20202403029
  0
LINE
  5
25B
330
117
100
AcDbEntity
  8
OBJECT
100
AcDbLine
 10
2438.921628728168
 20
2594.265319015895
 30
20050.20202403029
 11
2471.709845399377
 21
2594.265319015895
 31
20050.20202403029
  0
LINE
  5
25C
330
117
100
AcDbEntity
  8
OBJECT
100
AcDbLine
 10
2438.921628728168
 20
2794.265319015902
 30
20050.20202403029
 11
2471.709845399377
 21
2794.265319015895
 31
20050.20202403029
  0
LINE
  5
25D
330
117
100
AcDbEntity
  8
OBJECT
100
AcDbLine
 10
2471.70984539961
 20
2694.265319015896
 30
20050.20202403029
 11
2649.702998147239
 21
2694.265319015896
 31
20050.20202403029
  0
LINE
  5
25E
330
117
100
AcDbEntity
  8
OBJECT
100
AcDbLine
 10
1382.145882823397
 20
2694.265319015896
 30
20050.20202403029
 11
1560.139035571026
 21
2694.265319015903
 31
20050.20202403029
  0
LINE
  5
25F
330
117
100
AcDbEntity
  8
OBJECT
100
AcDbLine
 10
1560.139035571026
 20
2794.265319015902
 30
20050.20202403029
 11
1560.139035571026
 21
2594.265319015895
 31
20050.20202403029
  0
LINE
  5
260
330
117
100
AcDbEntity
  8
OBJECT
100
AcDbLine
 10
1592.927252242351
 20
2794.265319015902
 30
20050.20202403029
 11
1592.927252242351
 21
2594.265319015895
 31
20050.20202403029
  0
LINE
  5
261
330
117
100
AcDbEntity
  8
OBJECT
100
AcDbLine
 10
1560.139035571141
 20
2794.265319015895
 30
20050.20202403029
 11
1592.927252242467
 21
2794.265319015902
 31
20050.20202403029
  0
LINE
  5
262
330
117
100
AcDbEntity
  8
OBJECT
100
AcDbLine
 10
1560.139035571141
 20
2594.265319015895
 30
20050.20202403029
 11
1592.927252242467
 21
2594.265319015895
 31
20050.20202403029
  0
LINE
  5
263
330
117
100
AcDbEntity
  8
OBJECT
100
AcDbLine
 10
2649.702998147006
 20
2170.386355485301
 30
20050.20202403029
 11
1382.145882823281
 21
2170.386355485301
 31
20050.20202403029
  0
LINE
  5
264
330
117
100
AcDbEntity
  8
OBJECT
100
AcDbLine
 10
2438.921628728053
 20
2694.265319015896
 30
20050.20202403029
 11
2015.924440485202
 21
2694.265319015896
 31
20050.20202403029
  0
LINE
  5
265
330
117
100
AcDbEntity
  8
OBJECT
100
AcDbLine
 10
1592.927252242351
 20
2694.265319015903
 30
20050.20202403029
 11
2438.921628728168
 21
2694.265319015896
 31
20050.20202403029
  0
LINE
  5
266
330
117
100
AcDbEntity
  8
OBJECT
100
AcDbLine
 10
2649.702998147123
 20
1381.615871579888
 30
20050.20202403029
 11
2567.73246468267
 21
1346.507391955346
 31
20050.20202403029
  0
LINE
  5
267
330
117
100
AcDbEntity
  8
OBJECT
100
AcDbLine
 10
2567.73246468267
 20
1346.507391955346
 30
20050.20202403029
 11
2471.709845399377
 21
1346.507391955346
 31
20050.20202403029
  0
LINE
  5
268
330
117
100
AcDbEntity
  8
OBJECT
100
AcDbLine
 10
2471.709845399377
 20
1346.507391955346
 30
20050.20202403029
 11
2471.709845399377
 21
1292.674395268134
 31
20050.20202403029
  0
LINE
  5
269
330
117
100
AcDbEntity
  8
OBJECT
100
AcDbLine
 10
2471.709845399377
 20
1292.674395268134
 30
20050.20202403029
 11
2438.921628728053
 21
1292.674395268134
 31
20050.20202403029
  0
LINE
  5
26A
330
117
100
AcDbEntity
  8
OBJECT
100
AcDbLine
 10
2438.921628728053
 20
1292.674395268134
 30
20050.20202403029
 11
2438.921628728053
 21
1346.507391955346
 31
20050.20202403029
  0
LINE
  5
26B
330
117
100
AcDbEntity
  8
OBJECT
100
AcDbLine
 10
2438.921628728053
 20
1346.507391955346
 30
20050.20202403029
 11
2471.709845399377
 21
1346.507391955346
 31
20050.20202403029
  0
LINE
  5
26C
330
117
100
AcDbEntity
  8
OBJECT
100
AcDbLine
 10
2649.702998147239
 20
1646.507391955346
 30
20050.20202403029
 11
2471.70984539926
 21
1646.507391955346
 31
20050.20202403029
  0
LINE
  5
26D
330
117
100
AcDbEntity
  8
OBJECT
100
AcDbLine
 10
2471.709845399377
 20
1746.507391955353
 30
20050.20202403029
 11
2438.921628728168
 21
1746.507391955353
 31
20050.20202403029
  0
LINE
  5
26E
330
117
100
AcDbEntity
  8
OBJECT
100
AcDbLine
 10
2471.709845399377
 20
1546.507391955346
 30
20050.20202403029
 11
2438.921628728168
 21
1546.507391955346
 31
20050.20202403029
  0
LINE
  5
26F
330
117
100
AcDbEntity
  8
OBJECT
100
AcDbLine
 10
2438.921628728053
 20
1746.507391955353
 30
20050.20202403029
 11
2438.921628728168
 21
1546.507391955339
 31
20050.20202403029
  0
LINE
  5
270
330
117
100
AcDbEntity
  8
OBJECT
100
AcDbLine
 10
2471.709845399377
 20
1746.507391955353
 30
20050.20202403029
 11
2471.709845399377
 21
1546.507391955339
 31
20050.20202403029
  0
LINE
  5
271
330
117
100
AcDbEntity
  8
OBJECT
100
AcDbLine
 10
1592.927252242351
 20
1346.507391955346
 30
20050.20202403029
 11
2015.924440485202
 21
1346.507391955346
 31
20050.20202403029
  0
LINE
  5
272
330
117
100
AcDbEntity
  8
OBJECT
100
AcDbLine
 10
1592.927252242351
 20
1292.674395268134
 30
20050.20202403029
 11
1592.927252242351
 21
1346.507391955346
 31
20050.20202403029
  0
LINE
  5
273
330
117
100
AcDbEntity
  8
OBJECT
100
AcDbLine
 10
1560.139035571026
 20
1292.674395268134
 30
20050.20202403029
 11
1592.927252242351
 21
1292.674395268134
 31
20050.20202403029
  0
LINE
  5
274
330
117
100
AcDbEntity
  8
OBJECT
100
AcDbLine
 10
1560.139035571026
 20
1346.507391955346
 30
20050.20202403029
 11
1560.139035571026
 21
1292.674395268134
 31
20050.20202403029
  0
LINE
  5
275
330
117
100
AcDbEntity
  8
OBJECT
100
AcDbLine
 10
1464.116416287734
 20
1346.507391955346
 30
20050.20202403029
 11
1560.139035571026
 21
1346.507391955346
 31
20050.20202403029
  0
LINE
  5
276
330
117
100
AcDbEntity
  8
OBJECT
100
AcDbLine
 10
1382.145882823281
 20
1381.615871579888
 30
20050.20202403029
 11
1464.116416287734
 21
1346.507391955346
 31
20050.20202403029
  0
LINE
  5
277
330
117
100
AcDbEntity
  8
OBJECT
100
AcDbLine
 10
1560.139035571026
 20
1346.507391955346
 30
20050.20202403029
 11
1592.927252242351
 21
1346.507391955346
 31
20050.20202403029
  0
LINE
  5
278
330
117
100
AcDbEntity
  8
OBJECT
100
AcDbLine
 10
1382.145882823397
 20
1646.507391955346
 30
20050.20202403029
 11
1560.139035571026
 21
1646.507391955346
 31
20050.20202403029
  0
LINE
  5
279
330
117
100
AcDbEntity
  8
OBJECT
100
AcDbLine
 10
1560.13903557091
 20
1746.507391955346
 30
20050.20202403029
 11
1592.927252242351
 21
1746.507391955346
 31
20050.20202403029
  0
LINE
  5
27A
330
117
100
AcDbEntity
  8
OBJECT
100
AcDbLine
 10
1560.13903557091
 20
1546.507391955346
 30
20050.20202403029
 11
1592.927252242351
 21
1546.507391955346
 31
20050.20202403029
  0
LINE
  5
27B
330
117
100
AcDbEntity
  8
OBJECT
100
AcDbLine
 10
1592.927252242233
 20
1746.507391955353
 30
20050.20202403029
 11
1592.927252242233
 21
1546.507391955346
 31
20050.20202403029
  0
LINE
  5
27C
330
117
100
AcDbEntity
  8
OBJECT
100
AcDbLine
 10
1560.139035571026
 20
1746.507391955353
 30
20050.20202403029
 11
1560.139035571026
 21
1546.507391955346
 31
20050.20202403029
  0
LINE
  5
27D
330
117
100
AcDbEntity
  8
OBJECT
100
AcDbLine
 10
1592.927252242118
 20
1646.507391955346
 30
20050.20202403029
 11
2015.924440485202
 21
1646.507391955346
 31
20050.20202403029
  0
LINE
  5
27E
330
117
100
AcDbEntity
  8
OBJECT
100
AcDbLine
 10
2438.921628728053
 20
1346.507391955346
 30
20050.20202403029
 11
2015.924440485202
 21
1346.507391955346
 31
20050.20202403029
  0
LINE
  5
27F
330
117
100
AcDbEntity
  8
OBJECT
100
AcDbLine
 10
2438.921628728168
 20
1646.507391955346
 30
20050.20202403029
 11
2015.924440485202
 21
1646.507391955346
 31
20050.20202403029
  0
LINE
  5
280
330
117
100
AcDbEntity
  8
SAFETY
100
AcDbLine
 10
4014.924440485084
 20
1515.88635548501
 30
20050.20202403029
 11
4014.924440485551
 21
2824.886355485592
 31
20050.20202403029
1001
AVE_FINISH
1002
{
1070
     0
1005
0
1002
}
  0
LINE
  5
281
330
117
100
AcDbEntity
  8
OBJECT
100
AcDbLine
 10
2649.702998147123
 20
2170.386355485621
 30
20050.20202403029
 11
2649.702998147123
 21
1381.615871579888
 31
20050.20202403029
  0
LINE
  5
282
330
117
100
AcDbEntity
  8
OBJECT
100
AcDbLine
 10
1382.145882823281
 20
2170.386355485621
 30
20050.20202403029
 11
1382.145882823281
 21
1381.615871579888
 31
20050.20202403029
  0
LINE
  5
283
330
117
100
AcDbEntity
  8
OBJECT
100
AcDbLine
 10
1382.145882823281
 20
2170.386355485621
 30
20050.20202403029
 11
1382.145882823281
 21
2959.156839391354
 31
20050.20202403029
  0
LINE
  5
284
330
117
100
AcDbEntity
  8
OBJECT
100
AcDbLine
 10
2649.702998147123
 20
2170.386355485621
 30
20050.20202403029
 11
2649.702998147123
 21
2959.156839391354
 31
20050.20202403029
  0
ARC
  5
285
330
117
100
AcDbEntity
  8
SAFETY
100
AcDbCircle
 10
2514.924440485085
 20
1515.886355485541
 30
20050.20202403029
 40
1500.0
100
AcDbArc
 50
270.0
 51
0.0
1001
AVE_FINISH
1002
{
1070
     0
1005
0
1002
}
  0
POLYLINE
  5
286
330
117
100
AcDbEntity
  8
SAFETY
 48
5.0
100
AcDb2dPolyline
 66
     1
 10
0.0
 20
0.0
 30
20050.20202403029
1001
AVE_FINISH
1002
{
1070
     0
1005
0
1002
}
  0
VERTEX
  5
2D9
330
286
100
AcDbEntity
  8
SAFETY
 48
5.0
100
AcDbVertex
100
AcDb2dVertex
 10
1516.924440485784
 20
15.88635548495904
 30
20050.20202403029
 42
-0.4142135623733551
  0
VERTEX
  5
2DA
330
286
100
AcDbEntity
  8
SAFETY
 48
5.0
100
AcDbVertex
100
AcDb2dVertex
 10
16.92444048485276
 20
1515.886355485359
 30
20050.20202403029
 42
0.4142135623733551
  0
VERTEX
  5
2DB
330
286
100
AcDbEntity
  8
SAFETY
 48
5.0
100
AcDbVertex
100
AcDb2dVertex
 10
1516.924440485784
 20
15.88635548496631
 30
20050.20202403029
  0
VERTEX
  5
2DC
330
286
100
AcDbEntity
  8
SAFETY
 48
5.0
100
AcDbVertex
100
AcDb2dVertex
 10
2514.924440486017
 20
15.88635548554111
 30
20050.20202403029
 42
0.4142135623728094
  0
VERTEX
  5
2DD
330
286
100
AcDbEntity
  8
SAFETY
 48
5.0
100
AcDbVertex
100
AcDb2dVertex
 10
4014.924440485084
 20
1515.88635548501
 30
20050.20202403029
  0
VERTEX
  5
2DE
330
286
100
AcDbEntity
  8
SAFETY
 48
5.0
100
AcDbVertex
100
AcDb2dVertex
 10
4014.924440485551
 20
2824.886355485592
 30
20050.20202403029
 42
0.414213562373199
  0
VERTEX
  5
2DF
330
286
100
AcDbEntity
  8
SAFETY
 48
5.0
100
AcDbVertex
100
AcDb2dVertex
 10
2514.924440485551
 20
4324.886355486124
 30
20050.20202403029
  0
VERTEX
  5
2E0
330
286
100
AcDbEntity
  8
SAFETY
 48
5.0
100
AcDbVertex
100
AcDb2dVertex
 10
1516.924440485202
 20
4324.886355486131
 30
20050.20202403029
 42
0.4142135623730184
  0
VERTEX
  5
2E1
330
286
100
AcDbEntity
  8
SAFETY
 48
5.0
100
AcDbVertex
100
AcDb2dVertex
 10
16.92444048520201
 20
2824.886355486523
 30
20050.20202403029
  0
VERTEX
  5
2E2
330
286
100
AcDbEntity
  8
SAFETY
 48
5.0
100
AcDbVertex
100
AcDb2dVertex
 10
16.92444048485276
 20
1515.886355485359
 30
20050.20202403029
  0
SEQEND
  5
2E3
330
286
100
AcDbEntity
  8
SAFETY
 48
5.0
  0
ENDBLK
  5
119
330
117
100
AcDbEntity
  8
0
100
AcDbBlockEnd
  0
BLOCK
  5
2C4
330
28B
100
AcDbEntity
  8
0
100
AcDbBlockBegin
  2
*U1
 70
     1
 10
0.0
 20
0.0
 30
0.0
  3
*U1
  1

  0
SOLID
  5
28C
330
28B
100
AcDbEntity
  8
HATCH
  6
CONTINUOUS
 62
     3
100
AcDbTrace
 10
1560.139035571026
 20
2794.265319015894
 30
0.0
 11
1382.145882823281
 21
2694.265319015896
 31
0.0
 12
1560.139035571026
 22
2694.265319015903
 32
0.0
 13
1560.139035571026
 23
2694.265319015903
 33
0.0
210
0.0
220
0.0
230
1.0
  0
SOLID
  5
28D
330
28B
100
AcDbEntity
  8
HATCH
  6
CONTINUOUS
 62
     3
100
AcDbTrace
 10
2471.709845399493
 20
2794.265319015895
 30
0.0
 11
2471.709845399551
 21
2694.265319015896
 31
0.0
 12
2649.702998147123
 22
2694.265319015896
 32
0.0
 13
2649.702998147123
 23
2694.265319015896
 33
0.0
210
0.0
220
0.0
230
1.0
  0
SOLID
  5
28E
330
28B
100
AcDbEntity
  8
HATCH
  6
CONTINUOUS
 62
     3
100
AcDbTrace
 10
2438.921628728168
 20
2794.265319015901
 30
0.0
 11
1592.927252242351
 21
2694.265319015903
 31
0.0
 12
2438.921628728285
 22
2694.265319015896
 32
0.0
 13
2438.921628728285
 23
2694.265319015896
 33
0.0
210
0.0
220
0.0
230
1.0
  0
SOLID
  5
28F
330
28B
100
AcDbEntity
  8
HATCH
  6
CONTINUOUS
 62
     3
100
AcDbTrace
 10
1592.927252242351
 20
2794.265319015902
 30
0.0
 11
1592.927252242351
 21
2694.265319015903
 31
0.0
 12
2438.921628728168
 22
2794.265319015901
 32
0.0
 13
2438.921628728168
 23
2794.265319015901
 33
0.0
210
0.0
220
0.0
230
1.0
  0
SOLID
  5
290
330
28B
100
AcDbEntity
  8
HATCH
  6
CONTINUOUS
 62
     3
100
AcDbTrace
 10
1382.14588282328
 20
2959.156839391353
 30
0.0
 11
1560.139035571026
 21
2794.265319015894
 31
0.0
 12
1592.927252242351
 22
2794.265319015902
 32
0.0
 13
1592.927252242351
 23
2794.265319015902
 33
0.0
210
0.0
220
0.0
230
1.0
  0
SOLID
  5
291
330
28B
100
AcDbEntity
  8
HATCH
  6
CONTINUOUS
 62
     3
100
AcDbTrace
 10
1382.14588282328
 20
2959.156839391353
 30
0.0
 11
1382.145882823281
 21
2694.265319015896
 31
0.0
 12
1560.139035571026
 22
2794.265319015894
 32
0.0
 13
1560.139035571026
 23
2794.265319015894
 33
0.0
210
0.0
220
0.0
230
1.0
  0
SOLID
  5
292
330
28B
100
AcDbEntity
  8
HATCH
  6
CONTINUOUS
 62
     3
100
AcDbTrace
 10
2649.702998147123
 20
2959.156839391354
 30
0.0
 11
1382.14588282328
 21
2959.156839391353
 31
0.0
 12
1592.927252242351
 22
2794.265319015902
 32
0.0
 13
1592.927252242351
 23
2794.265319015902
 33
0.0
  0
SOLID
  5
293
330
28B
100
AcDbEntity
  8
HATCH
  6
CONTINUOUS
 62
     3
100
AcDbTrace
 10
2649.702998147123
 20
2959.156839391354
 30
0.0
 11
1592.927252242351
 21
2794.265319015902
 31
0.0
 12
2438.921628728168
 22
2794.265319015901
 32
0.0
 13
2438.921628728168
 23
2794.265319015901
 33
0.0
210
0.0
220
0.0
230
1.0
  0
SOLID
  5
294
330
28B
100
AcDbEntity
  8
HATCH
  6
CONTINUOUS
 62
     3
100
AcDbTrace
 10
2649.702998147123
 20
2959.156839391354
 30
0.0
 11
2438.921628728168
 21
2794.265319015901
 31
0.0
 12
2471.709845399493
 22
2794.265319015895
 32
0.0
 13
2471.709845399493
 23
2794.265319015895
 33
0.0
210
0.0
220
0.0
230
1.0
  0
SOLID
  5
295
330
28B
100
AcDbEntity
  8
HATCH
  6
CONTINUOUS
 62
     3
100
AcDbTrace
 10
2649.702998147123
 20
2959.156839391354
 30
0.0
 11
2471.709845399493
 21
2794.265319015895
 31
0.0
 12
2649.702998147123
 22
2694.265319015896
 32
0.0
 13
2649.702998147123
 23
2694.265319015896
 33
0.0
210
0.0
220
0.0
230
1.0
  0
SOLID
  5
296
330
28B
100
AcDbEntity
  8
HATCH
  6
CONTINUOUS
 62
     3
100
AcDbTrace
 10
1464.116416287733
 20
2994.265319015894
 30
0.0
 11
1382.14588282328
 21
2959.156839391353
 31
0.0
 12
2649.702998147123
 22
2959.156839391354
 32
0.0
 13
2649.702998147123
 23
2959.156839391354
 33
0.0
  0
SOLID
  5
297
330
28B
100
AcDbEntity
  8
HATCH
  6
CONTINUOUS
 62
     3
100
AcDbTrace
 10
2649.702998147123
 20
2959.156839391354
 30
0.0
 11
2471.709845399377
 21
2994.265319015894
 31
0.0
 12
2438.921628728053
 22
2994.265319015894
 32
0.0
 13
2438.921628728053
 23
2994.265319015894
 33
0.0
210
0.0
220
0.0
230
1.0
  0
SOLID
  5
298
330
28B
100
AcDbEntity
  8
HATCH
  6
CONTINUOUS
 62
     3
100
AcDbTrace
 10
2649.702998147123
 20
2959.156839391354
 30
0.0
 11
2438.921628728053
 21
2994.265319015894
 31
0.0
 12
2015.924440485202
 22
2994.265319015894
 32
0.0
 13
2015.924440485202
 23
2994.265319015894
 33
0.0
210
0.0
220
0.0
230
1.0
  0
SOLID
  5
299
330
28B
100
AcDbEntity
  8
HATCH
  6
CONTINUOUS
 62
     3
100
AcDbTrace
 10
2649.702998147123
 20
2959.156839391354
 30
0.0
 11
2015.924440485202
 21
2994.265319015894
 31
0.0
 12
1592.927252242351
 22
2994.265319015894
 32
0.0
 13
1592.927252242351
 23
2994.265319015894
 33
0.0
210
0.0
220
0.0
230
1.0
  0
SOLID
  5
29A
330
28B
100
AcDbEntity
  8
HATCH
  6
CONTINUOUS
 62
     3
100
AcDbTrace
 10
2649.702998147123
 20
2959.156839391354
 30
0.0
 11
1592.927252242351
 21
2994.265319015894
 31
0.0
 12
1560.139035571026
 22
2994.265319015894
 32
0.0
 13
1560.139035571026
 23
2994.265319015894
 33
0.0
210
0.0
220
0.0
230
1.0
  0
SOLID
  5
29B
330
28B
100
AcDbEntity
  8
HATCH
  6
CONTINUOUS
 62
     3
100
AcDbTrace
 10
2649.702998147123
 20
2959.156839391354
 30
0.0
 11
1560.139035571026
 21
2994.265319015894
 31
0.0
 12
1464.116416287733
 22
2994.265319015894
 32
0.0
 13
1464.116416287733
 23
2994.265319015894
 33
0.0
210
0.0
220
0.0
230
1.0
  0
SOLID
  5
29C
330
28B
100
AcDbEntity
  8
HATCH
  6
CONTINUOUS
 62
     3
100
AcDbTrace
 10
2567.73246468267
 20
2994.265319015894
 30
0.0
 11
2471.709845399377
 21
2994.265319015894
 31
0.0
 12
2649.702998147123
 22
2959.156839391354
 32
0.0
 13
2649.702998147123
 23
2959.156839391354
 33
0.0
210
0.0
220
0.0
230
1.0
  0
SOLID
  5
29D
330
28B
100
AcDbEntity
  8
HATCH
  6
CONTINUOUS
 62
     3
100
AcDbTrace
 10
2471.70984539961
 20
2594.265319015894
 30
0.0
 11
1382.145882823281
 21
2170.386355485301
 31
0.0
 12
2649.702998147123
 22
2170.386355485301
 32
0.0
 13
2649.702998147123
 23
2170.386355485301
 33
0.0
210
0.0
220
0.0
230
1.0
  0
SOLID
  5
29E
330
28B
100
AcDbEntity
  8
HATCH
  6
CONTINUOUS
 62
     3
100
AcDbTrace
 10
1382.145882823281
 20
2170.386355485301
 30
0.0
 11
2471.70984539961
 21
2594.265319015894
 31
0.0
 12
2438.921628728402
 22
2594.265319015894
 32
0.0
 13
2438.921628728402
 23
2594.265319015894
 33
0.0
210
0.0
220
0.0
230
1.0
  0
SOLID
  5
29F
330
28B
100
AcDbEntity
  8
HATCH
  6
CONTINUOUS
 62
     3
100
AcDbTrace
 10
1592.927252242351
 20
2594.265319015895
 30
0.0
 11
1382.145882823281
 21
2170.386355485301
 31
0.0
 12
2438.921628728402
 22
2594.265319015894
 32
0.0
 13
2438.921628728402
 23
2594.265319015894
 33
0.0
210
0.0
220
0.0
230
1.0
  0
SOLID
  5
2A0
330
28B
100
AcDbEntity
  8
HATCH
  6
CONTINUOUS
 62
     3
100
AcDbTrace
 10
1382.145882823281
 20
2170.386355485301
 30
0.0
 11
1592.927252242351
 21
2594.265319015895
 31
0.0
 12
1560.139035571026
 22
2594.265319015895
 32
0.0
 13
1560.139035571026
 23
2594.265319015895
 33
0.0
210
0.0
220
0.0
230
1.0
  0
SOLID
  5
2A1
330
28B
100
AcDbEntity
  8
HATCH
  6
CONTINUOUS
 62
     3
100
AcDbTrace
 10
2471.70984539961
 20
2594.265319015894
 30
0.0
 11
2649.702998147123
 21
2694.265319015896
 31
0.0
 12
2471.709845399551
 22
2694.265319015896
 32
0.0
 13
2471.709845399551
 23
2694.265319015896
 33
0.0
210
0.0
220
0.0
230
1.0
  0
SOLID
  5
2A2
330
28B
100
AcDbEntity
  8
HATCH
  6
CONTINUOUS
 62
     3
100
AcDbTrace
 10
2649.702998147123
 20
2694.265319015896
 30
0.0
 11
2471.70984539961
 21
2594.265319015894
 31
0.0
 12
2649.702998147123
 22
2170.386355485301
 32
0.0
 13
2649.702998147123
 23
2170.386355485301
 33
0.0
  0
SOLID
  5
2A3
330
28B
100
AcDbEntity
  8
HATCH
  6
CONTINUOUS
 62
     3
100
AcDbTrace
 10
2438.921628728285
 20
2694.265319015896
 30
0.0
 11
1592.927252242351
 21
2594.265319015895
 31
0.0
 12
2438.921628728402
 22
2594.265319015894
 32
0.0
 13
2438.921628728402
 23
2594.265319015894
 33
0.0
210
0.0
220
0.0
230
1.0
  0
SOLID
  5
2A4
330
28B
100
AcDbEntity
  8
HATCH
  6
CONTINUOUS
 62
     3
100
AcDbTrace
 10
1382.145882823281
 20
2694.265319015896
 30
0.0
 11
1382.145882823281
 21
2170.386355485301
 31
0.0
 12
1560.139035571026
 22
2594.265319015895
 32
0.0
 13
1560.139035571026
 23
2594.265319015895
 33
0.0
210
0.0
220
0.0
230
1.0
  0
SOLID
  5
2A5
330
28B
100
AcDbEntity
  8
HATCH
  6
CONTINUOUS
 62
     3
100
AcDbTrace
 10
1560.139035571026
 20
2694.265319015903
 30
0.0
 11
1382.145882823281
 21
2694.265319015896
 31
0.0
 12
1560.139035571026
 22
2594.265319015895
 32
0.0
 13
1560.139035571026
 23
2594.265319015895
 33
0.0
210
0.0
220
0.0
230
1.0
  0
SOLID
  5
2A6
330
28B
100
AcDbEntity
  8
HATCH
  6
CONTINUOUS
 62
     3
100
AcDbTrace
 10
1592.927252242351
 20
2694.265319015903
 30
0.0
 11
1592.927252242351
 21
2594.265319015895
 31
0.0
 12
2438.921628728285
 22
2694.265319015896
 32
0.0
 13
2438.921628728285
 23
2694.265319015896
 33
0.0
210
0.0
220
0.0
230
1.0
  0
SOLID
  5
2A7
330
28B
100
AcDbEntity
  8
HATCH
  6
CONTINUOUS
 62
     3
100
AcDbTrace
 10
2438.92162872811
 20
1646.507391955346
 30
0.0
 11
1592.927252242233
 21
1646.507391955345
 31
0.0
 12
2015.924440485202
 22
1646.507391955346
 32
0.0
 13
2015.924440485202
 23
1646.507391955346
 33
0.0
210
0.0
220
0.0
230
1.0
  0
SOLID
  5
2A8
330
28B
100
AcDbEntity
  8
HATCH
  6
CONTINUOUS
 62
     3
100
AcDbTrace
 10
1592.927252242232
 20
1746.507391955253
 30
0.0
 11
1592.927252242233
 21
1646.507391955345
 31
0.0
 12
2438.92162872811
 22
1646.507391955346
 32
0.0
 13
2438.92162872811
 23
1646.507391955346
 33
0.0
210
0.0
220
0.0
230
1.0
  0
SOLID
  5
2A9
330
28B
100
AcDbEntity
  8
HATCH
  6
CONTINUOUS
 62
     3
100
AcDbTrace
 10
1560.139035571026
 20
1746.507391955345
 30
0.0
 11
1382.145882823281
 21
1646.507391955346
 31
0.0
 12
1560.139035571026
 22
1646.507391955345
 32
0.0
 13
1560.139035571026
 23
1646.507391955345
 33
0.0
  0
SOLID
  5
2AA
330
28B
100
AcDbEntity
  8
HATCH
  6
CONTINUOUS
 62
     3
100
AcDbTrace
 10
2438.921628728053
 20
1746.507391955353
 30
0.0
 11
1560.139035571026
 21
1746.507391955345
 31
0.0
 12
1592.927252242232
 22
1746.507391955253
 32
0.0
 13
1592.927252242232
 23
1746.507391955253
 33
0.0
210
0.0
220
0.0
230
1.0
  0
SOLID
  5
2AB
330
28B
100
AcDbEntity
  8
HATCH
  6
CONTINUOUS
 62
     3
100
AcDbTrace
 10
2438.921628728053
 20
1746.507391955353
 30
0.0
 11
1592.927252242232
 21
1746.507391955253
 31
0.0
 12
2438.92162872811
 22
1646.507391955346
 32
0.0
 13
2438.92162872811
 23
1646.507391955346
 33
0.0
210
0.0
220
0.0
230
1.0
  0
SOLID
  5
2AC
330
28B
100
AcDbEntity
  8
HATCH
  6
CONTINUOUS
 62
     3
100
AcDbTrace
 10
2471.709845399377
 20
1746.507391955353
 30
0.0
 11
2471.709845399377
 21
1646.507391955346
 31
0.0
 12
2649.702998147123
 22
1646.507391955345
 32
0.0
 13
2649.702998147123
 23
1646.507391955345
 33
0.0
210
0.0
220
0.0
230
1.0
  0
SOLID
  5
2AD
330
28B
100
AcDbEntity
  8
HATCH
  6
CONTINUOUS
 62
     3
100
AcDbTrace
 10
2649.702998147123
 20
2170.386355485301
 30
0.0
 11
2471.709845399377
 21
1746.507391955353
 31
0.0
 12
2649.702998147123
 22
1646.507391955345
 32
0.0
 13
2649.702998147123
 23
1646.507391955345
 33
0.0
  0
SOLID
  5
2AE
330
28B
100
AcDbEntity
  8
HATCH
  6
CONTINUOUS
 62
     3
100
AcDbTrace
 10
1382.145882823281
 20
2170.386355485301
 30
0.0
 11
2471.709845399377
 21
1746.507391955353
 31
0.0
 12
2649.702998147123
 22
2170.386355485301
 32
0.0
 13
2649.702998147123
 23
2170.386355485301
 33
0.0
210
0.0
220
0.0
230
1.0
  0
SOLID
  5
2AF
330
28B
100
AcDbEntity
  8
HATCH
  6
CONTINUOUS
 62
     3
100
AcDbTrace
 10
1382.145882823281
 20
2170.386355485301
 30
0.0
 11
2438.921628728053
 21
1746.507391955353
 31
0.0
 12
2471.709845399377
 22
1746.507391955353
 32
0.0
 13
2471.709845399377
 23
1746.507391955353
 33
0.0
210
0.0
220
0.0
230
1.0
  0
SOLID
  5
2B0
330
28B
100
AcDbEntity
  8
HATCH
  6
CONTINUOUS
 62
     3
100
AcDbTrace
 10
1382.145882823281
 20
2170.386355485301
 30
0.0
 11
1560.139035571026
 21
1746.507391955345
 31
0.0
 12
2438.921628728053
 22
1746.507391955353
 32
0.0
 13
2438.921628728053
 23
1746.507391955353
 33
0.0
  0
SOLID
  5
2B1
330
28B
100
AcDbEntity
  8
HATCH
  6
CONTINUOUS
 62
     3
100
AcDbTrace
 10
1382.145882823281
 20
2170.386355485301
 30
0.0
 11
1382.145882823281
 21
1646.507391955346
 31
0.0
 12
1560.139035571026
 22
1746.507391955345
 32
0.0
 13
1560.139035571026
 23
1746.507391955345
 33
0.0
  0
SOLID
  5
2B2
330
28B
100
AcDbEntity
  8
HATCH
  6
CONTINUOUS
 62
     3
100
AcDbTrace
 10
2567.73246468267
 20
1346.507391955346
 30
0.0
 11
2438.921628728053
 21
1346.507391955346
 31
0.0
 12
2471.709845399377
 22
1346.507391955346
 32
0.0
 13
2471.709845399377
 23
1346.507391955346
 33
0.0
210
0.0
220
0.0
230
1.0
  0
SOLID
  5
2B3
330
28B
100
AcDbEntity
  8
HATCH
  6
CONTINUOUS
 62
     3
100
AcDbTrace
 10
2567.73246468267
 20
1346.507391955346
 30
0.0
 11
2015.924440485202
 21
1346.507391955346
 31
0.0
 12
2438.921628728053
 22
1346.507391955346
 32
0.0
 13
2438.921628728053
 23
1346.507391955346
 33
0.0
210
0.0
220
0.0
230
1.0
  0
SOLID
  5
2B4
330
28B
100
AcDbEntity
  8
HATCH
  6
CONTINUOUS
 62
     3
100
AcDbTrace
 10
2567.73246468267
 20
1346.507391955346
 30
0.0
 11
1592.927252242351
 21
1346.507391955346
 31
0.0
 12
2015.924440485202
 22
1346.507391955346
 32
0.0
 13
2015.924440485202
 23
1346.507391955346
 33
0.0
210
0.0
220
0.0
230
1.0
  0
SOLID
  5
2B5
330
28B
100
AcDbEntity
  8
HATCH
  6
CONTINUOUS
 62
     3
100
AcDbTrace
 10
2567.73246468267
 20
1346.507391955346
 30
0.0
 11
1560.139035571026
 21
1346.507391955346
 31
0.0
 12
1592.927252242351
 22
1346.507391955346
 32
0.0
 13
1592.927252242351
 23
1346.507391955346
 33
0.0
210
0.0
220
0.0
230
1.0
  0
SOLID
  5
2B6
330
28B
100
AcDbEntity
  8
HATCH
  6
CONTINUOUS
 62
     3
100
AcDbTrace
 10
2567.73246468267
 20
1346.507391955346
 30
0.0
 11
1464.116416287734
 21
1346.507391955346
 31
0.0
 12
1560.139035571026
 22
1346.507391955346
 32
0.0
 13
1560.139035571026
 23
1346.507391955346
 33
0.0
210
0.0
220
0.0
230
1.0
  0
SOLID
  5
2B7
330
28B
100
AcDbEntity
  8
HATCH
  6
CONTINUOUS
 62
     3
100
AcDbTrace
 10
2649.702998147123
 20
1381.615871579888
 30
0.0
 11
1464.116416287734
 21
1346.507391955346
 31
0.0
 12
2567.73246468267
 22
1346.507391955346
 32
0.0
 13
2567.73246468267
 23
1346.507391955346
 33
0.0
210
0.0
220
0.0
230
1.0
  0
SOLID
  5
2B8
330
28B
100
AcDbEntity
  8
HATCH
  6
CONTINUOUS
 62
     3
100
AcDbTrace
 10
1382.145882823281
 20
1381.615871579888
 30
0.0
 11
1464.116416287734
 21
1346.507391955346
 31
0.0
 12
2649.702998147123
 22
1381.615871579888
 32
0.0
 13
2649.702998147123
 23
1381.615871579888
 33
0.0
210
0.0
220
0.0
230
1.0
  0
SOLID
  5
2B9
330
28B
100
AcDbEntity
  8
HATCH
  6
CONTINUOUS
 62
     3
100
AcDbTrace
 10
2438.921628728168
 20
1546.507391955346
 30
0.0
 11
1382.145882823281
 21
1381.615871579888
 31
0.0
 12
2649.702998147123
 22
1381.615871579888
 32
0.0
 13
2649.702998147123
 23
1381.615871579888
 33
0.0
210
0.0
220
0.0
230
1.0
  0
SOLID
  5
2BA
330
28B
100
AcDbEntity
  8
HATCH
  6
CONTINUOUS
 62
     3
100
AcDbTrace
 10
2649.702998147123
 20
1381.615871579888
 30
0.0
 11
2471.709845399377
 21
1546.507391955346
 31
0.0
 12
2438.921628728168
 22
1546.507391955346
 32
0.0
 13
2438.921628728168
 23
1546.507391955346
 33
0.0
  0
SOLID
  5
2BB
330
28B
100
AcDbEntity
  8
HATCH
  6
CONTINUOUS
 62
     3
100
AcDbTrace
 10
1592.927252242233
 20
1546.507391955346
 30
0.0
 11
1382.145882823281
 21
1381.615871579888
 31
0.0
 12
2438.921628728168
 22
1546.507391955346
 32
0.0
 13
2438.921628728168
 23
1546.507391955346
 33
0.0
210
0.0
220
0.0
230
1.0
  0
SOLID
  5
2BC
330
28B
100
AcDbEntity
  8
HATCH
  6
CONTINUOUS
 62
     3
100
AcDbTrace
 10
1382.145882823281
 20
1381.615871579888
 30
0.0
 11
1592.927252242233
 21
1546.507391955346
 31
0.0
 12
1560.139035571026
 22
1546.507391955346
 32
0.0
 13
1560.139035571026
 23
1546.507391955346
 33
0.0
210
0.0
220
0.0
230
1.0
  0
SOLID
  5
2BD
330
28B
100
AcDbEntity
  8
HATCH
  6
CONTINUOUS
 62
     3
100
AcDbTrace
 10
1382.14588282328
 20
1646.507391955345
 30
0.0
 11
1382.145882823281
 21
1381.615871579888
 31
0.0
 12
1560.139035571026
 22
1546.507391955346
 32
0.0
 13
1560.139035571026
 23
1546.507391955346
 33
0.0
210
0.0
220
0.0
230
1.0
  0
SOLID
  5
2BE
330
28B
100
AcDbEntity
  8
HATCH
  6
CONTINUOUS
 62
     3
100
AcDbTrace
 10
1592.927252242233
 20
1546.507391955346
 30
0.0
 11
2438.92162872811
 21
1646.507391955346
 31
0.0
 12
2015.924440485202
 22
1646.507391955346
 32
0.0
 13
2015.924440485202
 23
1646.507391955346
 33
0.0
210
0.0
220
0.0
230
1.0
  0
SOLID
  5
2BF
330
28B
100
AcDbEntity
  8
HATCH
  6
CONTINUOUS
 62
     3
100
AcDbTrace
 10
1592.927252242233
 20
1546.507391955346
 30
0.0
 11
2015.924440485202
 21
1646.507391955346
 31
0.0
 12
1592.927252242233
 22
1646.507391955346
 32
0.0
 13
1592.927252242233
 23
1646.507391955346
 33
0.0
210
0.0
220
0.0
230
1.0
  0
SOLID
  5
2C0
330
28B
100
AcDbEntity
  8
HATCH
  6
CONTINUOUS
 62
     3
100
AcDbTrace
 10
2438.92162872811
 20
1646.507391955346
 30
0.0
 11
1592.927252242233
 21
1546.507391955346
 31
0.0
 12
2438.921628728168
 22
1546.507391955346
 32
0.0
 13
2438.921628728168
 23
1546.507391955346
 33
0.0
210
0.0
220
0.0
230
1.0
  0
SOLID
  5
2C1
330
28B
100
AcDbEntity
  8
HATCH
  6
CONTINUOUS
 62
     3
100
AcDbTrace
 10
2471.709845399377
 20
1546.507391955346
 30
0.0
 11
2649.702998147123
 21
1646.507391955346
 31
0.0
 12
2471.709845399377
 22
1646.507391955346
 32
0.0
 13
2471.709845399377
 23
1646.507391955346
 33
0.0
210
0.0
220
0.0
230
1.0
  0
SOLID
  5
2C2
330
28B
100
AcDbEntity
  8
HATCH
  6
CONTINUOUS
 62
     3
100
AcDbTrace
 10
2649.702998147123
 20
1646.507391955346
 30
0.0
 11
2471.709845399377
 21
1546.507391955346
 31
0.0
 12
2649.702998147123
 22
1381.615871579888
 32
0.0
 13
2649.702998147123
 23
1381.615871579888
 33
0.0
210
0.0
220
0.0
230
1.0
  0
SOLID
  5
2C3
330
28B
100
AcDbEntity
  8
HATCH
  6
CONTINUOUS
 62
     3
100
AcDbTrace
 10
1560.139035571026
 20
1646.507391955346
 30
0.0
 11
1382.14588282328
 21
1646.507391955345
 31
0.0
 12
1560.139035571026
 22
1546.507391955346
 32
0.0
 13
1560.139035571026
 23
1546.507391955346
 33
0.0
  0
ENDBLK
  5
2C5
330
28B
100
AcDbEntity
  8
0
100
AcDbBlockEnd
  0
BLOCK
  5
2D7
330
2C6
100
AcDbEntity
  8
0
100
AcDbBlockBegin
  2
*U2
 70
     1
 10
0.0
 20
0.0
 30
0.0
  3
*U2
  1

  0
SOLID
  5
2C7
330
2C6
100
AcDbEntity
  8
HATCH
  6
CONTINUOUS
 62
     2
100
AcDbTrace
 10
1592.927252242351
 20
1292.674395268134
 30
0.0
 11
1592.92725224235
 21
1346.507391955346
 31
0.0
 12
1560.139035571025
 22
1346.507391955346
 32
0.0
 13
1560.139035571025
 23
1346.507391955346
 33
0.0
210
0.0
220
0.0
230
1.0
  0
SOLID
  5
2C8
330
2C6
100
AcDbEntity
  8
HATCH
  6
CONTINUOUS
 62
     2
100
AcDbTrace
 10
1560.139035571025
 20
1346.507391955346
 30
0.0
 11
1560.139035571026
 21
1292.674395268134
 31
0.0
 12
1592.927252242351
 22
1292.674395268134
 32
0.0
 13
1592.927252242351
 23
1292.674395268134
 33
0.0
210
0.0
220
0.0
230
1.0
  0
SOLID
  5
2C9
330
2C6
100
AcDbEntity
  8
HATCH
  6
CONTINUOUS
 62
     2
100
AcDbTrace
 10
2471.709845399377
 20
1292.674395268134
 30
0.0
 11
2471.709845399377
 21
1346.507391955346
 31
0.0
 12
2438.921628728053
 22
1346.507391955346
 32
0.0
 13
2438.921628728053
 23
1346.507391955346
 33
0.0
210
0.0
220
0.0
230
1.0
  0
SOLID
  5
2CA
330
2C6
100
AcDbEntity
  8
HATCH
  6
CONTINUOUS
 62
     2
100
AcDbTrace
 10
2438.921628728053
 20
1346.507391955346
 30
0.0
 11
2438.921628728053
 21
1292.674395268134
 31
0.0
 12
2471.709845399377
 22
1292.674395268134
 32
0.0
 13
2471.709845399377
 23
1292.674395268134
 33
0.0
210
0.0
220
0.0
230
1.0
  0
SOLID
  5
2CB
330
2C6
100
AcDbEntity
  8
HATCH
  6
CONTINUOUS
 62
     2
100
AcDbTrace
 10
1592.927252242233
 20
1546.507391955346
 30
0.0
 11
1592.927252242233
 21
1746.507391955346
 31
0.0
 12
1560.139035571026
 22
1746.507391955346
 32
0.0
 13
1560.139035571026
 23
1746.507391955346
 33
0.0
210
0.0
220
0.0
230
1.0
  0
SOLID
  5
2CC
330
2C6
100
AcDbEntity
  8
HATCH
  6
CONTINUOUS
 62
     2
100
AcDbTrace
 10
1560.139035571026
 20
1746.507391955346
 30
0.0
 11
1560.139035571026
 21
1546.507391955346
 31
0.0
 12
1592.927252242233
 22
1546.507391955346
 32
0.0
 13
1592.927252242233
 23
1546.507391955346
 33
0.0
210
0.0
220
0.0
230
1.0
  0
SOLID
  5
2CD
330
2C6
100
AcDbEntity
  8
HATCH
  6
CONTINUOUS
 62
     2
100
AcDbTrace
 10
2471.709845399377
 20
1546.507391955346
 30
0.0
 11
2471.709845399377
 21
1746.507391955353
 31
0.0
 12
2438.921628728053
 22
1746.507391955353
 32
0.0
 13
2438.921628728053
 23
1746.507391955353
 33
0.0
210
0.0
220
0.0
230
1.0
  0
SOLID
  5
2CE
330
2C6
100
AcDbEntity
  8
HATCH
  6
CONTINUOUS
 62
     2
100
AcDbTrace
 10
2438.921628728053
 20
1746.507391955353
 30
0.0
 11
2438.921628728168
 21
1546.507391955346
 31
0.0
 12
2471.709845399377
 22
1546.507391955346
 32
0.0
 13
2471.709845399377
 23
1546.507391955346
 33
0.0
210
0.0
220
0.0
230
1.0
  0
SOLID
  5
2CF
330
2C6
100
AcDbEntity
  8
HATCH
  6
CONTINUOUS
 62
     2
100
AcDbTrace
 10
2471.709845399493
 20
2794.265319015893
 30
0.0
 11
2438.921628728402
 21
2594.265319015895
 31
0.0
 12
2471.70984539961
 22
2594.265319015895
 32
0.0
 13
2471.70984539961
 23
2594.265319015895
 33
0.0
  0
SOLID
  5
2D0
330
2C6
100
AcDbEntity
  8
HATCH
  6
CONTINUOUS
 62
     2
100
AcDbTrace
 10
1560.139035571026
 20
2794.265319015895
 30
0.0
 11
1560.139035571026
 21
2594.265319015895
 31
0.0
 12
1592.927252242351
 22
2594.265319015895
 32
0.0
 13
1592.927252242351
 23
2594.265319015895
 33
0.0
210
0.0
220
0.0
230
1.0
  0
SOLID
  5
2D1
330
2C6
100
AcDbEntity
  8
HATCH
  6
CONTINUOUS
 62
     2
100
AcDbTrace
 10
1592.927252242351
 20
2794.265319015901
 30
0.0
 11
1560.139035571026
 21
2794.265319015895
 31
0.0
 12
1592.927252242351
 22
2594.265319015895
 32
0.0
 13
1592.927252242351
 23
2594.265319015895
 33
0.0
210
0.0
220
0.0
230
1.0
  0
SOLID
  5
2D2
330
2C6
100
AcDbEntity
  8
HATCH
  6
CONTINUOUS
 62
     2
100
AcDbTrace
 10
2438.921628728168
 20
2794.265319015902
 30
0.0
 11
2438.921628728402
 21
2594.265319015895
 31
0.0
 12
2471.709845399493
 22
2794.265319015893
 32
0.0
 13
2471.709845399493
 23
2794.265319015893
 33
0.0
210
0.0
220
0.0
230
1.0
  0
SOLID
  5
2D3
330
2C6
100
AcDbEntity
  8
HATCH
  6
CONTINUOUS
 62
     2
100
AcDbTrace
 10
2471.709845399377
 20
2994.265319015894
 30
0.0
 11
2471.709845399377
 21
3048.098315703107
 31
0.0
 12
2438.921628728053
 22
3048.098315703107
 32
0.0
 13
2438.921628728053
 23
3048.098315703107
 33
0.0
210
0.0
220
0.0
230
1.0
  0
SOLID
  5
2D4
330
2C6
100
AcDbEntity
  8
HATCH
  6
CONTINUOUS
 62
     2
100
AcDbTrace
 10
2438.921628728053
 20
3048.098315703107
 30
0.0
 11
2438.921628728053
 21
2994.265319015893
 31
0.0
 12
2471.709845399377
 22
2994.265319015894
 32
0.0
 13
2471.709845399377
 23
2994.265319015894
 33
0.0
210
0.0
220
0.0
230
1.0
  0
SOLID
  5
2D5
330
2C6
100
AcDbEntity
  8
HATCH
  6
CONTINUOUS
 62
     2
100
AcDbTrace
 10
1592.927252242351
 20
2994.265319015894
 30
0.0
 11
1592.927252242351
 21
3048.098315703107
 31
0.0
 12
1560.139035571026
 22
3048.098315703107
 32
0.0
 13
1560.139035571026
 23
3048.098315703107
 33
0.0
210
0.0
220
0.0
230
1.0
  0
SOLID
  5
2D6
330
2C6
100
AcDbEntity
  8
HATCH
  6
CONTINUOUS
 62
     2
100
AcDbTrace
 10
1560.139035571026
 20
3048.098315703107
 30
0.0
 11
1560.139035571026
 21
2994.265319015894
 31
0.0
 12
1592.927252242351
 22
2994.265319015894
 32
0.0
 13
1592.927252242351
 23
2994.265319015894
 33
0.0
210
0.0
220
0.0
230
1.0
  0
ENDBLK
  5
2D8
330
2C6
100
AcDbEntity
  8
0
100
AcDbBlockEnd
  0
ENDSEC
  0
SECTION
  2
ENTITIES
  0
INSERT
  5
287
330
1F
100
AcDbEntity
  8
HATCH
100
AcDbBlockReference
  2
ACKA
 10
0.0
 20
0.0
 30
0.0
  0
ENDSEC
  0
SECTION
  2
OBJECTS
  0
DICTIONARY
  5
C
330
0
100
AcDbDictionary
  3
ACAD_GROUP
350
D
  3
ACAD_LAYOUT
350
1A
  3
ACAD_MLINESTYLE
350
17
  3
ACAD_PLOTSETTINGS
350
19
1001
ACAD
1000
TREAT_AS_HARD
1070
     0
1000
TREAT_AS_HARD
1070
     0
  0
DICTIONARY
  5
10A
330
1F
100
AcDbDictionary
  3
ACAD_LAYOUTSELFREF
350
289
  3
ACAD_SORTENTS
350
247
1001
ACAD
1000
TREAT_AS_HARD
1070
     1
1000
TREAT_AS_HARD
1070
     0
  0
DICTIONARY
  5
10C
330
50
100
AcDbDictionary
  3
ACAD_LAYOUTSELFREF
350
28A
1001
ACAD
1000
TREAT_AS_HARD
1070
     1
1000
TREAT_AS_HARD
1070
     0
  0
DICTIONARY
  5
D
102
{ACAD_REACTORS
330
C
102
}
330
C
100
AcDbDictionary
1001
ACAD
1000
TREAT_AS_HARD
1070
     0
1000
TREAT_AS_HARD
1070
     0
  0
DICTIONARY
  5
1A
102
{ACAD_REACTORS
330
C
102
}
330
C
100
AcDbDictionary
1001
ACAD
1000
TREAT_AS_HARD
1070
     0
1000
TREAT_AS_HARD
1070
     0
  0
DICTIONARY
  5
17
102
{ACAD_REACTORS
330
C
102
}
330
C
100
AcDbDictionary
  3
STANDARD
350
18
1001
ACAD
1000
TREAT_AS_HARD
1070
     0
1000
TREAT_AS_HARD
1070
     0
  0
DICTIONARY
  5
19
102
{ACAD_REACTORS
330
C
102
}
330
C
100
AcDbDictionary
1001
ACAD
1000
TREAT_AS_HARD
1070
     0
1000
TREAT_AS_HARD
1070
     0
  0
XRECORD
  5
289
102
{ACAD_REACTORS
330
10A
102
}
330
10A
100
AcDbXrecord
340
1F
  0
SORTENTSTABLE
  5
247
102
{ACAD_REACTORS
330
10A
102
}
330
10A
100
AcDbSortentsTable
330
1F
331
1D3
  5
1D5
331
1B1
  5
1B3
331
1C2
  5
1C4
331
1D1
  5
1D3
331
1AF
  5
1B1
331
1C0
  5
1C2
331
1CF
  5
1D1
331
1AD
  5
1AF
331
1BE
  5
1C0
331
1CD
  5
1CF
331
1AB
  5
1AD
331
1DE
  5
224
331
1BC
  5
1BE
331
1CB
  5
1CD
331
1A9
  5
1AB
331
1DC
  5
1DE
331
1BA
  5
1BC
331
246
  5
1A4
331
224
  5
18A
331
1C9
  5
1CB
331
1DA
  5
1DC
331
1B8
  5
1BA
331
1A7
  5
1A9
331
1D8
  5
1DA
331
1B6
  5
1B8
331
1C7
  5
1C9
331
1A5
  5
1A7
331
1D6
  5
1D8
331
1B4
  5
1B6
331
1C5
  5
1C7
331
1D4
  5
1D6
331
1B2
  5
1B4
331
1C3
  5
1C5
331
1D2
  5
1D4
331
1B0
  5
1B2
331
1C1
  5
1C3
331
1D0
  5
1D2
331
1AE
  5
1B0
331
1BF
  5
1C1
331
1CE
  5
1D0
331
1AC
  5
1AE
331
1DF
  5
246
331
1BD
  5
1BF
331
1CC
  5
1CE
331
1AA
  5
1AC
331
1DD
  5
1DF
331
1BB
  5
1BD
331
1CA
  5
1CC
331
1A8
  5
1AA
331
1DB
  5
1DD
331
1B9
  5
1BB
331
1C8
  5
1CA
331
1D9
  5
1DB
331
1B7
  5
1B9
331
1A6
  5
1A8
331
1D7
  5
1D9
331
1B5
  5
1B7
331
18A
  5
1A5
331
1C6
  5
1C8
331
1A4
  5
1A6
331
1D5
  5
1D7
331
1B3
  5
1B5
331
1C4
  5
1C6
  0
XRECORD
  5
28A
102
{ACAD_REACTORS
330
10C
102
}
330
10C
100
AcDbXrecord
340
50
  0
MLINESTYLE
  5
18
102
{ACAD_REACTORS
330
17
102
}
330
17
100
AcDbMlineStyle
  2
STANDARD
 70
     0
  3

 62
   256
 51
90.0
 52
90.0
 71
     2
 49
0.5
 62
   256
  6
BYLAYER
 49
-0.5
 62
   256
  6
BYLAYER
  0
ENDSEC
  0
EOF
