  0
SECTION
  2
HEADER
  9
$ACADVER
  1
AC1012
  9
$DWGCODEPAGE
  3
ANSI_1252
  9
$INSBASE
 10
0.0
 20
0.0
 30
0.0
  9
$EXTMIN
 10
-279.8078565859734
 20
-32.03135184026973
 30
0.0
  9
$EXTMAX
 10
7215.446630863198
 20
3544.969915573557
 30
124.9117150693161
  9
$LIMMIN
 10
0.0
 20
0.0
  9
$LIMMAX
 10
420.0
 20
297.0
  9
$ORTHOMODE
 70
     0
  9
$REGENMODE
 70
     1
  9
$FILLMODE
 70
     1
  9
$QTEXTMODE
 70
     0
  9
$MIRRTEXT
 70
     1
  9
$DRAGMODE
 70
     2
  9
$LTSCALE
 40
1.0
  9
$OSMODE
 70
  3071
  9
$ATTMODE
 70
     1
  9
$TEXTSIZE
 40
2.5
  9
$TRACEWID
 40
1.0
  9
$TEXTSTYLE
  7
STANDARD
  9
$CLAYER
  8
HATCH
  9
$CELTYPE
  6
BYLAYER
  9
$CECOLOR
 62
   256
  9
$CELTSCALE
 40
1.0
  9
$DELOBJ
 70
     1
  9
$DISPSILH
 70
     0
  9
$DIMSCALE
 40
1.0
  9
$DIMASZ
 40
2.5
  9
$DIMEXO
 40
0.625
  9
$DIMDLI
 40
3.75
  9
$DIMRND
 40
0.0
  9
$DIMDLE
 40
0.0
  9
$DIMEXE
 40
1.25
  9
$DIMTP
 40
0.0
  9
$DIMTM
 40
0.0
  9
$DIMTXT
 40
2.5
  9
$DIMCEN
 40
2.5
  9
$DIMTSZ
 40
0.0
  9
$DIMTOL
 70
     0
  9
$DIMLIM
 70
     0
  9
$DIMTIH
 70
     0
  9
$DIMTOH
 70
     0
  9
$DIMSE1
 70
     0
  9
$DIMSE2
 70
     0
  9
$DIMTAD
 70
     1
  9
$DIMZIN
 70
     8
  9
$DIMBLK
  1

  9
$DIMASO
 70
     1
  9
$DIMSHO
 70
     1
  9
$DIMPOST
  1

  9
$DIMAPOST
  1

  9
$DIMALT
 70
     0
  9
$DIMALTD
 70
     3
  9
$DIMALTF
 40
0.03937007874016
  9
$DIMLFAC
 40
1.0
  9
$DIMTOFL
 70
     1
  9
$DIMTVP
 40
0.0
  9
$DIMTIX
 70
     0
  9
$DIMSOXD
 70
     0
  9
$DIMSAH
 70
     0
  9
$DIMBLK1
  1

  9
$DIMBLK2
  1

  9
$DIMSTYLE
  2
ISO-25
  9
$DIMCLRD
 70
     0
  9
$DIMCLRE
 70
     0
  9
$DIMCLRT
 70
     0
  9
$DIMTFAC
 40
1.0
  9
$DIMGAP
 40
0.625
  9
$DIMJUST
 70
     0
  9
$DIMSD1
 70
     0
  9
$DIMSD2
 70
     0
  9
$DIMTOLJ
 70
     0
  9
$DIMTZIN
 70
     8
  9
$DIMALTZ
 70
     0
  9
$DIMALTTZ
 70
     0
  9
$DIMFIT
 70
     3
  9
$DIMUPT
 70
     0
  9
$DIMUNIT
 70
     2
  9
$DIMDEC
 70
     2
  9
$DIMTDEC
 70
     2
  9
$DIMALTU
 70
     2
  9
$DIMALTTD
 70
     3
  9
$DIMTXSTY
  7
STANDARD
  9
$DIMAUNIT
 70
     0
  9
$LUNITS
 70
     2
  9
$LUPREC
 70
     4
  9
$SKETCHINC
 40
1.0
  9
$FILLETRAD
 40
10.0
  9
$AUNITS
 70
     0
  9
$AUPREC
 70
     0
  9
$MENU
  1
.
  9
$ELEVATION
 40
0.0
  9
$PELEVATION
 40
0.0
  9
$THICKNESS
 40
0.0
  9
$LIMCHECK
 70
     0
  9
$BLIPMODE
 70
     0
  9
$CHAMFERA
 40
10.0
  9
$CHAMFERB
 40
10.0
  9
$CHAMFERC
 40
20.0
  9
$CHAMFERD
 40
0.0
  9
$SKPOLY
 70
     0
  9
$TDCREATE
 40
2452626.508801967
  9
$TDUPDATE
 40
2452772.473744444
  9
$TDINDWG
 40
0.0086196759
  9
$TDUSRTIMER
 40
0.0086184028
  9
$USRTIMER
 70
     1
  9
$ANGBASE
 50
0.0
  9
$ANGDIR
 70
     0
  9
$PDMODE
 70
     0
  9
$PDSIZE
 40
0.0
  9
$PLINEWID
 40
0.0
  9
$COORDS
 70
     2
  9
$SPLFRAME
 70
     0
  9
$SPLINETYPE
 70
     6
  9
$SPLINESEGS
 70
     8
  9
$ATTDIA
 70
     0
  9
$ATTREQ
 70
     1
  9
$HANDLING
 70
-16383
  9
$HANDSEED
  5
3EE
  9
$SURFTAB1
 70
     6
  9
$SURFTAB2
 70
     6
  9
$SURFTYPE
 70
     6
  9
$SURFU
 70
     6
  9
$SURFV
 70
     6
  9
$UCSNAME
  2

  9
$UCSORG
 10
0.0
 20
0.0
 30
0.0
  9
$UCSXDIR
 10
1.0
 20
0.0
 30
0.0
  9
$UCSYDIR
 10
0.0
 20
1.0
 30
0.0
  9
$PUCSNAME
  2

  9
$PUCSORG
 10
0.0
 20
0.0
 30
0.0
  9
$PUCSXDIR
 10
1.0
 20
0.0
 30
0.0
  9
$PUCSYDIR
 10
0.0
 20
1.0
 30
0.0
  9
$USERI1
 70
     0
  9
$USERI2
 70
     0
  9
$USERI3
 70
     0
  9
$USERI4
 70
     0
  9
$USERI5
 70
     0
  9
$USERR1
 40
0.0
  9
$USERR2
 40
0.0
  9
$USERR3
 40
0.0
  9
$USERR4
 40
0.0
  9
$USERR5
 40
0.0
  9
$WORLDVIEW
 70
     1
  9
$SHADEDGE
 70
     3
  9
$SHADEDIF
 70
    70
  9
$TILEMODE
 70
     1
  9
$MAXACTVP
 70
    64
  9
$PINSBASE
 10
0.0
 20
0.0
 30
0.0
  9
$PLIMCHECK
 70
     0
  9
$PEXTMIN
 10
0.0
 20
0.0
 30
0.0
  9
$PEXTMAX
 10
0.0
 20
0.0
 30
0.0
  9
$PLIMMIN
 10
0.0
 20
0.0
  9
$PLIMMAX
 10
12.0
 20
9.0
  9
$UNITMODE
 70
     0
  9
$VISRETAIN
 70
     1
  9
$PLINEGEN
 70
     0
  9
$PSLTSCALE
 70
     1
  9
$TREEDEPTH
 70
  3020
  9
$PICKSTYLE
 70
     1
  9
$CMLSTYLE
  2
STANDARD
  9
$CMLJUST
 70
     0
  9
$CMLSCALE
 40
20.0
  9
$SAVEIMAGES
 70
     1
  0
ENDSEC
  0
SECTION
  2
CLASSES
  0
CLASS
  1
ACDBDICTIONARYWDFLT
  2
AcDbDictionaryWithDefault
  3
AutoCAD 2000
 90
    32768
280
     0
281
     0
  0
CLASS
  1
ACDBPLACEHOLDER
  2
AcDbPlaceHolder
  3
AutoCAD 2000
 90
    32768
280
     0
281
     0
  0
CLASS
  1
LAYOUT
  2
AcDbLayout
  3
AutoCAD 2000
 90
    32768
280
     0
281
     0
  0
CLASS
  1
LONG_TRANSACTION
  2
AcDbLongTransaction
  3
AutoCAD 2000
 90
    32768
280
     0
281
     0
  0
CLASS
  1
LWPOLYLINE
  2
AcDbPolyline
  3
AutoCAD 2000
 90
    32768
280
     0
281
     1
  0
CLASS
  1
HATCH
  2
AcDbHatch
  3
AutoCAD 2000
 90
    32768
280
     0
281
     1
  0
CLASS
  1
XRECORD
  2
AcDbXrecord
  3
AutoCAD 2000
 90
    32768
280
     0
281
     0
  0
CLASS
  1
LONG_TRANSACTION
  2
AcDbLongTransaction
  3
AutoCAD 2000
 90
    32768
280
     0
281
     0
  0
CLASS
  1
LWPOLYLINE
  2
AcDbPolyline
  3
AutoCAD 2000
 90
    32768
280
     0
281
     1
  0
CLASS
  1
HATCH
  2
AcDbHatch
  3
AutoCAD 2000
 90
    32768
280
     0
281
     1
  0
CLASS
  1
XRECORD
  2
AcDbXrecord
  3
AutoCAD 2000
 90
    32768
280
     0
281
     0
  0
CLASS
  1
LONG_TRANSACTION
  2
AcDbLongTransaction
  3
AutoCAD 2000
 90
    32768
280
     0
281
     0
  0
CLASS
  1
LWPOLYLINE
  2
AcDbPolyline
  3
AutoCAD 2000
 90
    32768
280
     0
281
     1
  0
CLASS
  1
HATCH
  2
AcDbHatch
  3
AutoCAD 2000
 90
    32768
280
     0
281
     1
  0
CLASS
  1
XRECORD
  2
AcDbXrecord
  3
AutoCAD 2000
 90
    32768
280
     0
281
     0
  0
CLASS
  1
LONG_TRANSACTION
  2
AcDbLongTransaction
  3
AutoCAD 2000
 90
    32768
280
     0
281
     0
  0
CLASS
  1
LWPOLYLINE
  2
AcDbPolyline
  3
AutoCAD 2000
 90
    32768
280
     0
281
     1
  0
CLASS
  1
HATCH
  2
AcDbHatch
  3
AutoCAD 2000
 90
    32768
280
     0
281
     1
  0
CLASS
  1
XRECORD
  2
AcDbXrecord
  3
AutoCAD 2000
 90
    32768
280
     0
281
     0
  0
CLASS
  1
DICTIONARYVAR
  2
AcDbDictionaryVar
  3
AutoCAD 2000
 90
    32768
280
     0
281
     0
  0
CLASS
  1
SORTENTSTABLE
  2
AcDbSortentsTable
  3
AutoCAD 2000
 90
    32768
280
     0
281
     0
  0
CLASS
  1
LONG_TRANSACTION
  2
AcDbLongTransaction
  3
AutoCAD 2000
 90
    32768
280
     0
281
     0
  0
CLASS
  1
LWPOLYLINE
  2
AcDbPolyline
  3
AutoCAD 2000
 90
    32768
280
     0
281
     1
  0
CLASS
  1
HATCH
  2
AcDbHatch
  3
AutoCAD 2000
 90
    32768
280
     0
281
     1
  0
CLASS
  1
XRECORD
  2
AcDbXrecord
  3
AutoCAD 2000
 90
    32768
280
     0
281
     0
  0
ENDSEC
  0
SECTION
  2
TABLES
  0
TABLE
  2
VPORT
  5
8
330
0
100
AcDbSymbolTable
 70
     2
  0
VPORT
  5
381
330
8
100
AcDbSymbolTableRecord
100
AcDbViewportTableRecord
  2
*ACTIVE
 70
     0
 10
0.0
 20
0.0
 11
1.0
 21
1.0
 12
2847.943988483013
 22
2078.61964138248
 13
0.0
 23
0.0
 14
10.0
 24
10.0
 15
10.0
 25
10.0
 16
0.0
 26
0.0
 36
1.0
 17
0.0
 27
0.0
 37
0.0
 40
5840.886296977817
 41
1.52092050209205
 42
50.0
 43
0.0
 44
0.0
 50
0.0
 51
0.0
 71
     0
 72
   100
 73
     1
 74
     3
 75
     0
 76
     0
 77
     0
 78
     0
  0
ENDTAB
  0
TABLE
  2
LTYPE
  5
5
330
0
100
AcDbSymbolTable
 70
     2
  0
LTYPE
  5
14
330
5
100
AcDbSymbolTableRecord
100
AcDbLinetypeTableRecord
  2
BYBLOCK
 70
     0
  3

 72
    65
 73
     0
 40
0.0
  0
LTYPE
  5
15
330
5
100
AcDbSymbolTableRecord
100
AcDbLinetypeTableRecord
  2
BYLAYER
 70
     0
  3

 72
    65
 73
     0
 40
0.0
  0
LTYPE
  5
16
330
5
100
AcDbSymbolTableRecord
100
AcDbLinetypeTableRecord
  2
CONTINUOUS
 70
     0
  3
Solid line
 72
    65
 73
     0
 40
0.0
  0
LTYPE
  5
5D
330
5
100
AcDbSymbolTableRecord
100
AcDbLinetypeTableRecord
  2
DASHED
 70
     0
  3
Dashed __ __ __ __ __ __ __ __ __ __ __ __ __ _
 72
    65
 73
     2
 40
0.75
 49
0.5
 74
     0
 49
-0.25
 74
     0
  0
ENDTAB
  0
TABLE
  2
LAYER
  5
2
330
0
100
AcDbSymbolTable
 70
     5
  0
LAYER
  5
10
330
2
100
AcDbSymbolTableRecord
100
AcDbLayerTableRecord
  2
0
 70
     0
 62
     7
  6
CONTINUOUS
  0
LAYER
  5
5E
330
2
100
AcDbSymbolTableRecord
100
AcDbLayerTableRecord
  2
SAFETY
 70
     0
 62
     7
  6
CONTINUOUS
  0
LAYER
  5
5F
330
2
100
AcDbSymbolTableRecord
100
AcDbLayerTableRecord
  2
OBJECT
 70
     0
 62
     7
  6
CONTINUOUS
  0
LAYER
  5
20B
330
2
100
AcDbSymbolTableRecord
100
AcDbLayerTableRecord
  2
TEKST
 70
     0
 62
     7
  6
CONTINUOUS
  0
LAYER
  5
27F
330
2
100
AcDbSymbolTableRecord
100
AcDbLayerTableRecord
  2
HATCH
 70
     0
 62
     7
  6
CONTINUOUS
  0
ENDTAB
  0
TABLE
  2
STYLE
  5
3
330
0
100
AcDbSymbolTable
 70
     1
  0
STYLE
  5
11
330
3
100
AcDbSymbolTableRecord
100
AcDbTextStyleTableRecord
  2
STANDARD
 70
     0
 40
0.0
 41
1.0
 50
0.0
 71
     0
 42
2.5
  3
txt
  4

  0
ENDTAB
  0
TABLE
  2
VIEW
  5
6
330
0
100
AcDbSymbolTable
 70
     0
  0
ENDTAB
  0
TABLE
  2
UCS
  5
7
330
0
100
AcDbSymbolTable
 70
     0
  0
ENDTAB
  0
TABLE
  2
APPID
  5
9
330
0
100
AcDbSymbolTable
 70
     3
  0
APPID
  5
12
330
9
100
AcDbSymbolTableRecord
100
AcDbRegAppTableRecord
  2
ACAD
 70
     0
  0
APPID
  5
61
330
9
100
AcDbSymbolTableRecord
100
AcDbRegAppTableRecord
  2
AVE_FINISH
 70
     0
  0
APPID
  5
1D9
330
9
100
AcDbSymbolTableRecord
100
AcDbRegAppTableRecord
  2
CONTENTBLOCKICON
 70
     0
  0
ENDTAB
  0
TABLE
  2
DIMSTYLE
  5
A
330
0
100
AcDbSymbolTable
 70
     2
  0
DIMSTYLE
105
27
330
A
100
AcDbSymbolTableRecord
100
AcDbDimStyleTableRecord
  2
ISO-25
 70
     0
  3

  4

  5

  6

  7

 40
1.0
 41
2.5
 42
0.625
 43
3.75
 44
1.25
 45
0.0
 46
0.0
 47
0.0
 48
0.0
140
2.5
141
2.5
142
0.0
143
0.03937007874016
144
1.0
145
0.0
146
1.0
147
0.625
 71
     0
 72
     0
 73
     0
 74
     0
 75
     0
 76
     0
 77
     1
 78
     8
170
     0
171
     3
172
     1
173
     0
174
     0
175
     0
176
     0
177
     0
178
     0
270
     2
271
     2
272
     2
273
     2
274
     3
340
11
275
     0
280
     0
281
     0
282
     0
283
     0
284
     8
285
     0
286
     0
287
     3
288
     0
  0
DIMSTYLE
105
60
330
A
100
AcDbSymbolTableRecord
100
AcDbDimStyleTableRecord
  2
STANDARD
 70
     0
  3

  4

  5

  6

  7

 40
1.0
 41
0.18
 42
0.0625
 43
0.38
 44
0.18
 45
0.0
 46
0.0
 47
0.0
 48
0.0
140
0.18
141
0.09
142
0.0
143
25.4
144
1.0
145
0.0
146
1.0
147
0.09
 71
     0
 72
     0
 73
     1
 74
     1
 75
     0
 76
     0
 77
     0
 78
     0
170
     0
171
     2
172
     0
173
     0
174
     0
175
     0
176
     0
177
     0
178
     0
270
     2
271
     4
272
     4
273
     2
274
     2
340
11
275
     0
280
     0
281
     0
282
     0
283
     1
284
     0
285
     0
286
     0
287
     3
288
     0
  0
ENDTAB
  0
TABLE
  2
BLOCK_RECORD
  5
1
330
0
100
AcDbSymbolTable
 70
     5
  0
BLOCK_RECORD
  5
1F
102
{ACAD_XDICTIONARY
360
146
102
}
330
1
100
AcDbSymbolTableRecord
100
AcDbBlockTableRecord
  2
*MODEL_SPACE
  0
BLOCK_RECORD
  5
50
102
{ACAD_XDICTIONARY
360
148
102
}
330
1
100
AcDbSymbolTableRecord
100
AcDbBlockTableRecord
  2
*PAPER_SPACE
  0
BLOCK_RECORD
  5
152
330
1
100
AcDbSymbolTableRecord
100
AcDbBlockTableRecord
  2
ABKB
1001
ACAD
1000
DesignCenter Data
1002
{
1070
     1
1070
     4
1002
}
  0
BLOCK_RECORD
  5
384
330
1
100
AcDbSymbolTableRecord
100
AcDbBlockTableRecord
  2
*U1
  0
BLOCK_RECORD
  5
397
330
1
100
AcDbSymbolTableRecord
100
AcDbBlockTableRecord
  2
*U2
  0
BLOCK_RECORD
  5
3B4
330
1
100
AcDbSymbolTableRecord
100
AcDbBlockTableRecord
  2
*U3
  0
BLOCK_RECORD
  5
3D3
330
1
100
AcDbSymbolTableRecord
100
AcDbBlockTableRecord
  2
*U4
  0
ENDTAB
  0
ENDSEC
  0
SECTION
  2
BLOCKS
  0
BLOCK
  5
20
330
1F
100
AcDbEntity
  8
0
100
AcDbBlockBegin
  2
*MODEL_SPACE
 70
     0
 10
0.0
 20
0.0
 30
0.0
  3
*MODEL_SPACE
  1

  0
ENDBLK
  5
21
330
1F
100
AcDbEntity
  8
0
100
AcDbBlockEnd
  0
BLOCK
  5
52
330
50
100
AcDbEntity
 67
     1
  8
0
100
AcDbBlockBegin
  2
*PAPER_SPACE
 70
     0
 10
0.0
 20
0.0
 30
0.0
  3
*PAPER_SPACE
  1

  0
ENDBLK
  5
53
330
50
100
AcDbEntity
 67
     1
  8
0
100
AcDbBlockEnd
  0
BLOCK
  5
153
330
152
100
AcDbEntity
  8
0
100
AcDbBlockBegin
  2
ABKB
 70
     0
 10
0.0
 20
0.0
 30
0.0
  3
ABKB
  1

  0
INSERT
  5
31C
330
152
100
AcDbEntity
  8
HATCH
  6
CONTINUOUS
 62
     2
100
AcDbBlockReference
  2
*U1
 10
0.0
 20
0.0
 30
0.0
1001
ACAD
1002
{
1000
R14_HATCH_DATA
1000
31C
1011
1.0
1021
0.0
1031
0.0
1011
0.0
1021
1.0
1031
0.0
1011
0.0
1021
0.0
1031
1.0
1040
0.0
1010
0.0
1020
0.0
1030
1.0
1000
SOLID
1070
     1
1070
     1
1071
        4
1071
        7
1070
     0
1070
     1
1071
        4
1040
2037.419648803937
1040
1744.798009692146
1040
2037.419648803936
1040
1779.687810783995
1040
1592.299009005722
1040
1779.687810783994
1040
1592.299009005722
1040
1744.798009692146
1071
        4
1005
33F
1005
342
1005
340
1005
345
1071
        7
1070
     0
1070
     1
1071
        8
1040
3019.303424424246
1040
1793.938849193521
1040
3979.367553954196
1040
1793.938849193521
1040
4367.757131473116
1040
1793.938849193521
1040
4367.757131473116
1040
1818.938849193521
1040
3979.367553954196
1040
1818.938849193521
1040
3019.303424424246
1040
1818.938849193521
1040
2630.913846905327
1040
1818.938849193521
1040
2630.913846905327
1040
1793.938849193521
1071
        8
1005
36B
1005
326
1005
348
1005
32C
1005
349
1005
328
1005
36C
1005
357
1071
        7
1070
     0
1070
     1
1071
        8
1040
2630.913846905327
1040
1730.54697128262
1040
2630.913846905327
1040
1705.546971282622
1040
3019.303424424246
1040
1705.546971282622
1040
3979.367553954196
1040
1705.546971282622
1040
4367.757131473116
1040
1705.546971282622
1040
4367.757131473116
1040
1730.54697128262
1040
3979.367553954196
1040
1730.54697128262
1040
3019.303424424246
1040
1730.54697128262
1071
        8
1005
35B
1005
329
1005
332
1005
32C
1005
331
1005
327
1005
35A
1005
357
1071
        7
1070
     0
1070
     1
1071
        4
1040
5406.37196937272
1040
1744.798009692146
1040
5406.37196937272
1040
1779.687810783994
1040
4961.251329574502
1040
1779.687810783994
1040
4961.251329574504
1040
1744.798009692146
1071
        4
1005
376
1005
37D
1005
377
1005
37F
1070
     0
1070
     1
1040
7.911536432679601
1071
        4
1040
1839.52973274338
1040
1761.330230819079
1040
0.0
1040
2829.179429608804
1040
1800.887917598904
1040
0.0
1040
2829.179429608804
1040
1721.772544039253
1040
0.0
1040
5061.829132105675
1040
1761.330230819079
1040
0.0
1002
}
  0
INSERT
  5
31D
330
152
100
AcDbEntity
  8
HATCH
  6
CONTINUOUS
 62
     1
100
AcDbBlockReference
  2
*U2
 10
0.0
 20
0.0
 30
0.0
1001
ACAD
1002
{
1000
R14_HATCH_DATA
1000
31D
1011
1.0
1021
0.0
1031
0.0
1011
0.0
1021
1.0
1031
0.0
1011
0.0
1021
0.0
1031
1.0
1040
0.0
1010
0.0
1020
0.0
1030
1.0
1000
SOLID
1070
     1
1070
     1
1071
        7
1071
        7
1070
     0
1070
     1
1071
        4
1040
2491.268147038301
1040
1862.551114092996
1040
2456.356730849367
1040
1862.551114092996
1040
2456.356730849367
1040
1827.661302173416
1040
2491.268147038301
1040
1818.938850655585
1071
        4
1005
34B
1005
34C
1005
33E
1005
34D
1071
        7
1070
     0
1070
     1
1071
        4
1040
2491.268147038301
1040
1661.934706383147
1040
2491.268147038301
1040
1705.546969820557
1040
2456.356730849367
1040
1696.824518302727
1040
2456.356730849367
1040
1661.934706383147
1071
        4
1005
32D
1005
335
1005
336
1005
334
1071
        7
1070
     0
1070
     1
1071
        8
1040
2630.913846905327
1040
1818.93884919352
1040
2613.458130033037
1040
1858.189887603049
1040
2561.090996971814
1040
1858.189887603049
1040
2543.635280099524
1040
1818.938849193522
1040
2543.635280099524
1040
1705.546971282621
1040
2561.090996971814
1040
1666.295932873094
1040
2613.458130033036
1040
1666.295932873093
1040
2630.913846905327
1040
1705.546971282621
1071
        8
1005
350
1005
34E
1005
34F
1005
32B
1005
338
1005
339
1005
337
1005
32C
1071
        7
1070
     0
1070
     1
1071
        8
1040
4455.035698278918
1040
1818.938849193519
1040
4437.579981406627
1040
1858.189887603049
1040
4385.212848345404
1040
1858.189887603049
1040
4367.757131473116
1040
1818.938849193521
1040
4367.757131473116
1040
1705.546971282622
1040
4385.212848345404
1040
1666.295932873094
1040
4437.579981406627
1040
1666.295932873094
1040
4455.035698278917
1040
1705.546971282622
1071
        8
1005
374
1005
371
1005
372
1005
357
1005
361
1005
360
1005
363
1005
356
1071
        7
1070
     0
1070
     1
1071
        4
1040
4542.314247529075
1040
1862.551114092996
1040
4507.402831340141
1040
1862.551114092996
1040
4507.402831340141
1040
1818.938850655585
1040
4542.314247529076
1040
1827.661302173416
1071
        4
1005
369
1005
375
1005
36A
1005
37A
1071
        7
1070
     0
1070
     1
1071
        4
1040
4507.402831340142
1040
1705.546969820557
1040
4507.402831340141
1040
1661.934706383147
1040
4542.314247529075
1040
1661.934706383147
1040
4542.314247529075
1040
1696.824518302727
1071
        4
1005
359
1005
362
1005
358
1005
367
1071
        7
1070
     0
1070
     1
1071
        8
1040
3019.303424424246
1040
1793.938849193521
1040
2630.913846905327
1040
1793.938849193521
1040
2630.913846905327
1040
1730.54697128262
1040
3019.303424424246
1040
1730.54697128262
1040
3979.367553954196
1040
1730.54697128262
1040
4367.757131473116
1040
1730.54697128262
1040
4367.757131473116
1040
1793.938849193521
1040
3979.367553954196
1040
1793.938849193521
1071
        8
1005
36C
1005
328
1005
349
1005
32C
1005
332
1005
329
1005
35B
1005
357
1070
     0
1070
     1
1040
3.184176072032318
1071
        7
1040
2480.208286266174
1040
1844.021003557594
1040
0.0
1040
2473.835365461338
1040
1675.259670346715
1040
0.0
1040
2598.107090622415
1040
1745.311548700978
1040
0.0
1040
4420.759093062188
1040
1758.048253856299
1040
0.0
1040
4525.912095901494
1040
1840.836827268764
1040
0.0
1040
4529.098546280729
1040
1687.996375502036
1040
0.0
1040
3773.908824130183
1040
1764.416606433958
1040
0.0
1002
}
  0
INSERT
  5
31E
330
152
100
AcDbEntity
  8
HATCH
  6
CONTINUOUS
 62
   251
100
AcDbBlockReference
  2
*U3
 10
0.0
 20
0.0
 30
0.0
1001
ACAD
1002
{
1000
R14_HATCH_DATA
1000
31E
1011
1.0
1021
0.0
1031
0.0
1011
0.0
1021
1.0
1031
0.0
1011
0.0
1021
0.0
1031
1.0
1040
0.0
1010
0.0
1020
0.0
1030
1.0
1000
SOLID
1070
     1
1070
     1
1071
        2
1071
        7
1070
     0
1070
     1
1071
       16
1040
2299.255331665696
1040
1893.079688694894
1040
2124.698215609742
1040
1914.885821144631
1040
2037.419648803937
1040
1866.912340582942
1040
2037.419648803937
1040
1779.687810783995
1040
2037.419648803937
1040
1744.798009692146
1040
2037.419648803936
1040
1657.573479893201
1040
2124.698215609742
1040
1609.59999933151
1040
2299.255331665696
1040
1631.406131781249
1040
2351.62246472692
1040
1670.657159363042
1040
2491.268147038301
1040
1705.546969820557
1040
2491.268147038301
1040
1705.546971282622
1040
2543.635280099524
1040
1705.546971282622
1040
2543.635280099524
1040
1818.938849193521
1040
2491.268147038301
1040
1818.938849193521
1040
2491.268147038301
1040
1818.938850655585
1040
2351.622464726919
1040
1853.828661113101
1071
       16
1005
34A
1005
34D
1005
33E
1005
346
1005
347
1005
343
1005
344
1005
345
1005
32A
1005
32E
1005
32F
1005
330
1005
32D
1005
334
1005
333
1005
32B
1071
        7
1070
     0
1070
     1
1071
       16
1040
4647.048513651522
1040
1670.657159363041
1040
4699.415646712743
1040
1631.406131781249
1040
4873.972762768702
1040
1609.59999933151
1040
4961.251329574503
1040
1657.5734798932
1040
4961.251329574503
1040
1744.798009692146
1040
4961.251329574503
1040
1779.687810783995
1040
4961.251329574504
1040
1866.912340582942
1040
4873.972762768701
1040
1914.885821144632
1040
4699.415646712745
1040
1893.079688694894
1040
4647.048513651522
1040
1853.828661113101
1040
4507.402831340141
1040
1818.938850655585
1040
4507.402831340141
1040
1818.938849193521
1040
4455.035698278917
1040
1818.938849193521
1040
4455.035698278917
1040
1705.546971282622
1040
4507.402831340141
1040
1705.546971282622
1040
4507.402831340141
1040
1705.546969820557
1071
       16
1005
37C
1005
37B
1005
378
1005
379
1005
36A
1005
375
1005
373
1005
356
1005
364
1005
362
1005
359
1005
366
1005
365
1005
368
1005
355
1005
37D
1070
     0
1070
     1
1040
6.231177975334854
1071
        2
1040
2273.998401930644
1040
1784.664716449291
1040
0.0
1040
4680.954176014167
1040
1753.508821791185
1040
0.0
1002
}
  0
INSERT
  5
31F
330
152
100
AcDbEntity
  8
HATCH
  6
CONTINUOUS
 62
   251
100
AcDbBlockReference
  2
*U4
 10
0.0
 20
0.0
 30
0.0
1001
ACAD
1002
{
1000
R14_HATCH_DATA
1000
31F
1011
1.0
1021
0.0
1031
0.0
1011
0.0
1021
1.0
1031
0.0
1011
0.0
1021
0.0
1031
1.0
1040
0.0
1010
0.0
1020
0.0
1030
1.0
1000
SOLID
1070
     1
1070
     1
1071
        2
1071
        7
1070
     1
1070
     1
1071
       10
1040
3979.367553954196
1040
1818.938849193521
1040
0.0
1040
3979.367553954197
1040
1886.997995800363
1040
0.3369503011196028
1040
3973.50747411204
1040
1894.706480847247
1040
0.0
1040
3625.992946158685
1040
1991.178529374039
1040
0.0678004010108324
1040
3545.745940239525
1040
2002.110340115847
1040
0.0
1040
3452.925038138917
1040
2002.110340115847
1040
0.067800401010836
1040
3372.678032219753
1040
1991.178529374039
1040
0.0
1040
3025.163504266402
1040
1894.706480847247
1040
0.3369503011196033
1040
3019.303424424247
1040
1886.997995800362
1040
0.0
1040
3019.303424424247
1040
1818.938849193521
1040
0.0
1071
       10
1005
36E
1005
325
1005
354
1005
351
1005
353
1005
352
1005
326
1005
36F
1005
370
1005
36D
1071
        7
1070
     1
1070
     1
1071
       10
1040
3019.303424424247
1040
1705.546971282622
1040
0.0
1040
3019.303424424247
1040
1637.487824675781
1040
0.3369503011196174
1040
3025.163504266402
1040
1629.779339628895
1040
0.0
1040
3372.678032219754
1040
1533.307291102103
1040
0.0678004010108342
1040
3452.925038138916
1040
1522.375480360295
1040
0.0
1040
3545.745940239525
1040
1522.375480360295
1040
0.0678004010108362
1040
3625.992946158691
1040
1533.307291102103
1040
0.0
1040
3973.507474112041
1040
1629.779339628895
1040
0.3369503011195905
1040
3979.367553954196
1040
1637.487824675781
1040
0.0
1040
3979.367553954196
1040
1705.546971282622
1040
0.0
1071
       10
1005
35F
1005
35E
1005
327
1005
33B
1005
33C
1005
33A
1005
33D
1005
323
1005
35D
1005
35C
1070
     0
1070
     1
1040
6.231177975334854
1071
        2
1040
3508.654481526201
1040
1903.05709320182
1040
0.0
1040
3502.418836034942
1040
1628.885266107035
1040
0.0
1002
}
  0
MTEXT
  5
320
330
152
100
AcDbEntity
  8
TEKST
100
AcDbMText
 10
3052.136244685945
 20
2636.473506837393
 30
0.0
 40
75.18097186823435
 41
868.6785999999997
 71
     1
 72
     1
  1
{\FIMPACT.TTF;Hoogte: 86 cm\PMax. valhoogte: 80 cm}
1001
ACAD
1000
MTEXTBEGIN
1070
    73
1070
     1
1070
    44
1040
1.0
1070
    74
1070
     0
1000
MTEXTEND
1000
MTEXTBEGIN
1070
    73
1070
     1
1070
    44
1040
1.0
1070
    74
1070
     0
1000
MTEXTEND
  0
REGION
  5
321
330
152
100
AcDbEntity
  8
SAFETY
  6
DASHED
 48
5.0
100
AcDbModelerGeometry
 70
     1
  1
noi gk n o          
  1
=0;& {n {m {rn {rn |
  1
-:9@)+r3(;r>++-6= {rn {rn {rn {o {l {k |
  1
3*2/ {j {rn {i {o |
  1
-:961:2:1+ {rn o o o o mqmnlkfofimfgmnhhh lo o k o o o o o o o o |
  1
):-+:'@+:2/3>+: {rn l o n g |
  1
-:9@)+r3(;r>++-6= {rn {rn {rn {m {l {k |
  1
,7:33 {h {rn {rn {g {m |
  1
-:9@)+r3(;r>++-6= {rn {rn {rn {i {l {k |
  1
9><: {f {rn {no {i {rn {nn 90-(>-; ;0*=3: 0*+ |
  1
92:,7r3(;r>++-6= {rn {nm {rn {g |
  1
300/ {rn {rn {nl {g |
  1
/3>1:r,*-9><: {rn lkihqgnflghnlgiohj nhjiqkifmgngiiiim nniqjflhknoifhmh o o n n rmqhhjjjhjinjimgfnk:roni o o V V V V |
  1
-:9@)+r3(;r>++-6= {rn {nk {f {g {l {k |
  1
<0:;8: {rn {nj {ni {rn {nh o {no {rn |
  1
<030-r>;:,4r>++-6= {rn {rn {nm {g mji |
  1
<0:;8: {rn {ng {nl {rn {nf o {no {rn |
  1
<0:;8: {rn {nl {mo {rn {mn o {no {rn |
  1
:;8: {mm {ml {mk {nl {mj o |
  1
<0:;8: {rn {mi {nj {rn {mh o {no {rn |
  1
:;8: {mg {mk {mf {nj {lo o |
  1
<0:;8: {rn {ni {ln {rn {lm o {no {rn |
  1
:;8: {ll {lk {ml {ni {lj o |
  1
/+36,+r3(;r>++-6= {rn {li {rn {nh |
  1
):-+:' {rn {nh {lh |
  1
):-+:' {rn {nh {lg |
  1
:336/,:r<*-): {rn lkihqgnflghnlgjgoi nfgiqkifmgngiihkgk nniqjflhknoifhmh o o n nqkmnogjkhnjmomook:ronn njooqoooooooooooof o n Y roqjjokkinfkgnfgnhgm Y oqjjokkinfkgnfgnigl |
  1
<0:;8: {rn {lf {ng {rn {ko o {no {rn |
  1
:;8: {kn {mf {km {ng {kl o |
  1
/+36,+r3(;r>++-6= {rn {kk {rn {nf |
  1
):-+:' {rn {nf {kj |
  1
:336/,:r<*-): {rn mojgqljoonmnfhoiij nfonqmjiiogljjgiok nniqjflhknoifhmh o o n rnqllhinmnlkinmhjkh nkffqfffkoljfhgogm o n Y roqklojholghkjnkfiih Y oqklojholghkjnkfhon |
  1
<0:;8: {rn {mo {ki {rn {kh o {no {rn |
  1
:;8: {kg {kf {lk {mo {jo o |
  1
/+36,+r3(;r>++-6= {rn {jn {rn {mn |
  1
):-+:' {rn {lm {jm |
  1
:336/,:r<*-): {rn kghhqmgghimogonjjh nfonqmjiiogljjgjln nniqjflhknoifhmh o o n nqllhinmnlkjfikfhj nkffqfffkoljfhgogk o n Y roqklojholghkjnjohii Y oqklojholghkjnjog |
  1
<030-r>;:,4r>++-6= {rn {rn {mm {nh mji |
  1
/061+ {rn kmjmqkmohkojohilhh lmikqfoinohnifffjh nniqjflhknoifhmh |
  1
/061+ {rn miglqmngollhifjkff lmikqfoinohnhoonmn nniqjflhknoifhmh |
  1
<0:;8: {rn {jl {mi {rn {jk o {no {rn |
  1
:;8: {jj {km {ji {mi {jh o |
  1
/+36,+r3(;r>++-6= {rn {jg {rn {mh |
  1
):-+:' {rn {mh {jf |
  1
:336/,:r<*-): {rn njmoqihllmjljglgmj nhiiqkifmgngiiikgj nniqjflhknoifhmh o o n rnofjqlofoknjmhkghi nomkqgkojmjfnolngj o n Y roqhjgglfjgffkoljnmg Y oqhjgglfjgffkoljomg |
  1
<030-r>;:,4r>++-6= {rn {rn {mg {nf mji |
  1
/061+ {rn nklnqojoflfgfjgmlg lmilqhgfkfhkjfgmhn nniqjflhknoifhmh |
  1
<0:;8: {rn {ln {jl {rn {io o {no {rn |
  1
:;8: {in {im {kf {ln {il o |
  1
/+36,+r3(;r>++-6= {rn {ik {rn {lm |
  1
):-+:' {rn {kh {ij |
  1
:336/,:r<*-): {rn jknkqfijkkgfnggkmk nhiiqkifmgngiiikhi nniqjflhknoifhmh o o n nofjqlofoknjmhkggl nomkqgkojmjfnolnhf o n Y roqhjgglfjgffkoljomg Y oqhjgglfjgffkoljmin |
  1
<030-r>;:,4r>++-6= {rn {rn {ll {mn mji |
  1
/061+ {rn jjokqjghglklgnlfgk lmilqhgfkfhkjfgmhj nniqjflhknoifhmh |
  1
<0:;8: {rn {ki {lf {rn {ii o {no {rn |
  1
:;8: {ih {ji {ig {lf {if o |
  1
/+36,+r3(;r>++-6= {rn {ho {rn {ko |
  1
):-+:' {rn {ko {hn |
  1
:336/,:r<*-): {rn njmoqihllmjljglgmj nhkiqkifmgngiiikih nniqjflhknoifhmh o o n rnofjqlofoknjmhkgnm rnomkqgkojmjfnolmkf o n Y roqhjgglfjgffkoljihm Y oqhjgglfjgffkoljigl |
  1
<030-r>;:,4r>++-6= {rn {rn {kn {mh mji |
  1
/061+ {rn moqhoiijfoimofjmkn nhjiqkifmgngiiikgn nniqjflhknoifhmh |
  1
:;8: {hm {hl {im {ki {hk o |
  1
/+36,+r3(;r>++-6= {rn {hj {rn {kh |
  1
):-+:' {rn {io {hi |
  1
:336/,:r<*-): {rn jknkqfijkkgfnggknj nhkiqkifmgngiiikji nniqjflhknoifhmh o o n nofjqlofoknjmhkgn rnomkqgkojmjfnolmji o n Y roqhjgglfjgffkoljigl Y oqhjgglfjgffkoljigl |
  1
<030-r>;:,4r>++-6= {rn {rn {kg {lm mji |
  1
/061+ {rn ifnkqflmnnjmnjnmfh nhjiqkifmgngiiikji nniqjflhknoifhmh |
  1
:;8: {hh {ig {hl {jl {hg o |
  1
/+36,+r3(;r>++-6= {rn {hf {rn {jk |
  1
):-+:' {rn {jk {go |
  1
:336/,:r<*-): {rn mojgqljoonmnfhoimg ninnqignfjjlhhkkmn nniqjflhknoifhmh o o n rnqllhinmnlkjjmhmgn rnkffqfffkoljfhgohf o n Y roqklojholghkjnjmlij Y oqklojholghkjnjmklm |
  1
<030-r>;:,4r>++-6= {rn {rn {jj {ko mji |
  1
/061+ {rn nklnqojoflfgfjgklg mkfqnkfoiimhlkigil nniqjflhknoifhmh |
  1
/+36,+r3(;r>++-6= {rn {gn {rn {io |
  1
):-+:' {rn {ii {gm |
  1
:336/,:r<*-): {rn kghhqmgghimogonjfk ninnqignfjjlhhkkmg nniqjflhknoifhmh o o n nqllhinmnlkjjnhokf rnkffqfffkoljfhgohf o n Y roqklojholghkjnjmklm Y oqklojholghkjnjmlij |
  1
<030-r>;:,4r>++-6= {rn {rn {in {kh mji |
  1
/061+ {rn jjokqjghglklgnlhfl mkfqnkfoiimhlkiign nniqjflhknoifhmh |
  1
/+36,+r3(;r>++-6= {rn {gl {rn {ii |
  1
:336/,:r<*-): {rn lkihqgnflghnlginmf njmiqkifmgngiiilll nniqjflhknoifhmh o o n rjqigklknggiogogonj:ronl rnkffqffffffffffffj o n Y roqjjokkinfkgnfhjfij Y oqjjokkinfkgnfhjfij |
  1
<030-r>;:,4r>++-6= {rn {rn {ih {jk mji |
  1
/061+ {rn miglqmngollhifikof mkgqolmkjijilllnlg nniqjflhknoifhmh |
  1
<030-r>;:,4r>++-6= {rn {rn {hm {io mji |
  1
/061+ {rn kmjmqkmohkojohjgnl mkgqolmkjijillllij nniqjflhknoifhmh |
  1
<030-r>;:,4r>++-6= {rn {rn {hh {ii mji |
1001
AVE_FINISH
1002
{
1070
     0
1005
0
1002
}
  0
LINE
  5
322
330
152
100
AcDbEntity
  8
OBJECT
  6
CONTINUOUS
100
AcDbLine
 10
3452.925038138918
 20
1522.375480360295
 30
124.9117150693161
 11
3545.745940239525
 21
1522.375480360295
 31
124.9117150693161
  0
LINE
  5
323
330
152
100
AcDbEntity
  8
OBJECT
  6
CONTINUOUS
100
AcDbLine
 10
3545.745940239525
 20
1522.375480360295
 30
124.9117150693161
 11
3452.925038138918
 21
1522.375480360295
 31
124.9117150693161
  0
LINE
  5
324
330
152
100
AcDbEntity
  8
OBJECT
  6
CONTINUOUS
100
AcDbLine
 10
3452.925038138918
 20
2002.110340115847
 30
124.9117150693161
 11
3545.745940239522
 21
2002.110340115847
 31
124.9117150693161
  0
LINE
  5
325
330
152
100
AcDbEntity
  8
OBJECT
  6
CONTINUOUS
100
AcDbLine
 10
3545.745940239525
 20
2002.110340115847
 30
124.9117150693161
 11
3452.92503813892
 21
2002.110340115847
 31
124.9117150693161
  0
LINE
  5
326
330
152
100
AcDbEntity
  8
OBJECT
  6
CONTINUOUS
100
AcDbLine
 10
3019.303424424246
 20
1818.938849193521
 30
124.9117150693161
 11
3979.367553954196
 21
1818.938849193521
 31
124.9117150693161
  0
LINE
  5
327
330
152
100
AcDbEntity
  8
OBJECT
  6
CONTINUOUS
100
AcDbLine
 10
3019.303424424246
 20
1705.546971282622
 30
124.9117150693161
 11
3979.367553954196
 21
1705.546971282622
 31
124.9117150693161
  0
LINE
  5
328
330
152
100
AcDbEntity
  8
OBJECT
  6
CONTINUOUS
100
AcDbLine
 10
3019.303424424246
 20
1793.938849193521
 30
124.9117150693161
 11
3979.367553954196
 21
1793.938849193521
 31
124.9117150693161
  0
LINE
  5
329
330
152
100
AcDbEntity
  8
OBJECT
  6
CONTINUOUS
100
AcDbLine
 10
3019.303424424246
 20
1730.54697128262
 30
124.9117150693161
 11
3979.367553954196
 21
1730.54697128262
 31
124.9117150693161
  0
LINE
  5
32A
330
152
100
AcDbEntity
  8
OBJECT
  6
CONTINUOUS
100
AcDbLine
 10
2037.419648803937
 20
1744.798009692146
 30
124.9117150693161
 11
2037.419648803937
 21
1657.573479893201
 31
124.9117150693161
  0
LINE
  5
32B
330
152
100
AcDbEntity
  8
OBJECT
  6
CONTINUOUS
100
AcDbLine
 10
2543.635280099524
 20
1818.938849193521
 30
124.9117150693161
 11
2543.635280099524
 21
1705.546971282622
 31
124.9117150693161
  0
LINE
  5
32C
330
152
100
AcDbEntity
  8
OBJECT
  6
CONTINUOUS
100
AcDbLine
 10
2630.913846905327
 20
1818.938849193521
 30
124.9117150693161
 11
2630.913846905327
 21
1705.546971282622
 31
124.9117150693161
  0
LINE
  5
32D
330
152
100
AcDbEntity
  8
OBJECT
  6
CONTINUOUS
100
AcDbLine
 10
2351.62246472692
 20
1670.657159363042
 30
124.9117150693161
 11
2491.268152890183
 21
1705.546971282622
 31
124.9117150693161
  0
LINE
  5
32E
330
152
100
AcDbEntity
  8
OBJECT
  6
CONTINUOUS
100
AcDbLine
 10
2037.419648803937
 20
1657.573479893201
 30
124.9117150693161
 11
2124.698215609742
 21
1609.59999933151
 31
124.9117150693161
  0
LINE
  5
32F
330
152
100
AcDbEntity
  8
OBJECT
  6
CONTINUOUS
100
AcDbLine
 10
2124.698215609742
 20
1609.59999933151
 30
124.9117150693161
 11
2299.255331665697
 21
1631.406131781249
 31
124.9117150693161
  0
LINE
  5
330
330
152
100
AcDbEntity
  8
OBJECT
  6
CONTINUOUS
100
AcDbLine
 10
2299.255331665697
 20
1631.406131781249
 30
124.9117150693161
 11
2351.62246472692
 21
1670.657159363042
 31
124.9117150693161
  0
LINE
  5
331
330
152
100
AcDbEntity
  8
OBJECT
  6
CONTINUOUS
100
AcDbLine
 10
2630.913846905327
 20
1705.546971282622
 30
124.9117150693161
 11
3019.303424424246
 21
1705.546971282622
 31
124.9117150693161
  0
LINE
  5
332
330
152
100
AcDbEntity
  8
OBJECT
  6
CONTINUOUS
100
AcDbLine
 10
2630.913846905327
 20
1730.54697128262
 30
124.9117150693161
 11
3019.303424424246
 21
1730.54697128262
 31
124.9117150693161
  0
LINE
  5
333
330
152
100
AcDbEntity
  8
OBJECT
  6
CONTINUOUS
100
AcDbLine
 10
2491.268152890183
 20
1705.546971282622
 30
124.9117150693161
 11
2543.635280099524
 21
1705.546971282622
 31
124.9117150693161
  0
LINE
  5
334
330
152
100
AcDbEntity
  8
OBJECT
  6
CONTINUOUS
100
AcDbLine
 10
2491.268147038301
 20
1661.934706383147
 30
124.9117150693161
 11
2491.268147038301
 21
1705.546971282622
 31
124.9117150693161
  0
LINE
  5
335
330
152
100
AcDbEntity
  8
OBJECT
  6
CONTINUOUS
100
AcDbLine
 10
2456.356730849367
 20
1696.824518302727
 30
124.9117150693161
 11
2456.356730849367
 21
1661.934706383147
 31
124.9117150693161
  0
LINE
  5
336
330
152
100
AcDbEntity
  8
OBJECT
  6
CONTINUOUS
100
AcDbLine
 10
2456.356730849367
 20
1661.934706383147
 30
124.9117150693161
 11
2491.268147038301
 21
1661.934706383147
 31
124.9117150693161
  0
LINE
  5
337
330
152
100
AcDbEntity
  8
OBJECT
  6
CONTINUOUS
100
AcDbLine
 10
2613.458130033037
 20
1666.295932873094
 30
124.9117150693161
 11
2630.913846905327
 21
1705.546971282622
 31
124.9117150693161
  0
LINE
  5
338
330
152
100
AcDbEntity
  8
OBJECT
  6
CONTINUOUS
100
AcDbLine
 10
2543.635280099524
 20
1705.546971282622
 30
124.9117150693161
 11
2561.090996971814
 21
1666.295932873094
 31
124.9117150693161
  0
LINE
  5
339
330
152
100
AcDbEntity
  8
OBJECT
  6
CONTINUOUS
100
AcDbLine
 10
2561.090996971814
 20
1666.295932873094
 30
124.9117150693161
 11
2613.458130033037
 21
1666.295932873094
 31
124.9117150693161
  0
LINE
  5
33A
330
152
100
AcDbEntity
  8
OBJECT
  6
CONTINUOUS
100
AcDbLine
 10
3025.163504266402
 20
1629.779339628895
 30
124.9117150693161
 11
3372.678032219754
 21
1533.307291102103
 31
124.9117150693161
  0
LINE
  5
33B
330
152
100
AcDbEntity
  8
OBJECT
  6
CONTINUOUS
100
AcDbLine
 10
3019.303424424246
 20
1705.546971282622
 30
124.9117150693161
 11
3019.303424424247
 21
1637.487824675781
 31
124.9117150693161
  0
ARC
  5
33C
330
152
100
AcDbEntity
  8
OBJECT
  6
CONTINUOUS
100
AcDbCircle
 10
3027.303424424246
 20
1637.487824675781
 30
124.9117150693161
 40
8.0
100
AcDbArc
 50
180.0
 51
254.4850371670299
  0
ARC
  5
33D
330
152
100
AcDbEntity
  8
OBJECT
  6
CONTINUOUS
100
AcDbCircle
 10
3452.925038138918
 20
1822.375480360295
 30
124.9117150693161
 40
300.0
100
AcDbArc
 50
254.4850371670299
 51
270.0
  0
LINE
  5
33E
330
152
100
AcDbEntity
  8
OBJECT
  6
CONTINUOUS
100
AcDbLine
 10
2351.62246472692
 20
1853.828661113101
 30
124.9117150693161
 11
2491.268152890183
 21
1818.938849193521
 31
124.9117150693161
  0
LINE
  5
33F
330
152
100
AcDbEntity
  8
OBJECT
  6
CONTINUOUS
100
AcDbLine
 10
1592.299009005722
 20
1779.687810783995
 30
124.9117150693161
 11
2037.419648803937
 21
1779.687810783995
 31
124.9117150693161
  0
LINE
  5
340
330
152
100
AcDbEntity
  8
OBJECT
  6
CONTINUOUS
100
AcDbLine
 10
1592.299009005722
 20
1744.798009692146
 30
124.9117150693161
 11
2037.419648803937
 21
1744.798009692146
 31
124.9117150693161
  0
LINE
  5
341
330
152
100
AcDbEntity
  8
OBJECT
  6
CONTINUOUS
100
AcDbLine
 10
1592.299009005722
 20
1779.687810783995
 30
124.9117150693161
 11
1592.299009005722
 21
1744.798009692146
 31
124.9117150693161
  0
LINE
  5
342
330
152
100
AcDbEntity
  8
OBJECT
  6
CONTINUOUS
100
AcDbLine
 10
1592.299009005722
 20
1744.798009692146
 30
124.9117150693161
 11
1592.299009005722
 21
1779.687810783995
 31
124.9117150693161
  0
LINE
  5
343
330
152
100
AcDbEntity
  8
OBJECT
  6
CONTINUOUS
100
AcDbLine
 10
2037.419648803937
 20
1866.912340582942
 30
124.9117150693161
 11
2124.698215609742
 21
1914.885821144632
 31
124.9117150693161
  0
LINE
  5
344
330
152
100
AcDbEntity
  8
OBJECT
  6
CONTINUOUS
100
AcDbLine
 10
2037.419648803937
 20
1779.687810783995
 30
124.9117150693161
 11
2037.419648803937
 21
1866.912340582942
 31
124.9117150693161
  0
LINE
  5
345
330
152
100
AcDbEntity
  8
OBJECT
  6
CONTINUOUS
100
AcDbLine
 10
2037.419648803937
 20
1779.687810783995
 30
124.9117150693161
 11
2037.419648803937
 21
1744.798009692146
 31
124.9117150693161
  0
LINE
  5
346
330
152
100
AcDbEntity
  8
OBJECT
  6
CONTINUOUS
100
AcDbLine
 10
2299.255331665697
 20
1893.079688694894
 30
124.9117150693161
 11
2351.62246472692
 21
1853.828661113101
 31
124.9117150693161
  0
LINE
  5
347
330
152
100
AcDbEntity
  8
OBJECT
  6
CONTINUOUS
100
AcDbLine
 10
2124.698215609742
 20
1914.885821144632
 30
124.9117150693161
 11
2299.255331665697
 21
1893.079688694894
 31
124.9117150693161
  0
LINE
  5
348
330
152
100
AcDbEntity
  8
OBJECT
  6
CONTINUOUS
100
AcDbLine
 10
2630.913846905327
 20
1818.938849193521
 30
124.9117150693161
 11
3019.303424424246
 21
1818.938849193521
 31
124.9117150693161
  0
LINE
  5
349
330
152
100
AcDbEntity
  8
OBJECT
  6
CONTINUOUS
100
AcDbLine
 10
2630.913846905327
 20
1793.938849193521
 30
124.9117150693161
 11
3019.303424424246
 21
1793.938849193521
 31
124.9117150693161
  0
LINE
  5
34A
330
152
100
AcDbEntity
  8
OBJECT
  6
CONTINUOUS
100
AcDbLine
 10
2491.268152890183
 20
1818.938849193521
 30
124.9117150693161
 11
2543.635280099524
 21
1818.938849193521
 31
124.9117150693161
  0
LINE
  5
34B
330
152
100
AcDbEntity
  8
OBJECT
  6
CONTINUOUS
100
AcDbLine
 10
2456.356730849367
 20
1862.551114092996
 30
124.9117150693161
 11
2491.268147038301
 21
1862.551114092996
 31
124.9117150693161
  0
LINE
  5
34C
330
152
100
AcDbEntity
  8
OBJECT
  6
CONTINUOUS
100
AcDbLine
 10
2456.356730849367
 20
1827.661302173416
 30
124.9117150693161
 11
2456.356730849367
 21
1862.551114092996
 31
124.9117150693161
  0
LINE
  5
34D
330
152
100
AcDbEntity
  8
OBJECT
  6
CONTINUOUS
100
AcDbLine
 10
2491.268147038301
 20
1862.551114092996
 30
124.9117150693161
 11
2491.268147038301
 21
1818.938849193521
 31
124.9117150693161
  0
LINE
  5
34E
330
152
100
AcDbEntity
  8
OBJECT
  6
CONTINUOUS
100
AcDbLine
 10
2561.090996971814
 20
1858.189887603049
 30
124.9117150693161
 11
2613.458130033037
 21
1858.189887603049
 31
124.9117150693161
  0
LINE
  5
34F
330
152
100
AcDbEntity
  8
OBJECT
  6
CONTINUOUS
100
AcDbLine
 10
2543.635280099524
 20
1818.938849193521
 30
124.9117150693161
 11
2561.090996971814
 21
1858.189887603049
 31
124.9117150693161
  0
LINE
  5
350
330
152
100
AcDbEntity
  8
OBJECT
  6
CONTINUOUS
100
AcDbLine
 10
2613.458130033037
 20
1858.189887603049
 30
124.9117150693161
 11
2630.913846905327
 21
1818.938849193521
 31
124.9117150693161
  0
LINE
  5
351
330
152
100
AcDbEntity
  8
OBJECT
  6
CONTINUOUS
100
AcDbLine
 10
3025.163504266402
 20
1894.706480847247
 30
124.9117150693161
 11
3372.678032219754
 21
1991.178529374039
 31
124.9117150693161
  0
LINE
  5
352
330
152
100
AcDbEntity
  8
OBJECT
  6
CONTINUOUS
100
AcDbLine
 10
3019.303424424246
 20
1818.938849193521
 30
124.9117150693161
 11
3019.303424424247
 21
1886.997995800363
 31
124.9117150693161
  0
ARC
  5
353
330
152
100
AcDbEntity
  8
OBJECT
  6
CONTINUOUS
100
AcDbCircle
 10
3027.303424424246
 20
1886.997995800363
 30
124.9117150693161
 40
8.0
100
AcDbArc
 50
105.5149628329697
 51
180.0
  0
ARC
  5
354
330
152
100
AcDbEntity
  8
OBJECT
  6
CONTINUOUS
100
AcDbCircle
 10
3452.925038138918
 20
1702.110340115847
 30
124.9117150693161
 40
300.0
100
AcDbArc
 50
90.0
 51
105.5149628329697
  0
LINE
  5
355
330
152
100
AcDbEntity
  8
OBJECT
  6
CONTINUOUS
100
AcDbLine
 10
4961.251329574503
 20
1744.798009692146
 30
124.9117150693161
 11
4961.251329574503
 21
1657.573479893201
 31
124.9117150693161
  0
LINE
  5
356
330
152
100
AcDbEntity
  8
OBJECT
  6
CONTINUOUS
100
AcDbLine
 10
4455.035698278918
 20
1818.938849193521
 30
124.9117150693161
 11
4455.035698278918
 21
1705.546971282622
 31
124.9117150693161
  0
LINE
  5
357
330
152
100
AcDbEntity
  8
OBJECT
  6
CONTINUOUS
100
AcDbLine
 10
4367.757131473116
 20
1818.938849193521
 30
124.9117150693161
 11
4367.757131473116
 21
1705.546971282622
 31
124.9117150693161
  0
LINE
  5
358
330
152
100
AcDbEntity
  8
OBJECT
  6
CONTINUOUS
100
AcDbLine
 10
4542.314247529075
 20
1661.934706383147
 30
124.9117150693161
 11
4507.402831340141
 21
1661.934706383147
 31
124.9117150693161
  0
LINE
  5
359
330
152
100
AcDbEntity
  8
OBJECT
  6
CONTINUOUS
100
AcDbLine
 10
4647.048513651522
 20
1670.657159363042
 30
124.9117150693161
 11
4507.402825488261
 21
1705.546971282622
 31
124.9117150693161
  0
LINE
  5
35A
330
152
100
AcDbEntity
  8
OBJECT
  6
CONTINUOUS
100
AcDbLine
 10
4367.757131473116
 20
1705.546971282622
 30
124.9117150693161
 11
3979.367553954196
 21
1705.546971282622
 31
124.9117150693161
  0
LINE
  5
35B
330
152
100
AcDbEntity
  8
OBJECT
  6
CONTINUOUS
100
AcDbLine
 10
4367.757131473116
 20
1730.54697128262
 30
124.9117150693161
 11
3979.367553954196
 21
1730.54697128262
 31
124.9117150693161
  0
LINE
  5
35C
330
152
100
AcDbEntity
  8
OBJECT
  6
CONTINUOUS
100
AcDbLine
 10
3973.507474112039
 20
1629.779339628895
 30
124.9117150693161
 11
3625.992946158689
 21
1533.307291102103
 31
124.9117150693161
  0
ARC
  5
35D
330
152
100
AcDbEntity
  8
OBJECT
  6
CONTINUOUS
100
AcDbCircle
 10
3545.745940239525
 20
1822.375480360295
 30
124.9117150693161
 40
300.0
100
AcDbArc
 50
270.0
 51
285.5149628329698
  0
LINE
  5
35E
330
152
100
AcDbEntity
  8
OBJECT
  6
CONTINUOUS
100
AcDbLine
 10
3979.367553954196
 20
1705.546971282622
 30
124.9117150693161
 11
3979.367553954196
 21
1637.487824675781
 31
124.9117150693161
  0
ARC
  5
35F
330
152
100
AcDbEntity
  8
OBJECT
  6
CONTINUOUS
100
AcDbCircle
 10
3971.367553954197
 20
1637.487824675781
 30
124.9117150693161
 40
8.0
100
AcDbArc
 50
285.5149628329698
 51
0.0
  0
LINE
  5
360
330
152
100
AcDbEntity
  8
OBJECT
  6
CONTINUOUS
100
AcDbLine
 10
4437.579981406627
 20
1666.295932873094
 30
124.9117150693161
 11
4385.212848345405
 21
1666.295932873094
 31
124.9117150693161
  0
LINE
  5
361
330
152
100
AcDbEntity
  8
OBJECT
  6
CONTINUOUS
100
AcDbLine
 10
4385.212848345405
 20
1666.295932873094
 30
124.9117150693161
 11
4367.757131473116
 21
1705.546971282622
 31
124.9117150693161
  0
LINE
  5
362
330
152
100
AcDbEntity
  8
OBJECT
  6
CONTINUOUS
100
AcDbLine
 10
4507.402831340141
 20
1661.934706383147
 30
124.9117150693161
 11
4507.402831340141
 21
1705.546971282622
 31
124.9117150693161
  0
LINE
  5
363
330
152
100
AcDbEntity
  8
OBJECT
  6
CONTINUOUS
100
AcDbLine
 10
4455.035698278918
 20
1705.546971282622
 30
124.9117150693161
 11
4437.579981406627
 21
1666.295932873094
 31
124.9117150693161
  0
LINE
  5
364
330
152
100
AcDbEntity
  8
OBJECT
  6
CONTINUOUS
100
AcDbLine
 10
4507.402825488261
 20
1705.546971282622
 30
124.9117150693161
 11
4455.035698278918
 21
1705.546971282622
 31
124.9117150693161
  0
LINE
  5
365
330
152
100
AcDbEntity
  8
OBJECT
  6
CONTINUOUS
100
AcDbLine
 10
4873.972762768701
 20
1609.59999933151
 30
124.9117150693161
 11
4699.415646712745
 21
1631.406131781249
 31
124.9117150693161
  0
LINE
  5
366
330
152
100
AcDbEntity
  8
OBJECT
  6
CONTINUOUS
100
AcDbLine
 10
4699.415646712745
 20
1631.406131781249
 30
124.9117150693161
 11
4647.048513651522
 21
1670.657159363042
 31
124.9117150693161
  0
LINE
  5
367
330
152
100
AcDbEntity
  8
OBJECT
  6
CONTINUOUS
100
AcDbLine
 10
4542.314247529075
 20
1696.824518302727
 30
124.9117150693161
 11
4542.314247529075
 21
1661.934706383147
 31
124.9117150693161
  0
LINE
  5
368
330
152
100
AcDbEntity
  8
OBJECT
  6
CONTINUOUS
100
AcDbLine
 10
4961.251329574503
 20
1657.573479893201
 30
124.9117150693161
 11
4873.972762768701
 21
1609.59999933151
 31
124.9117150693161
  0
LINE
  5
369
330
152
100
AcDbEntity
  8
OBJECT
  6
CONTINUOUS
100
AcDbLine
 10
4542.314247529075
 20
1862.551114092996
 30
124.9117150693161
 11
4507.402831340141
 21
1862.551114092996
 31
124.9117150693161
  0
LINE
  5
36A
330
152
100
AcDbEntity
  8
OBJECT
  6
CONTINUOUS
100
AcDbLine
 10
4647.048513651522
 20
1853.828661113101
 30
124.9117150693161
 11
4507.402825488259
 21
1818.938849193521
 31
124.9117150693161
  0
LINE
  5
36B
330
152
100
AcDbEntity
  8
OBJECT
  6
CONTINUOUS
100
AcDbLine
 10
4367.757131473116
 20
1818.938849193521
 30
124.9117150693161
 11
3979.367553954196
 21
1818.938849193521
 31
124.9117150693161
  0
LINE
  5
36C
330
152
100
AcDbEntity
  8
OBJECT
  6
CONTINUOUS
100
AcDbLine
 10
4367.757131473116
 20
1793.938849193521
 30
124.9117150693161
 11
3979.367553954196
 21
1793.938849193521
 31
124.9117150693161
  0
LINE
  5
36D
330
152
100
AcDbEntity
  8
OBJECT
  6
CONTINUOUS
100
AcDbLine
 10
3973.507474112041
 20
1894.706480847247
 30
124.9117150693161
 11
3625.992946158687
 21
1991.178529374039
 31
124.9117150693161
  0
ARC
  5
36E
330
152
100
AcDbEntity
  8
OBJECT
  6
CONTINUOUS
100
AcDbCircle
 10
3545.745940239522
 20
1702.110340115847
 30
124.9117150693161
 40
300.0
100
AcDbArc
 50
74.48503716703013
 51
90.0
  0
LINE
  5
36F
330
152
100
AcDbEntity
  8
OBJECT
  6
CONTINUOUS
100
AcDbLine
 10
3979.367553954196
 20
1818.938849193521
 30
124.9117150693161
 11
3979.367553954197
 21
1886.997995800363
 31
124.9117150693161
  0
ARC
  5
370
330
152
100
AcDbEntity
  8
OBJECT
  6
CONTINUOUS
100
AcDbCircle
 10
3971.367553954197
 20
1886.997995800363
 30
124.9117150693161
 40
8.0
100
AcDbArc
 50
0.0
 51
74.48503716703013
  0
LINE
  5
371
330
152
100
AcDbEntity
  8
OBJECT
  6
CONTINUOUS
100
AcDbLine
 10
4437.579981406627
 20
1858.189887603049
 30
124.9117150693161
 11
4385.212848345405
 21
1858.189887603049
 31
124.9117150693161
  0
LINE
  5
372
330
152
100
AcDbEntity
  8
OBJECT
  6
CONTINUOUS
100
AcDbLine
 10
4385.212848345405
 20
1858.189887603049
 30
124.9117150693161
 11
4367.757131473116
 21
1818.938849193521
 31
124.9117150693161
  0
LINE
  5
373
330
152
100
AcDbEntity
  8
OBJECT
  6
CONTINUOUS
100
AcDbLine
 10
4507.402825488259
 20
1818.938849193521
 30
124.9117150693161
 11
4455.035698278918
 21
1818.938849193521
 31
124.9117150693161
  0
LINE
  5
374
330
152
100
AcDbEntity
  8
OBJECT
  6
CONTINUOUS
100
AcDbLine
 10
4455.035698278918
 20
1818.938849193521
 30
124.9117150693161
 11
4437.579981406627
 21
1858.189887603049
 31
124.9117150693161
  0
LINE
  5
375
330
152
100
AcDbEntity
  8
OBJECT
  6
CONTINUOUS
100
AcDbLine
 10
4507.402831340141
 20
1862.551114092996
 30
124.9117150693161
 11
4507.402831340141
 21
1818.938849193521
 31
124.9117150693161
  0
LINE
  5
376
330
152
100
AcDbEntity
  8
OBJECT
  6
CONTINUOUS
100
AcDbLine
 10
5406.37196937272
 20
1779.687810783995
 30
124.9117150693161
 11
4961.251329574503
 21
1779.687810783995
 31
124.9117150693161
  0
LINE
  5
377
330
152
100
AcDbEntity
  8
OBJECT
  6
CONTINUOUS
100
AcDbLine
 10
5406.37196937272
 20
1744.798009692146
 30
124.9117150693161
 11
4961.251329574503
 21
1744.798009692146
 31
124.9117150693161
  0
LINE
  5
378
330
152
100
AcDbEntity
  8
OBJECT
  6
CONTINUOUS
100
AcDbLine
 10
4873.972762768701
 20
1914.885821144632
 30
124.9117150693161
 11
4699.415646712745
 21
1893.079688694894
 31
124.9117150693161
  0
LINE
  5
379
330
152
100
AcDbEntity
  8
OBJECT
  6
CONTINUOUS
100
AcDbLine
 10
4699.415646712745
 20
1893.079688694894
 30
124.9117150693161
 11
4647.048513651522
 21
1853.828661113101
 31
124.9117150693161
  0
LINE
  5
37A
330
152
100
AcDbEntity
  8
OBJECT
  6
CONTINUOUS
100
AcDbLine
 10
4542.314247529075
 20
1827.661302173416
 30
124.9117150693161
 11
4542.314247529075
 21
1862.551114092996
 31
124.9117150693161
  0
LINE
  5
37B
330
152
100
AcDbEntity
  8
OBJECT
  6
CONTINUOUS
100
AcDbLine
 10
4961.251329574503
 20
1866.912340582942
 30
124.9117150693161
 11
4873.972762768701
 21
1914.885821144632
 31
124.9117150693161
  0
LINE
  5
37C
330
152
100
AcDbEntity
  8
OBJECT
  6
CONTINUOUS
100
AcDbLine
 10
4961.251329574503
 20
1779.687810783995
 30
124.9117150693161
 11
4961.251329574503
 21
1866.912340582942
 31
124.9117150693161
  0
LINE
  5
37D
330
152
100
AcDbEntity
  8
OBJECT
  6
CONTINUOUS
100
AcDbLine
 10
4961.251329574503
 20
1779.687810783995
 30
124.9117150693161
 11
4961.251329574503
 21
1744.798009692146
 31
124.9117150693161
  0
LINE
  5
37E
330
152
100
AcDbEntity
  8
OBJECT
  6
CONTINUOUS
100
AcDbLine
 10
5406.37196937272
 20
1779.687810783995
 30
124.9117150693161
 11
5406.37196937272
 21
1744.798009692146
 31
124.9117150693161
  0
LINE
  5
37F
330
152
100
AcDbEntity
  8
OBJECT
  6
CONTINUOUS
100
AcDbLine
 10
5406.37196937272
 20
1744.798009692146
 30
124.9117150693161
 11
5406.37196937272
 21
1779.687810783995
 31
124.9117150693161
  0
ENDBLK
  5
154
330
152
100
AcDbEntity
  8
0
100
AcDbBlockEnd
  0
BLOCK
  5
395
330
384
100
AcDbEntity
  8
0
100
AcDbBlockBegin
  2
*U1
 70
     1
 10
0.0
 20
0.0
 30
0.0
  3
*U1
  1

  0
SOLID
  5
385
330
384
100
AcDbEntity
  8
HATCH
  6
CONTINUOUS
 62
     2
100
AcDbTrace
 10
4367.757131473116
 20
1705.546971282622
 30
0.0
 11
3019.303424424246
 21
1705.546971282622
 31
0.0
 12
3979.367553954196
 22
1705.546971282622
 32
0.0
 13
3979.367553954196
 23
1705.546971282622
 33
0.0
210
0.0
220
0.0
230
1.0
  0
SOLID
  5
386
330
384
100
AcDbEntity
  8
HATCH
  6
CONTINUOUS
 62
     2
100
AcDbTrace
 10
2630.913846905327
 20
1705.546971282622
 30
0.0
 11
3019.303424424246
 21
1705.546971282622
 31
0.0
 12
4367.757131473116
 22
1705.546971282622
 32
0.0
 13
4367.757131473116
 23
1705.546971282622
 33
0.0
210
0.0
220
0.0
230
1.0
  0
SOLID
  5
387
330
384
100
AcDbEntity
  8
HATCH
  6
CONTINUOUS
 62
     2
100
AcDbTrace
 10
4367.757131473116
 20
1730.54697128262
 30
0.0
 11
2630.913846905327
 21
1705.546971282622
 31
0.0
 12
4367.757131473116
 22
1705.546971282622
 32
0.0
 13
4367.757131473116
 23
1705.546971282622
 33
0.0
210
0.0
220
0.0
230
1.0
  0
SOLID
  5
388
330
384
100
AcDbEntity
  8
HATCH
  6
CONTINUOUS
 62
     2
100
AcDbTrace
 10
2630.913846905327
 20
1730.54697128262
 30
0.0
 11
2630.913846905327
 21
1705.546971282622
 31
0.0
 12
4367.757131473116
 22
1730.54697128262
 32
0.0
 13
4367.757131473116
 23
1730.54697128262
 33
0.0
  0
SOLID
  5
389
330
384
100
AcDbEntity
  8
HATCH
  6
CONTINUOUS
 62
     2
100
AcDbTrace
 10
2630.913846905327
 20
1730.54697128262
 30
0.0
 11
3979.367553954196
 21
1730.54697128262
 31
0.0
 12
3019.303424424246
 22
1730.54697128262
 32
0.0
 13
3019.303424424246
 23
1730.54697128262
 33
0.0
210
0.0
220
0.0
230
1.0
  0
SOLID
  5
38A
330
384
100
AcDbEntity
  8
HATCH
  6
CONTINUOUS
 62
     2
100
AcDbTrace
 10
3979.367553954196
 20
1730.54697128262
 30
0.0
 11
2630.913846905327
 21
1730.54697128262
 31
0.0
 12
4367.757131473116
 22
1730.54697128262
 32
0.0
 13
4367.757131473116
 23
1730.54697128262
 33
0.0
210
0.0
220
0.0
230
1.0
  0
SOLID
  5
38B
330
384
100
AcDbEntity
  8
HATCH
  6
CONTINUOUS
 62
     2
100
AcDbTrace
 10
5406.37196937272
 20
1744.798009692146
 30
0.0
 11
5406.37196937272
 21
1779.687810783994
 31
0.0
 12
4961.251329574502
 22
1779.687810783994
 32
0.0
 13
4961.251329574502
 23
1779.687810783994
 33
0.0
210
0.0
220
0.0
230
1.0
  0
SOLID
  5
38C
330
384
100
AcDbEntity
  8
HATCH
  6
CONTINUOUS
 62
     2
100
AcDbTrace
 10
4961.251329574502
 20
1779.687810783994
 30
0.0
 11
4961.251329574504
 21
1744.798009692146
 31
0.0
 12
5406.37196937272
 22
1744.798009692146
 32
0.0
 13
5406.37196937272
 23
1744.798009692146
 33
0.0
210
0.0
220
0.0
230
1.0
  0
SOLID
  5
38D
330
384
100
AcDbEntity
  8
HATCH
  6
CONTINUOUS
 62
     2
100
AcDbTrace
 10
1592.299009005722
 20
1779.687810783994
 30
0.0
 11
1592.299009005722
 21
1744.798009692146
 31
0.0
 12
2037.419648803937
 22
1744.798009692146
 32
0.0
 13
2037.419648803937
 23
1744.798009692146
 33
0.0
210
0.0
220
0.0
230
1.0
  0
SOLID
  5
38E
330
384
100
AcDbEntity
  8
HATCH
  6
CONTINUOUS
 62
     2
100
AcDbTrace
 10
2037.419648803936
 20
1779.687810783995
 30
0.0
 11
1592.299009005722
 21
1779.687810783994
 31
0.0
 12
2037.419648803937
 22
1744.798009692146
 32
0.0
 13
2037.419648803937
 23
1744.798009692146
 33
0.0
210
0.0
220
0.0
230
1.0
  0
SOLID
  5
38F
330
384
100
AcDbEntity
  8
HATCH
  6
CONTINUOUS
 62
     2
100
AcDbTrace
 10
4367.757131473116
 20
1793.938849193521
 30
0.0
 11
3019.303424424246
 21
1793.938849193521
 31
0.0
 12
3979.367553954196
 22
1793.938849193521
 32
0.0
 13
3979.367553954196
 23
1793.938849193521
 33
0.0
210
0.0
220
0.0
230
1.0
  0
SOLID
  5
390
330
384
100
AcDbEntity
  8
HATCH
  6
CONTINUOUS
 62
     2
100
AcDbTrace
 10
2630.913846905327
 20
1793.938849193521
 30
0.0
 11
3019.303424424246
 21
1793.938849193521
 31
0.0
 12
4367.757131473116
 22
1793.938849193521
 32
0.0
 13
4367.757131473116
 23
1793.938849193521
 33
0.0
210
0.0
220
0.0
230
1.0
  0
SOLID
  5
391
330
384
100
AcDbEntity
  8
HATCH
  6
CONTINUOUS
 62
     2
100
AcDbTrace
 10
2630.913846905327
 20
1793.938849193521
 30
0.0
 11
4367.757131473116
 21
1818.938849193521
 31
0.0
 12
3979.367553954196
 22
1818.938849193521
 32
0.0
 13
3979.367553954196
 23
1818.938849193521
 33
0.0
  0
SOLID
  5
392
330
384
100
AcDbEntity
  8
HATCH
  6
CONTINUOUS
 62
     2
100
AcDbTrace
 10
2630.913846905327
 20
1793.938849193521
 30
0.0
 11
3979.367553954196
 21
1818.938849193521
 31
0.0
 12
3019.303424424246
 22
1818.938849193521
 32
0.0
 13
3019.303424424246
 23
1818.938849193521
 33
0.0
210
0.0
220
0.0
230
1.0
  0
SOLID
  5
393
330
384
100
AcDbEntity
  8
HATCH
  6
CONTINUOUS
 62
     2
100
AcDbTrace
 10
2630.913846905327
 20
1793.938849193521
 30
0.0
 11
3019.303424424246
 21
1818.938849193521
 31
0.0
 12
2630.913846905327
 22
1818.938849193521
 32
0.0
 13
2630.913846905327
 23
1818.938849193521
 33
0.0
210
0.0
220
0.0
230
1.0
  0
SOLID
  5
394
330
384
100
AcDbEntity
  8
HATCH
  6
CONTINUOUS
 62
     2
100
AcDbTrace
 10
4367.757131473116
 20
1818.938849193521
 30
0.0
 11
2630.913846905327
 21
1793.938849193521
 31
0.0
 12
4367.757131473116
 22
1793.938849193521
 32
0.0
 13
4367.757131473116
 23
1793.938849193521
 33
0.0
  0
ENDBLK
  5
396
330
384
100
AcDbEntity
  8
0
100
AcDbBlockEnd
  0
BLOCK
  5
3B2
330
397
100
AcDbEntity
  8
0
100
AcDbBlockBegin
  2
*U2
 70
     1
 10
0.0
 20
0.0
 30
0.0
  3
*U2
  1

  0
SOLID
  5
398
330
397
100
AcDbEntity
  8
HATCH
  6
CONTINUOUS
 62
     1
100
AcDbTrace
 10
2456.356730849367
 20
1696.824518302727
 30
0.0
 11
2456.356730849367
 21
1661.934706383147
 31
0.0
 12
2491.268147038301
 22
1661.934706383147
 32
0.0
 13
2491.268147038301
 23
1661.934706383147
 33
0.0
210
0.0
220
0.0
230
1.0
  0
SOLID
  5
399
330
397
100
AcDbEntity
  8
HATCH
  6
CONTINUOUS
 62
     1
100
AcDbTrace
 10
4542.314247529075
 20
1696.824518302727
 30
0.0
 11
4507.402831340141
 21
1661.934706383147
 31
0.0
 12
4542.314247529075
 22
1661.934706383147
 32
0.0
 13
4542.314247529075
 23
1661.934706383147
 33
0.0
210
0.0
220
0.0
230
1.0
  0
SOLID
  5
39A
330
397
100
AcDbEntity
  8
HATCH
  6
CONTINUOUS
 62
     1
100
AcDbTrace
 10
2491.268147038301
 20
1705.546969820557
 30
0.0
 11
2456.356730849367
 21
1696.824518302727
 31
0.0
 12
2491.268147038301
 22
1661.934706383147
 32
0.0
 13
2491.268147038301
 23
1661.934706383147
 33
0.0
  0
SOLID
  5
39B
330
397
100
AcDbEntity
  8
HATCH
  6
CONTINUOUS
 62
     1
100
AcDbTrace
 10
4507.402831340142
 20
1705.546969820557
 30
0.0
 11
4507.402831340141
 21
1661.934706383147
 31
0.0
 12
4542.314247529075
 22
1696.824518302727
 32
0.0
 13
4542.314247529075
 23
1696.824518302727
 33
0.0
210
0.0
220
0.0
230
1.0
  0
SOLID
  5
39C
330
397
100
AcDbEntity
  8
HATCH
  6
CONTINUOUS
 62
     1
100
AcDbTrace
 10
2630.913846905327
 20
1705.546971282621
 30
0.0
 11
2561.090996971814
 21
1666.295932873094
 31
0.0
 12
2613.458130033036
 22
1666.295932873093
 32
0.0
 13
2613.458130033036
 23
1666.295932873093
 33
0.0
  0
SOLID
  5
39D
330
397
100
AcDbEntity
  8
HATCH
  6
CONTINUOUS
 62
     1
100
AcDbTrace
 10
2543.635280099524
 20
1705.546971282621
 30
0.0
 11
2561.090996971814
 21
1666.295932873094
 31
0.0
 12
2630.913846905327
 22
1705.546971282621
 32
0.0
 13
2630.913846905327
 23
1705.546971282621
 33
0.0
210
0.0
220
0.0
230
1.0
  0
SOLID
  5
39E
330
397
100
AcDbEntity
  8
HATCH
  6
CONTINUOUS
 62
     1
100
AcDbTrace
 10
4367.757131473116
 20
1705.546971282622
 30
0.0
 11
4385.212848345404
 21
1666.295932873094
 31
0.0
 12
4437.579981406627
 22
1666.295932873094
 32
0.0
 13
4437.579981406627
 23
1666.295932873094
 33
0.0
210
0.0
220
0.0
230
1.0
  0
SOLID
  5
39F
330
397
100
AcDbEntity
  8
HATCH
  6
CONTINUOUS
 62
     1
100
AcDbTrace
 10
4455.035698278917
 20
1705.546971282622
 30
0.0
 11
4367.757131473116
 21
1705.546971282622
 31
0.0
 12
4437.579981406627
 22
1666.295932873094
 32
0.0
 13
4437.579981406627
 23
1666.295932873094
 33
0.0
210
0.0
220
0.0
230
1.0
  0
SOLID
  5
3A0
330
397
100
AcDbEntity
  8
HATCH
  6
CONTINUOUS
 62
     1
100
AcDbTrace
 10
2630.913846905327
 20
1730.54697128262
 30
0.0
 11
3979.367553954196
 21
1730.54697128262
 31
0.0
 12
4367.757131473116
 22
1730.54697128262
 32
0.0
 13
4367.757131473116
 23
1730.54697128262
 33
0.0
210
0.0
220
0.0
230
1.0
  0
SOLID
  5
3A1
330
397
100
AcDbEntity
  8
HATCH
  6
CONTINUOUS
 62
     1
100
AcDbTrace
 10
2630.913846905327
 20
1730.54697128262
 30
0.0
 11
3019.303424424246
 21
1730.54697128262
 31
0.0
 12
3979.367553954196
 22
1730.54697128262
 32
0.0
 13
3979.367553954196
 23
1730.54697128262
 33
0.0
210
0.0
220
0.0
230
1.0
  0
SOLID
  5
3A2
330
397
100
AcDbEntity
  8
HATCH
  6
CONTINUOUS
 62
     1
100
AcDbTrace
 10
3019.303424424246
 20
1793.938849193521
 30
0.0
 11
2630.913846905327
 21
1730.54697128262
 31
0.0
 12
4367.757131473116
 22
1730.54697128262
 32
0.0
 13
4367.757131473116
 23
1730.54697128262
 33
0.0
210
0.0
220
0.0
230
1.0
  0
SOLID
  5
3A3
330
397
100
AcDbEntity
  8
HATCH
  6
CONTINUOUS
 62
     1
100
AcDbTrace
 10
4367.757131473116
 20
1730.54697128262
 30
0.0
 11
3979.367553954196
 21
1793.938849193521
 31
0.0
 12
3019.303424424246
 22
1793.938849193521
 32
0.0
 13
3019.303424424246
 23
1793.938849193521
 33
0.0
210
0.0
220
0.0
230
1.0
  0
SOLID
  5
3A4
330
397
100
AcDbEntity
  8
HATCH
  6
CONTINUOUS
 62
     1
100
AcDbTrace
 10
2630.913846905327
 20
1793.938849193521
 30
0.0
 11
2630.913846905327
 21
1730.54697128262
 31
0.0
 12
3019.303424424246
 22
1793.938849193521
 32
0.0
 13
3019.303424424246
 23
1793.938849193521
 33
0.0
  0
SOLID
  5
3A5
330
397
100
AcDbEntity
  8
HATCH
  6
CONTINUOUS
 62
     1
100
AcDbTrace
 10
4367.757131473116
 20
1793.938849193521
 30
0.0
 11
3979.367553954196
 21
1793.938849193521
 31
0.0
 12
4367.757131473116
 22
1730.54697128262
 32
0.0
 13
4367.757131473116
 23
1730.54697128262
 33
0.0
210
0.0
220
0.0
230
1.0
  0
SOLID
  5
3A6
330
397
100
AcDbEntity
  8
HATCH
  6
CONTINUOUS
 62
     1
100
AcDbTrace
 10
4455.035698278918
 20
1818.938849193519
 30
0.0
 11
4367.757131473116
 21
1705.546971282622
 31
0.0
 12
4455.035698278917
 22
1705.546971282622
 32
0.0
 13
4455.035698278917
 23
1705.546971282622
 33
0.0
210
0.0
220
0.0
230
1.0
  0
SOLID
  5
3A7
330
397
100
AcDbEntity
  8
HATCH
  6
CONTINUOUS
 62
     1
100
AcDbTrace
 10
2630.913846905327
 20
1818.93884919352
 30
0.0
 11
2543.635280099524
 21
1705.546971282621
 31
0.0
 12
2630.913846905327
 22
1705.546971282621
 32
0.0
 13
2630.913846905327
 23
1705.546971282621
 33
0.0
210
0.0
220
0.0
230
1.0
  0
SOLID
  5
3A8
330
397
100
AcDbEntity
  8
HATCH
  6
CONTINUOUS
 62
     1
100
AcDbTrace
 10
4367.757131473116
 20
1818.938849193521
 30
0.0
 11
4367.757131473116
 21
1705.546971282622
 31
0.0
 12
4455.035698278918
 22
1818.938849193519
 32
0.0
 13
4455.035698278918
 23
1818.938849193519
 33
0.0
210
0.0
220
0.0
230
1.0
  0
SOLID
  5
3A9
330
397
100
AcDbEntity
  8
HATCH
  6
CONTINUOUS
 62
     1
100
AcDbTrace
 10
2543.635280099524
 20
1818.938849193522
 30
0.0
 11
2543.635280099524
 21
1705.546971282621
 31
0.0
 12
2630.913846905327
 22
1818.93884919352
 32
0.0
 13
2630.913846905327
 23
1818.93884919352
 33
0.0
210
0.0
220
0.0
230
1.0
  0
SOLID
  5
3AA
330
397
100
AcDbEntity
  8
HATCH
  6
CONTINUOUS
 62
     1
100
AcDbTrace
 10
2561.090996971814
 20
1858.189887603049
 30
0.0
 11
2543.635280099524
 21
1818.938849193522
 31
0.0
 12
2630.913846905327
 22
1818.93884919352
 32
0.0
 13
2630.913846905327
 23
1818.93884919352
 33
0.0
  0
SOLID
  5
3AB
330
397
100
AcDbEntity
  8
HATCH
  6
CONTINUOUS
 62
     1
100
AcDbTrace
 10
2613.458130033037
 20
1858.189887603049
 30
0.0
 11
2561.090996971814
 21
1858.189887603049
 31
0.0
 12
2630.913846905327
 22
1818.93884919352
 32
0.0
 13
2630.913846905327
 23
1818.93884919352
 33
0.0
  0
SOLID
  5
3AC
330
397
100
AcDbEntity
  8
HATCH
  6
CONTINUOUS
 62
     1
100
AcDbTrace
 10
4367.757131473116
 20
1818.938849193521
 30
0.0
 11
4437.579981406627
 21
1858.189887603049
 31
0.0
 12
4385.212848345404
 22
1858.189887603049
 32
0.0
 13
4385.212848345404
 23
1858.189887603049
 33
0.0
210
0.0
220
0.0
230
1.0
  0
SOLID
  5
3AD
330
397
100
AcDbEntity
  8
HATCH
  6
CONTINUOUS
 62
     1
100
AcDbTrace
 10
4437.579981406627
 20
1858.189887603049
 30
0.0
 11
4367.757131473116
 21
1818.938849193521
 31
0.0
 12
4455.035698278918
 22
1818.938849193519
 32
0.0
 13
4455.035698278918
 23
1818.938849193519
 33
0.0
210
0.0
220
0.0
230
1.0
  0
SOLID
  5
3AE
330
397
100
AcDbEntity
  8
HATCH
  6
CONTINUOUS
 62
     1
100
AcDbTrace
 10
4542.314247529075
 20
1862.551114092996
 30
0.0
 11
4507.402831340141
 21
1818.938850655585
 31
0.0
 12
4542.314247529076
 22
1827.661302173416
 32
0.0
 13
4542.314247529076
 23
1827.661302173416
 33
0.0
210
0.0
220
0.0
230
1.0
  0
SOLID
  5
3AF
330
397
100
AcDbEntity
  8
HATCH
  6
CONTINUOUS
 62
     1
100
AcDbTrace
 10
4507.402831340141
 20
1862.551114092996
 30
0.0
 11
4507.402831340141
 21
1818.938850655585
 31
0.0
 12
4542.314247529075
 22
1862.551114092996
 32
0.0
 13
4542.314247529075
 23
1862.551114092996
 33
0.0
210
0.0
220
0.0
230
1.0
  0
SOLID
  5
3B0
330
397
100
AcDbEntity
  8
HATCH
  6
CONTINUOUS
 62
     1
100
AcDbTrace
 10
2456.356730849367
 20
1827.661302173416
 30
0.0
 11
2491.268147038301
 21
1862.551114092996
 31
0.0
 12
2456.356730849367
 22
1862.551114092996
 32
0.0
 13
2456.356730849367
 23
1862.551114092996
 33
0.0
210
0.0
220
0.0
230
1.0
  0
SOLID
  5
3B1
330
397
100
AcDbEntity
  8
HATCH
  6
CONTINUOUS
 62
     1
100
AcDbTrace
 10
2491.268147038301
 20
1862.551114092996
 30
0.0
 11
2456.356730849367
 21
1827.661302173416
 31
0.0
 12
2491.268147038301
 22
1818.938850655585
 32
0.0
 13
2491.268147038301
 23
1818.938850655585
 33
0.0
210
0.0
220
0.0
230
1.0
  0
ENDBLK
  5
3B3
330
397
100
AcDbEntity
  8
0
100
AcDbBlockEnd
  0
BLOCK
  5
3D1
330
3B4
100
AcDbEntity
  8
0
100
AcDbBlockBegin
  2
*U3
 70
     1
 10
0.0
 20
0.0
 30
0.0
  3
*U3
  1

  0
SOLID
  5
3B5
330
3B4
100
AcDbEntity
  8
HATCH
  6
CONTINUOUS
 62
   251
100
AcDbTrace
 10
4961.251329574503
 20
1657.5734798932
 30
0.0
 11
4699.415646712743
 21
1631.406131781249
 31
0.0
 12
4873.972762768702
 22
1609.59999933151
 32
0.0
 13
4873.972762768702
 23
1609.59999933151
 33
0.0
  0
SOLID
  5
3B6
330
3B4
100
AcDbEntity
  8
HATCH
  6
CONTINUOUS
 62
   251
100
AcDbTrace
 10
2037.419648803936
 20
1657.573479893201
 30
0.0
 11
2124.698215609742
 21
1609.59999933151
 31
0.0
 12
2299.255331665696
 22
1631.406131781249
 32
0.0
 13
2299.255331665696
 23
1631.406131781249
 33
0.0
210
0.0
220
0.0
230
1.0
  0
SOLID
  5
3B7
330
3B4
100
AcDbEntity
  8
HATCH
  6
CONTINUOUS
 62
   251
100
AcDbTrace
 10
4647.048513651522
 20
1670.657159363041
 30
0.0
 11
4699.415646712743
 21
1631.406131781249
 31
0.0
 12
4961.251329574503
 22
1657.5734798932
 32
0.0
 13
4961.251329574503
 23
1657.5734798932
 33
0.0
210
0.0
220
0.0
230
1.0
  0
SOLID
  5
3B8
330
3B4
100
AcDbEntity
  8
HATCH
  6
CONTINUOUS
 62
   251
100
AcDbTrace
 10
2351.62246472692
 20
1670.657159363042
 30
0.0
 11
2037.419648803936
 21
1657.573479893201
 31
0.0
 12
2299.255331665696
 22
1631.406131781249
 32
0.0
 13
2299.255331665696
 23
1631.406131781249
 33
0.0
  0
SOLID
  5
3B9
330
3B4
100
AcDbEntity
  8
HATCH
  6
CONTINUOUS
 62
   251
100
AcDbTrace
 10
2491.268147038301
 20
1705.546969820557
 30
0.0
 11
2037.419648803936
 21
1657.573479893201
 31
0.0
 12
2351.62246472692
 22
1670.657159363042
 32
0.0
 13
2351.62246472692
 23
1670.657159363042
 33
0.0
210
0.0
220
0.0
230
1.0
  0
SOLID
  5
3BA
330
3B4
100
AcDbEntity
  8
HATCH
  6
CONTINUOUS
 62
   251
100
AcDbTrace
 10
4507.402831340141
 20
1705.546969820557
 30
0.0
 11
4647.048513651522
 21
1670.657159363041
 31
0.0
 12
4961.251329574503
 22
1657.5734798932
 32
0.0
 13
4961.251329574503
 23
1657.5734798932
 33
0.0
  0
SOLID
  5
3BB
330
3B4
100
AcDbEntity
  8
HATCH
  6
CONTINUOUS
 62
   251
100
AcDbTrace
 10
2491.268147038301
 20
1705.546971282622
 30
0.0
 11
2037.419648803936
 21
1657.573479893201
 31
0.0
 12
2491.268147038301
 22
1705.546969820557
 32
0.0
 13
2491.268147038301
 23
1705.546969820557
 33
0.0
210
0.0
220
0.0
230
1.0
  0
SOLID
  5
3BC
330
3B4
100
AcDbEntity
  8
HATCH
  6
CONTINUOUS
 62
   251
100
AcDbTrace
 10
4507.402831340141
 20
1705.546971282622
 30
0.0
 11
4507.402831340141
 21
1705.546969820557
 31
0.0
 12
4961.251329574503
 22
1657.5734798932
 32
0.0
 13
4961.251329574503
 23
1657.5734798932
 33
0.0
210
0.0
220
0.0
230
1.0
  0
SOLID
  5
3BD
330
3B4
100
AcDbEntity
  8
HATCH
  6
CONTINUOUS
 62
   251
100
AcDbTrace
 10
4961.251329574503
 20
1744.798009692146
 30
0.0
 11
4455.035698278917
 21
1705.546971282622
 31
0.0
 12
4507.402831340141
 22
1705.546971282622
 32
0.0
 13
4507.402831340141
 23
1705.546971282622
 33
0.0
210
0.0
220
0.0
230
1.0
  0
SOLID
  5
3BE
330
3B4
100
AcDbEntity
  8
HATCH
  6
CONTINUOUS
 62
   251
100
AcDbTrace
 10
4961.251329574503
 20
1744.798009692146
 30
0.0
 11
4507.402831340141
 21
1705.546971282622
 31
0.0
 12
4961.251329574503
 22
1657.5734798932
 32
0.0
 13
4961.251329574503
 23
1657.5734798932
 33
0.0
210
0.0
220
0.0
230
1.0
  0
SOLID
  5
3BF
330
3B4
100
AcDbEntity
  8
HATCH
  6
CONTINUOUS
 62
   251
100
AcDbTrace
 10
2037.419648803937
 20
1744.798009692146
 30
0.0
 11
2491.268147038301
 21
1705.546971282622
 31
0.0
 12
2543.635280099524
 22
1705.546971282622
 32
0.0
 13
2543.635280099524
 23
1705.546971282622
 33
0.0
210
0.0
220
0.0
230
1.0
  0
SOLID
  5
3C0
330
3B4
100
AcDbEntity
  8
HATCH
  6
CONTINUOUS
 62
   251
100
AcDbTrace
 10
2037.419648803937
 20
1744.798009692146
 30
0.0
 11
2037.419648803936
 21
1657.573479893201
 31
0.0
 12
2491.268147038301
 22
1705.546971282622
 32
0.0
 13
2491.268147038301
 23
1705.546971282622
 33
0.0
  0
SOLID
  5
3C1
330
3B4
100
AcDbEntity
  8
HATCH
  6
CONTINUOUS
 62
   251
100
AcDbTrace
 10
4961.251329574503
 20
1779.687810783995
 30
0.0
 11
4455.035698278917
 21
1705.546971282622
 31
0.0
 12
4961.251329574503
 22
1744.798009692146
 32
0.0
 13
4961.251329574503
 23
1744.798009692146
 33
0.0
210
0.0
220
0.0
230
1.0
  0
SOLID
  5
3C2
330
3B4
100
AcDbEntity
  8
HATCH
  6
CONTINUOUS
 62
   251
100
AcDbTrace
 10
2037.419648803937
 20
1779.687810783995
 30
0.0
 11
2037.419648803937
 21
1744.798009692146
 31
0.0
 12
2543.635280099524
 22
1705.546971282622
 32
0.0
 13
2543.635280099524
 23
1705.546971282622
 33
0.0
210
0.0
220
0.0
230
1.0
  0
SOLID
  5
3C3
330
3B4
100
AcDbEntity
  8
HATCH
  6
CONTINUOUS
 62
   251
100
AcDbTrace
 10
2491.268147038301
 20
1818.938849193521
 30
0.0
 11
2037.419648803937
 21
1779.687810783995
 31
0.0
 12
2543.635280099524
 22
1705.546971282622
 32
0.0
 13
2543.635280099524
 23
1705.546971282622
 33
0.0
210
0.0
220
0.0
230
1.0
  0
SOLID
  5
3C4
330
3B4
100
AcDbEntity
  8
HATCH
  6
CONTINUOUS
 62
   251
100
AcDbTrace
 10
2543.635280099524
 20
1818.938849193521
 30
0.0
 11
2491.268147038301
 21
1818.938849193521
 31
0.0
 12
2543.635280099524
 22
1705.546971282622
 32
0.0
 13
2543.635280099524
 23
1705.546971282622
 33
0.0
210
0.0
220
0.0
230
1.0
  0
SOLID
  5
3C5
330
3B4
100
AcDbEntity
  8
HATCH
  6
CONTINUOUS
 62
   251
100
AcDbTrace
 10
4455.035698278917
 20
1818.938849193521
 30
0.0
 11
4455.035698278917
 21
1705.546971282622
 31
0.0
 12
4961.251329574503
 22
1779.687810783995
 32
0.0
 13
4961.251329574503
 23
1779.687810783995
 33
0.0
210
0.0
220
0.0
230
1.0
  0
SOLID
  5
3C6
330
3B4
100
AcDbEntity
  8
HATCH
  6
CONTINUOUS
 62
   251
100
AcDbTrace
 10
4961.251329574503
 20
1779.687810783995
 30
0.0
 11
4507.402831340141
 21
1818.938849193521
 31
0.0
 12
4455.035698278917
 22
1818.938849193521
 32
0.0
 13
4455.035698278917
 23
1818.938849193521
 33
0.0
210
0.0
220
0.0
230
1.0
  0
SOLID
  5
3C7
330
3B4
100
AcDbEntity
  8
HATCH
  6
CONTINUOUS
 62
   251
100
AcDbTrace
 10
2491.268147038301
 20
1818.938850655585
 30
0.0
 11
2037.419648803937
 21
1779.687810783995
 31
0.0
 12
2491.268147038301
 22
1818.938849193521
 32
0.0
 13
2491.268147038301
 23
1818.938849193521
 33
0.0
210
0.0
220
0.0
230
1.0
  0
SOLID
  5
3C8
330
3B4
100
AcDbEntity
  8
HATCH
  6
CONTINUOUS
 62
   251
100
AcDbTrace
 10
4507.402831340141
 20
1818.938850655585
 30
0.0
 11
4507.402831340141
 21
1818.938849193521
 31
0.0
 12
4961.251329574503
 22
1779.687810783995
 32
0.0
 13
4961.251329574503
 23
1779.687810783995
 33
0.0
210
0.0
220
0.0
230
1.0
  0
SOLID
  5
3C9
330
3B4
100
AcDbEntity
  8
HATCH
  6
CONTINUOUS
 62
   251
100
AcDbTrace
 10
2351.622464726919
 20
1853.828661113101
 30
0.0
 11
2037.419648803937
 21
1779.687810783995
 31
0.0
 12
2491.268147038301
 22
1818.938850655585
 32
0.0
 13
2491.268147038301
 23
1818.938850655585
 33
0.0
210
0.0
220
0.0
230
1.0
  0
SOLID
  5
3CA
330
3B4
100
AcDbEntity
  8
HATCH
  6
CONTINUOUS
 62
   251
100
AcDbTrace
 10
4647.048513651522
 20
1853.828661113101
 30
0.0
 11
4507.402831340141
 21
1818.938850655585
 31
0.0
 12
4961.251329574503
 22
1779.687810783995
 32
0.0
 13
4961.251329574503
 23
1779.687810783995
 33
0.0
210
0.0
220
0.0
230
1.0
  0
SOLID
  5
3CB
330
3B4
100
AcDbEntity
  8
HATCH
  6
CONTINUOUS
 62
   251
100
AcDbTrace
 10
2037.419648803937
 20
1866.912340582942
 30
0.0
 11
2037.419648803937
 21
1779.687810783995
 31
0.0
 12
2351.622464726919
 22
1853.828661113101
 32
0.0
 13
2351.622464726919
 23
1853.828661113101
 33
0.0
210
0.0
220
0.0
230
1.0
  0
SOLID
  5
3CC
330
3B4
100
AcDbEntity
  8
HATCH
  6
CONTINUOUS
 62
   251
100
AcDbTrace
 10
4961.251329574504
 20
1866.912340582942
 30
0.0
 11
4647.048513651522
 21
1853.828661113101
 31
0.0
 12
4961.251329574503
 22
1779.687810783995
 32
0.0
 13
4961.251329574503
 23
1779.687810783995
 33
0.0
210
0.0
220
0.0
230
1.0
  0
SOLID
  5
3CD
330
3B4
100
AcDbEntity
  8
HATCH
  6
CONTINUOUS
 62
   251
100
AcDbTrace
 10
4699.415646712745
 20
1893.079688694894
 30
0.0
 11
4647.048513651522
 21
1853.828661113101
 31
0.0
 12
4961.251329574504
 22
1866.912340582942
 32
0.0
 13
4961.251329574504
 23
1866.912340582942
 33
0.0
210
0.0
220
0.0
230
1.0
  0
SOLID
  5
3CE
330
3B4
100
AcDbEntity
  8
HATCH
  6
CONTINUOUS
 62
   251
100
AcDbTrace
 10
2299.255331665696
 20
1893.079688694894
 30
0.0
 11
2037.419648803937
 21
1866.912340582942
 31
0.0
 12
2351.622464726919
 22
1853.828661113101
 32
0.0
 13
2351.622464726919
 23
1853.828661113101
 33
0.0
210
0.0
220
0.0
230
1.0
  0
SOLID
  5
3CF
330
3B4
100
AcDbEntity
  8
HATCH
  6
CONTINUOUS
 62
   251
100
AcDbTrace
 10
2124.698215609742
 20
1914.885821144631
 30
0.0
 11
2037.419648803937
 21
1866.912340582942
 31
0.0
 12
2299.255331665696
 22
1893.079688694894
 32
0.0
 13
2299.255331665696
 23
1893.079688694894
 33
0.0
210
0.0
220
0.0
230
1.0
  0
SOLID
  5
3D0
330
3B4
100
AcDbEntity
  8
HATCH
  6
CONTINUOUS
 62
   251
100
AcDbTrace
 10
4873.972762768701
 20
1914.885821144632
 30
0.0
 11
4699.415646712745
 21
1893.079688694894
 31
0.0
 12
4961.251329574504
 22
1866.912340582942
 32
0.0
 13
4961.251329574504
 23
1866.912340582942
 33
0.0
210
0.0
220
0.0
230
1.0
  0
ENDBLK
  5
3D2
330
3B4
100
AcDbEntity
  8
0
100
AcDbBlockEnd
  0
BLOCK
  5
3EC
330
3D3
100
AcDbEntity
  8
0
100
AcDbBlockBegin
  2
*U4
 70
     1
 10
0.0
 20
0.0
 30
0.0
  3
*U4
  1

  0
SOLID
  5
3D4
330
3D3
100
AcDbEntity
  8
HATCH
  6
CONTINUOUS
 62
   251
100
AcDbTrace
 10
3586.240033775142
 20
1525.12099614058
 30
0.0
 11
3452.925038138916
 21
1522.375480360295
 31
0.0
 12
3545.745940239525
 22
1522.375480360295
 32
0.0
 13
3545.745940239525
 23
1522.375480360295
 33
0.0
210
0.0
220
0.0
230
1.0
  0
SOLID
  5
3D5
330
3D3
100
AcDbEntity
  8
HATCH
  6
CONTINUOUS
 62
   251
100
AcDbTrace
 10
3412.4309446033
 20
1525.12099614058
 30
0.0
 11
3452.925038138916
 21
1522.375480360295
 31
0.0
 12
3586.240033775142
 22
1525.12099614058
 32
0.0
 13
3586.240033775142
 23
1525.12099614058
 33
0.0
210
0.0
220
0.0
230
1.0
  0
SOLID
  5
3D6
330
3D3
100
AcDbEntity
  8
HATCH
  6
CONTINUOUS
 62
   251
100
AcDbTrace
 10
3372.678032219754
 20
1533.307291102103
 30
0.0
 11
3412.4309446033
 21
1525.12099614058
 31
0.0
 12
3586.240033775142
 22
1525.12099614058
 32
0.0
 13
3586.240033775142
 23
1525.12099614058
 33
0.0
  0
SOLID
  5
3D7
330
3D3
100
AcDbEntity
  8
HATCH
  6
CONTINUOUS
 62
   251
100
AcDbTrace
 10
3625.992946158691
 20
1533.307291102103
 30
0.0
 11
3372.678032219754
 21
1533.307291102103
 31
0.0
 12
3586.240033775142
 22
1525.12099614058
 32
0.0
 13
3586.240033775142
 23
1525.12099614058
 33
0.0
210
0.0
220
0.0
230
1.0
  0
SOLID
  5
3D8
330
3D3
100
AcDbEntity
  8
HATCH
  6
CONTINUOUS
 62
   251
100
AcDbTrace
 10
3025.163504266402
 20
1629.779339628895
 30
0.0
 11
3372.678032219754
 21
1533.307291102103
 31
0.0
 12
3625.992946158691
 22
1533.307291102103
 32
0.0
 13
3625.992946158691
 23
1533.307291102103
 33
0.0
210
0.0
220
0.0
230
1.0
  0
SOLID
  5
3D9
330
3D3
100
AcDbEntity
  8
HATCH
  6
CONTINUOUS
 62
   251
100
AcDbTrace
 10
3973.507474112041
 20
1629.779339628895
 30
0.0
 11
3025.163504266402
 21
1629.779339628895
 31
0.0
 12
3625.992946158691
 22
1533.307291102103
 32
0.0
 13
3625.992946158691
 23
1533.307291102103
 33
0.0
210
0.0
220
0.0
230
1.0
  0
SOLID
  5
3DA
330
3D3
100
AcDbEntity
  8
HATCH
  6
CONTINUOUS
 62
   251
100
AcDbTrace
 10
3020.934776166462
 20
1632.646304318638
 30
0.0
 11
3025.163504266402
 21
1629.779339628895
 31
0.0
 12
3973.507474112041
 22
1629.779339628895
 32
0.0
 13
3973.507474112041
 23
1629.779339628895
 33
0.0
210
0.0
220
0.0
230
1.0
  0
SOLID
  5
3DB
330
3D3
100
AcDbEntity
  8
HATCH
  6
CONTINUOUS
 62
   251
100
AcDbTrace
 10
3977.73620221198
 20
1632.646304318638
 30
0.0
 11
3020.934776166462
 21
1632.646304318638
 31
0.0
 12
3973.507474112041
 22
1629.779339628895
 32
0.0
 13
3973.507474112041
 23
1629.779339628895
 33
0.0
210
0.0
220
0.0
230
1.0
  0
SOLID
  5
3DC
330
3D3
100
AcDbEntity
  8
HATCH
  6
CONTINUOUS
 62
   251
100
AcDbTrace
 10
3979.367553954196
 20
1637.487824675781
 30
0.0
 11
3020.934776166462
 21
1632.646304318638
 31
0.0
 12
3977.73620221198
 22
1632.646304318638
 32
0.0
 13
3977.73620221198
 23
1632.646304318638
 33
0.0
210
0.0
220
0.0
230
1.0
  0
SOLID
  5
3DD
330
3D3
100
AcDbEntity
  8
HATCH
  6
CONTINUOUS
 62
   251
100
AcDbTrace
 10
3019.303424424247
 20
1637.487824675781
 30
0.0
 11
3020.934776166462
 21
1632.646304318638
 31
0.0
 12
3979.367553954196
 22
1637.487824675781
 32
0.0
 13
3979.367553954196
 23
1637.487824675781
 33
0.0
210
0.0
220
0.0
230
1.0
  0
SOLID
  5
3DE
330
3D3
100
AcDbEntity
  8
HATCH
  6
CONTINUOUS
 62
   251
100
AcDbTrace
 10
3979.367553954196
 20
1705.546971282622
 30
0.0
 11
3019.303424424247
 21
1637.487824675781
 31
0.0
 12
3979.367553954196
 22
1637.487824675781
 32
0.0
 13
3979.367553954196
 23
1637.487824675781
 33
0.0
210
0.0
220
0.0
230
1.0
  0
SOLID
  5
3DF
330
3D3
100
AcDbEntity
  8
HATCH
  6
CONTINUOUS
 62
   251
100
AcDbTrace
 10
3019.303424424247
 20
1705.546971282622
 30
0.0
 11
3019.303424424247
 21
1637.487824675781
 31
0.0
 12
3979.367553954196
 22
1705.546971282622
 32
0.0
 13
3979.367553954196
 23
1705.546971282622
 33
0.0
210
0.0
220
0.0
230
1.0
  0
SOLID
  5
3E0
330
3D3
100
AcDbEntity
  8
HATCH
  6
CONTINUOUS
 62
   251
100
AcDbTrace
 10
3019.303424424247
 20
1886.997995800362
 30
0.0
 11
3019.303424424247
 21
1818.938849193521
 31
0.0
 12
3979.367553954196
 22
1818.938849193521
 32
0.0
 13
3979.367553954196
 23
1818.938849193521
 33
0.0
210
0.0
220
0.0
230
1.0
  0
SOLID
  5
3E1
330
3D3
100
AcDbEntity
  8
HATCH
  6
CONTINUOUS
 62
   251
100
AcDbTrace
 10
3979.367553954197
 20
1886.997995800363
 30
0.0
 11
3019.303424424247
 21
1886.997995800362
 31
0.0
 12
3979.367553954196
 22
1818.938849193521
 32
0.0
 13
3979.367553954196
 23
1818.938849193521
 33
0.0
210
0.0
220
0.0
230
1.0
  0
SOLID
  5
3E2
330
3D3
100
AcDbEntity
  8
HATCH
  6
CONTINUOUS
 62
   251
100
AcDbTrace
 10
3020.934776166462
 20
1891.839516157504
 30
0.0
 11
3019.303424424247
 21
1886.997995800362
 31
0.0
 12
3979.367553954197
 22
1886.997995800363
 32
0.0
 13
3979.367553954197
 23
1886.997995800363
 33
0.0
210
0.0
220
0.0
230
1.0
  0
SOLID
  5
3E3
330
3D3
100
AcDbEntity
  8
HATCH
  6
CONTINUOUS
 62
   251
100
AcDbTrace
 10
3977.73620221198
 20
1891.839516157505
 30
0.0
 11
3020.934776166462
 21
1891.839516157504
 31
0.0
 12
3979.367553954197
 22
1886.997995800363
 32
0.0
 13
3979.367553954197
 23
1886.997995800363
 33
0.0
210
0.0
220
0.0
230
1.0
  0
SOLID
  5
3E4
330
3D3
100
AcDbEntity
  8
HATCH
  6
CONTINUOUS
 62
   251
100
AcDbTrace
 10
3025.163504266402
 20
1894.706480847247
 30
0.0
 11
3020.934776166462
 21
1891.839516157504
 31
0.0
 12
3977.73620221198
 22
1891.839516157505
 32
0.0
 13
3977.73620221198
 23
1891.839516157505
 33
0.0
210
0.0
220
0.0
230
1.0
  0
SOLID
  5
3E5
330
3D3
100
AcDbEntity
  8
HATCH
  6
CONTINUOUS
 62
   251
100
AcDbTrace
 10
3973.50747411204
 20
1894.706480847247
 30
0.0
 11
3025.163504266402
 21
1894.706480847247
 31
0.0
 12
3977.73620221198
 22
1891.839516157505
 32
0.0
 13
3977.73620221198
 23
1891.839516157505
 33
0.0
210
0.0
220
0.0
230
1.0
  0
SOLID
  5
3E6
330
3D3
100
AcDbEntity
  8
HATCH
  6
CONTINUOUS
 62
   251
100
AcDbTrace
 10
3372.678032219753
 20
1991.178529374039
 30
0.0
 11
3025.163504266402
 21
1894.706480847247
 31
0.0
 12
3973.50747411204
 22
1894.706480847247
 32
0.0
 13
3973.50747411204
 23
1894.706480847247
 33
0.0
210
0.0
220
0.0
230
1.0
  0
SOLID
  5
3E7
330
3D3
100
AcDbEntity
  8
HATCH
  6
CONTINUOUS
 62
   251
100
AcDbTrace
 10
3625.992946158685
 20
1991.178529374039
 30
0.0
 11
3372.678032219753
 21
1991.178529374039
 31
0.0
 12
3973.50747411204
 22
1894.706480847247
 32
0.0
 13
3973.50747411204
 23
1894.706480847247
 33
0.0
210
0.0
220
0.0
230
1.0
  0
SOLID
  5
3E8
330
3D3
100
AcDbEntity
  8
HATCH
  6
CONTINUOUS
 62
   251
100
AcDbTrace
 10
3586.24003377514
 20
1999.364824335561
 30
0.0
 11
3372.678032219753
 21
1991.178529374039
 31
0.0
 12
3625.992946158685
 22
1991.178529374039
 32
0.0
 13
3625.992946158685
 23
1991.178529374039
 33
0.0
210
0.0
220
0.0
230
1.0
  0
SOLID
  5
3E9
330
3D3
100
AcDbEntity
  8
HATCH
  6
CONTINUOUS
 62
   251
100
AcDbTrace
 10
3412.4309446033
 20
1999.364824335561
 30
0.0
 11
3372.678032219753
 21
1991.178529374039
 31
0.0
 12
3586.24003377514
 22
1999.364824335561
 32
0.0
 13
3586.24003377514
 23
1999.364824335561
 33
0.0
210
0.0
220
0.0
230
1.0
  0
SOLID
  5
3EA
330
3D3
100
AcDbEntity
  8
HATCH
  6
CONTINUOUS
 62
   251
100
AcDbTrace
 10
3412.4309446033
 20
1999.364824335561
 30
0.0
 11
3545.745940239525
 21
2002.110340115847
 31
0.0
 12
3452.925038138917
 22
2002.110340115847
 32
0.0
 13
3452.925038138917
 23
2002.110340115847
 33
0.0
210
0.0
220
0.0
230
1.0
  0
SOLID
  5
3EB
330
3D3
100
AcDbEntity
  8
HATCH
  6
CONTINUOUS
 62
   251
100
AcDbTrace
 10
3545.745940239525
 20
2002.110340115847
 30
0.0
 11
3412.4309446033
 21
1999.364824335561
 31
0.0
 12
3586.24003377514
 22
1999.364824335561
 32
0.0
 13
3586.24003377514
 23
1999.364824335561
 33
0.0
210
0.0
220
0.0
230
1.0
  0
ENDBLK
  5
3ED
330
3D3
100
AcDbEntity
  8
0
100
AcDbBlockEnd
  0
ENDSEC
  0
SECTION
  2
ENTITIES
  0
INSERT
  5
380
330
1F
100
AcDbEntity
  8
HATCH
100
AcDbBlockReference
  2
ABKB
 10
0.0
 20
0.0
 30
0.0
  0
ENDSEC
  0
SECTION
  2
OBJECTS
  0
DICTIONARY
  5
C
330
0
100
AcDbDictionary
  3
ACAD_GROUP
350
D
  3
ACAD_LAYOUT
350
1A
  3
ACAD_MLINESTYLE
350
17
  3
ACAD_PLOTSETTINGS
350
19
1001
ACAD
1000
TREAT_AS_HARD
1070
     0
1000
TREAT_AS_HARD
1070
     0
  0
DICTIONARY
  5
146
330
1F
100
AcDbDictionary
  3
ACAD_LAYOUTSELFREF
350
382
  3
ACAD_SORTENTS
350
31B
1001
ACAD
1000
TREAT_AS_HARD
1070
     1
1000
TREAT_AS_HARD
1070
     0
  0
DICTIONARY
  5
148
330
50
100
AcDbDictionary
  3
ACAD_LAYOUTSELFREF
350
383
1001
ACAD
1000
TREAT_AS_HARD
1070
     1
1000
TREAT_AS_HARD
1070
     0
  0
DICTIONARY
  5
D
102
{ACAD_REACTORS
330
C
102
}
330
C
100
AcDbDictionary
1001
ACAD
1000
TREAT_AS_HARD
1070
     0
1000
TREAT_AS_HARD
1070
     0
  0
DICTIONARY
  5
1A
102
{ACAD_REACTORS
330
C
102
}
330
C
100
AcDbDictionary
1001
ACAD
1000
TREAT_AS_HARD
1070
     0
1000
TREAT_AS_HARD
1070
     0
  0
DICTIONARY
  5
17
102
{ACAD_REACTORS
330
C
102
}
330
C
100
AcDbDictionary
  3
STANDARD
350
18
1001
ACAD
1000
TREAT_AS_HARD
1070
     0
1000
TREAT_AS_HARD
1070
     0
  0
DICTIONARY
  5
19
102
{ACAD_REACTORS
330
C
102
}
330
C
100
AcDbDictionary
1001
ACAD
1000
TREAT_AS_HARD
1070
     0
1000
TREAT_AS_HARD
1070
     0
  0
XRECORD
  5
382
102
{ACAD_REACTORS
330
146
102
}
330
146
100
AcDbXrecord
340
1F
  0
SORTENTSTABLE
  5
31B
102
{ACAD_REACTORS
330
146
102
}
330
146
100
AcDbSortentsTable
330
1F
331
27B
  5
2A5
331
259
  5
25D
331
26A
  5
26E
331
248
  5
24C
331
23B
  5
23F
331
31A
  5
222
331
22A
  5
22E
331
279
  5
27D
331
268
  5
26C
331
239
  5
23D
331
257
  5
25B
331
228
  5
22C
331
266
  5
26A
331
237
  5
23B
331
277
  5
27B
331
255
  5
259
331
226
  5
22A
331
264
  5
268
331
235
  5
239
331
275
  5
279
331
253
  5
257
331
246
  5
24A
331
224
  5
228
331
262
  5
266
331
233
  5
237
331
273
  5
277
331
251
  5
255
331
244
  5
248
331
222
  5
226
331
260
  5
264
331
231
  5
235
331
271
  5
275
331
24F
  5
253
331
242
  5
246
331
220
  5
224
331
25E
  5
262
331
26F
  5
273
331
24D
  5
251
331
240
  5
244
331
22F
  5
233
331
27E
  5
31A
331
25C
  5
260
331
212
  5
223
331
26D
  5
271
331
24B
  5
24F
331
23E
  5
242
331
2FB
  5
221
331
22D
  5
231
331
27C
  5
2CF
331
25A
  5
25E
331
26B
  5
26F
331
249
  5
24D
331
23C
  5
240
331
22B
  5
22F
331
27A
  5
27E
331
258
  5
25C
331
269
  5
26D
331
23A
  5
23E
331
229
  5
22D
331
278
  5
27C
331
267
  5
26B
331
238
  5
23C
331
256
  5
25A
331
227
  5
22B
331
265
  5
269
331
236
  5
23A
331
276
  5
27A
331
254
  5
258
331
247
  5
24B
331
225
  5
229
331
263
  5
267
331
234
  5
238
331
274
  5
278
331
252
  5
256
331
245
  5
249
331
223
  5
227
331
2CF
  5
220
331
261
  5
265
331
232
  5
236
331
272
  5
276
331
250
  5
254
331
243
  5
247
331
221
  5
225
331
2A5
  5
212
331
25F
  5
263
331
230
  5
234
331
270
  5
274
331
24E
  5
252
331
241
  5
245
331
25D
  5
261
331
26E
  5
272
331
24C
  5
250
331
23F
  5
243
331
22E
  5
232
331
27D
  5
2FB
331
25B
  5
25F
331
26C
  5
270
331
24A
  5
24E
331
23D
  5
241
331
22C
  5
230
  0
XRECORD
  5
383
102
{ACAD_REACTORS
330
148
102
}
330
148
100
AcDbXrecord
340
50
  0
MLINESTYLE
  5
18
102
{ACAD_REACTORS
330
17
102
}
330
17
100
AcDbMlineStyle
  2
STANDARD
 70
     0
  3

 62
   256
 51
90.0
 52
90.0
 71
     2
 49
0.5
 62
   256
  6
BYLAYER
 49
-0.5
 62
   256
  6
BYLAYER
  0
ENDSEC
  0
EOF
