  0
SECTION
  2
HEADER
  9
$ACADVER
  1
AC1012
  9
$DWGCODEPAGE
  3
ANSI_1252
  9
$INSBASE
 10
0.0
 20
0.0
 30
0.0
  9
$EXTMIN
 10
-4.649352520431193
 20
-26.01232696562442
 30
0.0
  9
$EXTMAX
 10
5674.971878073929
 20
4219.985341971768
 30
1.0
  9
$LIMMIN
 10
0.0
 20
0.0
  9
$LIMMAX
 10
420.0
 20
297.0
  9
$ORTHOMODE
 70
     0
  9
$REGENMODE
 70
     1
  9
$FILLMODE
 70
     1
  9
$QTEXTMODE
 70
     0
  9
$MIRRTEXT
 70
     1
  9
$DRAGMODE
 70
     2
  9
$LTSCALE
 40
1.0
  9
$OSMODE
 70
  3071
  9
$ATTMODE
 70
     1
  9
$TEXTSIZE
 40
2.5
  9
$TRACEWID
 40
1.0
  9
$TEXTSTYLE
  7
STANDARD
  9
$CLAYER
  8
HATCH
  9
$CELTYPE
  6
BYLAYER
  9
$CECOLOR
 62
   256
  9
$CELTSCALE
 40
1.0
  9
$DELOBJ
 70
     1
  9
$DISPSILH
 70
     0
  9
$DIMSCALE
 40
1.0
  9
$DIMASZ
 40
2.5
  9
$DIMEXO
 40
0.625
  9
$DIMDLI
 40
3.75
  9
$DIMRND
 40
0.0
  9
$DIMDLE
 40
0.0
  9
$DIMEXE
 40
1.25
  9
$DIMTP
 40
0.0
  9
$DIMTM
 40
0.0
  9
$DIMTXT
 40
2.5
  9
$DIMCEN
 40
2.5
  9
$DIMTSZ
 40
0.0
  9
$DIMTOL
 70
     0
  9
$DIMLIM
 70
     0
  9
$DIMTIH
 70
     0
  9
$DIMTOH
 70
     0
  9
$DIMSE1
 70
     0
  9
$DIMSE2
 70
     0
  9
$DIMTAD
 70
     1
  9
$DIMZIN
 70
     8
  9
$DIMBLK
  1

  9
$DIMASO
 70
     1
  9
$DIMSHO
 70
     1
  9
$DIMPOST
  1

  9
$DIMAPOST
  1

  9
$DIMALT
 70
     0
  9
$DIMALTD
 70
     3
  9
$DIMALTF
 40
0.03937007874016
  9
$DIMLFAC
 40
1.0
  9
$DIMTOFL
 70
     1
  9
$DIMTVP
 40
0.0
  9
$DIMTIX
 70
     0
  9
$DIMSOXD
 70
     0
  9
$DIMSAH
 70
     0
  9
$DIMBLK1
  1

  9
$DIMBLK2
  1

  9
$DIMSTYLE
  2
ISO-25
  9
$DIMCLRD
 70
     0
  9
$DIMCLRE
 70
     0
  9
$DIMCLRT
 70
     0
  9
$DIMTFAC
 40
1.0
  9
$DIMGAP
 40
0.625
  9
$DIMJUST
 70
     0
  9
$DIMSD1
 70
     0
  9
$DIMSD2
 70
     0
  9
$DIMTOLJ
 70
     0
  9
$DIMTZIN
 70
     8
  9
$DIMALTZ
 70
     0
  9
$DIMALTTZ
 70
     0
  9
$DIMFIT
 70
     3
  9
$DIMUPT
 70
     0
  9
$DIMUNIT
 70
     2
  9
$DIMDEC
 70
     2
  9
$DIMTDEC
 70
     2
  9
$DIMALTU
 70
     2
  9
$DIMALTTD
 70
     3
  9
$DIMTXSTY
  7
STANDARD
  9
$DIMAUNIT
 70
     0
  9
$LUNITS
 70
     2
  9
$LUPREC
 70
     4
  9
$SKETCHINC
 40
1.0
  9
$FILLETRAD
 40
10.0
  9
$AUNITS
 70
     0
  9
$AUPREC
 70
     0
  9
$MENU
  1
.
  9
$ELEVATION
 40
0.0
  9
$PELEVATION
 40
0.0
  9
$THICKNESS
 40
0.0
  9
$LIMCHECK
 70
     0
  9
$BLIPMODE
 70
     0
  9
$CHAMFERA
 40
10.0
  9
$CHAMFERB
 40
10.0
  9
$CHAMFERC
 40
20.0
  9
$CHAMFERD
 40
0.0
  9
$SKPOLY
 70
     0
  9
$TDCREATE
 40
2452626.506224190
  9
$TDUPDATE
 40
2452772.462387384
  9
$TDINDWG
 40
0.0073487269
  9
$TDUSRTIMER
 40
0.0073396991
  9
$USRTIMER
 70
     1
  9
$ANGBASE
 50
0.0
  9
$ANGDIR
 70
     0
  9
$PDMODE
 70
     0
  9
$PDSIZE
 40
0.0
  9
$PLINEWID
 40
0.0
  9
$COORDS
 70
     2
  9
$SPLFRAME
 70
     0
  9
$SPLINETYPE
 70
     6
  9
$SPLINESEGS
 70
     8
  9
$ATTDIA
 70
     0
  9
$ATTREQ
 70
     1
  9
$HANDLING
 70
-16383
  9
$HANDSEED
  5
4A9
  9
$SURFTAB1
 70
     6
  9
$SURFTAB2
 70
     6
  9
$SURFTYPE
 70
     6
  9
$SURFU
 70
     6
  9
$SURFV
 70
     6
  9
$UCSNAME
  2

  9
$UCSORG
 10
0.0
 20
0.0
 30
0.0
  9
$UCSXDIR
 10
1.0
 20
0.0
 30
0.0
  9
$UCSYDIR
 10
0.0
 20
1.0
 30
0.0
  9
$PUCSNAME
  2

  9
$PUCSORG
 10
0.0
 20
0.0
 30
0.0
  9
$PUCSXDIR
 10
1.0
 20
0.0
 30
0.0
  9
$PUCSYDIR
 10
0.0
 20
1.0
 30
0.0
  9
$USERI1
 70
     0
  9
$USERI2
 70
     0
  9
$USERI3
 70
     0
  9
$USERI4
 70
     0
  9
$USERI5
 70
     0
  9
$USERR1
 40
0.0
  9
$USERR2
 40
0.0
  9
$USERR3
 40
0.0
  9
$USERR4
 40
0.0
  9
$USERR5
 40
0.0
  9
$WORLDVIEW
 70
     1
  9
$SHADEDGE
 70
     3
  9
$SHADEDIF
 70
    70
  9
$TILEMODE
 70
     1
  9
$MAXACTVP
 70
    64
  9
$PINSBASE
 10
0.0
 20
0.0
 30
0.0
  9
$PLIMCHECK
 70
     0
  9
$PEXTMIN
 10
0.0
 20
0.0
 30
0.0
  9
$PEXTMAX
 10
0.0
 20
0.0
 30
0.0
  9
$PLIMMIN
 10
0.0
 20
0.0
  9
$PLIMMAX
 10
12.0
 20
9.0
  9
$UNITMODE
 70
     0
  9
$VISRETAIN
 70
     1
  9
$PLINEGEN
 70
     0
  9
$PSLTSCALE
 70
     1
  9
$TREEDEPTH
 70
  3020
  9
$PICKSTYLE
 70
     1
  9
$CMLSTYLE
  2
STANDARD
  9
$CMLJUST
 70
     0
  9
$CMLSCALE
 40
20.0
  9
$SAVEIMAGES
 70
     1
  0
ENDSEC
  0
SECTION
  2
CLASSES
  0
CLASS
  1
ACDBDICTIONARYWDFLT
  2
AcDbDictionaryWithDefault
  3
AutoCAD 2000
 90
    32768
280
     0
281
     0
  0
CLASS
  1
ACDBPLACEHOLDER
  2
AcDbPlaceHolder
  3
AutoCAD 2000
 90
    32768
280
     0
281
     0
  0
CLASS
  1
LAYOUT
  2
AcDbLayout
  3
AutoCAD 2000
 90
    32768
280
     0
281
     0
  0
CLASS
  1
LONG_TRANSACTION
  2
AcDbLongTransaction
  3
AutoCAD 2000
 90
    32768
280
     0
281
     0
  0
CLASS
  1
LWPOLYLINE
  2
AcDbPolyline
  3
AutoCAD 2000
 90
    32768
280
     0
281
     1
  0
CLASS
  1
HATCH
  2
AcDbHatch
  3
AutoCAD 2000
 90
    32768
280
     0
281
     1
  0
CLASS
  1
XRECORD
  2
AcDbXrecord
  3
AutoCAD 2000
 90
    32768
280
     0
281
     0
  0
CLASS
  1
LONG_TRANSACTION
  2
AcDbLongTransaction
  3
AutoCAD 2000
 90
    32768
280
     0
281
     0
  0
CLASS
  1
LWPOLYLINE
  2
AcDbPolyline
  3
AutoCAD 2000
 90
    32768
280
     0
281
     1
  0
CLASS
  1
HATCH
  2
AcDbHatch
  3
AutoCAD 2000
 90
    32768
280
     0
281
     1
  0
CLASS
  1
XRECORD
  2
AcDbXrecord
  3
AutoCAD 2000
 90
    32768
280
     0
281
     0
  0
CLASS
  1
LONG_TRANSACTION
  2
AcDbLongTransaction
  3
AutoCAD 2000
 90
    32768
280
     0
281
     0
  0
CLASS
  1
LWPOLYLINE
  2
AcDbPolyline
  3
AutoCAD 2000
 90
    32768
280
     0
281
     1
  0
CLASS
  1
HATCH
  2
AcDbHatch
  3
AutoCAD 2000
 90
    32768
280
     0
281
     1
  0
CLASS
  1
XRECORD
  2
AcDbXrecord
  3
AutoCAD 2000
 90
    32768
280
     0
281
     0
  0
CLASS
  1
DICTIONARYVAR
  2
AcDbDictionaryVar
  3
AutoCAD 2000
 90
    32768
280
     0
281
     0
  0
CLASS
  1
SORTENTSTABLE
  2
AcDbSortentsTable
  3
AutoCAD 2000
 90
    32768
280
     0
281
     0
  0
CLASS
  1
LONG_TRANSACTION
  2
AcDbLongTransaction
  3
AutoCAD 2000
 90
    32768
280
     0
281
     0
  0
CLASS
  1
LWPOLYLINE
  2
AcDbPolyline
  3
AutoCAD 2000
 90
    32768
280
     0
281
     1
  0
CLASS
  1
HATCH
  2
AcDbHatch
  3
AutoCAD 2000
 90
    32768
280
     0
281
     1
  0
CLASS
  1
XRECORD
  2
AcDbXrecord
  3
AutoCAD 2000
 90
    32768
280
     0
281
     0
  0
ENDSEC
  0
SECTION
  2
TABLES
  0
TABLE
  2
VPORT
  5
8
330
0
100
AcDbSymbolTable
 70
     2
  0
VPORT
  5
3ED
330
8
100
AcDbSymbolTableRecord
100
AcDbViewportTableRecord
  2
*ACTIVE
 70
     0
 10
0.0
 20
0.0
 11
1.0
 21
1.0
 12
2459.52190585269
 22
1346.211316835599
 13
0.0
 23
0.0
 14
10.0
 24
10.0
 15
10.0
 25
10.0
 16
0.0
 26
0.0
 36
1.0
 17
0.0
 27
0.0
 37
0.0
 40
7141.896413907892
 41
1.52092050209205
 42
50.0
 43
0.0
 44
0.0
 50
0.0
 51
0.0
 71
     0
 72
   100
 73
     1
 74
     3
 75
     0
 76
     0
 77
     0
 78
     0
  0
ENDTAB
  0
TABLE
  2
LTYPE
  5
5
330
0
100
AcDbSymbolTable
 70
     2
  0
LTYPE
  5
14
330
5
100
AcDbSymbolTableRecord
100
AcDbLinetypeTableRecord
  2
BYBLOCK
 70
     0
  3

 72
    65
 73
     0
 40
0.0
  0
LTYPE
  5
15
330
5
100
AcDbSymbolTableRecord
100
AcDbLinetypeTableRecord
  2
BYLAYER
 70
     0
  3

 72
    65
 73
     0
 40
0.0
  0
LTYPE
  5
16
330
5
100
AcDbSymbolTableRecord
100
AcDbLinetypeTableRecord
  2
CONTINUOUS
 70
     0
  3
Solid line
 72
    65
 73
     0
 40
0.0
  0
LTYPE
  5
5D
330
5
100
AcDbSymbolTableRecord
100
AcDbLinetypeTableRecord
  2
DASHED
 70
     0
  3
Dashed __ __ __ __ __ __ __ __ __ __ __ __ __ _
 72
    65
 73
     2
 40
0.75
 49
0.5
 74
     0
 49
-0.25
 74
     0
  0
ENDTAB
  0
TABLE
  2
LAYER
  5
2
330
0
100
AcDbSymbolTable
 70
     5
  0
LAYER
  5
10
330
2
100
AcDbSymbolTableRecord
100
AcDbLayerTableRecord
  2
0
 70
     0
 62
     7
  6
CONTINUOUS
  0
LAYER
  5
5E
330
2
100
AcDbSymbolTableRecord
100
AcDbLayerTableRecord
  2
OBJECT
 70
     0
 62
     7
  6
CONTINUOUS
  0
LAYER
  5
5F
330
2
100
AcDbSymbolTableRecord
100
AcDbLayerTableRecord
  2
SAFETY
 70
     0
 62
     7
  6
CONTINUOUS
  0
LAYER
  5
227
330
2
100
AcDbSymbolTableRecord
100
AcDbLayerTableRecord
  2
TEKST
 70
     0
 62
     7
  6
CONTINUOUS
  0
LAYER
  5
2B6
330
2
100
AcDbSymbolTableRecord
100
AcDbLayerTableRecord
  2
HATCH
 70
     0
 62
     7
  6
CONTINUOUS
  0
ENDTAB
  0
TABLE
  2
STYLE
  5
3
330
0
100
AcDbSymbolTable
 70
     2
  0
STYLE
  5
11
330
3
100
AcDbSymbolTableRecord
100
AcDbTextStyleTableRecord
  2
STANDARD
 70
     0
 40
0.0
 41
1.0
 50
0.0
 71
     0
 42
2.5
  3
txt
  4

  0
STYLE
  5
60
330
3
100
AcDbSymbolTableRecord
100
AcDbTextStyleTableRecord
  2
STYLE1
 70
     0
 40
20.0
 41
1.0
 50
0.0
 71
     0
 42
20.0
  3
romans.shx
  4

  0
ENDTAB
  0
TABLE
  2
VIEW
  5
6
330
0
100
AcDbSymbolTable
 70
     0
  0
ENDTAB
  0
TABLE
  2
UCS
  5
7
330
0
100
AcDbSymbolTable
 70
     0
  0
ENDTAB
  0
TABLE
  2
APPID
  5
9
330
0
100
AcDbSymbolTable
 70
     3
  0
APPID
  5
12
330
9
100
AcDbSymbolTableRecord
100
AcDbRegAppTableRecord
  2
ACAD
 70
     0
  0
APPID
  5
62
330
9
100
AcDbSymbolTableRecord
100
AcDbRegAppTableRecord
  2
AVE_FINISH
 70
     0
  0
APPID
  5
21F
330
9
100
AcDbSymbolTableRecord
100
AcDbRegAppTableRecord
  2
CONTENTBLOCKICON
 70
     0
  0
ENDTAB
  0
TABLE
  2
DIMSTYLE
  5
A
330
0
100
AcDbSymbolTable
 70
     2
  0
DIMSTYLE
105
27
330
A
100
AcDbSymbolTableRecord
100
AcDbDimStyleTableRecord
  2
ISO-25
 70
     0
  3

  4

  5

  6

  7

 40
1.0
 41
2.5
 42
0.625
 43
3.75
 44
1.25
 45
0.0
 46
0.0
 47
0.0
 48
0.0
140
2.5
141
2.5
142
0.0
143
0.03937007874016
144
1.0
145
0.0
146
1.0
147
0.625
 71
     0
 72
     0
 73
     0
 74
     0
 75
     0
 76
     0
 77
     1
 78
     8
170
     0
171
     3
172
     1
173
     0
174
     0
175
     0
176
     0
177
     0
178
     0
270
     2
271
     2
272
     2
273
     2
274
     3
340
11
275
     0
280
     0
281
     0
282
     0
283
     0
284
     8
285
     0
286
     0
287
     3
288
     0
  0
DIMSTYLE
105
61
330
A
100
AcDbSymbolTableRecord
100
AcDbDimStyleTableRecord
  2
STANDARD
 70
     0
  3

  4

  5

  6

  7

 40
5.0
 41
4.0
 42
1.0
 43
7.0
 44
1.0
 45
0.0
 46
0.0
 47
0.0
 48
0.0
140
20.0
141
0.09
142
0.0
143
25.4
144
1.0
145
0.0
146
1.0
147
1.0
 71
     0
 72
     0
 73
     0
 74
     0
 75
     0
 76
     0
 77
     1
 78
     8
170
     0
171
     2
172
     1
173
     0
174
     0
175
     0
176
     1
177
     1
178
     1
270
     2
271
     1
272
     0
273
     2
274
     2
340
60
275
     0
280
     0
281
     0
282
     0
283
     1
284
     0
285
     0
286
     0
287
     3
288
     0
  0
ENDTAB
  0
TABLE
  2
BLOCK_RECORD
  5
1
330
0
100
AcDbSymbolTable
 70
     6
  0
BLOCK_RECORD
  5
1F
102
{ACAD_XDICTIONARY
360
174
102
}
330
1
100
AcDbSymbolTableRecord
100
AcDbBlockTableRecord
  2
*MODEL_SPACE
  0
BLOCK_RECORD
  5
50
102
{ACAD_XDICTIONARY
360
176
102
}
330
1
100
AcDbSymbolTableRecord
100
AcDbBlockTableRecord
  2
*PAPER_SPACE
  0
BLOCK_RECORD
  5
181
330
1
100
AcDbSymbolTableRecord
100
AcDbBlockTableRecord
  2
ABKA0
1001
ACAD
1000
DesignCenter Data
1002
{
1070
     1
1070
     4
1002
}
  0
BLOCK_RECORD
  5
3F0
330
1
100
AcDbSymbolTableRecord
100
AcDbBlockTableRecord
  2
*U1
  0
BLOCK_RECORD
  5
3FB
330
1
100
AcDbSymbolTableRecord
100
AcDbBlockTableRecord
  2
*U2
  0
BLOCK_RECORD
  5
41C
330
1
100
AcDbSymbolTableRecord
100
AcDbBlockTableRecord
  2
*U3
  0
BLOCK_RECORD
  5
437
330
1
100
AcDbSymbolTableRecord
100
AcDbBlockTableRecord
  2
*U4
  0
BLOCK_RECORD
  5
43E
330
1
100
AcDbSymbolTableRecord
100
AcDbBlockTableRecord
  2
*U5
  0
ENDTAB
  0
ENDSEC
  0
SECTION
  2
BLOCKS
  0
BLOCK
  5
20
330
1F
100
AcDbEntity
  8
0
100
AcDbBlockBegin
  2
*MODEL_SPACE
 70
     0
 10
0.0
 20
0.0
 30
0.0
  3
*MODEL_SPACE
  1

  0
ENDBLK
  5
21
330
1F
100
AcDbEntity
  8
0
100
AcDbBlockEnd
  0
BLOCK
  5
52
330
50
100
AcDbEntity
 67
     1
  8
0
100
AcDbBlockBegin
  2
*PAPER_SPACE
 70
     0
 10
0.0
 20
0.0
 30
0.0
  3
*PAPER_SPACE
  1

  0
ENDBLK
  5
53
330
50
100
AcDbEntity
 67
     1
  8
0
100
AcDbBlockEnd
  0
BLOCK
  5
182
330
181
100
AcDbEntity
  8
0
100
AcDbBlockBegin
  2
ABKA0
 70
     0
 10
0.0
 20
0.0
 30
0.0
  3
ABKA0
  1

  0
INSERT
  5
36D
330
181
100
AcDbEntity
  8
HATCH
  6
CONTINUOUS
 62
     2
100
AcDbBlockReference
  2
*U1
 10
0.0
 20
0.0
 30
0.0
1001
ACAD
1002
{
1000
R14_HATCH_DATA
1000
36D
1011
1.0
1021
0.0
1031
0.0
1011
0.0
1021
1.0
1031
0.0
1011
0.0
1021
0.0
1031
1.0
1040
0.0
1010
0.0
1020
0.0
1030
1.0
1000
SOLID
1070
     1
1070
     1
1071
        2
1071
        7
1070
     0
1070
     1
1071
        6
1040
2437.661417406358
1040
2164.032893738153
1040
2437.661417406358
1040
2204.204884010659
1040
2397.464535700066
1040
2204.204884010659
1040
2397.464535700065
1040
2023.430907820763
1040
2437.661417406357
1040
2023.430907820762
1040
2437.661417406357
1040
2063.602898093269
1071
        6
1005
3AA
1005
3AB
1005
37B
1005
394
1005
395
1005
37A
1071
        7
1070
     0
1070
     1
1071
        6
1040
3448.325853239904
1040
2063.602898093269
1040
3448.325853239904
1040
2023.430907820763
1040
3479.909104721631
1040
2023.430907820763
1040
3479.909104721631
1040
2204.204884010659
1040
3448.325853239905
1040
2204.204884010659
1040
3448.325853239905
1040
2164.032893738153
1071
        6
1005
3DA
1005
3D9
1005
3B3
1005
3C2
1005
3C3
1005
3B4
1070
     0
1070
     1
1040
2.371407896553095
1071
        2
1040
2401.874426061815
1040
2136.821372020009
1040
0.0
1040
3460.279151471797
1040
2146.307003048974
1040
0.0
1002
}
  0
INSERT
  5
36E
330
181
100
AcDbEntity
  8
HATCH
  6
CONTINUOUS
 62
     1
100
AcDbBlockReference
  2
*U2
 10
0.0
 20
0.0
 30
0.0
1001
ACAD
1002
{
1000
R14_HATCH_DATA
1000
36E
1011
1.0
1021
0.0
1031
0.0
1011
0.0
1021
1.0
1031
0.0
1011
0.0
1021
0.0
1031
1.0
1040
0.0
1010
0.0
1020
0.0
1030
1.0
1000
SOLID
1070
     1
1070
     0
1071
        7
1071
        7
1070
     0
1070
     1
1071
        4
1040
4048.40785797005
1040
2143.946898601899
1040
3973.756503917777
1040
2143.946898601899
1040
3973.756503917777
1040
2123.860893483834
1040
4048.40785797005
1040
2123.860893483834
1071
        0
1071
        7
1070
     0
1070
     1
1071
        4
1040
4048.407857970049
1040
2103.774898347587
1040
3973.756503917777
1040
2103.774898347587
1040
3973.756503917777
1040
2083.688893229522
1040
4048.407857970049
1040
2083.688893229522
1071
        0
1071
        7
1070
     0
1070
     1
1071
       10
1040
3563.174072814374
1040
2169.77174521345
1040
3545.946844733434
1040
2172.641175942001
1040
3545.946844733434
1040
2273.071161605078
1040
3479.909104721631
1040
2273.071161605078
1040
3479.909104721631
1040
2204.204884010659
1040
3479.909104721631
1040
2023.430907820763
1040
3479.909104721631
1040
1954.564630226342
1040
3545.946844733432
1040
1954.564630226341
1040
3545.946844733432
1040
2054.994615889421
1040
3563.174072814373
1040
2057.864046617972
1071
        0
1071
        7
1070
     0
1070
     1
1071
        8
1040
3448.325853239905
1040
2139.032893738153
1040
3198.530948961677
1040
2139.032893738153
1040
2684.585117004429
1040
2139.032893738153
1040
2437.661417406357
1040
2139.032893738153
1040
2437.661417406357
1040
2088.602898093268
1040
2684.585117004429
1040
2088.602898093268
1040
3198.530948961677
1040
2088.602898093268
1040
3448.325853239904
1040
2088.602898093268
1071
        0
1071
        7
1070
     0
1070
     1
1071
       10
1040
2397.464535700066
1040
2204.204884010659
1040
2397.464535700066
1040
2273.071161605078
1040
2340.04042591283
1040
2273.071161605077
1040
2340.04042591283
1040
2178.380027417297
1040
2322.813181647791
1040
2169.771745213449
1040
2322.813181647789
1040
2057.864046617972
1040
2340.040425912829
1040
2049.255764414124
1040
2340.040425912829
1040
1954.564630226341
1040
2397.464535700064
1040
1954.564630226341
1040
2397.464535700065
1040
2023.430907820763
1071
        0
1071
        7
1070
     0
1070
     1
1071
        4
1040
1912.230750544386
1040
2143.946898601899
1040
1837.579396492114
1040
2143.946898601899
1040
1837.579396492114
1040
2123.860893483833
1040
1912.230750544385
1040
2123.860893483834
1071
        0
1071
        7
1070
     0
1070
     1
1071
        4
1040
1912.230750544386
1040
2103.774898347587
1040
1837.579396492115
1040
2103.774898347587
1040
1837.579396492115
1040
2083.688893229522
1040
1912.230750544385
1040
2083.688893229522
1071
        0
1070
     0
1070
     1
1040
4.640655647259539
1071
        7
1040
4012.11655079426
1040
2135.454644657902
1040
0.0
1040
4012.11655079426
1040
2089.048087297838
1040
0.0
1040
3505.923134864512
1040
2116.89201973668
1040
0.0
1040
3366.60384621445
1040
2102.970053517259
1040
0.0
1040
2391.368825664018
1040
2112.251370920863
1040
0.0
1040
1857.311555011414
1040
2130.813985956101
1040
0.0
1040
1866.599511597629
1040
2093.688745999641
1040
0.0
1002
}
  0
INSERT
  5
36F
330
181
100
AcDbEntity
  8
HATCH
  6
CONTINUOUS
 62
     2
100
AcDbBlockReference
  2
*U3
 10
0.0
 20
0.0
 30
0.0
1001
ACAD
1002
{
1000
R14_HATCH_DATA
1000
36F
1011
1.0
1021
0.0
1031
0.0
1011
0.0
1021
1.0
1031
0.0
1011
0.0
1021
0.0
1031
1.0
1040
0.0
1010
0.0
1020
0.0
1030
1.0
1000
SOLID
1070
     1
1070
     1
1071
        7
1071
        7
1070
     0
1070
     1
1071
        6
1040
1912.230750544386
1040
2123.860893483834
1040
1837.579396492114
1040
2123.860893483834
1040
1616.496555199548
1040
2123.860893483834
1040
1616.496555199549
1040
2103.774898347587
1040
1837.579396492115
1040
2103.774898347587
1040
1912.230750544385
1040
2103.774898347587
1071
        6
1005
3E8
1005
397
1005
399
1005
398
1005
3E9
1005
37E
1071
        7
1070
     0
1070
     1
1071
        4
1040
2775.622840832136
1040
2628.880252527772
1040
2750.622840832136
1040
2628.880252527772
1040
2750.622840832138
1040
2528.880252527772
1040
2775.622840832136
1040
2528.880252527772
1071
        4
1005
3B0
1005
3AC
1005
3AE
1005
3AD
1071
        7
1070
     0
1070
     1
1071
        4
1040
3141.106822990343
1040
2628.880252527772
1040
3116.106822990343
1040
2628.880252527772
1040
3116.106822990344
1040
2528.880252527772
1040
3141.106822990344
1040
2528.880252527772
1071
        4
1005
3D6
1005
3D3
1005
3D4
1005
3D2
1071
        7
1070
     0
1070
     1
1071
        4
1040
3141.106822990341
1040
1698.755539303648
1040
3116.106822990343
1040
1698.755539303649
1040
3116.106822990341
1040
1598.755539303648
1040
3141.106822990341
1040
1598.755539303648
1071
        4
1005
3BF
1005
3BC
1005
3BE
1005
3BB
1071
        7
1070
     0
1070
     1
1071
        4
1040
2775.622840832136
1040
1698.755539303649
1040
2750.622840832136
1040
1698.755539303648
1040
2750.622840832136
1040
1598.755539303652
1040
2775.622840832134
1040
1598.755539303647
1071
        4
1005
390
1005
38C
1005
38F
1005
38D
1071
        7
1070
     0
1070
     1
1071
        8
1040
2684.585117004429
1040
2139.032893738153
1040
3198.530948961677
1040
2139.032893738153
1040
3448.325853239905
1040
2139.032893738153
1040
3448.325853239905
1040
2164.032893738153
1040
3198.530948961677
1040
2164.032893738153
1040
2684.585117004429
1040
2164.032893738153
1040
2437.661417406358
1040
2164.032893738153
1040
2437.661417406357
1040
2139.032893738153
1071
        8
1005
3CF
1005
376
1005
3A7
1005
37A
1005
3A8
1005
377
1005
3D0
1005
3B3
1071
        7
1070
     0
1070
     1
1071
        8
1040
2684.585117004429
1040
2063.602898093269
1040
3198.530948961677
1040
2063.602898093269
1040
3448.325853239903
1040
2063.602898093269
1040
3448.325853239905
1040
2088.602898093268
1040
3198.530948961677
1040
2088.602898093268
1040
2684.585117004429
1040
2088.602898093268
1040
2437.661417406357
1040
2088.602898093268
1040
2437.661417406357
1040
2063.602898093269
1071
        8
1005
3B9
1005
378
1005
392
1005
37A
1005
391
1005
375
1005
3B8
1005
3B3
1070
     0
1070
     1
1040
4.379727255390789
1071
        7
1040
1873.849655549096
1040
2111.036822206433
1040
0.0
1040
2765.902139026541
1040
2588.41816940782
1040
0.0
1040
3129.679619447222
1040
2584.038444651303
1040
0.0
1040
3129.679619447222
1040
1664.295716317971
1040
0.0
1040
2757.136418757385
1040
1638.017347799064
1040
0.0
1040
2594.970564027775
1040
2150.44544400859
1040
0.0
1040
2586.204843758623
1040
2075.990073198292
1040
0.0
1002
}
  0
INSERT
  5
370
330
181
100
AcDbEntity
  8
HATCH
  6
CONTINUOUS
 62
     2
100
AcDbBlockReference
  2
*U4
 10
0.0
 20
0.0
 30
0.0
1001
ACAD
1002
{
1000
R14_HATCH_DATA
1000
370
1011
1.0
1021
0.0
1031
0.0
1011
0.0
1021
1.0
1031
0.0
1011
0.0
1021
0.0
1031
1.0
1040
0.0
1010
0.0
1020
0.0
1030
1.0
1000
SOLID
1070
     1
1070
     1
1071
        1
1071
        7
1070
     0
1070
     1
1071
        6
1040
4269.490699262616
1040
2123.860893483834
1040
4048.40785797005
1040
2123.860893483834
1040
3973.756503917777
1040
2123.860893483834
1040
3973.756503917777
1040
2103.774898347587
1040
4048.40785797005
1040
2103.774898347587
1040
4269.490699262616
1040
2103.774898347587
1071
        6
1005
3DF
1005
3EA
1005
3B2
1005
3EB
1005
3E0
1005
3E7
1070
     0
1070
     1
1040
1.486780251899007
1071
        1
1040
4171.714887223099
1040
2108.144110470206
1040
0.0
1002
}
  0
INSERT
  5
371
330
181
100
AcDbEntity
  8
HATCH
  6
CONTINUOUS
 62
   251
100
AcDbBlockReference
  2
*U5
 10
0.0
 20
0.0
 30
0.0
1001
ACAD
1002
{
1000
R14_HATCH_DATA
1000
371
1011
1.0
1021
0.0
1031
0.0
1011
0.0
1021
1.0
1031
0.0
1011
0.0
1021
0.0
1031
1.0
1040
0.0
1010
0.0
1020
0.0
1030
1.0
1000
SOLID
1070
     1
1070
     1
1071
       12
1071
        7
1070
     0
1070
     1
1071
       16
1040
3815.840181772761
1040
2258.724017944122
1040
3721.090394959393
1040
2238.638022807871
1040
3652.181450267431
1040
2189.857740349704
1040
3574.658907719099
1040
2178.380027417298
1040
3563.174072814373
1040
2169.77174521345
1040
3563.174072814373
1040
2057.864046617972
1040
3574.658907719098
1040
2049.255764414124
1040
3652.18145026743
1040
2037.778051481716
1040
3721.090394959389
1040
1988.99776902355
1040
3815.840181772759
1040
1968.9117738873
1040
3916.332377946442
1040
1968.9117738873
1040
3973.756503917776
1040
2017.692046363656
1040
3973.756503917777
1040
2083.688893229522
1040
3973.756503917777
1040
2143.946898601899
1040
3973.756503917776
1040
2209.943745467764
1040
3916.332377946443
1040
2258.724017944122
1071
       16
1005
3E5
1005
3E1
1005
3E3
1005
3E2
1005
3CD
1005
3DC
1005
3DD
1005
3B5
1005
3C7
1005
3C4
1005
3B6
1005
3CA
1005
3C9
1005
3C8
1005
3CC
1005
3B2
1071
       22
1070
     1
1070
     1
1071
        2
1040
3702.549760258622
1040
2178.866666293936
1040
-1.0
1040
3736.530358457934
1040
2178.866666293936
1040
-1.0
1071
        1
1005
3CE
1071
       22
1070
     1
1070
     1
1071
        2
1040
3736.530358457934
1040
2048.769125537482
1040
-1.0
1040
3702.549760258622
1040
2048.769125537482
1040
-1.0
1071
        1
1005
3B7
1071
        7
1070
     1
1070
     1
1071
        6
1040
3198.530948961677
1040
2164.032893738153
1040
0.0
1040
3198.530948961677
1040
2614.963094529892
1040
0.4142135623730951
1040
3098.530948961677
1040
2714.963094529892
1040
0.0
1040
2784.58511700443
1040
2714.963094529892
1040
0.4142135623730978
1040
2684.585117004429
1040
2614.963094529892
1040
0.0
1040
2684.585117004429
1040
2164.032893738152
1040
0.0
1071
        6
1005
3D5
1005
373
1005
3AF
1005
3A6
1005
376
1005
3D1
1071
       22
1070
     0
1070
     1
1071
        4
1040
3116.106822990345
1040
2528.880252527768
1040
3116.106822990343
1040
2628.880252527772
1040
3141.106822990343
1040
2628.880252527772
1040
3141.106822990344
1040
2528.880252527772
1071
        4
1005
3D3
1005
3D6
1005
3D2
1005
3D4
1071
       22
1070
     0
1070
     1
1071
        4
1040
2775.622840832133
1040
2528.880252527772
1040
2750.622840832138
1040
2528.880252527772
1040
2750.622840832136
1040
2628.880252527772
1040
2775.622840832136
1040
2628.880252527772
1071
        4
1005
3AE
1005
3AC
1005
3B0
1005
3AD
1071
        7
1070
     1
1070
     1
1071
        6
1040
2684.585117004428
1040
1612.672697301528
1040
0.4142135623730937
1040
2784.585117004427
1040
1512.672697301528
1040
0.0
1040
3098.530948961672
1040
1512.672697301526
1040
0.4142135623730984
1040
3198.530948961674
1040
1612.672697301525
1040
0.0
1040
3198.530948961677
1040
2063.602898093269
1040
0.0
1040
2684.585117004429
1040
2063.602898093269
1040
0.0
1071
        6
1005
375
1005
38B
1005
38E
1005
374
1005
3BD
1005
3BA
1071
       22
1070
     0
1070
     1
1071
        4
1040
2775.622840832136
1040
1698.755539303649
1040
2775.622840832134
1040
1598.755539303648
1040
2750.622840832136
1040
1598.755539303652
1040
2750.622840832136
1040
1698.755539303649
1071
        4
1005
38D
1005
38F
1005
38C
1005
390
1071
       22
1070
     0
1070
     1
1071
        4
1040
3116.106822990342
1040
1698.755539303649
1040
3141.106822990341
1040
1698.755539303648
1040
3141.106822990341
1040
1598.755539303648
1040
3116.106822990341
1040
1598.755539303648
1071
        4
1005
3BF
1005
3BB
1005
3BE
1005
3BC
1071
        7
1070
     0
1070
     1
1071
       16
1040
2322.813181647791
1040
2169.77174521345
1040
2311.328346743066
1040
2178.380027417298
1040
2233.805804194733
1040
2189.857740349704
1040
2164.896859502773
1040
2238.638022807871
1040
2070.147072689402
1040
2258.724017944122
1040
1969.654876515718
1040
2258.724017944122
1040
1912.230750544385
1040
2209.943745467764
1040
1912.230750544386
1040
2143.946898601899
1040
1912.230750544386
1040
2083.688893229522
1040
1912.230750544386
1040
2017.692046363657
1040
1969.654876515721
1040
1968.9117738873
1040
2070.147072689402
1040
1968.911773887299
1040
2164.896859502773
1040
1988.99776902355
1040
2233.805804194732
1040
2037.778051481716
1040
2311.328346743067
1040
2049.255764414124
1040
2322.813181647789
1040
2057.86404661797
1071
       16
1005
3A5
1005
3A3
1005
39F
1005
3A0
1005
3A1
1005
396
1005
39A
1005
37E
1005
381
1005
37F
1005
385
1005
386
1005
384
1005
387
1005
38A
1005
37C
1071
       22
1070
     1
1070
     1
1071
        2
1040
2149.456896004231
1040
2048.769125537482
1040
-1.0
1040
2183.437494203543
1040
2048.769125537482
1040
-1.0
1071
        1
1005
383
1071
       22
1070
     1
1070
     1
1071
        2
1040
2149.456896004231
1040
2178.866666293936
1040
-1.0
1040
2183.437494203543
1040
2178.866666293936
1040
-1.0
1071
        1
1005
39E
1070
     0
1070
     1
1040
4.640655647259539
1071
       12
1040
3831.00148005992
1040
2140.095303359705
1040
0.0
1040
3831.00148005992
1040
2140.095303359705
1040
0.0
1040
3831.00148005992
1040
2140.095303359705
1040
0.0
1040
3004.373704745765
1040
2242.189725597451
1040
0.0
1040
3004.373704745765
1040
2242.189725597451
1040
0.0
1040
3004.373704745765
1040
2242.189725597451
1040
0.0
1040
2920.782125541411
1040
1782.764810698616
1040
0.0
1040
2920.782125541411
1040
1782.764810698616
1040
0.0
1040
2920.782125541411
1040
1782.764810698616
1040
0.0
1040
2275.269420961598
1040
2093.688745999641
1040
0.0
1040
2275.269420961598
1040
2093.688745999641
1040
0.0
1040
2275.269420961598
1040
2093.688745999641
1040
0.0
1002
}
  0
MTEXT
  5
372
330
181
100
AcDbEntity
  8
OBJECT
100
AcDbMText
 10
2606.658712420698
 20
3392.951302672879
 30
0.0
 40
75.18097186823435
 41
868.6785999999997
 71
     1
 72
     1
  1
{\FIMPACT.TTF;Hoogte: 80 cm\PMax. valhoogte: 80 cm}
1001
ACAD
1000
MTEXTBEGIN
1070
    73
1070
     1
1070
    44
1040
1.0
1070
    74
1070
     0
1000
MTEXTEND
1000
MTEXTBEGIN
1070
    73
1070
     1
1070
    44
1040
1.0
1070
    74
1070
     0
1000
MTEXTEND
  0
LINE
  5
373
330
181
100
AcDbEntity
  8
OBJECT
  6
BYBLOCK
100
AcDbLine
 10
3098.530948961677
 20
2714.963094529892
 30
0.0
 11
2784.58511700443
 21
2714.963094529892
 31
0.0
  0
LINE
  5
374
330
181
100
AcDbEntity
  8
OBJECT
  6
BYBLOCK
100
AcDbLine
 10
3098.530948961673
 20
1512.672697301526
 30
0.0
 11
2784.585117004427
 21
1512.672697301528
 31
0.0
  0
LINE
  5
375
330
181
100
AcDbEntity
  8
OBJECT
  6
BYBLOCK
100
AcDbLine
 10
2684.585117004429
 20
2063.602898093269
 30
0.0
 11
3198.530948961677
 21
2063.602898093269
 31
0.0
  0
LINE
  5
376
330
181
100
AcDbEntity
  8
OBJECT
  6
BYBLOCK
100
AcDbLine
 10
2684.585117004429
 20
2164.032893738153
 30
0.0
 11
3198.530948961677
 21
2164.032893738153
 31
0.0
  0
LINE
  5
377
330
181
100
AcDbEntity
  8
OBJECT
  6
BYBLOCK
100
AcDbLine
 10
2684.585117004429
 20
2139.032893738153
 30
0.0
 11
3198.530948961677
 21
2139.032893738153
 31
0.0
  0
LINE
  5
378
330
181
100
AcDbEntity
  8
OBJECT
  6
BYBLOCK
100
AcDbLine
 10
2684.585117004429
 20
2088.602898093268
 30
0.0
 11
3198.530948961677
 21
2088.602898093268
 31
0.0
  0
REGION
  5
379
330
181
100
AcDbEntity
  8
OBJECT
  6
DASHED
 48
50000.0
100
AcDbModelerGeometry
 70
     1
  1
noi ii n o          
  1
=0;& {rn {n {rn {rn |
  1
3*2/ {rn {rn {m {o |
  1
,7:33 {rn {rn {rn {l {n |
  1
9><: {rn {rn {k {m {rn {j 90-(>-; ;0*=3: 0*+ |
  1
300/ {rn {rn {i {l |
  1
/3>1:r,*-9><: {rn mingqmjnmmmkjgmlhf knhgqnifhgfmlilkjk n o o n n o o o V V V V |
  1
<0:;8: {rn {h {g {rn {f n {k {rn |
  1
<0:;8: {rn {no {i {rn {nn n {k {rn |
  1
<0:;8: {rn {i {nm {rn {nl n {k {rn |
  1
:;8: {rn {nk {nj {i {ni o |
  1
<0:;8: {rn {nh {h {rn {ng n {k {rn |
  1
:;8: {rn {nf {nk {h {mo o |
  1
<0:;8: {rn {g {mn {rn {mm n {k {rn |
  1
:;8: {rn {nj {ml {g {mk o |
  1
):-+:' {rn {f {mj |
  1
):-+:' {rn {f {mi |
  1
,+->687+r<*-): {rn lokiqfofiimjokiogi knhhqfllolfkggogff n oqffffffgkhkgomnom roqooojjmlolgimjlijhnmm o V V |
  1
<0:;8: {rn {mh {no {rn {mg n {k {rn |
  1
:;8: {rn {mf {nf {no {lo o |
  1
):-+:' {rn {nn {ln |
  1
:336/,:r<*-): {rn miniqjfklnnnmlfnmn mihgqnhohokljjoofj n o o rn rljjqnlmghhnfnjihj nkjhqljlfgjiiiliih o n Y roqmkonmflfkofgojfih Y oqmkonmflfkofgoiofm |
  1
<0:;8: {rn {nm {lm {rn {ll n {k {rn |
  1
:;8: {rn {ml {lk {nm {lj o |
  1
):-+:' {rn {mm {li |
  1
:336/,:r<*-): {rn lohlqinojiljknjlin mihgqnhohokljkfifj n o o rn lmiqgnofghmifkjjj nkilqfijlinnllfijm o n Y roqmlhklhnkogmnimimi Y oqmlhklhnkogmnimhnh |
  1
/061+ {rn mingqmjnmmmkjgmlhf knhgqnifhgfmlilkjk n |
  1
/061+ {rn lokiqfofiimjokiogi knhhqfllolfkggogff n |
  1
<0:;8: {rn {lh {nh {rn {lg n {k {rn |
  1
:;8: {rn {lf {mf {nh {ko o |
  1
):-+:' {rn {ng {kn |
  1
,+->687+r<*-): {rn nfmjqojnnjnfikiffn koofqmkgkgjlljjiof n oqgggohhfifkjjonffl oqkjfifmgjknilnlklm o V V |
  1
/061+ {rn nfmjqojnnjnfikiffn koofqmkgkgjlljjiof n |
  1
<0:;8: {rn {mn {km {rn {kl n {k {rn |
  1
:;8: {rn {lk {kk {mn {kj o |
  1
):-+:' {rn {ll {ki |
  1
,+->687+r<*-): {rn kfnlqhlfjihkohkijn lkogqohjkgfhkgjljg n oqgginkmmmhogjgnhkh roqkilknllhmomfnohnj o V V |
  1
/061+ {rn lhljqjfjkofjfkjmim komkqnfloniojjhjhh n |
  1
<0:;8: {rn {kh {mh {rn {kg n {k {rn |
  1
:;8: {rn {kf {lf {mh {jo o |
  1
):-+:' {rn {mg {jn |
  1
:336/,:r<*-): {rn njnhqgnojiinokkhhi mnofqijjniklfojkgi n o o rn rnkffqhhkmlgknkjgkf miqomlhnjghkfijoln o n Y rnqojghmkogjmkmogih Y nqojghmkogjmkmogij |
  1
/061+ {rn gojqimfhilhjlfhfkl lkmfqgoinokjlkiiln n |
  1
<0:;8: {rn {lm {kh {rn {jm n {k {rn |
  1
:;8: {rn {kk {jl {lm {jk o |
  1
):-+:' {rn {kl {jj |
  1
:336/,:r<*-): {rn knimqihojjihfgkn mnofqijjniklfojkgi n o o rn nkffqflmihjonfnljg rnkqmnnimflfofmljmf o n Y rnqojjgkgffmnnmnjlk Y nqojjgkgffmnnmnjlh |
  1
/061+ {rn kfnlqhlfjihkohkijn lkogqohjkgfhkgjljg n |
  1
<0:;8: {rn {km {lh {rn {ji n {k {rn |
  1
:;8: {rn {jh {kf {lh {jg o |
  1
):-+:' {rn {lg {jf |
  1
,+->687+r<*-): {rn hioqmjgkollllllnih gnjqooiihnmfminjif n roqghfhhiokooojliili oqkhjlgglghfgijhigk o V V |
  1
/061+ {rn hioqmjgkollllllnih gnjqooiihnmfminjif n |
  1
:;8: {rn {jl {io {km {in o |
  1
):-+:' {rn {jm {im |
  1
,+->687+r<*-): {rn lhnfqnkimjimonifjf nimqgjiomhimfgihgh n roqghfoiggjflifgnnin roqkhiifkgogjlhnlhhj o V V |
  1
/061+ {rn kggfqoommhkgfkifih hfhqmliifillhmhkkj n |
  1
:;8: {rn {io {jh {kh {il o |
  1
):-+:' {rn {kg {ik |
  1
:336/,:r<*-): {rn miniqjfklnnnmlfolf njniqgkkoggiflogj n o o rn rlinqmhknijhmgignim rnkjjqgklhllhhihlg o n Y roqmklmkofilggikjjg Y oqmklmkofilggikjjgi |
  1
/061+ {rn nfnjqlnioolfggjlli nfoqgifkjmkjhokiif n |
  1
):-+:' {rn {ji {ij |
  1
:336/,:r<*-): {rn lohlqinojiljknjlhf njniqgkkoggiflnlml n o o rn lloqfmnlhnilnijgkm rnkilqoknhnomokmfii o n Y roqmmmkkknfonmljnhgg Y oqmmmkkknfonmljnigj |
  1
/061+ {rn lhnfqnkimjimonifjf nimqgjiomhimfgihgh n |
  1
,+->687+r<*-): {rn miniqjfklnnnmlfohi niqgkkoggiflnolmln n rn o o V V |
  1
/061+ {rn miniqjfklnnnmlfohi niqgkkoggiflnolmln n |
  1
/061+ {rn lohlqinojiljknjkin niqgkkoggiflnolmln n |
1001
AVE_FINISH
1002
{
1070
     0
1005
0
1002
}
  0
LINE
  5
37A
330
181
100
AcDbEntity
  8
OBJECT
  6
BYBLOCK
100
AcDbLine
 10
2437.661417406358
 20
2164.032893738153
 30
0.0
 11
2437.661417406357
 21
2063.602898093269
 31
0.0
  0
LINE
  5
37B
330
181
100
AcDbEntity
  8
OBJECT
  6
BYBLOCK
100
AcDbLine
 10
2397.464535700066
 20
2204.204884010659
 30
0.0
 11
2397.464535700065
 21
2023.430907820763
 31
0.0
  0
LINE
  5
37C
330
181
100
AcDbEntity
  8
OBJECT
  6
BYBLOCK
100
AcDbLine
 10
2322.813181647791
 20
2169.77174521345
 30
0.0
 11
2322.813181647789
 21
2057.864046617972
 31
0.0
  0
LINE
  5
37D
330
181
100
AcDbEntity
  8
OBJECT
  6
BYBLOCK
100
AcDbLine
 10
1837.579396492115
 20
2103.774898347587
 30
0.0
 11
1837.579396492115
 21
2083.688893229522
 31
0.0
  0
LINE
  5
37E
330
181
100
AcDbEntity
  8
OBJECT
  6
BYBLOCK
100
AcDbLine
 10
1912.230750544386
 20
2143.946898601899
 30
0.0
 11
1912.230750544386
 21
2083.688893229522
 31
0.0
  0
LINE
  5
37F
330
181
100
AcDbEntity
  8
OBJECT
  6
BYBLOCK
100
AcDbLine
 10
1912.230750544386
 20
2017.692046363657
 30
0.0
 11
1969.654876515721
 21
1968.9117738873
 31
0.0
  0
LINE
  5
380
330
181
100
AcDbEntity
  8
OBJECT
  6
BYBLOCK
100
AcDbLine
 10
1837.579396492115
 20
2083.688893229522
 30
0.0
 11
1912.230750544386
 21
2083.688893229522
 31
0.0
  0
LINE
  5
381
330
181
100
AcDbEntity
  8
OBJECT
  6
BYBLOCK
100
AcDbLine
 10
1912.230750544386
 20
2083.688893229522
 30
0.0
 11
1912.230750544386
 21
2017.692046363657
 31
0.0
  0
LINE
  5
382
330
181
100
AcDbEntity
  8
OBJECT
  6
BYBLOCK
100
AcDbLine
 10
2397.464535700065
 20
1954.564630226342
 30
0.0
 11
2340.040425912829
 21
1954.564630226342
 31
0.0
  0
CIRCLE
  5
383
330
181
100
AcDbEntity
  8
OBJECT
  6
BYBLOCK
100
AcDbCircle
 10
2166.447195103887
 20
2048.769125537482
 30
0.0
 40
16.99029909965609
  0
LINE
  5
384
330
181
100
AcDbEntity
  8
OBJECT
  6
BYBLOCK
100
AcDbLine
 10
2164.896859502773
 20
1988.997769023551
 30
0.0
 11
2233.805804194733
 21
2037.778051481716
 31
0.0
  0
LINE
  5
385
330
181
100
AcDbEntity
  8
OBJECT
  6
BYBLOCK
100
AcDbLine
 10
1969.654876515721
 20
1968.9117738873
 30
0.0
 11
2070.147072689405
 21
1968.9117738873
 31
0.0
  0
LINE
  5
386
330
181
100
AcDbEntity
  8
OBJECT
  6
BYBLOCK
100
AcDbLine
 10
2070.147072689405
 20
1968.9117738873
 30
0.0
 11
2164.896859502773
 21
1988.997769023551
 31
0.0
  0
LINE
  5
387
330
181
100
AcDbEntity
  8
OBJECT
  6
BYBLOCK
100
AcDbLine
 10
2233.805804194733
 20
2037.778051481716
 30
0.0
 11
2311.328346743067
 21
2049.255764414124
 31
0.0
  0
LINE
  5
388
330
181
100
AcDbEntity
  8
OBJECT
  6
BYBLOCK
100
AcDbLine
 10
2340.040425912829
 20
1954.564630226342
 30
0.0
 11
2340.040425912829
 21
2049.255764414124
 31
0.0
  0
LINE
  5
389
330
181
100
AcDbEntity
  8
OBJECT
  6
BYBLOCK
100
AcDbLine
 10
2340.040425912829
 20
2049.255764414124
 30
0.0
 11
2322.813181647789
 21
2057.864046617972
 31
0.0
  0
LINE
  5
38A
330
181
100
AcDbEntity
  8
OBJECT
  6
BYBLOCK
100
AcDbLine
 10
2311.328346743067
 20
2049.255764414124
 30
0.0
 11
2322.813181647791
 21
2057.864046617972
 31
0.0
  0
LINE
  5
38B
330
181
100
AcDbEntity
  8
OBJECT
  6
BYBLOCK
100
AcDbLine
 10
2684.585117004428
 20
1612.672697301528
 30
0.0
 11
2684.585117004429
 21
2063.602898093269
 31
0.0
  0
LINE
  5
38C
330
181
100
AcDbEntity
  8
OBJECT
  6
BYBLOCK
100
AcDbLine
 10
2750.622840832136
 20
1698.755539303649
 30
0.0
 11
2750.622840832136
 21
1598.755539303648
 31
0.0
  0
LINE
  5
38D
330
181
100
AcDbEntity
  8
OBJECT
  6
BYBLOCK
100
AcDbLine
 10
2775.622840832136
 20
1698.755539303649
 30
0.0
 11
2775.622840832134
 21
1598.755539303648
 31
0.0
  0
ARC
  5
38E
330
181
100
AcDbEntity
  8
OBJECT
  6
BYBLOCK
100
AcDbCircle
 10
2784.585117004428
 20
1612.672697301528
 30
0.0
 40
100.0
100
AcDbArc
 50
180.0
 51
270.0
  0
LINE
  5
38F
330
181
100
AcDbEntity
  8
OBJECT
  6
BYBLOCK
100
AcDbLine
 10
2750.622840832136
 20
1598.755539303652
 30
0.0
 11
2775.622840832134
 21
1598.755539303648
 31
0.0
  0
LINE
  5
390
330
181
100
AcDbEntity
  8
OBJECT
  6
BYBLOCK
100
AcDbLine
 10
2750.622840832136
 20
1698.755539303649
 30
0.0
 11
2775.622840832136
 21
1698.755539303649
 31
0.0
  0
LINE
  5
391
330
181
100
AcDbEntity
  8
OBJECT
  6
BYBLOCK
100
AcDbLine
 10
2684.585117004429
 20
2063.602898093269
 30
0.0
 11
2437.661417406357
 21
2063.602898093269
 31
0.0
  0
LINE
  5
392
330
181
100
AcDbEntity
  8
OBJECT
  6
BYBLOCK
100
AcDbLine
 10
2684.585117004429
 20
2088.602898093268
 30
0.0
 11
2437.661417406357
 21
2088.602898093268
 31
0.0
  0
LINE
  5
393
330
181
100
AcDbEntity
  8
OBJECT
  6
BYBLOCK
100
AcDbLine
 10
2397.464535700065
 20
2023.430907820763
 30
0.0
 11
2397.464535700065
 21
1954.564630226342
 31
0.0
  0
LINE
  5
394
330
181
100
AcDbEntity
  8
OBJECT
  6
BYBLOCK
100
AcDbLine
 10
2437.661417406357
 20
2023.430907820763
 30
0.0
 11
2397.464535700065
 21
2023.430907820763
 31
0.0
  0
LINE
  5
395
330
181
100
AcDbEntity
  8
OBJECT
  6
BYBLOCK
100
AcDbLine
 10
2437.661417406357
 20
2063.602898093269
 30
0.0
 11
2437.661417406357
 21
2023.430907820763
 31
0.0
  0
LINE
  5
396
330
181
100
AcDbEntity
  8
OBJECT
  6
BYBLOCK
100
AcDbLine
 10
1912.230750544386
 20
2209.943745467765
 30
0.0
 11
1969.654876515718
 21
2258.724017944122
 31
0.0
  0
LINE
  5
397
330
181
100
AcDbEntity
  8
OBJECT
  6
BYBLOCK
100
AcDbLine
 10
1616.496555199548
 20
2123.860893483834
 30
0.0
 11
1837.579396492114
 21
2123.860893483834
 31
0.0
  0
LINE
  5
398
330
181
100
AcDbEntity
  8
OBJECT
  6
BYBLOCK
100
AcDbLine
 10
1616.496555199549
 20
2103.774898347587
 30
0.0
 11
1837.579396492115
 21
2103.774898347587
 31
0.0
  0
LINE
  5
399
330
181
100
AcDbEntity
  8
OBJECT
  6
BYBLOCK
100
AcDbLine
 10
1616.496555199548
 20
2123.860893483834
 30
0.0
 11
1616.496555199549
 21
2103.774898347587
 31
0.0
  0
LINE
  5
39A
330
181
100
AcDbEntity
  8
OBJECT
  6
BYBLOCK
100
AcDbLine
 10
1912.230750544386
 20
2143.946898601899
 30
0.0
 11
1912.230750544386
 21
2209.943745467765
 31
0.0
  0
LINE
  5
39B
330
181
100
AcDbEntity
  8
OBJECT
  6
BYBLOCK
100
AcDbLine
 10
1837.579396492114
 20
2143.946898601899
 30
0.0
 11
1912.230750544386
 21
2143.946898601899
 31
0.0
  0
LINE
  5
39C
330
181
100
AcDbEntity
  8
OBJECT
  6
BYBLOCK
100
AcDbLine
 10
1837.579396492114
 20
2123.860893483834
 30
0.0
 11
1837.579396492114
 21
2143.946898601899
 31
0.0
  0
LINE
  5
39D
330
181
100
AcDbEntity
  8
OBJECT
  6
BYBLOCK
100
AcDbLine
 10
2397.464535700066
 20
2273.071161605078
 30
0.0
 11
2340.04042591283
 21
2273.071161605078
 31
0.0
  0
CIRCLE
  5
39E
330
181
100
AcDbEntity
  8
OBJECT
  6
BYBLOCK
100
AcDbCircle
 10
2166.447195103887
 20
2178.866666293936
 30
0.0
 40
16.99029909965609
  0
LINE
  5
39F
330
181
100
AcDbEntity
  8
OBJECT
  6
BYBLOCK
100
AcDbLine
 10
2164.896859502773
 20
2238.638022807871
 30
0.0
 11
2233.805804194733
 21
2189.857740349704
 31
0.0
  0
LINE
  5
3A0
330
181
100
AcDbEntity
  8
OBJECT
  6
BYBLOCK
100
AcDbLine
 10
2070.147072689404
 20
2258.724017944122
 30
0.0
 11
2164.896859502773
 21
2238.638022807871
 31
0.0
  0
LINE
  5
3A1
330
181
100
AcDbEntity
  8
OBJECT
  6
BYBLOCK
100
AcDbLine
 10
1969.654876515718
 20
2258.724017944122
 30
0.0
 11
2070.147072689404
 21
2258.724017944122
 31
0.0
  0
LINE
  5
3A2
330
181
100
AcDbEntity
  8
OBJECT
  6
BYBLOCK
100
AcDbLine
 10
2340.04042591283
 20
2273.071161605078
 30
0.0
 11
2340.04042591283
 21
2178.380027417298
 31
0.0
  0
LINE
  5
3A3
330
181
100
AcDbEntity
  8
OBJECT
  6
BYBLOCK
100
AcDbLine
 10
2233.805804194733
 20
2189.857740349704
 30
0.0
 11
2311.328346743066
 21
2178.380027417298
 31
0.0
  0
LINE
  5
3A4
330
181
100
AcDbEntity
  8
OBJECT
  6
BYBLOCK
100
AcDbLine
 10
2340.04042591283
 20
2178.380027417298
 30
0.0
 11
2322.813181647791
 21
2169.77174521345
 31
0.0
  0
LINE
  5
3A5
330
181
100
AcDbEntity
  8
OBJECT
  6
BYBLOCK
100
AcDbLine
 10
2311.328346743066
 20
2178.380027417298
 30
0.0
 11
2322.813181647791
 21
2169.77174521345
 31
0.0
  0
LINE
  5
3A6
330
181
100
AcDbEntity
  8
OBJECT
  6
BYBLOCK
100
AcDbLine
 10
2684.585117004429
 20
2614.963094529892
 30
0.0
 11
2684.585117004429
 21
2164.032893738153
 31
0.0
  0
LINE
  5
3A7
330
181
100
AcDbEntity
  8
OBJECT
  6
BYBLOCK
100
AcDbLine
 10
2684.585117004429
 20
2164.032893738153
 30
0.0
 11
2437.661417406358
 21
2164.032893738153
 31
0.0
  0
LINE
  5
3A8
330
181
100
AcDbEntity
  8
OBJECT
  6
BYBLOCK
100
AcDbLine
 10
2684.585117004429
 20
2139.032893738153
 30
0.0
 11
2437.661417406358
 21
2139.032893738153
 31
0.0
  0
LINE
  5
3A9
330
181
100
AcDbEntity
  8
OBJECT
  6
BYBLOCK
100
AcDbLine
 10
2397.464535700066
 20
2204.204884010659
 30
0.0
 11
2397.464535700066
 21
2273.071161605078
 31
0.0
  0
LINE
  5
3AA
330
181
100
AcDbEntity
  8
OBJECT
  6
BYBLOCK
100
AcDbLine
 10
2437.661417406358
 20
2164.032893738153
 30
0.0
 11
2437.661417406358
 21
2204.204884010659
 31
0.0
  0
LINE
  5
3AB
330
181
100
AcDbEntity
  8
OBJECT
  6
BYBLOCK
100
AcDbLine
 10
2437.661417406358
 20
2204.204884010659
 30
0.0
 11
2397.464535700066
 21
2204.204884010659
 31
0.0
  0
LINE
  5
3AC
330
181
100
AcDbEntity
  8
OBJECT
  6
BYBLOCK
100
AcDbLine
 10
2750.622840832136
 20
2628.880252527772
 30
0.0
 11
2750.622840832138
 21
2528.880252527768
 31
0.0
  0
LINE
  5
3AD
330
181
100
AcDbEntity
  8
OBJECT
  6
BYBLOCK
100
AcDbLine
 10
2775.622840832136
 20
2628.880252527772
 30
0.0
 11
2775.622840832136
 21
2528.880252527768
 31
0.0
  0
LINE
  5
3AE
330
181
100
AcDbEntity
  8
OBJECT
  6
BYBLOCK
100
AcDbLine
 10
2750.622840832136
 20
2528.880252527772
 30
0.0
 11
2775.622840832136
 21
2528.880252527772
 31
0.0
  0
ARC
  5
3AF
330
181
100
AcDbEntity
  8
OBJECT
  6
BYBLOCK
100
AcDbCircle
 10
2784.58511700443
 20
2614.963094529892
 30
0.0
 40
100.0
100
AcDbArc
 50
90.0
 51
180.0
  0
LINE
  5
3B0
330
181
100
AcDbEntity
  8
OBJECT
  6
BYBLOCK
100
AcDbLine
 10
2750.622840832136
 20
2628.880252527772
 30
0.0
 11
2775.622840832136
 21
2628.880252527772
 31
0.0
  0
LINE
  5
3B1
330
181
100
AcDbEntity
  8
OBJECT
  6
BYBLOCK
100
AcDbLine
 10
4048.40785797005
 20
2103.774898347587
 30
0.0
 11
4048.40785797005
 21
2083.688893229522
 31
0.0
  0
LINE
  5
3B2
330
181
100
AcDbEntity
  8
OBJECT
  6
BYBLOCK
100
AcDbLine
 10
3973.756503917777
 20
2143.946898601899
 30
0.0
 11
3973.756503917777
 21
2083.688893229522
 31
0.0
  0
LINE
  5
3B3
330
181
100
AcDbEntity
  8
OBJECT
  6
BYBLOCK
100
AcDbLine
 10
3448.325853239905
 20
2164.032893738153
 30
0.0
 11
3448.325853239904
 21
2063.602898093269
 31
0.0
  0
LINE
  5
3B4
330
181
100
AcDbEntity
  8
OBJECT
  6
BYBLOCK
100
AcDbLine
 10
3479.909104721631
 20
2204.204884010659
 30
0.0
 11
3479.909104721631
 21
2023.430907820763
 31
0.0
  0
LINE
  5
3B5
330
181
100
AcDbEntity
  8
OBJECT
  6
BYBLOCK
100
AcDbLine
 10
3563.174072814374
 20
2169.77174521345
 30
0.0
 11
3563.174072814373
 21
2057.864046617972
 31
0.0
  0
LINE
  5
3B6
330
181
100
AcDbEntity
  8
OBJECT
  6
BYBLOCK
100
AcDbLine
 10
3721.090394959389
 20
1988.997769023551
 30
0.0
 11
3652.181450267431
 21
2037.778051481716
 31
0.0
  0
CIRCLE
  5
3B7
330
181
100
AcDbEntity
  8
OBJECT
  6
BYBLOCK
100
AcDbCircle
 10
3719.540059358278
 20
2048.769125537482
 30
0.0
 40
16.99029909965609
  0
LINE
  5
3B8
330
181
100
AcDbEntity
  8
OBJECT
  6
BYBLOCK
100
AcDbLine
 10
3448.325853239904
 20
2063.602898093269
 30
0.0
 11
3198.530948961677
 21
2063.602898093269
 31
0.0
  0
LINE
  5
3B9
330
181
100
AcDbEntity
  8
OBJECT
  6
BYBLOCK
100
AcDbLine
 10
3448.325853239904
 20
2088.602898093268
 30
0.0
 11
3198.530948961677
 21
2088.602898093268
 31
0.0
  0
LINE
  5
3BA
330
181
100
AcDbEntity
  8
OBJECT
  6
BYBLOCK
100
AcDbLine
 10
3198.530948961677
 20
2063.602898093269
 30
0.0
 11
3198.530948961674
 21
1612.672697301524
 31
0.0
  0
LINE
  5
3BB
330
181
100
AcDbEntity
  8
OBJECT
  6
BYBLOCK
100
AcDbLine
 10
3141.106822990341
 20
1698.755539303649
 30
0.0
 11
3141.106822990341
 21
1598.755539303648
 31
0.0
  0
LINE
  5
3BC
330
181
100
AcDbEntity
  8
OBJECT
  6
BYBLOCK
100
AcDbLine
 10
3116.106822990343
 20
1698.755539303649
 30
0.0
 11
3116.106822990341
 21
1598.755539303648
 31
0.0
  0
ARC
  5
3BD
330
181
100
AcDbEntity
  8
OBJECT
  6
BYBLOCK
100
AcDbCircle
 10
3098.530948961673
 20
1612.672697301524
 30
0.0
 40
100.0
100
AcDbArc
 50
270.0
 51
0.0
  0
LINE
  5
3BE
330
181
100
AcDbEntity
  8
OBJECT
  6
BYBLOCK
100
AcDbLine
 10
3116.106822990341
 20
1598.755539303648
 30
0.0
 11
3141.106822990341
 21
1598.755539303648
 31
0.0
  0
LINE
  5
3BF
330
181
100
AcDbEntity
  8
OBJECT
  6
BYBLOCK
100
AcDbLine
 10
3116.106822990343
 20
1698.755539303649
 30
0.0
 11
3141.106822990341
 21
1698.755539303649
 31
0.0
  0
LINE
  5
3C0
330
181
100
AcDbEntity
  8
OBJECT
  6
BYBLOCK
100
AcDbLine
 10
3545.946844733432
 20
1954.564630226342
 30
0.0
 11
3479.909104721631
 21
1954.564630226342
 31
0.0
  0
LINE
  5
3C1
330
181
100
AcDbEntity
  8
OBJECT
  6
BYBLOCK
100
AcDbLine
 10
3479.909104721631
 20
1954.564630226342
 30
0.0
 11
3479.909104721631
 21
2023.430907820763
 31
0.0
  0
LINE
  5
3C2
330
181
100
AcDbEntity
  8
OBJECT
  6
BYBLOCK
100
AcDbLine
 10
3448.325853239904
 20
2023.430907820763
 30
0.0
 11
3448.325853239904
 21
2063.602898093269
 31
0.0
  0
LINE
  5
3C3
330
181
100
AcDbEntity
  8
OBJECT
  6
BYBLOCK
100
AcDbLine
 10
3479.909104721631
 20
2023.430907820763
 30
0.0
 11
3448.325853239904
 21
2023.430907820763
 31
0.0
  0
LINE
  5
3C4
330
181
100
AcDbEntity
  8
OBJECT
  6
BYBLOCK
100
AcDbLine
 10
3652.181450267431
 20
2037.778051481716
 30
0.0
 11
3574.658907719097
 21
2049.255764414124
 31
0.0
  0
LINE
  5
3C5
330
181
100
AcDbEntity
  8
OBJECT
  6
BYBLOCK
100
AcDbLine
 10
3545.946844733432
 20
2054.994615889421
 30
0.0
 11
3545.946844733432
 21
1954.564630226342
 31
0.0
  0
LINE
  5
3C6
330
181
100
AcDbEntity
  8
OBJECT
  6
BYBLOCK
100
AcDbLine
 10
3563.174072814373
 20
2057.864046617972
 30
0.0
 11
3545.946844733432
 21
2054.994615889421
 31
0.0
  0
LINE
  5
3C7
330
181
100
AcDbEntity
  8
OBJECT
  6
BYBLOCK
100
AcDbLine
 10
3574.658907719097
 20
2049.255764414124
 30
0.0
 11
3563.174072814373
 21
2057.864046617972
 31
0.0
  0
LINE
  5
3C8
330
181
100
AcDbEntity
  8
OBJECT
  6
BYBLOCK
100
AcDbLine
 10
3973.756503917777
 20
2017.692046363657
 30
0.0
 11
3916.332377946442
 21
1968.9117738873
 31
0.0
  0
LINE
  5
3C9
330
181
100
AcDbEntity
  8
OBJECT
  6
BYBLOCK
100
AcDbLine
 10
3916.332377946442
 20
1968.9117738873
 30
0.0
 11
3815.84018177276
 21
1968.9117738873
 31
0.0
  0
LINE
  5
3CA
330
181
100
AcDbEntity
  8
OBJECT
  6
BYBLOCK
100
AcDbLine
 10
3815.84018177276
 20
1968.9117738873
 30
0.0
 11
3721.090394959389
 21
1988.997769023551
 31
0.0
  0
LINE
  5
3CB
330
181
100
AcDbEntity
  8
OBJECT
  6
BYBLOCK
100
AcDbLine
 10
4048.40785797005
 20
2083.688893229522
 30
0.0
 11
3973.756503917777
 21
2083.688893229522
 31
0.0
  0
LINE
  5
3CC
330
181
100
AcDbEntity
  8
OBJECT
  6
BYBLOCK
100
AcDbLine
 10
3973.756503917777
 20
2083.688893229522
 30
0.0
 11
3973.756503917777
 21
2017.692046363657
 31
0.0
  0
LINE
  5
3CD
330
181
100
AcDbEntity
  8
OBJECT
  6
BYBLOCK
100
AcDbLine
 10
3721.090394959392
 20
2238.638022807871
 30
0.0
 11
3652.181450267431
 21
2189.857740349704
 31
0.0
  0
CIRCLE
  5
3CE
330
181
100
AcDbEntity
  8
OBJECT
  6
BYBLOCK
100
AcDbCircle
 10
3719.540059358278
 20
2178.866666293936
 30
0.0
 40
16.99029909965609
  0
LINE
  5
3CF
330
181
100
AcDbEntity
  8
OBJECT
  6
BYBLOCK
100
AcDbLine
 10
3448.325853239905
 20
2164.032893738153
 30
0.0
 11
3198.530948961677
 21
2164.032893738153
 31
0.0
  0
LINE
  5
3D0
330
181
100
AcDbEntity
  8
OBJECT
  6
BYBLOCK
100
AcDbLine
 10
3448.325853239905
 20
2139.032893738153
 30
0.0
 11
3198.530948961677
 21
2139.032893738153
 31
0.0
  0
LINE
  5
3D1
330
181
100
AcDbEntity
  8
OBJECT
  6
BYBLOCK
100
AcDbLine
 10
3198.530948961677
 20
2164.032893738153
 30
0.0
 11
3198.530948961677
 21
2614.963094529892
 31
0.0
  0
LINE
  5
3D2
330
181
100
AcDbEntity
  8
OBJECT
  6
BYBLOCK
100
AcDbLine
 10
3141.106822990343
 20
2628.880252527772
 30
0.0
 11
3141.106822990344
 21
2528.880252527768
 31
0.0
  0
LINE
  5
3D3
330
181
100
AcDbEntity
  8
OBJECT
  6
BYBLOCK
100
AcDbLine
 10
3116.106822990343
 20
2628.880252527772
 30
0.0
 11
3116.106822990344
 21
2528.880252527768
 31
0.0
  0
LINE
  5
3D4
330
181
100
AcDbEntity
  8
OBJECT
  6
BYBLOCK
100
AcDbLine
 10
3116.106822990344
 20
2528.880252527772
 30
0.0
 11
3141.106822990344
 21
2528.880252527772
 31
0.0
  0
ARC
  5
3D5
330
181
100
AcDbEntity
  8
OBJECT
  6
BYBLOCK
100
AcDbCircle
 10
3098.530948961677
 20
2614.963094529892
 30
0.0
 40
100.0
100
AcDbArc
 50
0.0
 51
90.0
  0
LINE
  5
3D6
330
181
100
AcDbEntity
  8
OBJECT
  6
BYBLOCK
100
AcDbLine
 10
3116.106822990343
 20
2628.880252527772
 30
0.0
 11
3141.106822990344
 21
2628.880252527772
 31
0.0
  0
LINE
  5
3D7
330
181
100
AcDbEntity
  8
OBJECT
  6
BYBLOCK
100
AcDbLine
 10
3545.946844733434
 20
2273.071161605078
 30
0.0
 11
3479.909104721631
 21
2273.071161605078
 31
0.0
  0
LINE
  5
3D8
330
181
100
AcDbEntity
  8
OBJECT
  6
BYBLOCK
100
AcDbLine
 10
3479.909104721631
 20
2273.071161605078
 30
0.0
 11
3479.909104721631
 21
2204.204884010659
 31
0.0
  0
LINE
  5
3D9
330
181
100
AcDbEntity
  8
OBJECT
  6
BYBLOCK
100
AcDbLine
 10
3448.325853239905
 20
2204.204884010659
 30
0.0
 11
3448.325853239905
 21
2164.032893738153
 31
0.0
  0
LINE
  5
3DA
330
181
100
AcDbEntity
  8
OBJECT
  6
BYBLOCK
100
AcDbLine
 10
3479.909104721631
 20
2204.204884010659
 30
0.0
 11
3448.325853239905
 21
2204.204884010659
 31
0.0
  0
LINE
  5
3DB
330
181
100
AcDbEntity
  8
OBJECT
  6
BYBLOCK
100
AcDbLine
 10
3545.946844733434
 20
2172.641175942001
 30
0.0
 11
3545.946844733434
 21
2273.071161605078
 31
0.0
  0
LINE
  5
3DC
330
181
100
AcDbEntity
  8
OBJECT
  6
BYBLOCK
100
AcDbLine
 10
3652.181450267431
 20
2189.857740349704
 30
0.0
 11
3574.658907719098
 21
2178.380027417298
 31
0.0
  0
LINE
  5
3DD
330
181
100
AcDbEntity
  8
OBJECT
  6
BYBLOCK
100
AcDbLine
 10
3574.658907719098
 20
2178.380027417298
 30
0.0
 11
3563.174072814374
 21
2169.77174521345
 31
0.0
  0
LINE
  5
3DE
330
181
100
AcDbEntity
  8
OBJECT
  6
BYBLOCK
100
AcDbLine
 10
3563.174072814374
 20
2169.77174521345
 30
0.0
 11
3545.946844733434
 21
2172.641175942001
 31
0.0
  0
LINE
  5
3DF
330
181
100
AcDbEntity
  8
OBJECT
  6
BYBLOCK
100
AcDbLine
 10
4269.490699262616
 20
2123.860893483834
 30
0.0
 11
4048.40785797005
 21
2123.860893483834
 31
0.0
  0
LINE
  5
3E0
330
181
100
AcDbEntity
  8
OBJECT
  6
BYBLOCK
100
AcDbLine
 10
4269.490699262616
 20
2103.774898347587
 30
0.0
 11
4048.40785797005
 21
2103.774898347587
 31
0.0
  0
LINE
  5
3E1
330
181
100
AcDbEntity
  8
OBJECT
  6
BYBLOCK
100
AcDbLine
 10
3973.756503917777
 20
2209.943745467765
 30
0.0
 11
3916.332377946444
 21
2258.724017944122
 31
0.0
  0
LINE
  5
3E2
330
181
100
AcDbEntity
  8
OBJECT
  6
BYBLOCK
100
AcDbLine
 10
3815.84018177276
 20
2258.724017944122
 30
0.0
 11
3721.090394959392
 21
2238.638022807871
 31
0.0
  0
LINE
  5
3E3
330
181
100
AcDbEntity
  8
OBJECT
  6
BYBLOCK
100
AcDbLine
 10
3916.332377946444
 20
2258.724017944122
 30
0.0
 11
3815.84018177276
 21
2258.724017944122
 31
0.0
  0
LINE
  5
3E4
330
181
100
AcDbEntity
  8
OBJECT
  6
BYBLOCK
100
AcDbLine
 10
4048.40785797005
 20
2143.946898601899
 30
0.0
 11
3973.756503917777
 21
2143.946898601899
 31
0.0
  0
LINE
  5
3E5
330
181
100
AcDbEntity
  8
OBJECT
  6
BYBLOCK
100
AcDbLine
 10
3973.756503917777
 20
2143.946898601899
 30
0.0
 11
3973.756503917777
 21
2209.943745467765
 31
0.0
  0
LINE
  5
3E6
330
181
100
AcDbEntity
  8
OBJECT
  6
BYBLOCK
100
AcDbLine
 10
4048.40785797005
 20
2123.860893483834
 30
0.0
 11
4048.40785797005
 21
2143.946898601899
 31
0.0
  0
LINE
  5
3E7
330
181
100
AcDbEntity
  8
OBJECT
  6
BYBLOCK
100
AcDbLine
 10
4269.490699262616
 20
2123.860893483834
 30
0.0
 11
4269.490699262616
 21
2103.774898347587
 31
0.0
  0
LINE
  5
3E8
330
181
100
AcDbEntity
  8
OBJECT
100
AcDbLine
 10
1837.579396492114
 20
2123.860893483834
 30
0.0
 11
1912.230750544386
 21
2123.860893483834
 31
0.0
  0
LINE
  5
3E9
330
181
100
AcDbEntity
  8
OBJECT
100
AcDbLine
 10
1837.579396492115
 20
2103.774898347587
 30
0.0
 11
1912.230750544386
 21
2103.774898347587
 31
0.0
  0
LINE
  5
3EA
330
181
100
AcDbEntity
  8
OBJECT
100
AcDbLine
 10
4048.40785797005
 20
2123.860893483834
 30
0.0
 11
3973.756503917777
 21
2123.860893483834
 31
0.0
  0
LINE
  5
3EB
330
181
100
AcDbEntity
  8
OBJECT
100
AcDbLine
 10
4048.40785797005
 20
2103.774898347587
 30
0.0
 11
3973.756503917777
 21
2103.774898347587
 31
0.0
  0
ENDBLK
  5
183
330
181
100
AcDbEntity
  8
0
100
AcDbBlockEnd
  0
BLOCK
  5
3F9
330
3F0
100
AcDbEntity
  8
0
100
AcDbBlockBegin
  2
*U1
 70
     1
 10
0.0
 20
0.0
 30
0.0
  3
*U1
  1

  0
SOLID
  5
3F1
330
3F0
100
AcDbEntity
  8
HATCH
  6
CONTINUOUS
 62
     2
100
AcDbTrace
 10
2437.661417406357
 20
2063.602898093269
 30
0.0
 11
2397.464535700065
 21
2023.430907820763
 31
0.0
 12
2437.661417406357
 22
2023.430907820762
 32
0.0
 13
2437.661417406357
 23
2023.430907820762
 33
0.0
  0
SOLID
  5
3F2
330
3F0
100
AcDbEntity
  8
HATCH
  6
CONTINUOUS
 62
     2
100
AcDbTrace
 10
3448.325853239904
 20
2063.602898093269
 30
0.0
 11
3448.325853239904
 21
2023.430907820763
 31
0.0
 12
3479.909104721631
 22
2023.430907820763
 32
0.0
 13
3479.909104721631
 23
2023.430907820763
 33
0.0
210
0.0
220
0.0
230
1.0
  0
SOLID
  5
3F3
330
3F0
100
AcDbEntity
  8
HATCH
  6
CONTINUOUS
 62
     2
100
AcDbTrace
 10
2437.661417406358
 20
2164.032893738153
 30
0.0
 11
2397.464535700065
 21
2023.430907820763
 31
0.0
 12
2437.661417406357
 22
2063.602898093269
 32
0.0
 13
2437.661417406357
 23
2063.602898093269
 33
0.0
210
0.0
220
0.0
230
1.0
  0
SOLID
  5
3F4
330
3F0
100
AcDbEntity
  8
HATCH
  6
CONTINUOUS
 62
     2
100
AcDbTrace
 10
3448.325853239905
 20
2164.032893738153
 30
0.0
 11
3448.325853239904
 21
2063.602898093269
 31
0.0
 12
3479.909104721631
 22
2023.430907820763
 32
0.0
 13
3479.909104721631
 23
2023.430907820763
 33
0.0
210
0.0
220
0.0
230
1.0
  0
SOLID
  5
3F5
330
3F0
100
AcDbEntity
  8
HATCH
  6
CONTINUOUS
 62
     2
100
AcDbTrace
 10
3448.325853239905
 20
2164.032893738153
 30
0.0
 11
3479.909104721631
 21
2204.204884010659
 31
0.0
 12
3448.325853239905
 22
2204.204884010659
 32
0.0
 13
3448.325853239905
 23
2204.204884010659
 33
0.0
210
0.0
220
0.0
230
1.0
  0
SOLID
  5
3F6
330
3F0
100
AcDbEntity
  8
HATCH
  6
CONTINUOUS
 62
     2
100
AcDbTrace
 10
3479.909104721631
 20
2204.204884010659
 30
0.0
 11
3448.325853239905
 21
2164.032893738153
 31
0.0
 12
3479.909104721631
 22
2023.430907820763
 32
0.0
 13
3479.909104721631
 23
2023.430907820763
 33
0.0
  0
SOLID
  5
3F7
330
3F0
100
AcDbEntity
  8
HATCH
  6
CONTINUOUS
 62
     2
100
AcDbTrace
 10
2437.661417406358
 20
2164.032893738153
 30
0.0
 11
2437.661417406358
 21
2204.204884010659
 31
0.0
 12
2397.464535700066
 22
2204.204884010659
 32
0.0
 13
2397.464535700066
 23
2204.204884010659
 33
0.0
210
0.0
220
0.0
230
1.0
  0
SOLID
  5
3F8
330
3F0
100
AcDbEntity
  8
HATCH
  6
CONTINUOUS
 62
     2
100
AcDbTrace
 10
2397.464535700066
 20
2204.204884010659
 30
0.0
 11
2397.464535700065
 21
2023.430907820763
 31
0.0
 12
2437.661417406358
 22
2164.032893738153
 32
0.0
 13
2437.661417406358
 23
2164.032893738153
 33
0.0
210
0.0
220
0.0
230
1.0
  0
ENDBLK
  5
3FA
330
3F0
100
AcDbEntity
  8
0
100
AcDbBlockEnd
  0
BLOCK
  5
41A
330
3FB
100
AcDbEntity
  8
0
100
AcDbBlockBegin
  2
*U2
 70
     1
 10
0.0
 20
0.0
 30
0.0
  3
*U2
  1

  0
SOLID
  5
3FC
330
3FB
100
AcDbEntity
  8
HATCH
  6
CONTINUOUS
 62
     1
100
AcDbTrace
 10
2397.464535700065
 20
2023.430907820763
 30
0.0
 11
2340.040425912829
 21
1954.564630226341
 31
0.0
 12
2397.464535700064
 22
1954.564630226341
 32
0.0
 13
2397.464535700064
 23
1954.564630226341
 33
0.0
  0
SOLID
  5
3FD
330
3FB
100
AcDbEntity
  8
HATCH
  6
CONTINUOUS
 62
     1
100
AcDbTrace
 10
3479.909104721631
 20
2023.430907820763
 30
0.0
 11
3479.909104721631
 21
1954.564630226342
 31
0.0
 12
3545.946844733432
 22
1954.564630226341
 32
0.0
 13
3545.946844733432
 23
1954.564630226341
 33
0.0
210
0.0
220
0.0
230
1.0
  0
SOLID
  5
3FE
330
3FB
100
AcDbEntity
  8
HATCH
  6
CONTINUOUS
 62
     1
100
AcDbTrace
 10
2340.040425912829
 20
2049.255764414124
 30
0.0
 11
2340.040425912829
 21
1954.564630226341
 31
0.0
 12
2397.464535700065
 22
2023.430907820763
 32
0.0
 13
2397.464535700065
 23
2023.430907820763
 33
0.0
210
0.0
220
0.0
230
1.0
  0
SOLID
  5
3FF
330
3FB
100
AcDbEntity
  8
HATCH
  6
CONTINUOUS
 62
     1
100
AcDbTrace
 10
3545.946844733432
 20
2054.994615889421
 30
0.0
 11
3479.909104721631
 21
2023.430907820763
 31
0.0
 12
3545.946844733432
 22
1954.564630226341
 32
0.0
 13
3545.946844733432
 23
1954.564630226341
 33
0.0
210
0.0
220
0.0
230
1.0
  0
SOLID
  5
400
330
3FB
100
AcDbEntity
  8
HATCH
  6
CONTINUOUS
 62
     1
100
AcDbTrace
 10
2322.813181647789
 20
2057.864046617972
 30
0.0
 11
2340.040425912829
 21
2049.255764414124
 31
0.0
 12
2397.464535700065
 22
2023.430907820763
 32
0.0
 13
2397.464535700065
 23
2023.430907820763
 33
0.0
  0
SOLID
  5
401
330
3FB
100
AcDbEntity
  8
HATCH
  6
CONTINUOUS
 62
     1
100
AcDbTrace
 10
4048.407857970049
 20
2083.688893229522
 30
0.0
 11
4048.407857970049
 21
2103.774898347587
 31
0.0
 12
3973.756503917777
 22
2103.774898347587
 32
0.0
 13
3973.756503917777
 23
2103.774898347587
 33
0.0
210
0.0
220
0.0
230
1.0
  0
SOLID
  5
402
330
3FB
100
AcDbEntity
  8
HATCH
  6
CONTINUOUS
 62
     1
100
AcDbTrace
 10
3973.756503917777
 20
2103.774898347587
 30
0.0
 11
3973.756503917777
 21
2083.688893229522
 31
0.0
 12
4048.407857970049
 22
2083.688893229522
 32
0.0
 13
4048.407857970049
 23
2083.688893229522
 33
0.0
210
0.0
220
0.0
230
1.0
  0
SOLID
  5
403
330
3FB
100
AcDbEntity
  8
HATCH
  6
CONTINUOUS
 62
     1
100
AcDbTrace
 10
1912.230750544386
 20
2103.774898347587
 30
0.0
 11
1837.579396492115
 21
2083.688893229522
 31
0.0
 12
1912.230750544385
 22
2083.688893229522
 32
0.0
 13
1912.230750544385
 23
2083.688893229522
 33
0.0
210
0.0
220
0.0
230
1.0
  0
SOLID
  5
404
330
3FB
100
AcDbEntity
  8
HATCH
  6
CONTINUOUS
 62
     1
100
AcDbTrace
 10
1837.579396492115
 20
2103.774898347587
 30
0.0
 11
1837.579396492115
 21
2083.688893229522
 31
0.0
 12
1912.230750544386
 22
2103.774898347587
 32
0.0
 13
1912.230750544386
 23
2103.774898347587
 33
0.0
210
0.0
220
0.0
230
1.0
  0
SOLID
  5
405
330
3FB
100
AcDbEntity
  8
HATCH
  6
CONTINUOUS
 62
     1
100
AcDbTrace
 10
3448.325853239904
 20
2088.602898093268
 30
0.0
 11
3448.325853239905
 21
2139.032893738153
 31
0.0
 12
3198.530948961677
 22
2139.032893738153
 32
0.0
 13
3198.530948961677
 23
2139.032893738153
 33
0.0
210
0.0
220
0.0
230
1.0
  0
SOLID
  5
406
330
3FB
100
AcDbEntity
  8
HATCH
  6
CONTINUOUS
 62
     1
100
AcDbTrace
 10
3448.325853239904
 20
2088.602898093268
 30
0.0
 11
3198.530948961677
 21
2139.032893738153
 31
0.0
 12
2684.585117004429
 22
2139.032893738153
 32
0.0
 13
2684.585117004429
 23
2139.032893738153
 33
0.0
210
0.0
220
0.0
230
1.0
  0
SOLID
  5
407
330
3FB
100
AcDbEntity
  8
HATCH
  6
CONTINUOUS
 62
     1
100
AcDbTrace
 10
3448.325853239904
 20
2088.602898093268
 30
0.0
 11
2684.585117004429
 21
2139.032893738153
 31
0.0
 12
2437.661417406357
 22
2139.032893738153
 32
0.0
 13
2437.661417406357
 23
2139.032893738153
 33
0.0
210
0.0
220
0.0
230
1.0
  0
SOLID
  5
408
330
3FB
100
AcDbEntity
  8
HATCH
  6
CONTINUOUS
 62
     1
100
AcDbTrace
 10
2437.661417406357
 20
2139.032893738153
 30
0.0
 11
3198.530948961677
 21
2088.602898093268
 31
0.0
 12
3448.325853239904
 22
2088.602898093268
 32
0.0
 13
3448.325853239904
 23
2088.602898093268
 33
0.0
210
0.0
220
0.0
230
1.0
  0
SOLID
  5
409
330
3FB
100
AcDbEntity
  8
HATCH
  6
CONTINUOUS
 62
     1
100
AcDbTrace
 10
2437.661417406357
 20
2139.032893738153
 30
0.0
 11
2684.585117004429
 21
2088.602898093268
 31
0.0
 12
3198.530948961677
 22
2088.602898093268
 32
0.0
 13
3198.530948961677
 23
2088.602898093268
 33
0.0
210
0.0
220
0.0
230
1.0
  0
SOLID
  5
40A
330
3FB
100
AcDbEntity
  8
HATCH
  6
CONTINUOUS
 62
     1
100
AcDbTrace
 10
2437.661417406357
 20
2139.032893738153
 30
0.0
 11
2437.661417406357
 21
2088.602898093268
 31
0.0
 12
2684.585117004429
 22
2088.602898093268
 32
0.0
 13
2684.585117004429
 23
2088.602898093268
 33
0.0
210
0.0
220
0.0
230
1.0
  0
SOLID
  5
40B
330
3FB
100
AcDbEntity
  8
HATCH
  6
CONTINUOUS
 62
     1
100
AcDbTrace
 10
4048.40785797005
 20
2123.860893483834
 30
0.0
 11
4048.40785797005
 21
2143.946898601899
 31
0.0
 12
3973.756503917777
 22
2143.946898601899
 32
0.0
 13
3973.756503917777
 23
2143.946898601899
 33
0.0
210
0.0
220
0.0
230
1.0
  0
SOLID
  5
40C
330
3FB
100
AcDbEntity
  8
HATCH
  6
CONTINUOUS
 62
     1
100
AcDbTrace
 10
3973.756503917777
 20
2143.946898601899
 30
0.0
 11
3973.756503917777
 21
2123.860893483834
 31
0.0
 12
4048.40785797005
 22
2123.860893483834
 32
0.0
 13
4048.40785797005
 23
2123.860893483834
 33
0.0
210
0.0
220
0.0
230
1.0
  0
SOLID
  5
40D
330
3FB
100
AcDbEntity
  8
HATCH
  6
CONTINUOUS
 62
     1
100
AcDbTrace
 10
1912.230750544385
 20
2123.860893483834
 30
0.0
 11
1912.230750544386
 21
2143.946898601899
 31
0.0
 12
1837.579396492114
 22
2143.946898601899
 32
0.0
 13
1837.579396492114
 23
2143.946898601899
 33
0.0
210
0.0
220
0.0
230
1.0
  0
SOLID
  5
40E
330
3FB
100
AcDbEntity
  8
HATCH
  6
CONTINUOUS
 62
     1
100
AcDbTrace
 10
1837.579396492114
 20
2143.946898601899
 30
0.0
 11
1837.579396492114
 21
2123.860893483833
 31
0.0
 12
1912.230750544385
 22
2123.860893483834
 32
0.0
 13
1912.230750544385
 23
2123.860893483834
 33
0.0
210
0.0
220
0.0
230
1.0
  0
SOLID
  5
40F
330
3FB
100
AcDbEntity
  8
HATCH
  6
CONTINUOUS
 62
     1
100
AcDbTrace
 10
2322.813181647791
 20
2169.771745213449
 30
0.0
 11
2322.813181647789
 21
2057.864046617972
 31
0.0
 12
2397.464535700065
 22
2023.430907820763
 32
0.0
 13
2397.464535700065
 23
2023.430907820763
 33
0.0
210
0.0
220
0.0
230
1.0
  0
SOLID
  5
410
330
3FB
100
AcDbEntity
  8
HATCH
  6
CONTINUOUS
 62
     1
100
AcDbTrace
 10
3563.174072814374
 20
2169.77174521345
 30
0.0
 11
3545.946844733432
 21
2054.994615889421
 31
0.0
 12
3563.174072814373
 22
2057.864046617972
 32
0.0
 13
3563.174072814373
 23
2057.864046617972
 33
0.0
210
0.0
220
0.0
230
1.0
  0
SOLID
  5
411
330
3FB
100
AcDbEntity
  8
HATCH
  6
CONTINUOUS
 62
     1
100
AcDbTrace
 10
3563.174072814374
 20
2169.77174521345
 30
0.0
 11
3479.909104721631
 21
2023.430907820763
 31
0.0
 12
3545.946844733432
 22
2054.994615889421
 32
0.0
 13
3545.946844733432
 23
2054.994615889421
 33
0.0
210
0.0
220
0.0
230
1.0
  0
SOLID
  5
412
330
3FB
100
AcDbEntity
  8
HATCH
  6
CONTINUOUS
 62
     1
100
AcDbTrace
 10
3545.946844733434
 20
2172.641175942001
 30
0.0
 11
3479.909104721631
 21
2023.430907820763
 31
0.0
 12
3563.174072814374
 22
2169.77174521345
 32
0.0
 13
3563.174072814374
 23
2169.77174521345
 33
0.0
210
0.0
220
0.0
230
1.0
  0
SOLID
  5
413
330
3FB
100
AcDbEntity
  8
HATCH
  6
CONTINUOUS
 62
     1
100
AcDbTrace
 10
2340.04042591283
 20
2178.380027417297
 30
0.0
 11
2322.813181647791
 21
2169.771745213449
 31
0.0
 12
2397.464535700065
 22
2023.430907820763
 32
0.0
 13
2397.464535700065
 23
2023.430907820763
 33
0.0
210
0.0
220
0.0
230
1.0
  0
SOLID
  5
414
330
3FB
100
AcDbEntity
  8
HATCH
  6
CONTINUOUS
 62
     1
100
AcDbTrace
 10
2397.464535700066
 20
2204.204884010659
 30
0.0
 11
2340.04042591283
 21
2178.380027417297
 31
0.0
 12
2397.464535700065
 22
2023.430907820763
 32
0.0
 13
2397.464535700065
 23
2023.430907820763
 33
0.0
210
0.0
220
0.0
230
1.0
  0
SOLID
  5
415
330
3FB
100
AcDbEntity
  8
HATCH
  6
CONTINUOUS
 62
     1
100
AcDbTrace
 10
3479.909104721631
 20
2204.204884010659
 30
0.0
 11
3479.909104721631
 21
2023.430907820763
 31
0.0
 12
3545.946844733434
 22
2172.641175942001
 32
0.0
 13
3545.946844733434
 23
2172.641175942001
 33
0.0
210
0.0
220
0.0
230
1.0
  0
SOLID
  5
416
330
3FB
100
AcDbEntity
  8
HATCH
  6
CONTINUOUS
 62
     1
100
AcDbTrace
 10
2340.04042591283
 20
2273.071161605077
 30
0.0
 11
2340.04042591283
 21
2178.380027417297
 31
0.0
 12
2397.464535700066
 22
2204.204884010659
 32
0.0
 13
2397.464535700066
 23
2204.204884010659
 33
0.0
210
0.0
220
0.0
230
1.0
  0
SOLID
  5
417
330
3FB
100
AcDbEntity
  8
HATCH
  6
CONTINUOUS
 62
     1
100
AcDbTrace
 10
2397.464535700066
 20
2273.071161605078
 30
0.0
 11
2340.04042591283
 21
2273.071161605077
 31
0.0
 12
2397.464535700066
 22
2204.204884010659
 32
0.0
 13
2397.464535700066
 23
2204.204884010659
 33
0.0
210
0.0
220
0.0
230
1.0
  0
SOLID
  5
418
330
3FB
100
AcDbEntity
  8
HATCH
  6
CONTINUOUS
 62
     1
100
AcDbTrace
 10
3479.909104721631
 20
2204.204884010659
 30
0.0
 11
3545.946844733434
 21
2273.071161605078
 31
0.0
 12
3479.909104721631
 22
2273.071161605078
 32
0.0
 13
3479.909104721631
 23
2273.071161605078
 33
0.0
210
0.0
220
0.0
230
1.0
  0
SOLID
  5
419
330
3FB
100
AcDbEntity
  8
HATCH
  6
CONTINUOUS
 62
     1
100
AcDbTrace
 10
3545.946844733434
 20
2273.071161605078
 30
0.0
 11
3479.909104721631
 21
2204.204884010659
 31
0.0
 12
3545.946844733434
 22
2172.641175942001
 32
0.0
 13
3545.946844733434
 23
2172.641175942001
 33
0.0
210
0.0
220
0.0
230
1.0
  0
ENDBLK
  5
41B
330
3FB
100
AcDbEntity
  8
0
100
AcDbBlockEnd
  0
BLOCK
  5
435
330
41C
100
AcDbEntity
  8
0
100
AcDbBlockBegin
  2
*U3
 70
     1
 10
0.0
 20
0.0
 30
0.0
  3
*U3
  1

  0
SOLID
  5
41D
330
41C
100
AcDbEntity
  8
HATCH
  6
CONTINUOUS
 62
     2
100
AcDbTrace
 10
3141.106822990341
 20
1698.755539303648
 30
0.0
 11
3116.106822990341
 21
1598.755539303648
 31
0.0
 12
3141.106822990341
 22
1598.755539303648
 32
0.0
 13
3141.106822990341
 23
1598.755539303648
 33
0.0
210
0.0
220
0.0
230
1.0
  0
SOLID
  5
41E
330
41C
100
AcDbEntity
  8
HATCH
  6
CONTINUOUS
 62
     2
100
AcDbTrace
 10
2750.622840832136
 20
1698.755539303648
 30
0.0
 11
2750.622840832136
 21
1598.755539303652
 31
0.0
 12
2775.622840832134
 22
1598.755539303647
 32
0.0
 13
2775.622840832134
 23
1598.755539303647
 33
0.0
210
0.0
220
0.0
230
1.0
  0
SOLID
  5
41F
330
41C
100
AcDbEntity
  8
HATCH
  6
CONTINUOUS
 62
     2
100
AcDbTrace
 10
3116.106822990343
 20
1698.755539303649
 30
0.0
 11
3116.106822990341
 21
1598.755539303648
 31
0.0
 12
3141.106822990341
 22
1698.755539303648
 32
0.0
 13
3141.106822990341
 23
1698.755539303648
 33
0.0
  0
SOLID
  5
420
330
41C
100
AcDbEntity
  8
HATCH
  6
CONTINUOUS
 62
     2
100
AcDbTrace
 10
2775.622840832136
 20
1698.755539303649
 30
0.0
 11
2750.622840832136
 21
1698.755539303648
 31
0.0
 12
2775.622840832134
 22
1598.755539303647
 32
0.0
 13
2775.622840832134
 23
1598.755539303647
 33
0.0
  0
SOLID
  5
421
330
41C
100
AcDbEntity
  8
HATCH
  6
CONTINUOUS
 62
     2
100
AcDbTrace
 10
2437.661417406357
 20
2063.602898093269
 30
0.0
 11
3448.325853239905
 21
2088.602898093268
 31
0.0
 12
3198.530948961677
 22
2088.602898093268
 32
0.0
 13
3198.530948961677
 23
2088.602898093268
 33
0.0
210
0.0
220
0.0
230
1.0
  0
SOLID
  5
422
330
41C
100
AcDbEntity
  8
HATCH
  6
CONTINUOUS
 62
     2
100
AcDbTrace
 10
2437.661417406357
 20
2063.602898093269
 30
0.0
 11
3198.530948961677
 21
2088.602898093268
 31
0.0
 12
2684.585117004429
 22
2088.602898093268
 32
0.0
 13
2684.585117004429
 23
2088.602898093268
 33
0.0
210
0.0
220
0.0
230
1.0
  0
SOLID
  5
423
330
41C
100
AcDbEntity
  8
HATCH
  6
CONTINUOUS
 62
     2
100
AcDbTrace
 10
2437.661417406357
 20
2063.602898093269
 30
0.0
 11
2684.585117004429
 21
2088.602898093268
 31
0.0
 12
2437.661417406357
 22
2088.602898093268
 32
0.0
 13
2437.661417406357
 23
2088.602898093268
 33
0.0
210
0.0
220
0.0
230
1.0
  0
SOLID
  5
424
330
41C
100
AcDbEntity
  8
HATCH
  6
CONTINUOUS
 62
     2
100
AcDbTrace
 10
3448.325853239905
 20
2088.602898093268
 30
0.0
 11
2437.661417406357
 21
2063.602898093269
 31
0.0
 12
2684.585117004429
 22
2063.602898093269
 32
0.0
 13
2684.585117004429
 23
2063.602898093269
 33
0.0
210
0.0
220
0.0
230
1.0
  0
SOLID
  5
425
330
41C
100
AcDbEntity
  8
HATCH
  6
CONTINUOUS
 62
     2
100
AcDbTrace
 10
3448.325853239905
 20
2088.602898093268
 30
0.0
 11
2684.585117004429
 21
2063.602898093269
 31
0.0
 12
3198.530948961677
 22
2063.602898093269
 32
0.0
 13
3198.530948961677
 23
2063.602898093269
 33
0.0
210
0.0
220
0.0
230
1.0
  0
SOLID
  5
426
330
41C
100
AcDbEntity
  8
HATCH
  6
CONTINUOUS
 62
     2
100
AcDbTrace
 10
3448.325853239905
 20
2088.602898093268
 30
0.0
 11
3198.530948961677
 21
2063.602898093269
 31
0.0
 12
3448.325853239903
 22
2063.602898093269
 32
0.0
 13
3448.325853239903
 23
2063.602898093269
 33
0.0
  0
SOLID
  5
427
330
41C
100
AcDbEntity
  8
HATCH
  6
CONTINUOUS
 62
     2
100
AcDbTrace
 10
1912.230750544385
 20
2103.774898347587
 30
0.0
 11
1912.230750544386
 21
2123.860893483834
 31
0.0
 12
1837.579396492114
 22
2123.860893483834
 32
0.0
 13
1837.579396492114
 23
2123.860893483834
 33
0.0
210
0.0
220
0.0
230
1.0
  0
SOLID
  5
428
330
41C
100
AcDbEntity
  8
HATCH
  6
CONTINUOUS
 62
     2
100
AcDbTrace
 10
1912.230750544385
 20
2103.774898347587
 30
0.0
 11
1837.579396492114
 21
2123.860893483834
 31
0.0
 12
1616.496555199548
 22
2123.860893483834
 32
0.0
 13
1616.496555199548
 23
2123.860893483834
 33
0.0
210
0.0
220
0.0
230
1.0
  0
SOLID
  5
429
330
41C
100
AcDbEntity
  8
HATCH
  6
CONTINUOUS
 62
     2
100
AcDbTrace
 10
1616.496555199548
 20
2123.860893483834
 30
0.0
 11
1837.579396492115
 21
2103.774898347587
 31
0.0
 12
1912.230750544385
 22
2103.774898347587
 32
0.0
 13
1912.230750544385
 23
2103.774898347587
 33
0.0
210
0.0
220
0.0
230
1.0
  0
SOLID
  5
42A
330
41C
100
AcDbEntity
  8
HATCH
  6
CONTINUOUS
 62
     2
100
AcDbTrace
 10
1616.496555199548
 20
2123.860893483834
 30
0.0
 11
1616.496555199549
 21
2103.774898347587
 31
0.0
 12
1837.579396492115
 22
2103.774898347587
 32
0.0
 13
1837.579396492115
 23
2103.774898347587
 33
0.0
210
0.0
220
0.0
230
1.0
  0
SOLID
  5
42B
330
41C
100
AcDbEntity
  8
HATCH
  6
CONTINUOUS
 62
     2
100
AcDbTrace
 10
3448.325853239905
 20
2139.032893738153
 30
0.0
 11
3448.325853239905
 21
2164.032893738153
 31
0.0
 12
3198.530948961677
 22
2164.032893738153
 32
0.0
 13
3198.530948961677
 23
2164.032893738153
 33
0.0
210
0.0
220
0.0
230
1.0
  0
SOLID
  5
42C
330
41C
100
AcDbEntity
  8
HATCH
  6
CONTINUOUS
 62
     2
100
AcDbTrace
 10
3448.325853239905
 20
2139.032893738153
 30
0.0
 11
3198.530948961677
 21
2164.032893738153
 31
0.0
 12
2684.585117004429
 22
2164.032893738153
 32
0.0
 13
2684.585117004429
 23
2164.032893738153
 33
0.0
210
0.0
220
0.0
230
1.0
  0
SOLID
  5
42D
330
41C
100
AcDbEntity
  8
HATCH
  6
CONTINUOUS
 62
     2
100
AcDbTrace
 10
3448.325853239905
 20
2139.032893738153
 30
0.0
 11
2684.585117004429
 21
2164.032893738153
 31
0.0
 12
2437.661417406358
 22
2164.032893738153
 32
0.0
 13
2437.661417406358
 23
2164.032893738153
 33
0.0
210
0.0
220
0.0
230
1.0
  0
SOLID
  5
42E
330
41C
100
AcDbEntity
  8
HATCH
  6
CONTINUOUS
 62
     2
100
AcDbTrace
 10
2437.661417406358
 20
2164.032893738153
 30
0.0
 11
3198.530948961677
 21
2139.032893738153
 31
0.0
 12
3448.325853239905
 22
2139.032893738153
 32
0.0
 13
3448.325853239905
 23
2139.032893738153
 33
0.0
210
0.0
220
0.0
230
1.0
  0
SOLID
  5
42F
330
41C
100
AcDbEntity
  8
HATCH
  6
CONTINUOUS
 62
     2
100
AcDbTrace
 10
2437.661417406358
 20
2164.032893738153
 30
0.0
 11
2684.585117004429
 21
2139.032893738153
 31
0.0
 12
3198.530948961677
 22
2139.032893738153
 32
0.0
 13
3198.530948961677
 23
2139.032893738153
 33
0.0
  0
SOLID
  5
430
330
41C
100
AcDbEntity
  8
HATCH
  6
CONTINUOUS
 62
     2
100
AcDbTrace
 10
2437.661417406358
 20
2164.032893738153
 30
0.0
 11
2437.661417406357
 21
2139.032893738153
 31
0.0
 12
2684.585117004429
 22
2139.032893738153
 32
0.0
 13
2684.585117004429
 23
2139.032893738153
 33
0.0
210
0.0
220
0.0
230
1.0
  0
SOLID
  5
431
330
41C
100
AcDbEntity
  8
HATCH
  6
CONTINUOUS
 62
     2
100
AcDbTrace
 10
2750.622840832138
 20
2528.880252527772
 30
0.0
 11
2775.622840832136
 21
2628.880252527772
 31
0.0
 12
2750.622840832136
 22
2628.880252527772
 32
0.0
 13
2750.622840832136
 23
2628.880252527772
 33
0.0
  0
SOLID
  5
432
330
41C
100
AcDbEntity
  8
HATCH
  6
CONTINUOUS
 62
     2
100
AcDbTrace
 10
2775.622840832136
 20
2628.880252527772
 30
0.0
 11
2750.622840832138
 21
2528.880252527772
 31
0.0
 12
2775.622840832136
 22
2528.880252527772
 32
0.0
 13
2775.622840832136
 23
2528.880252527772
 33
0.0
210
0.0
220
0.0
230
1.0
  0
SOLID
  5
433
330
41C
100
AcDbEntity
  8
HATCH
  6
CONTINUOUS
 62
     2
100
AcDbTrace
 10
3141.106822990344
 20
2528.880252527772
 30
0.0
 11
3141.106822990343
 21
2628.880252527772
 31
0.0
 12
3116.106822990343
 22
2628.880252527772
 32
0.0
 13
3116.106822990343
 23
2628.880252527772
 33
0.0
210
0.0
220
0.0
230
1.0
  0
SOLID
  5
434
330
41C
100
AcDbEntity
  8
HATCH
  6
CONTINUOUS
 62
     2
100
AcDbTrace
 10
3116.106822990343
 20
2628.880252527772
 30
0.0
 11
3116.106822990344
 21
2528.880252527772
 31
0.0
 12
3141.106822990344
 22
2528.880252527772
 32
0.0
 13
3141.106822990344
 23
2528.880252527772
 33
0.0
210
0.0
220
0.0
230
1.0
  0
ENDBLK
  5
436
330
41C
100
AcDbEntity
  8
0
100
AcDbBlockEnd
  0
BLOCK
  5
43C
330
437
100
AcDbEntity
  8
0
100
AcDbBlockBegin
  2
*U4
 70
     1
 10
0.0
 20
0.0
 30
0.0
  3
*U4
  1

  0
SOLID
  5
438
330
437
100
AcDbEntity
  8
HATCH
  6
CONTINUOUS
 62
     2
100
AcDbTrace
 10
4269.490699262616
 20
2123.860893483834
 30
0.0
 11
4048.40785797005
 21
2123.860893483834
 31
0.0
 12
4269.490699262616
 22
2103.774898347587
 32
0.0
 13
4269.490699262616
 23
2103.774898347587
 33
0.0
210
0.0
220
0.0
230
1.0
  0
SOLID
  5
439
330
437
100
AcDbEntity
  8
HATCH
  6
CONTINUOUS
 62
     2
100
AcDbTrace
 10
3973.756503917777
 20
2123.860893483834
 30
0.0
 11
4269.490699262616
 21
2103.774898347587
 31
0.0
 12
4048.40785797005
 22
2123.860893483834
 32
0.0
 13
4048.40785797005
 23
2123.860893483834
 33
0.0
210
0.0
220
0.0
230
1.0
  0
SOLID
  5
43A
330
437
100
AcDbEntity
  8
HATCH
  6
CONTINUOUS
 62
     2
100
AcDbTrace
 10
4269.490699262616
 20
2103.774898347587
 30
0.0
 11
3973.756503917777
 21
2123.860893483834
 31
0.0
 12
4048.40785797005
 22
2103.774898347587
 32
0.0
 13
4048.40785797005
 23
2103.774898347587
 33
0.0
210
0.0
220
0.0
230
1.0
  0
SOLID
  5
43B
330
437
100
AcDbEntity
  8
HATCH
  6
CONTINUOUS
 62
     2
100
AcDbTrace
 10
3973.756503917777
 20
2103.774898347587
 30
0.0
 11
4048.40785797005
 21
2103.774898347587
 31
0.0
 12
3973.756503917777
 22
2123.860893483834
 32
0.0
 13
3973.756503917777
 23
2123.860893483834
 33
0.0
210
0.0
220
0.0
230
1.0
  0
ENDBLK
  5
43D
330
437
100
AcDbEntity
  8
0
100
AcDbBlockEnd
  0
BLOCK
  5
4A7
330
43E
100
AcDbEntity
  8
0
100
AcDbBlockBegin
  2
*U5
 70
     1
 10
0.0
 20
0.0
 30
0.0
  3
*U5
  1

  0
SOLID
  5
43F
330
43E
100
AcDbEntity
  8
HATCH
  6
CONTINUOUS
 62
   251
100
AcDbTrace
 10
3169.241627080328
 20
1541.96201918287
 30
0.0
 11
2784.585117004427
 21
1512.672697301528
 31
0.0
 12
3098.530948961672
 22
1512.672697301526
 32
0.0
 13
3098.530948961672
 23
1512.672697301526
 33
0.0
210
0.0
220
0.0
230
1.0
  0
SOLID
  5
440
330
43E
100
AcDbEntity
  8
HATCH
  6
CONTINUOUS
 62
   251
100
AcDbTrace
 10
2713.874438885773
 20
1541.962019182873
 30
0.0
 11
2784.585117004427
 21
1512.672697301528
 31
0.0
 12
3169.241627080328
 22
1541.96201918287
 32
0.0
 13
3169.241627080328
 23
1541.96201918287
 33
0.0
  0
SOLID
  5
441
330
43E
100
AcDbEntity
  8
HATCH
  6
CONTINUOUS
 62
   251
100
AcDbTrace
 10
3141.106822990341
 20
1598.755539303648
 30
0.0
 11
2713.874438885773
 21
1541.962019182873
 31
0.0
 12
3169.241627080328
 22
1541.96201918287
 32
0.0
 13
3169.241627080328
 23
1541.96201918287
 33
0.0
210
0.0
220
0.0
230
1.0
  0
SOLID
  5
442
330
43E
100
AcDbEntity
  8
HATCH
  6
CONTINUOUS
 62
   251
100
AcDbTrace
 10
2775.622840832134
 20
1598.755539303648
 30
0.0
 11
2713.874438885773
 21
1541.962019182873
 31
0.0
 12
3141.106822990341
 22
1598.755539303648
 32
0.0
 13
3141.106822990341
 23
1598.755539303648
 33
0.0
210
0.0
220
0.0
230
1.0
  0
SOLID
  5
443
330
43E
100
AcDbEntity
  8
HATCH
  6
CONTINUOUS
 62
   251
100
AcDbTrace
 10
3116.106822990341
 20
1598.755539303648
 30
0.0
 11
2775.622840832134
 21
1598.755539303648
 31
0.0
 12
3141.106822990341
 22
1598.755539303648
 32
0.0
 13
3141.106822990341
 23
1598.755539303648
 33
0.0
210
0.0
220
0.0
230
1.0
  0
SOLID
  5
444
330
43E
100
AcDbEntity
  8
HATCH
  6
CONTINUOUS
 62
   251
100
AcDbTrace
 10
2750.622840832136
 20
1598.755539303652
 30
0.0
 11
2713.874438885773
 21
1541.962019182873
 31
0.0
 12
2775.622840832134
 22
1598.755539303648
 32
0.0
 13
2775.622840832134
 23
1598.755539303648
 33
0.0
210
0.0
220
0.0
230
1.0
  0
SOLID
  5
445
330
43E
100
AcDbEntity
  8
HATCH
  6
CONTINUOUS
 62
   251
100
AcDbTrace
 10
3198.530948961674
 20
1612.672697301525
 30
0.0
 11
3141.106822990341
 21
1598.755539303648
 31
0.0
 12
3169.241627080328
 22
1541.96201918287
 32
0.0
 13
3169.241627080328
 23
1541.96201918287
 33
0.0
210
0.0
220
0.0
230
1.0
  0
SOLID
  5
446
330
43E
100
AcDbEntity
  8
HATCH
  6
CONTINUOUS
 62
   251
100
AcDbTrace
 10
2684.585117004428
 20
1612.672697301528
 30
0.0
 11
2713.874438885773
 21
1541.962019182873
 31
0.0
 12
2750.622840832136
 22
1598.755539303652
 32
0.0
 13
2750.622840832136
 23
1598.755539303652
 33
0.0
210
0.0
220
0.0
230
1.0
  0
SOLID
  5
447
330
43E
100
AcDbEntity
  8
HATCH
  6
CONTINUOUS
 62
   251
100
AcDbTrace
 10
3141.106822990341
 20
1698.755539303648
 30
0.0
 11
3141.106822990341
 21
1598.755539303648
 31
0.0
 12
3198.530948961674
 22
1612.672697301525
 32
0.0
 13
3198.530948961674
 23
1612.672697301525
 33
0.0
210
0.0
220
0.0
230
1.0
  0
SOLID
  5
448
330
43E
100
AcDbEntity
  8
HATCH
  6
CONTINUOUS
 62
   251
100
AcDbTrace
 10
2750.622840832136
 20
1698.755539303649
 30
0.0
 11
2684.585117004428
 21
1612.672697301528
 31
0.0
 12
2750.622840832136
 22
1598.755539303652
 32
0.0
 13
2750.622840832136
 23
1598.755539303652
 33
0.0
210
0.0
220
0.0
230
1.0
  0
SOLID
  5
449
330
43E
100
AcDbEntity
  8
HATCH
  6
CONTINUOUS
 62
   251
100
AcDbTrace
 10
2775.622840832136
 20
1698.755539303649
 30
0.0
 11
2775.622840832134
 21
1598.755539303648
 31
0.0
 12
3116.106822990341
 22
1598.755539303648
 32
0.0
 13
3116.106822990341
 23
1598.755539303648
 33
0.0
210
0.0
220
0.0
230
1.0
  0
SOLID
  5
44A
330
43E
100
AcDbEntity
  8
HATCH
  6
CONTINUOUS
 62
   251
100
AcDbTrace
 10
3116.106822990342
 20
1698.755539303649
 30
0.0
 11
2775.622840832136
 21
1698.755539303649
 31
0.0
 12
3116.106822990341
 22
1598.755539303648
 32
0.0
 13
3116.106822990341
 23
1598.755539303648
 33
0.0
210
0.0
220
0.0
230
1.0
  0
SOLID
  5
44B
330
43E
100
AcDbEntity
  8
HATCH
  6
CONTINUOUS
 62
   251
100
AcDbTrace
 10
3721.090394959389
 20
1988.99776902355
 30
0.0
 11
3815.840181772759
 21
1968.9117738873
 31
0.0
 12
3916.332377946442
 22
1968.9117738873
 32
0.0
 13
3916.332377946442
 23
1968.9117738873
 33
0.0
210
0.0
220
0.0
230
1.0
  0
SOLID
  5
44C
330
43E
100
AcDbEntity
  8
HATCH
  6
CONTINUOUS
 62
   251
100
AcDbTrace
 10
2164.896859502773
 20
1988.99776902355
 30
0.0
 11
1969.654876515721
 21
1968.9117738873
 31
0.0
 12
2070.147072689402
 22
1968.911773887299
 32
0.0
 13
2070.147072689402
 23
1968.911773887299
 33
0.0
210
0.0
220
0.0
230
1.0
  0
SOLID
  5
44D
330
43E
100
AcDbEntity
  8
HATCH
  6
CONTINUOUS
 62
   251
100
AcDbTrace
 10
3973.756503917776
 20
2017.692046363656
 30
0.0
 11
3721.090394959389
 21
1988.99776902355
 31
0.0
 12
3916.332377946442
 22
1968.9117738873
 32
0.0
 13
3916.332377946442
 23
1968.9117738873
 33
0.0
210
0.0
220
0.0
230
1.0
  0
SOLID
  5
44E
330
43E
100
AcDbEntity
  8
HATCH
  6
CONTINUOUS
 62
   251
100
AcDbTrace
 10
1912.230750544386
 20
2017.692046363657
 30
0.0
 11
1969.654876515721
 21
1968.9117738873
 31
0.0
 12
2164.896859502773
 22
1988.99776902355
 32
0.0
 13
2164.896859502773
 23
1988.99776902355
 33
0.0
210
0.0
220
0.0
230
1.0
  0
SOLID
  5
44F
330
43E
100
AcDbEntity
  8
HATCH
  6
CONTINUOUS
 62
   251
100
AcDbTrace
 10
3719.540059358278
 20
2031.778826437826
 30
0.0
 11
3721.090394959389
 21
1988.99776902355
 31
0.0
 12
3973.756503917776
 22
2017.692046363656
 32
0.0
 13
3973.756503917776
 23
2017.692046363656
 33
0.0
210
0.0
220
0.0
230
1.0
  0
SOLID
  5
450
330
43E
100
AcDbEntity
  8
HATCH
  6
CONTINUOUS
 62
   251
100
AcDbTrace
 10
2166.447195103887
 20
2031.778826437826
 30
0.0
 11
1912.230750544386
 21
2017.692046363657
 31
0.0
 12
2164.896859502773
 22
1988.99776902355
 32
0.0
 13
2164.896859502773
 23
1988.99776902355
 33
0.0
210
0.0
220
0.0
230
1.0
  0
SOLID
  5
451
330
43E
100
AcDbEntity
  8
HATCH
  6
CONTINUOUS
 62
   251
100
AcDbTrace
 10
2154.433239396132
 20
2036.755169829727
 30
0.0
 11
1912.230750544386
 21
2017.692046363657
 31
0.0
 12
2166.447195103887
 22
2031.778826437826
 32
0.0
 13
2166.447195103887
 23
2031.778826437826
 33
0.0
210
0.0
220
0.0
230
1.0
  0
SOLID
  5
452
330
43E
100
AcDbEntity
  8
HATCH
  6
CONTINUOUS
 62
   251
100
AcDbTrace
 10
3707.526103650524
 20
2036.755169829727
 30
0.0
 11
3721.090394959389
 21
1988.99776902355
 31
0.0
 12
3719.540059358278
 22
2031.778826437826
 32
0.0
 13
3719.540059358278
 23
2031.778826437826
 33
0.0
210
0.0
220
0.0
230
1.0
  0
SOLID
  5
453
330
43E
100
AcDbEntity
  8
HATCH
  6
CONTINUOUS
 62
   251
100
AcDbTrace
 10
2178.461150811642
 20
2036.755169829727
 30
0.0
 11
2166.447195103887
 21
2031.778826437826
 31
0.0
 12
2164.896859502773
 22
1988.99776902355
 32
0.0
 13
2164.896859502773
 23
1988.99776902355
 33
0.0
210
0.0
220
0.0
230
1.0
  0
SOLID
  5
454
330
43E
100
AcDbEntity
  8
HATCH
  6
CONTINUOUS
 62
   251
100
AcDbTrace
 10
3731.554015066032
 20
2036.755169829727
 30
0.0
 11
3719.540059358278
 21
2031.778826437826
 31
0.0
 12
3973.756503917776
 22
2017.692046363656
 32
0.0
 13
3973.756503917776
 23
2017.692046363656
 33
0.0
210
0.0
220
0.0
230
1.0
  0
SOLID
  5
455
330
43E
100
AcDbEntity
  8
HATCH
  6
CONTINUOUS
 62
   251
100
AcDbTrace
 10
2233.805804194732
 20
2037.778051481716
 30
0.0
 11
2178.461150811642
 21
2036.755169829727
 31
0.0
 12
2164.896859502773
 22
1988.99776902355
 32
0.0
 13
2164.896859502773
 23
1988.99776902355
 33
0.0
  0
SOLID
  5
456
330
43E
100
AcDbEntity
  8
HATCH
  6
CONTINUOUS
 62
   251
100
AcDbTrace
 10
3652.18145026743
 20
2037.778051481716
 30
0.0
 11
3721.090394959389
 21
1988.99776902355
 31
0.0
 12
3707.526103650524
 22
2036.755169829727
 32
0.0
 13
3707.526103650524
 23
2036.755169829727
 33
0.0
210
0.0
220
0.0
230
1.0
  0
SOLID
  5
457
330
43E
100
AcDbEntity
  8
HATCH
  6
CONTINUOUS
 62
   251
100
AcDbTrace
 10
2149.456896004231
 20
2048.769125537482
 30
0.0
 11
1912.230750544386
 21
2017.692046363657
 31
0.0
 12
2154.433239396132
 22
2036.755169829727
 32
0.0
 13
2154.433239396132
 23
2036.755169829727
 33
0.0
210
0.0
220
0.0
230
1.0
  0
SOLID
  5
458
330
43E
100
AcDbEntity
  8
HATCH
  6
CONTINUOUS
 62
   251
100
AcDbTrace
 10
3702.549760258622
 20
2048.769125537482
 30
0.0
 11
3652.18145026743
 21
2037.778051481716
 31
0.0
 12
3707.526103650524
 22
2036.755169829727
 32
0.0
 13
3707.526103650524
 23
2036.755169829727
 33
0.0
210
0.0
220
0.0
230
1.0
  0
SOLID
  5
459
330
43E
100
AcDbEntity
  8
HATCH
  6
CONTINUOUS
 62
   251
100
AcDbTrace
 10
3736.530358457934
 20
2048.769125537482
 30
0.0
 11
3731.554015066032
 21
2036.755169829727
 31
0.0
 12
3973.756503917776
 22
2017.692046363656
 32
0.0
 13
3973.756503917776
 23
2017.692046363656
 33
0.0
210
0.0
220
0.0
230
1.0
  0
SOLID
  5
45A
330
43E
100
AcDbEntity
  8
HATCH
  6
CONTINUOUS
 62
   251
100
AcDbTrace
 10
2183.437494203543
 20
2048.769125537482
 30
0.0
 11
2178.461150811642
 21
2036.755169829727
 31
0.0
 12
2233.805804194732
 22
2037.778051481716
 32
0.0
 13
2233.805804194732
 23
2037.778051481716
 33
0.0
210
0.0
220
0.0
230
1.0
  0
SOLID
  5
45B
330
43E
100
AcDbEntity
  8
HATCH
  6
CONTINUOUS
 62
   251
100
AcDbTrace
 10
3574.658907719098
 20
2049.255764414124
 30
0.0
 11
3652.18145026743
 21
2037.778051481716
 31
0.0
 12
3702.549760258622
 22
2048.769125537482
 32
0.0
 13
3702.549760258622
 23
2048.769125537482
 33
0.0
210
0.0
220
0.0
230
1.0
  0
SOLID
  5
45C
330
43E
100
AcDbEntity
  8
HATCH
  6
CONTINUOUS
 62
   251
100
AcDbTrace
 10
2311.328346743067
 20
2049.255764414124
 30
0.0
 11
2183.437494203543
 21
2048.769125537482
 31
0.0
 12
2233.805804194732
 22
2037.778051481716
 32
0.0
 13
2233.805804194732
 23
2037.778051481716
 33
0.0
210
0.0
220
0.0
230
1.0
  0
SOLID
  5
45D
330
43E
100
AcDbEntity
  8
HATCH
  6
CONTINUOUS
 62
   251
100
AcDbTrace
 10
2322.813181647789
 20
2057.86404661797
 30
0.0
 11
2183.437494203543
 21
2048.769125537482
 31
0.0
 12
2311.328346743067
 22
2049.255764414124
 32
0.0
 13
2311.328346743067
 23
2049.255764414124
 33
0.0
  0
SOLID
  5
45E
330
43E
100
AcDbEntity
  8
HATCH
  6
CONTINUOUS
 62
   251
100
AcDbTrace
 10
3563.174072814373
 20
2057.864046617972
 30
0.0
 11
3574.658907719098
 21
2049.255764414124
 31
0.0
 12
3702.549760258622
 22
2048.769125537482
 32
0.0
 13
3702.549760258622
 23
2048.769125537482
 33
0.0
210
0.0
220
0.0
230
1.0
  0
SOLID
  5
45F
330
43E
100
AcDbEntity
  8
HATCH
  6
CONTINUOUS
 62
   251
100
AcDbTrace
 10
3707.526103650524
 20
2060.783081245236
 30
0.0
 11
3563.174072814373
 21
2057.864046617972
 31
0.0
 12
3702.549760258622
 22
2048.769125537482
 32
0.0
 13
3702.549760258622
 23
2048.769125537482
 33
0.0
210
0.0
220
0.0
230
1.0
  0
SOLID
  5
460
330
43E
100
AcDbEntity
  8
HATCH
  6
CONTINUOUS
 62
   251
100
AcDbTrace
 10
2154.433239396132
 20
2060.783081245236
 30
0.0
 11
1912.230750544386
 21
2017.692046363657
 31
0.0
 12
2149.456896004231
 22
2048.769125537482
 32
0.0
 13
2149.456896004231
 23
2048.769125537482
 33
0.0
210
0.0
220
0.0
230
1.0
  0
SOLID
  5
461
330
43E
100
AcDbEntity
  8
HATCH
  6
CONTINUOUS
 62
   251
100
AcDbTrace
 10
2178.461150811642
 20
2060.783081245236
 30
0.0
 11
2183.437494203543
 21
2048.769125537482
 31
0.0
 12
2322.813181647789
 22
2057.86404661797
 32
0.0
 13
2322.813181647789
 23
2057.86404661797
 33
0.0
  0
SOLID
  5
462
330
43E
100
AcDbEntity
  8
HATCH
  6
CONTINUOUS
 62
   251
100
AcDbTrace
 10
3731.554015066032
 20
2060.783081245236
 30
0.0
 11
3736.530358457934
 21
2048.769125537482
 31
0.0
 12
3973.756503917776
 22
2017.692046363656
 32
0.0
 13
3973.756503917776
 23
2017.692046363656
 33
0.0
  0
SOLID
  5
463
330
43E
100
AcDbEntity
  8
HATCH
  6
CONTINUOUS
 62
   251
100
AcDbTrace
 10
3198.530948961677
 20
2063.602898093269
 30
0.0
 11
3116.106822990342
 21
1698.755539303649
 31
0.0
 12
3141.106822990341
 22
1698.755539303648
 32
0.0
 13
3141.106822990341
 23
1698.755539303648
 33
0.0
210
0.0
220
0.0
230
1.0
  0
SOLID
  5
464
330
43E
100
AcDbEntity
  8
HATCH
  6
CONTINUOUS
 62
   251
100
AcDbTrace
 10
3198.530948961677
 20
2063.602898093269
 30
0.0
 11
3141.106822990341
 21
1698.755539303648
 31
0.0
 12
3198.530948961674
 22
1612.672697301525
 32
0.0
 13
3198.530948961674
 23
1612.672697301525
 33
0.0
210
0.0
220
0.0
230
1.0
  0
SOLID
  5
465
330
43E
100
AcDbEntity
  8
HATCH
  6
CONTINUOUS
 62
   251
100
AcDbTrace
 10
2684.585117004429
 20
2063.602898093269
 30
0.0
 11
3116.106822990342
 21
1698.755539303649
 31
0.0
 12
3198.530948961677
 22
2063.602898093269
 32
0.0
 13
3198.530948961677
 23
2063.602898093269
 33
0.0
210
0.0
220
0.0
230
1.0
  0
SOLID
  5
466
330
43E
100
AcDbEntity
  8
HATCH
  6
CONTINUOUS
 62
   251
100
AcDbTrace
 10
2684.585117004429
 20
2063.602898093269
 30
0.0
 11
2775.622840832136
 21
1698.755539303649
 31
0.0
 12
3116.106822990342
 22
1698.755539303649
 32
0.0
 13
3116.106822990342
 23
1698.755539303649
 33
0.0
210
0.0
220
0.0
230
1.0
  0
SOLID
  5
467
330
43E
100
AcDbEntity
  8
HATCH
  6
CONTINUOUS
 62
   251
100
AcDbTrace
 10
2684.585117004429
 20
2063.602898093269
 30
0.0
 11
2750.622840832136
 21
1698.755539303649
 31
0.0
 12
2775.622840832136
 22
1698.755539303649
 32
0.0
 13
2775.622840832136
 23
1698.755539303649
 33
0.0
210
0.0
220
0.0
230
1.0
  0
SOLID
  5
468
330
43E
100
AcDbEntity
  8
HATCH
  6
CONTINUOUS
 62
   251
100
AcDbTrace
 10
2684.585117004429
 20
2063.602898093269
 30
0.0
 11
2684.585117004428
 21
1612.672697301528
 31
0.0
 12
2750.622840832136
 22
1698.755539303649
 32
0.0
 13
2750.622840832136
 23
1698.755539303649
 33
0.0
210
0.0
220
0.0
230
1.0
  0
SOLID
  5
469
330
43E
100
AcDbEntity
  8
HATCH
  6
CONTINUOUS
 62
   251
100
AcDbTrace
 10
3719.540059358278
 20
2065.759424637138
 30
0.0
 11
3563.174072814373
 21
2057.864046617972
 31
0.0
 12
3707.526103650524
 22
2060.783081245236
 32
0.0
 13
3707.526103650524
 23
2060.783081245236
 33
0.0
210
0.0
220
0.0
230
1.0
  0
SOLID
  5
46A
330
43E
100
AcDbEntity
  8
HATCH
  6
CONTINUOUS
 62
   251
100
AcDbTrace
 10
3719.540059358278
 20
2065.759424637138
 30
0.0
 11
3731.554015066032
 21
2060.783081245236
 31
0.0
 12
3973.756503917776
 22
2017.692046363656
 32
0.0
 13
3973.756503917776
 23
2017.692046363656
 33
0.0
210
0.0
220
0.0
230
1.0
  0
SOLID
  5
46B
330
43E
100
AcDbEntity
  8
HATCH
  6
CONTINUOUS
 62
   251
100
AcDbTrace
 10
2166.447195103887
 20
2065.759424637138
 30
0.0
 11
1912.230750544386
 21
2017.692046363657
 31
0.0
 12
2154.433239396132
 22
2060.783081245236
 32
0.0
 13
2154.433239396132
 23
2060.783081245236
 33
0.0
210
0.0
220
0.0
230
1.0
  0
SOLID
  5
46C
330
43E
100
AcDbEntity
  8
HATCH
  6
CONTINUOUS
 62
   251
100
AcDbTrace
 10
2166.447195103887
 20
2065.759424637138
 30
0.0
 11
2178.461150811642
 21
2060.783081245236
 31
0.0
 12
2322.813181647789
 22
2057.86404661797
 32
0.0
 13
2322.813181647789
 23
2057.86404661797
 33
0.0
210
0.0
220
0.0
230
1.0
  0
SOLID
  5
46D
330
43E
100
AcDbEntity
  8
HATCH
  6
CONTINUOUS
 62
   251
100
AcDbTrace
 10
3973.756503917777
 20
2083.688893229522
 30
0.0
 11
3719.540059358278
 21
2065.759424637138
 31
0.0
 12
3973.756503917776
 22
2017.692046363656
 32
0.0
 13
3973.756503917776
 23
2017.692046363656
 33
0.0
210
0.0
220
0.0
230
1.0
  0
SOLID
  5
46E
330
43E
100
AcDbEntity
  8
HATCH
  6
CONTINUOUS
 62
   251
100
AcDbTrace
 10
1912.230750544386
 20
2083.688893229522
 30
0.0
 11
1912.230750544386
 21
2017.692046363657
 31
0.0
 12
2166.447195103887
 22
2065.759424637138
 32
0.0
 13
2166.447195103887
 23
2065.759424637138
 33
0.0
210
0.0
220
0.0
230
1.0
  0
SOLID
  5
46F
330
43E
100
AcDbEntity
  8
HATCH
  6
CONTINUOUS
 62
   251
100
AcDbTrace
 10
3973.756503917777
 20
2143.946898601899
 30
0.0
 11
3719.540059358278
 21
2065.759424637138
 31
0.0
 12
3973.756503917777
 22
2083.688893229522
 32
0.0
 13
3973.756503917777
 23
2083.688893229522
 33
0.0
210
0.0
220
0.0
230
1.0
  0
SOLID
  5
470
330
43E
100
AcDbEntity
  8
HATCH
  6
CONTINUOUS
 62
   251
100
AcDbTrace
 10
3973.756503917777
 20
2143.946898601899
 30
0.0
 11
3563.174072814373
 21
2057.864046617972
 31
0.0
 12
3719.540059358278
 22
2065.759424637138
 32
0.0
 13
3719.540059358278
 23
2065.759424637138
 33
0.0
210
0.0
220
0.0
230
1.0
  0
SOLID
  5
471
330
43E
100
AcDbEntity
  8
HATCH
  6
CONTINUOUS
 62
   251
100
AcDbTrace
 10
1912.230750544386
 20
2143.946898601899
 30
0.0
 11
1912.230750544386
 21
2083.688893229522
 31
0.0
 12
2166.447195103887
 22
2065.759424637138
 32
0.0
 13
2166.447195103887
 23
2065.759424637138
 33
0.0
  0
SOLID
  5
472
330
43E
100
AcDbEntity
  8
HATCH
  6
CONTINUOUS
 62
   251
100
AcDbTrace
 10
1912.230750544386
 20
2143.946898601899
 30
0.0
 11
2166.447195103887
 21
2065.759424637138
 31
0.0
 12
2322.813181647789
 22
2057.86404661797
 32
0.0
 13
2322.813181647789
 23
2057.86404661797
 33
0.0
210
0.0
220
0.0
230
1.0
  0
SOLID
  5
473
330
43E
100
AcDbEntity
  8
HATCH
  6
CONTINUOUS
 62
   251
100
AcDbTrace
 10
3719.540059358278
 20
2161.876367194279
 30
0.0
 11
3563.174072814373
 21
2057.864046617972
 31
0.0
 12
3973.756503917777
 22
2143.946898601899
 32
0.0
 13
3973.756503917777
 23
2143.946898601899
 33
0.0
  0
SOLID
  5
474
330
43E
100
AcDbEntity
  8
HATCH
  6
CONTINUOUS
 62
   251
100
AcDbTrace
 10
2166.447195103887
 20
2161.876367194279
 30
0.0
 11
1912.230750544386
 21
2143.946898601899
 31
0.0
 12
2322.813181647789
 22
2057.86404661797
 32
0.0
 13
2322.813181647789
 23
2057.86404661797
 33
0.0
210
0.0
220
0.0
230
1.0
  0
SOLID
  5
475
330
43E
100
AcDbEntity
  8
HATCH
  6
CONTINUOUS
 62
   251
100
AcDbTrace
 10
3707.526103650524
 20
2166.852710586181
 30
0.0
 11
3563.174072814373
 21
2057.864046617972
 31
0.0
 12
3719.540059358278
 22
2161.876367194279
 32
0.0
 13
3719.540059358278
 23
2161.876367194279
 33
0.0
210
0.0
220
0.0
230
1.0
  0
SOLID
  5
476
330
43E
100
AcDbEntity
  8
HATCH
  6
CONTINUOUS
 62
   251
100
AcDbTrace
 10
2154.433239396132
 20
2166.852710586181
 30
0.0
 11
1912.230750544386
 21
2143.946898601899
 31
0.0
 12
2166.447195103887
 22
2161.876367194279
 32
0.0
 13
2166.447195103887
 23
2161.876367194279
 33
0.0
  0
SOLID
  5
477
330
43E
100
AcDbEntity
  8
HATCH
  6
CONTINUOUS
 62
   251
100
AcDbTrace
 10
2178.461150811642
 20
2166.852710586181
 30
0.0
 11
2166.447195103887
 21
2161.876367194279
 31
0.0
 12
2322.813181647789
 22
2057.86404661797
 32
0.0
 13
2322.813181647789
 23
2057.86404661797
 33
0.0
210
0.0
220
0.0
230
1.0
  0
SOLID
  5
478
330
43E
100
AcDbEntity
  8
HATCH
  6
CONTINUOUS
 62
   251
100
AcDbTrace
 10
3731.554015066032
 20
2166.852710586181
 30
0.0
 11
3719.540059358278
 21
2161.876367194279
 31
0.0
 12
3973.756503917777
 22
2143.946898601899
 32
0.0
 13
3973.756503917777
 23
2143.946898601899
 33
0.0
210
0.0
220
0.0
230
1.0
  0
SOLID
  5
479
330
43E
100
AcDbEntity
  8
HATCH
  6
CONTINUOUS
 62
   251
100
AcDbTrace
 10
3563.174072814373
 20
2169.77174521345
 30
0.0
 11
3563.174072814373
 21
2057.864046617972
 31
0.0
 12
3707.526103650524
 22
2166.852710586181
 32
0.0
 13
3707.526103650524
 23
2166.852710586181
 33
0.0
210
0.0
220
0.0
230
1.0
  0
SOLID
  5
47A
330
43E
100
AcDbEntity
  8
HATCH
  6
CONTINUOUS
 62
   251
100
AcDbTrace
 10
2322.813181647791
 20
2169.77174521345
 30
0.0
 11
2178.461150811642
 21
2166.852710586181
 31
0.0
 12
2322.813181647789
 22
2057.86404661797
 32
0.0
 13
2322.813181647789
 23
2057.86404661797
 33
0.0
210
0.0
220
0.0
230
1.0
  0
SOLID
  5
47B
330
43E
100
AcDbEntity
  8
HATCH
  6
CONTINUOUS
 62
   251
100
AcDbTrace
 10
2311.328346743066
 20
2178.380027417298
 30
0.0
 11
2178.461150811642
 21
2166.852710586181
 31
0.0
 12
2322.813181647791
 22
2169.77174521345
 32
0.0
 13
2322.813181647791
 23
2169.77174521345
 33
0.0
210
0.0
220
0.0
230
1.0
  0
SOLID
  5
47C
330
43E
100
AcDbEntity
  8
HATCH
  6
CONTINUOUS
 62
   251
100
AcDbTrace
 10
3574.658907719099
 20
2178.380027417298
 30
0.0
 11
3563.174072814373
 21
2169.77174521345
 31
0.0
 12
3707.526103650524
 22
2166.852710586181
 32
0.0
 13
3707.526103650524
 23
2166.852710586181
 33
0.0
210
0.0
220
0.0
230
1.0
  0
SOLID
  5
47D
330
43E
100
AcDbEntity
  8
HATCH
  6
CONTINUOUS
 62
   251
100
AcDbTrace
 10
3702.549760258622
 20
2178.866666293936
 30
0.0
 11
3574.658907719099
 21
2178.380027417298
 31
0.0
 12
3707.526103650524
 22
2166.852710586181
 32
0.0
 13
3707.526103650524
 23
2166.852710586181
 33
0.0
210
0.0
220
0.0
230
1.0
  0
SOLID
  5
47E
330
43E
100
AcDbEntity
  8
HATCH
  6
CONTINUOUS
 62
   251
100
AcDbTrace
 10
2149.456896004231
 20
2178.866666293936
 30
0.0
 11
1912.230750544386
 21
2143.946898601899
 31
0.0
 12
2154.433239396132
 22
2166.852710586181
 32
0.0
 13
2154.433239396132
 23
2166.852710586181
 33
0.0
210
0.0
220
0.0
230
1.0
  0
SOLID
  5
47F
330
43E
100
AcDbEntity
  8
HATCH
  6
CONTINUOUS
 62
   251
100
AcDbTrace
 10
2183.437494203543
 20
2178.866666293936
 30
0.0
 11
2178.461150811642
 21
2166.852710586181
 31
0.0
 12
2311.328346743066
 22
2178.380027417298
 32
0.0
 13
2311.328346743066
 23
2178.380027417298
 33
0.0
210
0.0
220
0.0
230
1.0
  0
SOLID
  5
480
330
43E
100
AcDbEntity
  8
HATCH
  6
CONTINUOUS
 62
   251
100
AcDbTrace
 10
3736.530358457934
 20
2178.866666293936
 30
0.0
 11
3731.554015066032
 21
2166.852710586181
 31
0.0
 12
3973.756503917777
 22
2143.946898601899
 32
0.0
 13
3973.756503917777
 23
2143.946898601899
 33
0.0
210
0.0
220
0.0
230
1.0
  0
SOLID
  5
481
330
43E
100
AcDbEntity
  8
HATCH
  6
CONTINUOUS
 62
   251
100
AcDbTrace
 10
2233.805804194733
 20
2189.857740349704
 30
0.0
 11
2183.437494203543
 21
2178.866666293936
 31
0.0
 12
2311.328346743066
 22
2178.380027417298
 32
0.0
 13
2311.328346743066
 23
2178.380027417298
 33
0.0
210
0.0
220
0.0
230
1.0
  0
SOLID
  5
482
330
43E
100
AcDbEntity
  8
HATCH
  6
CONTINUOUS
 62
   251
100
AcDbTrace
 10
3652.181450267431
 20
2189.857740349704
 30
0.0
 11
3574.658907719099
 21
2178.380027417298
 31
0.0
 12
3702.549760258622
 22
2178.866666293936
 32
0.0
 13
3702.549760258622
 23
2178.866666293936
 33
0.0
210
0.0
220
0.0
230
1.0
  0
SOLID
  5
483
330
43E
100
AcDbEntity
  8
HATCH
  6
CONTINUOUS
 62
   251
100
AcDbTrace
 10
2154.433239396132
 20
2190.88062200169
 30
0.0
 11
1912.230750544386
 21
2143.946898601899
 31
0.0
 12
2149.456896004231
 22
2178.866666293936
 32
0.0
 13
2149.456896004231
 23
2178.866666293936
 33
0.0
210
0.0
220
0.0
230
1.0
  0
SOLID
  5
484
330
43E
100
AcDbEntity
  8
HATCH
  6
CONTINUOUS
 62
   251
100
AcDbTrace
 10
3707.526103650524
 20
2190.88062200169
 30
0.0
 11
3652.181450267431
 21
2189.857740349704
 31
0.0
 12
3702.549760258622
 22
2178.866666293936
 32
0.0
 13
3702.549760258622
 23
2178.866666293936
 33
0.0
210
0.0
220
0.0
230
1.0
  0
SOLID
  5
485
330
43E
100
AcDbEntity
  8
HATCH
  6
CONTINUOUS
 62
   251
100
AcDbTrace
 10
2178.461150811642
 20
2190.88062200169
 30
0.0
 11
2183.437494203543
 21
2178.866666293936
 31
0.0
 12
2233.805804194733
 22
2189.857740349704
 32
0.0
 13
2233.805804194733
 23
2189.857740349704
 33
0.0
210
0.0
220
0.0
230
1.0
  0
SOLID
  5
486
330
43E
100
AcDbEntity
  8
HATCH
  6
CONTINUOUS
 62
   251
100
AcDbTrace
 10
3731.554015066032
 20
2190.88062200169
 30
0.0
 11
3736.530358457934
 21
2178.866666293936
 31
0.0
 12
3973.756503917777
 22
2143.946898601899
 32
0.0
 13
3973.756503917777
 23
2143.946898601899
 33
0.0
210
0.0
220
0.0
230
1.0
  0
SOLID
  5
487
330
43E
100
AcDbEntity
  8
HATCH
  6
CONTINUOUS
 62
   251
100
AcDbTrace
 10
2166.447195103887
 20
2195.856965393592
 30
0.0
 11
1912.230750544386
 21
2143.946898601899
 31
0.0
 12
2154.433239396132
 22
2190.88062200169
 32
0.0
 13
2154.433239396132
 23
2190.88062200169
 33
0.0
210
0.0
220
0.0
230
1.0
  0
SOLID
  5
488
330
43E
100
AcDbEntity
  8
HATCH
  6
CONTINUOUS
 62
   251
100
AcDbTrace
 10
2166.447195103887
 20
2195.856965393592
 30
0.0
 11
2178.461150811642
 21
2190.88062200169
 31
0.0
 12
2233.805804194733
 22
2189.857740349704
 32
0.0
 13
2233.805804194733
 23
2189.857740349704
 33
0.0
210
0.0
220
0.0
230
1.0
  0
SOLID
  5
489
330
43E
100
AcDbEntity
  8
HATCH
  6
CONTINUOUS
 62
   251
100
AcDbTrace
 10
3719.540059358278
 20
2195.856965393592
 30
0.0
 11
3652.181450267431
 21
2189.857740349704
 31
0.0
 12
3707.526103650524
 22
2190.88062200169
 32
0.0
 13
3707.526103650524
 23
2190.88062200169
 33
0.0
210
0.0
220
0.0
230
1.0
  0
SOLID
  5
48A
330
43E
100
AcDbEntity
  8
HATCH
  6
CONTINUOUS
 62
   251
100
AcDbTrace
 10
3719.540059358278
 20
2195.856965393592
 30
0.0
 11
3731.554015066032
 21
2190.88062200169
 31
0.0
 12
3973.756503917777
 22
2143.946898601899
 32
0.0
 13
3973.756503917777
 23
2143.946898601899
 33
0.0
210
0.0
220
0.0
230
1.0
  0
SOLID
  5
48B
330
43E
100
AcDbEntity
  8
HATCH
  6
CONTINUOUS
 62
   251
100
AcDbTrace
 10
3973.756503917776
 20
2209.943745467764
 30
0.0
 11
3719.540059358278
 21
2195.856965393592
 31
0.0
 12
3973.756503917777
 22
2143.946898601899
 32
0.0
 13
3973.756503917777
 23
2143.946898601899
 33
0.0
210
0.0
220
0.0
230
1.0
  0
SOLID
  5
48C
330
43E
100
AcDbEntity
  8
HATCH
  6
CONTINUOUS
 62
   251
100
AcDbTrace
 10
1912.230750544385
 20
2209.943745467764
 30
0.0
 11
1912.230750544386
 21
2143.946898601899
 31
0.0
 12
2166.447195103887
 22
2195.856965393592
 32
0.0
 13
2166.447195103887
 23
2195.856965393592
 33
0.0
210
0.0
220
0.0
230
1.0
  0
SOLID
  5
48D
330
43E
100
AcDbEntity
  8
HATCH
  6
CONTINUOUS
 62
   251
100
AcDbTrace
 10
2164.896859502773
 20
2238.638022807871
 30
0.0
 11
1912.230750544385
 21
2209.943745467764
 31
0.0
 12
2166.447195103887
 22
2195.856965393592
 32
0.0
 13
2166.447195103887
 23
2195.856965393592
 33
0.0
210
0.0
220
0.0
230
1.0
  0
SOLID
  5
48E
330
43E
100
AcDbEntity
  8
HATCH
  6
CONTINUOUS
 62
   251
100
AcDbTrace
 10
2164.896859502773
 20
2238.638022807871
 30
0.0
 11
2166.447195103887
 21
2195.856965393592
 31
0.0
 12
2233.805804194733
 22
2189.857740349704
 32
0.0
 13
2233.805804194733
 23
2189.857740349704
 33
0.0
210
0.0
220
0.0
230
1.0
  0
SOLID
  5
48F
330
43E
100
AcDbEntity
  8
HATCH
  6
CONTINUOUS
 62
   251
100
AcDbTrace
 10
3721.090394959393
 20
2238.638022807871
 30
0.0
 11
3719.540059358278
 21
2195.856965393592
 31
0.0
 12
3973.756503917776
 22
2209.943745467764
 32
0.0
 13
3973.756503917776
 23
2209.943745467764
 33
0.0
210
0.0
220
0.0
230
1.0
  0
SOLID
  5
490
330
43E
100
AcDbEntity
  8
HATCH
  6
CONTINUOUS
 62
   251
100
AcDbTrace
 10
3721.090394959393
 20
2238.638022807871
 30
0.0
 11
3652.181450267431
 21
2189.857740349704
 31
0.0
 12
3719.540059358278
 22
2195.856965393592
 32
0.0
 13
3719.540059358278
 23
2195.856965393592
 33
0.0
210
0.0
220
0.0
230
1.0
  0
SOLID
  5
491
330
43E
100
AcDbEntity
  8
HATCH
  6
CONTINUOUS
 62
   251
100
AcDbTrace
 10
3721.090394959393
 20
2238.638022807871
 30
0.0
 11
3916.332377946443
 21
2258.724017944122
 31
0.0
 12
3815.840181772761
 22
2258.724017944122
 32
0.0
 13
3815.840181772761
 23
2258.724017944122
 33
0.0
210
0.0
220
0.0
230
1.0
  0
SOLID
  5
492
330
43E
100
AcDbEntity
  8
HATCH
  6
CONTINUOUS
 62
   251
100
AcDbTrace
 10
3916.332377946443
 20
2258.724017944122
 30
0.0
 11
3721.090394959393
 21
2238.638022807871
 31
0.0
 12
3973.756503917776
 22
2209.943745467764
 32
0.0
 13
3973.756503917776
 23
2209.943745467764
 33
0.0
210
0.0
220
0.0
230
1.0
  0
SOLID
  5
493
330
43E
100
AcDbEntity
  8
HATCH
  6
CONTINUOUS
 62
   251
100
AcDbTrace
 10
2070.147072689402
 20
2258.724017944122
 30
0.0
 11
1912.230750544385
 21
2209.943745467764
 31
0.0
 12
2164.896859502773
 22
2238.638022807871
 32
0.0
 13
2164.896859502773
 23
2238.638022807871
 33
0.0
210
0.0
220
0.0
230
1.0
  0
SOLID
  5
494
330
43E
100
AcDbEntity
  8
HATCH
  6
CONTINUOUS
 62
   251
100
AcDbTrace
 10
1969.654876515718
 20
2258.724017944122
 30
0.0
 11
1912.230750544385
 21
2209.943745467764
 31
0.0
 12
2070.147072689402
 22
2258.724017944122
 32
0.0
 13
2070.147072689402
 23
2258.724017944122
 33
0.0
210
0.0
220
0.0
230
1.0
  0
SOLID
  5
495
330
43E
100
AcDbEntity
  8
HATCH
  6
CONTINUOUS
 62
   251
100
AcDbTrace
 10
3116.106822990345
 20
2528.880252527768
 30
0.0
 11
2684.585117004429
 21
2164.032893738152
 31
0.0
 12
3198.530948961677
 22
2164.032893738153
 32
0.0
 13
3198.530948961677
 23
2164.032893738153
 33
0.0
210
0.0
220
0.0
230
1.0
  0
SOLID
  5
496
330
43E
100
AcDbEntity
  8
HATCH
  6
CONTINUOUS
 62
   251
100
AcDbTrace
 10
3141.106822990344
 20
2528.880252527772
 30
0.0
 11
3116.106822990345
 21
2528.880252527768
 31
0.0
 12
3198.530948961677
 22
2164.032893738153
 32
0.0
 13
3198.530948961677
 23
2164.032893738153
 33
0.0
210
0.0
220
0.0
230
1.0
  0
SOLID
  5
497
330
43E
100
AcDbEntity
  8
HATCH
  6
CONTINUOUS
 62
   251
100
AcDbTrace
 10
2750.622840832138
 20
2528.880252527772
 30
0.0
 11
2684.585117004429
 21
2164.032893738152
 31
0.0
 12
3116.106822990345
 22
2528.880252527768
 32
0.0
 13
3116.106822990345
 23
2528.880252527768
 33
0.0
210
0.0
220
0.0
230
1.0
  0
SOLID
  5
498
330
43E
100
AcDbEntity
  8
HATCH
  6
CONTINUOUS
 62
   251
100
AcDbTrace
 10
2775.622840832133
 20
2528.880252527772
 30
0.0
 11
2750.622840832138
 21
2528.880252527772
 31
0.0
 12
3116.106822990345
 22
2528.880252527768
 32
0.0
 13
3116.106822990345
 23
2528.880252527768
 33
0.0
210
0.0
220
0.0
230
1.0
  0
SOLID
  5
499
330
43E
100
AcDbEntity
  8
HATCH
  6
CONTINUOUS
 62
   251
100
AcDbTrace
 10
3198.530948961677
 20
2614.963094529892
 30
0.0
 11
3141.106822990344
 21
2528.880252527772
 31
0.0
 12
3198.530948961677
 22
2164.032893738153
 32
0.0
 13
3198.530948961677
 23
2164.032893738153
 33
0.0
210
0.0
220
0.0
230
1.0
  0
SOLID
  5
49A
330
43E
100
AcDbEntity
  8
HATCH
  6
CONTINUOUS
 62
   251
100
AcDbTrace
 10
2684.585117004429
 20
2614.963094529892
 30
0.0
 11
2684.585117004429
 21
2164.032893738152
 31
0.0
 12
2750.622840832138
 22
2528.880252527772
 32
0.0
 13
2750.622840832138
 23
2528.880252527772
 33
0.0
210
0.0
220
0.0
230
1.0
  0
SOLID
  5
49B
330
43E
100
AcDbEntity
  8
HATCH
  6
CONTINUOUS
 62
   251
100
AcDbTrace
 10
3116.106822990343
 20
2628.880252527772
 30
0.0
 11
2775.622840832133
 21
2528.880252527772
 31
0.0
 12
3116.106822990345
 22
2528.880252527768
 32
0.0
 13
3116.106822990345
 23
2528.880252527768
 33
0.0
210
0.0
220
0.0
230
1.0
  0
SOLID
  5
49C
330
43E
100
AcDbEntity
  8
HATCH
  6
CONTINUOUS
 62
   251
100
AcDbTrace
 10
3141.106822990343
 20
2628.880252527772
 30
0.0
 11
3141.106822990344
 21
2528.880252527772
 31
0.0
 12
3198.530948961677
 22
2614.963094529892
 32
0.0
 13
3198.530948961677
 23
2614.963094529892
 33
0.0
210
0.0
220
0.0
230
1.0
  0
SOLID
  5
49D
330
43E
100
AcDbEntity
  8
HATCH
  6
CONTINUOUS
 62
   251
100
AcDbTrace
 10
2775.622840832136
 20
2628.880252527772
 30
0.0
 11
2775.622840832133
 21
2528.880252527772
 31
0.0
 12
3116.106822990343
 22
2628.880252527772
 32
0.0
 13
3116.106822990343
 23
2628.880252527772
 33
0.0
210
0.0
220
0.0
230
1.0
  0
SOLID
  5
49E
330
43E
100
AcDbEntity
  8
HATCH
  6
CONTINUOUS
 62
   251
100
AcDbTrace
 10
2750.622840832136
 20
2628.880252527772
 30
0.0
 11
2684.585117004429
 21
2614.963094529892
 31
0.0
 12
2750.622840832138
 22
2528.880252527772
 32
0.0
 13
2750.622840832138
 23
2528.880252527772
 33
0.0
210
0.0
220
0.0
230
1.0
  0
SOLID
  5
49F
330
43E
100
AcDbEntity
  8
HATCH
  6
CONTINUOUS
 62
   251
100
AcDbTrace
 10
2750.622840832136
 20
2628.880252527772
 30
0.0
 11
2775.622840832136
 21
2628.880252527772
 31
0.0
 12
3116.106822990343
 22
2628.880252527772
 32
0.0
 13
3116.106822990343
 23
2628.880252527772
 33
0.0
210
0.0
220
0.0
230
1.0
  0
SOLID
  5
4A0
330
43E
100
AcDbEntity
  8
HATCH
  6
CONTINUOUS
 62
   251
100
AcDbTrace
 10
2750.622840832136
 20
2628.880252527772
 30
0.0
 11
3116.106822990343
 21
2628.880252527772
 31
0.0
 12
3141.106822990343
 22
2628.880252527772
 32
0.0
 13
3141.106822990343
 23
2628.880252527772
 33
0.0
210
0.0
220
0.0
230
1.0
  0
SOLID
  5
4A1
330
43E
100
AcDbEntity
  8
HATCH
  6
CONTINUOUS
 62
   251
100
AcDbTrace
 10
3169.241627080332
 20
2685.673772648546
 30
0.0
 11
2750.622840832136
 21
2628.880252527772
 31
0.0
 12
3141.106822990343
 22
2628.880252527772
 32
0.0
 13
3141.106822990343
 23
2628.880252527772
 33
0.0
210
0.0
220
0.0
230
1.0
  0
SOLID
  5
4A2
330
43E
100
AcDbEntity
  8
HATCH
  6
CONTINUOUS
 62
   251
100
AcDbTrace
 10
3169.241627080332
 20
2685.673772648546
 30
0.0
 11
3141.106822990343
 21
2628.880252527772
 31
0.0
 12
3198.530948961677
 22
2614.963094529892
 32
0.0
 13
3198.530948961677
 23
2614.963094529892
 33
0.0
210
0.0
220
0.0
230
1.0
  0
SOLID
  5
4A3
330
43E
100
AcDbEntity
  8
HATCH
  6
CONTINUOUS
 62
   251
100
AcDbTrace
 10
2713.874438885774
 20
2685.673772648547
 30
0.0
 11
2750.622840832136
 21
2628.880252527772
 31
0.0
 12
3169.241627080332
 22
2685.673772648546
 32
0.0
 13
3169.241627080332
 23
2685.673772648546
 33
0.0
210
0.0
220
0.0
230
1.0
  0
SOLID
  5
4A4
330
43E
100
AcDbEntity
  8
HATCH
  6
CONTINUOUS
 62
   251
100
AcDbTrace
 10
2713.874438885774
 20
2685.673772648547
 30
0.0
 11
2684.585117004429
 21
2614.963094529892
 31
0.0
 12
2750.622840832136
 22
2628.880252527772
 32
0.0
 13
2750.622840832136
 23
2628.880252527772
 33
0.0
210
0.0
220
0.0
230
1.0
  0
SOLID
  5
4A5
330
43E
100
AcDbEntity
  8
HATCH
  6
CONTINUOUS
 62
   251
100
AcDbTrace
 10
2713.874438885774
 20
2685.673772648547
 30
0.0
 11
3098.530948961677
 21
2714.963094529892
 31
0.0
 12
2784.58511700443
 22
2714.963094529892
 32
0.0
 13
2784.58511700443
 23
2714.963094529892
 33
0.0
210
0.0
220
0.0
230
1.0
  0
SOLID
  5
4A6
330
43E
100
AcDbEntity
  8
HATCH
  6
CONTINUOUS
 62
   251
100
AcDbTrace
 10
3098.530948961677
 20
2714.963094529892
 30
0.0
 11
2713.874438885774
 21
2685.673772648547
 31
0.0
 12
3169.241627080332
 22
2685.673772648546
 32
0.0
 13
3169.241627080332
 23
2685.673772648546
 33
0.0
210
0.0
220
0.0
230
1.0
  0
ENDBLK
  5
4A8
330
43E
100
AcDbEntity
  8
0
100
AcDbBlockEnd
  0
ENDSEC
  0
SECTION
  2
ENTITIES
  0
INSERT
  5
3EC
330
1F
100
AcDbEntity
  8
HATCH
100
AcDbBlockReference
  2
ABKA0
 10
0.0
 20
0.0
 30
0.0
  0
ENDSEC
  0
SECTION
  2
OBJECTS
  0
DICTIONARY
  5
C
330
0
100
AcDbDictionary
  3
ACAD_GROUP
350
D
  3
ACAD_LAYOUT
350
1A
  3
ACAD_MLINESTYLE
350
17
  3
ACAD_PLOTSETTINGS
350
19
1001
ACAD
1000
TREAT_AS_HARD
1070
     0
1000
TREAT_AS_HARD
1070
     0
  0
DICTIONARY
  5
174
330
1F
100
AcDbDictionary
  3
ACAD_LAYOUTSELFREF
350
3EE
  3
ACAD_SORTENTS
350
36C
1001
ACAD
1000
TREAT_AS_HARD
1070
     1
1000
TREAT_AS_HARD
1070
     0
  0
DICTIONARY
  5
176
330
50
100
AcDbDictionary
  3
ACAD_LAYOUTSELFREF
350
3EF
1001
ACAD
1000
TREAT_AS_HARD
1070
     1
1000
TREAT_AS_HARD
1070
     0
  0
DICTIONARY
  5
D
102
{ACAD_REACTORS
330
C
102
}
330
C
100
AcDbDictionary
1001
ACAD
1000
TREAT_AS_HARD
1070
     0
1000
TREAT_AS_HARD
1070
     0
  0
DICTIONARY
  5
1A
102
{ACAD_REACTORS
330
C
102
}
330
C
100
AcDbDictionary
1001
ACAD
1000
TREAT_AS_HARD
1070
     0
1000
TREAT_AS_HARD
1070
     0
  0
DICTIONARY
  5
17
102
{ACAD_REACTORS
330
C
102
}
330
C
100
AcDbDictionary
  3
STANDARD
350
18
1001
ACAD
1000
TREAT_AS_HARD
1070
     0
1000
TREAT_AS_HARD
1070
     0
  0
DICTIONARY
  5
19
102
{ACAD_REACTORS
330
C
102
}
330
C
100
AcDbDictionary
1001
ACAD
1000
TREAT_AS_HARD
1070
     0
1000
TREAT_AS_HARD
1070
     0
  0
XRECORD
  5
3EE
102
{ACAD_REACTORS
330
174
102
}
330
174
100
AcDbXrecord
340
1F
  0
SORTENTSTABLE
  5
36C
102
{ACAD_REACTORS
330
174
102
}
330
174
100
AcDbSortentsTable
330
1F
331
2A5
  5
2AA
331
283
  5
288
331
261
  5
266
331
294
  5
299
331
272
  5
277
331
250
  5
255
331
2A3
  5
2A8
331
281
  5
286
331
2B4
  5
33D
331
292
  5
297
331
270
  5
275
331
24E
  5
253
331
25F
  5
264
331
2A1
  5
2A6
331
2B2
  5
2E9
331
290
  5
295
331
26E
  5
273
331
24C
  5
251
331
27F
  5
284
331
25D
  5
262
331
36B
  5
23D
331
2B0
  5
2B5
331
28E
  5
293
331
26C
  5
271
331
24A
  5
24F
331
29F
  5
2A4
331
27D
  5
282
331
25B
  5
260
331
246
  5
24B
331
2E9
  5
23F
331
2AE
  5
2B3
331
28C
  5
291
331
26A
  5
26F
331
248
  5
24D
331
29D
  5
2A2
331
27B
  5
280
331
259
  5
25E
331
244
  5
249
331
2AC
  5
2B1
331
28A
  5
28F
331
268
  5
26D
331
29B
  5
2A0
331
279
  5
27E
331
257
  5
25C
331
242
  5
247
331
2AA
  5
2AF
331
288
  5
28D
331
266
  5
26B
331
299
  5
29E
331
277
  5
27C
331
255
  5
25A
331
240
  5
245
331
2A8
  5
2AD
331
286
  5
28B
331
264
  5
269
331
297
  5
29C
331
275
  5
27A
331
253
  5
258
331
23E
  5
243
331
2E1
  5
23E
331
2A6
  5
2AB
331
284
  5
289
331
262
  5
267
331
295
  5
29A
331
273
  5
278
331
251
  5
256
331
33D
  5
240
331
2A4
  5
2A9
331
282
  5
287
331
260
  5
265
331
2B5
  5
36B
331
293
  5
298
331
271
  5
276
331
24F
  5
254
331
2A2
  5
2A7
331
280
  5
285
331
2B3
  5
2F7
331
291
  5
296
331
26F
  5
274
331
24D
  5
252
331
25E
  5
263
331
2A0
  5
2A5
331
2B1
  5
2E1
331
28F
  5
294
331
26D
  5
272
331
24B
  5
250
331
27E
  5
283
331
25C
  5
261
331
247
  5
24C
331
2AF
  5
2B4
331
28D
  5
292
331
26B
  5
270
331
249
  5
24E
331
29E
  5
2A3
331
27C
  5
281
331
25A
  5
25F
331
245
  5
24A
331
2AD
  5
2B2
331
28B
  5
290
331
269
  5
26E
331
22E
  5
241
331
29C
  5
2A1
331
27A
  5
27F
331
258
  5
25D
331
243
  5
248
331
2F7
  5
22E
331
2AB
  5
2B0
331
289
  5
28E
331
267
  5
26C
331
29A
  5
29F
331
278
  5
27D
331
256
  5
25B
331
241
  5
246
331
2A9
  5
2AE
331
287
  5
28C
331
265
  5
26A
331
298
  5
29D
331
276
  5
27B
331
254
  5
259
331
23F
  5
244
331
2A7
  5
2AC
331
285
  5
28A
331
263
  5
268
331
296
  5
29B
331
274
  5
279
331
252
  5
257
331
23D
  5
242
  0
XRECORD
  5
3EF
102
{ACAD_REACTORS
330
176
102
}
330
176
100
AcDbXrecord
340
50
  0
MLINESTYLE
  5
18
102
{ACAD_REACTORS
330
17
102
}
330
17
100
AcDbMlineStyle
  2
STANDARD
 70
     0
  3

 62
   256
 51
90.0
 52
90.0
 71
     2
 49
0.5
 62
   256
  6
BYLAYER
 49
-0.5
 62
   256
  6
BYLAYER
  0
ENDSEC
  0
EOF
