  0
SECTION
  2
HEADER
  9
$ACADVER
  1
AC1012
  9
$DWGCODEPAGE
  3
ANSI_1252
  9
$INSBASE
 10
0.0
 20
0.0
 30
0.0
  9
$EXTMIN
 10
-293.0199871562399
 20
-286.2413839201144
 30
-0.0015258207003583
  9
$EXTMAX
 10
5513.654746073221
 20
3825.329894719382
 30
0.0000000349246037
  9
$LIMMIN
 10
0.0
 20
0.0
  9
$LIMMAX
 10
420.0
 20
297.0
  9
$ORTHOMODE
 70
     0
  9
$REGENMODE
 70
     1
  9
$FILLMODE
 70
     1
  9
$QTEXTMODE
 70
     0
  9
$MIRRTEXT
 70
     1
  9
$DRAGMODE
 70
     2
  9
$LTSCALE
 40
1.0
  9
$OSMODE
 70
  3071
  9
$ATTMODE
 70
     1
  9
$TEXTSIZE
 40
2.5
  9
$TRACEWID
 40
1.0
  9
$TEXTSTYLE
  7
STANDARD
  9
$CLAYER
  8
0
  9
$CELTYPE
  6
BYLAYER
  9
$CECOLOR
 62
   256
  9
$CELTSCALE
 40
1.0
  9
$DELOBJ
 70
     1
  9
$DISPSILH
 70
     0
  9
$DIMSCALE
 40
1.0
  9
$DIMASZ
 40
2.5
  9
$DIMEXO
 40
0.625
  9
$DIMDLI
 40
3.75
  9
$DIMRND
 40
0.0
  9
$DIMDLE
 40
0.0
  9
$DIMEXE
 40
1.25
  9
$DIMTP
 40
0.0
  9
$DIMTM
 40
0.0
  9
$DIMTXT
 40
2.5
  9
$DIMCEN
 40
2.5
  9
$DIMTSZ
 40
0.0
  9
$DIMTOL
 70
     0
  9
$DIMLIM
 70
     0
  9
$DIMTIH
 70
     0
  9
$DIMTOH
 70
     0
  9
$DIMSE1
 70
     0
  9
$DIMSE2
 70
     0
  9
$DIMTAD
 70
     1
  9
$DIMZIN
 70
     8
  9
$DIMBLK
  1

  9
$DIMASO
 70
     1
  9
$DIMSHO
 70
     1
  9
$DIMPOST
  1

  9
$DIMAPOST
  1

  9
$DIMALT
 70
     0
  9
$DIMALTD
 70
     3
  9
$DIMALTF
 40
0.03937007874016
  9
$DIMLFAC
 40
1.0
  9
$DIMTOFL
 70
     1
  9
$DIMTVP
 40
0.0
  9
$DIMTIX
 70
     0
  9
$DIMSOXD
 70
     0
  9
$DIMSAH
 70
     0
  9
$DIMBLK1
  1

  9
$DIMBLK2
  1

  9
$DIMSTYLE
  2
ISO-25
  9
$DIMCLRD
 70
     0
  9
$DIMCLRE
 70
     0
  9
$DIMCLRT
 70
     0
  9
$DIMTFAC
 40
1.0
  9
$DIMGAP
 40
0.625
  9
$DIMJUST
 70
     0
  9
$DIMSD1
 70
     0
  9
$DIMSD2
 70
     0
  9
$DIMTOLJ
 70
     0
  9
$DIMTZIN
 70
     8
  9
$DIMALTZ
 70
     0
  9
$DIMALTTZ
 70
     0
  9
$DIMFIT
 70
     3
  9
$DIMUPT
 70
     0
  9
$DIMUNIT
 70
     2
  9
$DIMDEC
 70
     2
  9
$DIMTDEC
 70
     2
  9
$DIMALTU
 70
     2
  9
$DIMALTTD
 70
     3
  9
$DIMTXSTY
  7
STANDARD
  9
$DIMAUNIT
 70
     0
  9
$LUNITS
 70
     2
  9
$LUPREC
 70
     4
  9
$SKETCHINC
 40
1.0
  9
$FILLETRAD
 40
10.0
  9
$AUNITS
 70
     0
  9
$AUPREC
 70
     0
  9
$MENU
  1
.
  9
$ELEVATION
 40
0.0
  9
$PELEVATION
 40
0.0
  9
$THICKNESS
 40
0.0
  9
$LIMCHECK
 70
     0
  9
$BLIPMODE
 70
     0
  9
$CHAMFERA
 40
10.0
  9
$CHAMFERB
 40
10.0
  9
$CHAMFERC
 40
20.0
  9
$CHAMFERD
 40
0.0
  9
$SKPOLY
 70
     0
  9
$TDCREATE
 40
2452626.510234259
  9
$TDUPDATE
 40
2452772.485246296
  9
$TDINDWG
 40
0.0041524306
  9
$TDUSRTIMER
 40
0.0041517361
  9
$USRTIMER
 70
     1
  9
$ANGBASE
 50
0.0
  9
$ANGDIR
 70
     0
  9
$PDMODE
 70
     0
  9
$PDSIZE
 40
0.0
  9
$PLINEWID
 40
0.0
  9
$COORDS
 70
     2
  9
$SPLFRAME
 70
     0
  9
$SPLINETYPE
 70
     6
  9
$SPLINESEGS
 70
     8
  9
$ATTDIA
 70
     0
  9
$ATTREQ
 70
     1
  9
$HANDLING
 70
-16383
  9
$HANDSEED
  5
257
  9
$SURFTAB1
 70
     6
  9
$SURFTAB2
 70
     6
  9
$SURFTYPE
 70
     6
  9
$SURFU
 70
     6
  9
$SURFV
 70
     6
  9
$UCSNAME
  2

  9
$UCSORG
 10
0.0
 20
0.0
 30
0.0
  9
$UCSXDIR
 10
1.0
 20
0.0
 30
0.0
  9
$UCSYDIR
 10
0.0
 20
1.0
 30
0.0
  9
$PUCSNAME
  2

  9
$PUCSORG
 10
0.0
 20
0.0
 30
0.0
  9
$PUCSXDIR
 10
1.0
 20
0.0
 30
0.0
  9
$PUCSYDIR
 10
0.0
 20
1.0
 30
0.0
  9
$USERI1
 70
     0
  9
$USERI2
 70
     0
  9
$USERI3
 70
     0
  9
$USERI4
 70
     0
  9
$USERI5
 70
     0
  9
$USERR1
 40
0.0
  9
$USERR2
 40
0.0
  9
$USERR3
 40
0.0
  9
$USERR4
 40
0.0
  9
$USERR5
 40
0.0
  9
$WORLDVIEW
 70
     1
  9
$SHADEDGE
 70
     3
  9
$SHADEDIF
 70
    70
  9
$TILEMODE
 70
     1
  9
$MAXACTVP
 70
    64
  9
$PINSBASE
 10
0.0
 20
0.0
 30
0.0
  9
$PLIMCHECK
 70
     0
  9
$PEXTMIN
 10
0.0
 20
0.0
 30
0.0
  9
$PEXTMAX
 10
0.0
 20
0.0
 30
0.0
  9
$PLIMMIN
 10
0.0
 20
0.0
  9
$PLIMMAX
 10
12.0
 20
9.0
  9
$UNITMODE
 70
     0
  9
$VISRETAIN
 70
     1
  9
$PLINEGEN
 70
     0
  9
$PSLTSCALE
 70
     1
  9
$TREEDEPTH
 70
  3020
  9
$PICKSTYLE
 70
     1
  9
$CMLSTYLE
  2
STANDARD
  9
$CMLJUST
 70
     0
  9
$CMLSCALE
 40
20.0
  9
$SAVEIMAGES
 70
     1
  0
ENDSEC
  0
SECTION
  2
CLASSES
  0
CLASS
  1
ACDBDICTIONARYWDFLT
  2
AcDbDictionaryWithDefault
  3
AutoCAD 2000
 90
    32768
280
     0
281
     0
  0
CLASS
  1
ACDBPLACEHOLDER
  2
AcDbPlaceHolder
  3
AutoCAD 2000
 90
    32768
280
     0
281
     0
  0
CLASS
  1
LAYOUT
  2
AcDbLayout
  3
AutoCAD 2000
 90
    32768
280
     0
281
     0
  0
CLASS
  1
LONG_TRANSACTION
  2
AcDbLongTransaction
  3
AutoCAD 2000
 90
    32768
280
     0
281
     0
  0
CLASS
  1
LWPOLYLINE
  2
AcDbPolyline
  3
AutoCAD 2000
 90
    32768
280
     0
281
     1
  0
CLASS
  1
HATCH
  2
AcDbHatch
  3
AutoCAD 2000
 90
    32768
280
     0
281
     1
  0
CLASS
  1
XRECORD
  2
AcDbXrecord
  3
AutoCAD 2000
 90
    32768
280
     0
281
     0
  0
CLASS
  1
LONG_TRANSACTION
  2
AcDbLongTransaction
  3
AutoCAD 2000
 90
    32768
280
     0
281
     0
  0
CLASS
  1
LWPOLYLINE
  2
AcDbPolyline
  3
AutoCAD 2000
 90
    32768
280
     0
281
     1
  0
CLASS
  1
HATCH
  2
AcDbHatch
  3
AutoCAD 2000
 90
    32768
280
     0
281
     1
  0
CLASS
  1
XRECORD
  2
AcDbXrecord
  3
AutoCAD 2000
 90
    32768
280
     0
281
     0
  0
CLASS
  1
LONG_TRANSACTION
  2
AcDbLongTransaction
  3
AutoCAD 2000
 90
    32768
280
     0
281
     0
  0
CLASS
  1
LWPOLYLINE
  2
AcDbPolyline
  3
AutoCAD 2000
 90
    32768
280
     0
281
     1
  0
CLASS
  1
HATCH
  2
AcDbHatch
  3
AutoCAD 2000
 90
    32768
280
     0
281
     1
  0
CLASS
  1
XRECORD
  2
AcDbXrecord
  3
AutoCAD 2000
 90
    32768
280
     0
281
     0
  0
CLASS
  1
DICTIONARYVAR
  2
AcDbDictionaryVar
  3
AutoCAD 2000
 90
    32768
280
     0
281
     0
  0
CLASS
  1
SORTENTSTABLE
  2
AcDbSortentsTable
  3
AutoCAD 2000
 90
    32768
280
     0
281
     0
  0
CLASS
  1
LONG_TRANSACTION
  2
AcDbLongTransaction
  3
AutoCAD 2000
 90
    32768
280
     0
281
     0
  0
CLASS
  1
LWPOLYLINE
  2
AcDbPolyline
  3
AutoCAD 2000
 90
    32768
280
     0
281
     1
  0
CLASS
  1
HATCH
  2
AcDbHatch
  3
AutoCAD 2000
 90
    32768
280
     0
281
     1
  0
CLASS
  1
XRECORD
  2
AcDbXrecord
  3
AutoCAD 2000
 90
    32768
280
     0
281
     0
  0
ENDSEC
  0
SECTION
  2
TABLES
  0
TABLE
  2
VPORT
  5
8
330
0
100
AcDbSymbolTable
 70
     2
  0
VPORT
  5
20D
330
8
100
AcDbSymbolTableRecord
100
AcDbViewportTableRecord
  2
*ACTIVE
 70
     0
 10
0.0
 20
0.0
 11
1.0
 21
1.0
 12
2610.31737945849
 22
1769.544255399634
 13
0.0
 23
0.0
 14
10.0
 24
10.0
 15
10.0
 25
10.0
 16
0.0
 26
0.0
 36
1.0
 17
0.0
 27
0.0
 37
0.0
 40
4163.073215323915
 41
1.52092050209205
 42
50.0
 43
0.0
 44
0.0
 50
0.0
 51
0.0
 71
     0
 72
   100
 73
     1
 74
     3
 75
     0
 76
     0
 77
     0
 78
     0
  0
ENDTAB
  0
TABLE
  2
LTYPE
  5
5
330
0
100
AcDbSymbolTable
 70
     1
  0
LTYPE
  5
14
330
5
100
AcDbSymbolTableRecord
100
AcDbLinetypeTableRecord
  2
BYBLOCK
 70
     0
  3

 72
    65
 73
     0
 40
0.0
  0
LTYPE
  5
15
330
5
100
AcDbSymbolTableRecord
100
AcDbLinetypeTableRecord
  2
BYLAYER
 70
     0
  3

 72
    65
 73
     0
 40
0.0
  0
LTYPE
  5
16
330
5
100
AcDbSymbolTableRecord
100
AcDbLinetypeTableRecord
  2
CONTINUOUS
 70
     0
  3
Solid line
 72
    65
 73
     0
 40
0.0
  0
ENDTAB
  0
TABLE
  2
LAYER
  5
2
330
0
100
AcDbSymbolTable
 70
     5
  0
LAYER
  5
10
330
2
100
AcDbSymbolTableRecord
100
AcDbLayerTableRecord
  2
0
 70
     0
 62
     7
  6
CONTINUOUS
  0
LAYER
  5
5D
330
2
100
AcDbSymbolTableRecord
100
AcDbLayerTableRecord
  2
OBJECT
 70
     0
 62
     7
  6
CONTINUOUS
  0
LAYER
  5
5E
330
2
100
AcDbSymbolTableRecord
100
AcDbLayerTableRecord
  2
SAFETY
 70
     0
 62
     7
  6
CONTINUOUS
  0
LAYER
  5
12C
330
2
100
AcDbSymbolTableRecord
100
AcDbLayerTableRecord
  2
TEKST
 70
     0
 62
     7
  6
CONTINUOUS
  0
LAYER
  5
174
330
2
100
AcDbSymbolTableRecord
100
AcDbLayerTableRecord
  2
DEFPOINTS
 70
     0
 62
     7
  6
CONTINUOUS
  0
ENDTAB
  0
TABLE
  2
STYLE
  5
3
330
0
100
AcDbSymbolTable
 70
     1
  0
STYLE
  5
11
330
3
100
AcDbSymbolTableRecord
100
AcDbTextStyleTableRecord
  2
STANDARD
 70
     0
 40
0.0
 41
1.0
 50
0.0
 71
     0
 42
2.5
  3
txt
  4

  0
ENDTAB
  0
TABLE
  2
VIEW
  5
6
330
0
100
AcDbSymbolTable
 70
     0
  0
ENDTAB
  0
TABLE
  2
UCS
  5
7
330
0
100
AcDbSymbolTable
 70
     0
  0
ENDTAB
  0
TABLE
  2
APPID
  5
9
330
0
100
AcDbSymbolTable
 70
     2
  0
APPID
  5
12
330
9
100
AcDbSymbolTableRecord
100
AcDbRegAppTableRecord
  2
ACAD
 70
     0
  0
APPID
  5
125
330
9
100
AcDbSymbolTableRecord
100
AcDbRegAppTableRecord
  2
CONTENTBLOCKICON
 70
     0
  0
ENDTAB
  0
TABLE
  2
DIMSTYLE
  5
A
330
0
100
AcDbSymbolTable
 70
     1
  0
DIMSTYLE
105
27
330
A
100
AcDbSymbolTableRecord
100
AcDbDimStyleTableRecord
  2
ISO-25
 70
     0
  3

  4

  5

  6

  7

 40
1.0
 41
2.5
 42
0.625
 43
3.75
 44
1.25
 45
0.0
 46
0.0
 47
0.0
 48
0.0
140
2.5
141
2.5
142
0.0
143
0.03937007874016
144
1.0
145
0.0
146
1.0
147
0.625
 71
     0
 72
     0
 73
     0
 74
     0
 75
     0
 76
     0
 77
     1
 78
     8
170
     0
171
     3
172
     1
173
     0
174
     0
175
     0
176
     0
177
     0
178
     0
270
     2
271
     2
272
     2
273
     2
274
     3
340
11
275
     0
280
     0
281
     0
282
     0
283
     0
284
     8
285
     0
286
     0
287
     3
288
     0
  0
ENDTAB
  0
TABLE
  2
BLOCK_RECORD
  5
1
330
0
100
AcDbSymbolTable
 70
     7
  0
BLOCK_RECORD
  5
1F
102
{ACAD_XDICTIONARY
360
CD
102
}
330
1
100
AcDbSymbolTableRecord
100
AcDbBlockTableRecord
  2
*MODEL_SPACE
  0
BLOCK_RECORD
  5
50
102
{ACAD_XDICTIONARY
360
CF
102
}
330
1
100
AcDbSymbolTableRecord
100
AcDbBlockTableRecord
  2
*PAPER_SPACE
  0
BLOCK_RECORD
  5
D9
330
1
100
AcDbSymbolTableRecord
100
AcDbBlockTableRecord
  2
ABKC
1001
ACAD
1000
DesignCenter Data
1002
{
1070
     1
1070
     4
1002
}
  0
BLOCK_RECORD
  5
175
330
1
100
AcDbSymbolTableRecord
100
AcDbBlockTableRecord
  2
*D1
  0
BLOCK_RECORD
  5
210
330
1
100
AcDbSymbolTableRecord
100
AcDbBlockTableRecord
  2
*U2
  0
BLOCK_RECORD
  5
217
330
1
100
AcDbSymbolTableRecord
100
AcDbBlockTableRecord
  2
*U3
  0
BLOCK_RECORD
  5
228
330
1
100
AcDbSymbolTableRecord
100
AcDbBlockTableRecord
  2
*U4
  0
BLOCK_RECORD
  5
22F
330
1
100
AcDbSymbolTableRecord
100
AcDbBlockTableRecord
  2
*U5
  0
BLOCK_RECORD
  5
236
330
1
100
AcDbSymbolTableRecord
100
AcDbBlockTableRecord
  2
*U6
  0
ENDTAB
  0
ENDSEC
  0
SECTION
  2
BLOCKS
  0
BLOCK
  5
20
330
1F
100
AcDbEntity
  8
0
100
AcDbBlockBegin
  2
*MODEL_SPACE
 70
     0
 10
0.0
 20
0.0
 30
0.0
  3
*MODEL_SPACE
  1

  0
ENDBLK
  5
21
330
1F
100
AcDbEntity
  8
0
100
AcDbBlockEnd
  0
BLOCK
  5
52
330
50
100
AcDbEntity
 67
     1
  8
0
100
AcDbBlockBegin
  2
*PAPER_SPACE
 70
     0
 10
0.0
 20
0.0
 30
0.0
  3
*PAPER_SPACE
  1

  0
ENDBLK
  5
53
330
50
100
AcDbEntity
 67
     1
  8
0
100
AcDbBlockEnd
  0
BLOCK
  5
DA
330
D9
100
AcDbEntity
  8
0
100
AcDbBlockBegin
  2
ABKC
 70
     0
 10
0.0
 20
0.0
 30
0.0
  3
ABKC
  1

  0
INSERT
  5
1E2
330
D9
100
AcDbEntity
  8
0
  6
CONTINUOUS
 62
   251
100
AcDbBlockReference
  2
*U2
 10
0.0
 20
0.0
 30
0.0
1001
ACAD
1002
{
1000
R14_HATCH_DATA
1000
1E2
1011
1.0
1021
0.0
1031
0.0
1011
0.0
1021
1.0
1031
0.0
1011
0.0
1021
0.0
1031
1.0
1040
0.0
1010
0.0
1020
0.0
1030
1.0
1000
SOLID
1070
     1
1070
     1
1071
        2
1071
        7
1070
     0
1070
     1
1071
        4
1040
3591.327369693813
1040
2034.544245827221
1040
3591.327369693814
1040
2014.544245827221
1040
3624.032145084461
1040
2014.544245827221
1040
3624.032145084461
1040
2034.544245827221
1071
        4
1005
1EA
1005
20B
1005
1ED
1005
20A
1071
        7
1070
     0
1070
     1
1071
        4
1040
3591.327369693813
1040
1524.544245827221
1040
3591.327369693814
1040
1504.544245827221
1040
3624.032145084461
1040
1504.544245827221
1040
3624.032145084461
1040
1524.544245827221
1071
        4
1005
1ED
1005
205
1005
203
1005
206
1070
     0
1070
     1
1040
3.228206617316782
1071
        2
1040
3611.311395301425
1040
2024.775766724773
1040
0.0
1040
3608.080866679291
1040
1514.719119025452
1040
0.0
1002
}
  0
INSERT
  5
1E3
330
D9
100
AcDbEntity
  8
0
  6
CONTINUOUS
 62
     2
100
AcDbBlockReference
  2
*U3
 10
0.0
 20
0.0
 30
0.0
1001
ACAD
1002
{
1000
R14_HATCH_DATA
1000
1E3
1011
1.0
1021
0.0
1031
0.0
1011
0.0
1021
1.0
1031
0.0
1011
0.0
1021
0.0
1031
1.0
1040
0.0
1010
0.0
1020
0.0
1030
1.0
1000
SOLID
1070
     1
1070
     1
1071
        7
1071
        7
1070
     0
1070
     1
1071
        4
1040
1567.508693343645
1040
1524.544245827221
1040
1567.508693343645
1040
1504.544245827221
1040
1946.683004222528
1040
1504.544245827221
1040
1946.683004222528
1040
1524.544245827221
1071
        4
1005
1ED
1005
1F3
1005
1F2
1005
1F5
1071
        7
1070
     0
1070
     1
1071
        4
1040
1567.508693343645
1040
2034.544245827221
1040
1567.508693343645
1040
2014.544245827221
1040
1946.683004222528
1040
2014.544245827221
1040
1946.683004222528
1040
2034.544245827221
1071
        4
1005
1F6
1005
1F7
1005
1ED
1005
1F9
1071
        7
1070
     0
1070
     1
1071
        4
1040
1555.621870172532
1040
1564.544245827221
1040
1590.621870172532
1040
1564.544245827221
1040
1590.621870172532
1040
1974.544245827221
1040
1555.621870172532
1040
1974.544245827221
1071
        4
1005
1EB
1005
1F1
1005
1EC
1005
1EF
1071
        7
1070
     0
1070
     1
1071
        4
1040
1997.926684361138
1040
1974.54424582722
1040
1962.926684361137
1040
1974.54424582722
1040
1962.926684361137
1040
1564.544245827221
1040
1997.926684361138
1040
1564.544245827221
1071
        4
1005
1EB
1005
1F0
1005
1EC
1005
1EE
1071
        7
1070
     0
1070
     1
1071
        4
1040
2645.317365939596
1040
1974.54424582722
1040
2610.317365939595
1040
1974.54424582722
1040
2610.317365939596
1040
1564.544245827221
1040
2645.317365939596
1040
1564.544245827221
1071
        4
1005
1EB
1005
1FF
1005
1EC
1005
1FC
1071
        7
1070
     0
1070
     1
1071
        4
1040
3182.107523366853
1040
1974.54424582722
1040
3147.107523366853
1040
1974.544245827221
1040
3147.107523366853
1040
1564.544245827221
1040
3182.107523366853
1040
1564.544245827221
1071
        4
1005
1EB
1005
1FB
1005
1EC
1005
1FD
1071
        7
1070
     0
1070
     1
1071
        4
1040
3679.620779473298
1040
1974.54424582722
1040
3644.620779473299
1040
1974.54424582722
1040
3644.620779473299
1040
1564.544245827221
1040
3679.620779473298
1040
1564.544245827221
1071
        4
1005
1EB
1005
1FA
1005
1EC
1005
1FE
1070
     0
1070
     1
1040
3.228206617316782
1071
        7
1040
1695.615051837699
1040
1514.719119025452
1040
0.0
1040
1718.228677145674
1040
2024.775766724773
1040
0.0
1040
1569.624904618009
1040
1753.606403942552
1040
0.0
1040
1983.131029788364
1040
1760.062817048419
1040
0.0
1040
2635.695372433048
1040
1769.747442875112
1040
0.0
1040
3171.961134962705
1040
1756.834616663378
1040
0.0
1040
3666.230175498549
1040
1734.23716462495
1040
0.0
1002
}
  0
INSERT
  5
1E4
330
D9
100
AcDbEntity
  8
0
  6
CONTINUOUS
 62
    41
100
AcDbBlockReference
  2
*U4
 10
0.0
 20
0.0
 30
0.0
1001
ACAD
1002
{
1000
R14_HATCH_DATA
1000
1E4
1011
1.0
1021
0.0
1031
0.0
1011
0.0
1021
1.0
1031
0.0
1011
0.0
1021
0.0
1031
1.0
1040
0.0
1010
0.0
1020
0.0
1030
1.0
1000
SOLID
1070
     1
1070
     1
1071
        2
1071
        7
1070
     0
1070
     1
1071
        4
1040
3702.817365939596
1040
1974.54424582722
1040
3702.817365939596
1040
2014.544245827221
1040
1517.817365939595
1040
2014.544245827221
1040
1517.817365939595
1040
1974.544245827221
1071
        2
1005
1ED
1005
1EB
1071
        7
1070
     0
1070
     1
1071
        4
1040
1517.817365939595
1040
1564.544245827221
1040
1517.817365939595
1040
1524.544245827221
1040
3702.817365939596
1040
1524.544245827221
1040
3702.817365939596
1040
1564.544245827221
1071
        2
1005
1EC
1005
1ED
1070
     0
1070
     1
1040
3.228206617316782
1071
        2
1040
2764.916048274877
1040
1992.493701195435
1040
0.0
1040
2764.916048274877
1040
1547.00118455479
1040
0.0
1002
}
  0
INSERT
  5
1E5
330
D9
100
AcDbEntity
  8
0
  6
CONTINUOUS
 62
     5
100
AcDbBlockReference
  2
*U5
 10
0.0
 20
0.0
 30
0.0
1001
ACAD
1002
{
1000
R14_HATCH_DATA
1000
1E5
1011
1.0
1021
0.0
1031
0.0
1011
0.0
1021
1.0
1031
0.0
1011
0.0
1021
0.0
1031
1.0
1040
0.0
1010
0.0
1020
0.0
1030
1.0
1000
SOLID
1070
     1
1070
     1
1071
        2
1071
        7
1070
     0
1070
     1
1071
        4
1040
1946.683004222528
1040
2034.544245827221
1040
1946.683004222528
1040
2014.544245827221
1040
3191.327369693814
1040
2014.544245827221
1040
3191.327369693814
1040
2034.544245827221
1071
        4
1005
1EA
1005
1F9
1005
1ED
1005
209
1071
        7
1070
     0
1070
     1
1071
        4
1040
1946.683004222528
1040
1524.544245827221
1040
1946.683004222528
1040
1504.544245827221
1040
3191.327369693814
1040
1504.544245827221
1040
3191.327369693814
1040
1524.544245827221
1071
        4
1005
1ED
1005
1F5
1005
1E9
1005
202
1070
     0
1070
     1
1040
3.228206617316782
1071
        2
1040
2684.153132909388
1040
2024.775766724773
1040
0.0
1040
2680.92260428725
1040
1514.719119025452
1040
0.0
1002
}
  0
INSERT
  5
1E6
330
D9
100
AcDbEntity
  8
0
  6
CONTINUOUS
 62
   251
100
AcDbBlockReference
  2
*U6
 10
0.0
 20
0.0
 30
0.0
1001
ACAD
1002
{
1000
R14_HATCH_DATA
1000
1E6
1011
1.0
1021
0.0
1031
0.0
1011
0.0
1021
1.0
1031
0.0
1011
0.0
1021
0.0
1031
1.0
1040
0.0
1010
0.0
1020
0.0
1030
1.0
1000
SOLID
1070
     1
1070
     1
1071
        8
1071
        7
1070
     0
1070
     1
1071
        4
1040
3191.327369693814
1040
2034.544245827221
1040
3191.327369693814
1040
2014.544245827221
1040
3591.327369693814
1040
2014.544245827221
1040
3591.327369693814
1040
2034.544245827221
1071
        4
1005
207
1005
209
1005
1ED
1005
20B
1071
        7
1070
     0
1070
     1
1071
        4
1040
3591.327369693814
1040
1524.544245827221
1040
3191.327369693814
1040
1524.544245827221
1040
3191.327369693814
1040
1504.544245827221
1040
3591.327369693814
1040
1504.544245827221
1071
        4
1005
1ED
1005
202
1005
200
1005
205
1071
        7
1070
     0
1070
     1
1071
        4
1040
3644.620779473299
1040
1564.544245827221
1040
3644.620779473299
1040
1974.544245827221
1040
3182.107523366853
1040
1974.544245827221
1040
3182.107523366853
1040
1564.544245827221
1071
        4
1005
1EB
1005
1FD
1005
1EC
1005
1FA
1071
        7
1070
     0
1070
     1
1071
        4
1040
3147.107523366853
1040
1974.544245827221
1040
2645.317365939596
1040
1974.544245827221
1040
2645.317365939596
1040
1564.544245827221
1040
3147.107523366853
1040
1564.544245827221
1071
        4
1005
1EB
1005
1FC
1005
1EC
1005
1FB
1071
        7
1070
     0
1070
     1
1071
        4
1040
1997.926684361138
1040
1974.54424582722
1040
1997.926684361138
1040
1564.544245827221
1040
2610.317365939596
1040
1564.544245827221
1040
2610.317365939596
1040
1974.544245827221
1071
        4
1005
1EB
1005
1EE
1005
1EC
1005
1FF
1071
        7
1070
     0
1070
     1
1071
        4
1040
1962.926684361137
1040
1974.544245827221
1040
1590.621870172532
1040
1974.544245827221
1040
1590.621870172532
1040
1564.544245827221
1040
1962.926684361137
1040
1564.544245827221
1071
        4
1005
1EB
1005
1EF
1005
1EC
1005
1F0
1071
        7
1070
     0
1070
     1
1071
        4
1040
1517.817365939595
1040
1564.544245827221
1040
1555.621870172533
1040
1564.544245827221
1040
1555.621870172533
1040
1974.544245827221
1040
1517.817365939595
1040
1974.54424582722
1071
        4
1005
1EB
1005
1ED
1005
1EC
1005
1F1
1071
        7
1070
     0
1070
     1
1071
        4
1040
3702.817365939596
1040
1974.544245827221
1040
3679.620779473299
1040
1974.544245827221
1040
3679.620779473298
1040
1564.544245827221
1040
3702.817365939596
1040
1564.544245827221
1071
        4
1005
1EB
1005
1FE
1005
1EC
1005
1ED
1070
     0
1070
     1
1040
3.228206617316782
1071
        8
1040
3465.938151395898
1040
2024.775766724773
1040
0.0
1040
3443.324526087923
1040
1508.262705919583
1040
0.0
1040
3436.863487605398
1040
1669.673033566274
1040
0.0
1040
2958.747033895
1040
1782.660269086847
1040
0.0
1040
2386.945606615801
1040
1785.888481807673
1040
0.0
1040
1895.907075940351
1040
1772.975655595937
1040
0.0
1040
1530.858711246332
1040
1798.801308019408
1040
0.0
1040
3695.304820527304
1040
1837.539786654613
1040
0.0
1002
}
  0
MTEXT
  5
1E7
330
D9
100
AcDbEntity
  8
TEKST
100
AcDbMText
 10
2139.133985188439
 20
2804.726702343542
 30
0.0
 40
75.18097186823435
 41
868.6785999999997
 71
     1
 72
     1
  1
{\FIMPACT.TTF;Hoogte: 120 cm\PMax. valhoogte: 54 cm}
1001
ACAD
1000
MTEXTBEGIN
1070
    73
1070
     1
1070
    44
1040
1.0
1070
    74
1070
     0
1000
MTEXTEND
1000
MTEXTBEGIN
1070
    73
1070
     1
1070
    44
1040
1.0
1070
    74
1070
     0
1000
MTEXTEND
  0
POLYLINE
  5
1E8
330
D9
100
AcDbEntity
  8
SAFETY
100
AcDb2dPolyline
 66
     1
 10
0.0
 20
0.0
 30
0.0
 70
     1
  0
VERTEX
  5
249
330
1E8
100
AcDbEntity
  8
SAFETY
100
AcDbVertex
100
AcDb2dVertex
 10
17.81736593959635
 20
1524.544245827221
 30
0.0
 42
0.4142135623730951
  0
VERTEX
  5
24A
330
1E8
100
AcDbEntity
  8
SAFETY
100
AcDbVertex
100
AcDb2dVertex
 10
1517.817365939595
 20
24.54424582722117
 30
0.0
  0
VERTEX
  5
24B
330
1E8
100
AcDbEntity
  8
SAFETY
100
AcDbVertex
100
AcDb2dVertex
 10
3702.817365939596
 20
24.54424582722117
 30
0.0
 42
0.4142135623730951
  0
VERTEX
  5
24C
330
1E8
100
AcDbEntity
  8
SAFETY
100
AcDbVertex
100
AcDb2dVertex
 10
5202.817365939596
 20
1524.544245827221
 30
0.0
  0
VERTEX
  5
24D
330
1E8
100
AcDbEntity
  8
SAFETY
100
AcDbVertex
100
AcDb2dVertex
 10
5202.817365939596
 20
2014.544245827221
 30
0.0
 42
0.4142135623730951
  0
VERTEX
  5
24E
330
1E8
100
AcDbEntity
  8
SAFETY
100
AcDbVertex
100
AcDb2dVertex
 10
3702.817365939596
 20
3514.54424582722
 30
0.0
  0
VERTEX
  5
24F
330
1E8
100
AcDbEntity
  8
SAFETY
100
AcDbVertex
100
AcDb2dVertex
 10
1517.817365939595
 20
3514.54424582722
 30
0.0
 42
0.4142135623730951
  0
VERTEX
  5
250
330
1E8
100
AcDbEntity
  8
SAFETY
100
AcDbVertex
100
AcDb2dVertex
 10
17.81736593959635
 20
2014.544245827221
 30
0.0
  0
SEQEND
  5
251
330
1E8
100
AcDbEntity
  8
SAFETY
  0
LINE
  5
1E9
330
D9
100
AcDbEntity
  8
OBJECT
100
AcDbLine
 10
1946.683004222528
 20
1504.544245827221
 30
0.0
 11
3191.327369693814
 21
1504.544245827221
 31
0.0
  0
LINE
  5
1EA
330
D9
100
AcDbEntity
  8
OBJECT
100
AcDbLine
 10
3624.032145084461
 20
2034.544245827221
 30
0.0
 11
1946.683004222528
 21
2034.544245827221
 31
0.0
  0
LINE
  5
1EB
330
D9
100
AcDbEntity
  8
OBJECT
100
AcDbLine
 10
3702.817365939596
 20
1974.544245827221
 30
0.0
 11
1517.817365939595
 21
1974.544245827221
 31
0.0
  0
LINE
  5
1EC
330
D9
100
AcDbEntity
  8
OBJECT
100
AcDbLine
 10
1517.817365939595
 20
1564.544245827221
 30
0.0
 11
3702.817365939596
 21
1564.544245827221
 31
0.0
  0
POLYLINE
  5
1ED
330
D9
100
AcDbEntity
  8
OBJECT
100
AcDb2dPolyline
 66
     1
 10
0.0
 20
0.0
 30
0.0
 70
     1
  0
VERTEX
  5
252
330
1ED
100
AcDbEntity
  8
OBJECT
100
AcDbVertex
100
AcDb2dVertex
 10
1517.817365939595
 20
1524.544245827221
 30
0.0
  0
VERTEX
  5
253
330
1ED
100
AcDbEntity
  8
OBJECT
100
AcDbVertex
100
AcDb2dVertex
 10
3702.817365939596
 20
1524.544245827221
 30
0.0
  0
VERTEX
  5
254
330
1ED
100
AcDbEntity
  8
OBJECT
100
AcDbVertex
100
AcDb2dVertex
 10
3702.817365939596
 20
2014.544245827221
 30
0.0
  0
VERTEX
  5
255
330
1ED
100
AcDbEntity
  8
OBJECT
100
AcDbVertex
100
AcDb2dVertex
 10
1517.817365939595
 20
2014.544245827221
 30
0.0
  0
SEQEND
  5
256
330
1ED
100
AcDbEntity
  8
OBJECT
  0
LINE
  5
1EE
330
D9
100
AcDbEntity
  8
OBJECT
100
AcDbLine
 10
1997.926684361138
 20
1974.544245827221
 30
0.0
 11
1997.926684361138
 21
1564.544245827221
 31
0.0
  0
LINE
  5
1EF
330
D9
100
AcDbEntity
  8
OBJECT
100
AcDbLine
 10
1590.621870172532
 20
1974.544245827221
 30
0.0
 11
1590.621870172532
 21
1564.544245827221
 31
0.0
  0
LINE
  5
1F0
330
D9
100
AcDbEntity
  8
OBJECT
100
AcDbLine
 10
1962.926684361137
 20
1974.544245827221
 30
0.0
 11
1962.926684361137
 21
1564.544245827221
 31
0.0
  0
LINE
  5
1F1
330
D9
100
AcDbEntity
  8
OBJECT
100
AcDbLine
 10
1555.621870172533
 20
1974.544245827221
 30
0.0
 11
1555.621870172533
 21
1564.544245827221
 31
0.0
  0
LINE
  5
1F2
330
D9
100
AcDbEntity
  8
OBJECT
100
AcDbLine
 10
1567.508693343645
 20
1504.544245827221
 30
0.0
 11
1946.683004222528
 21
1504.544245827221
 31
0.0
  0
LINE
  5
1F3
330
D9
100
AcDbEntity
  8
OBJECT
100
AcDbLine
 10
1567.508693343645
 20
1524.544245827221
 30
0.0
 11
1567.508693343645
 21
1504.544245827221
 31
0.0
  0
LINE
  5
1F4
330
D9
100
AcDbEntity
  8
OBJECT
100
AcDbLine
 10
1946.683004222528
 20
1504.544245827221
 30
0.0
 11
1946.683004222528
 21
1524.544245827221
 31
0.0
  0
LINE
  5
1F5
330
D9
100
AcDbEntity
  8
OBJECT
100
AcDbLine
 10
1946.683004222528
 20
1504.544245827221
 30
0.0
 11
1946.683004222528
 21
1524.544245827221
 31
0.0
  0
LINE
  5
1F6
330
D9
100
AcDbEntity
  8
OBJECT
100
AcDbLine
 10
1567.508693343645
 20
2034.544245827221
 30
0.0
 11
1946.683004222528
 21
2034.544245827221
 31
0.0
  0
LINE
  5
1F7
330
D9
100
AcDbEntity
  8
OBJECT
100
AcDbLine
 10
1567.508693343645
 20
2014.544245827221
 30
0.0
 11
1567.508693343645
 21
2034.544245827221
 31
0.0
  0
LINE
  5
1F8
330
D9
100
AcDbEntity
  8
OBJECT
100
AcDbLine
 10
1946.683004222528
 20
2034.544245827221
 30
0.0
 11
1946.683004222528
 21
2014.544245827221
 31
0.0
  0
LINE
  5
1F9
330
D9
100
AcDbEntity
  8
OBJECT
100
AcDbLine
 10
1946.683004222528
 20
2034.544245827221
 30
0.0
 11
1946.683004222528
 21
2014.544245827221
 31
0.0
  0
LINE
  5
1FA
330
D9
100
AcDbEntity
  8
OBJECT
100
AcDbLine
 10
3644.620779473299
 20
1974.544245827221
 30
0.0
 11
3644.620779473299
 21
1564.544245827221
 31
0.0
  0
LINE
  5
1FB
330
D9
100
AcDbEntity
  8
OBJECT
100
AcDbLine
 10
3147.107523366853
 20
1974.544245827221
 30
0.0
 11
3147.107523366853
 21
1564.544245827221
 31
0.0
  0
LINE
  5
1FC
330
D9
100
AcDbEntity
  8
OBJECT
100
AcDbLine
 10
2645.317365939596
 20
1974.544245827221
 30
0.0
 11
2645.317365939596
 21
1564.544245827221
 31
0.0
  0
LINE
  5
1FD
330
D9
100
AcDbEntity
  8
OBJECT
100
AcDbLine
 10
3182.107523366853
 20
1974.544245827221
 30
0.0
 11
3182.107523366853
 21
1564.544245827221
 31
0.0
  0
LINE
  5
1FE
330
D9
100
AcDbEntity
  8
OBJECT
100
AcDbLine
 10
3679.620779473299
 20
1974.544245827221
 30
0.0
 11
3679.620779473298
 21
1564.544245827221
 31
0.0
  0
LINE
  5
1FF
330
D9
100
AcDbEntity
  8
OBJECT
100
AcDbLine
 10
2610.317365939596
 20
1974.544245827221
 30
0.0
 11
2610.317365939596
 21
1564.544245827221
 31
0.0
  0
LINE
  5
200
330
D9
100
AcDbEntity
  8
OBJECT
100
AcDbLine
 10
3191.327369693814
 20
1504.544245827221
 30
0.0
 11
3591.327369693814
 21
1504.544245827221
 31
0.0
  0
LINE
  5
201
330
D9
100
AcDbEntity
  8
OBJECT
100
AcDbLine
 10
3191.327369693814
 20
1524.544245827221
 30
0.0
 11
3191.327369693814
 21
1504.544245827221
 31
0.0
  0
LINE
  5
202
330
D9
100
AcDbEntity
  8
OBJECT
100
AcDbLine
 10
3191.327369693814
 20
1524.544245827221
 30
0.0
 11
3191.327369693814
 21
1504.544245827221
 31
0.0
  0
LINE
  5
203
330
D9
100
AcDbEntity
  8
OBJECT
100
AcDbLine
 10
3591.327369693814
 20
1504.544245827221
 30
0.0
 11
3624.032145084461
 21
1504.544245827221
 31
0.0
  0
LINE
  5
204
330
D9
100
AcDbEntity
  8
OBJECT
100
AcDbLine
 10
3591.327369693814
 20
1504.544245827221
 30
0.0
 11
3591.327369693814
 21
1524.544245827221
 31
0.0
  0
LINE
  5
205
330
D9
100
AcDbEntity
  8
OBJECT
100
AcDbLine
 10
3591.327369693814
 20
1504.544245827221
 30
0.0
 11
3591.327369693814
 21
1524.544245827221
 31
0.0
  0
LINE
  5
206
330
D9
100
AcDbEntity
  8
OBJECT
100
AcDbLine
 10
3624.032145084461
 20
1524.544245827221
 30
0.0
 11
3624.032145084461
 21
1504.544245827221
 31
0.0
  0
LINE
  5
207
330
D9
100
AcDbEntity
  8
OBJECT
100
AcDbLine
 10
3191.327369693814
 20
2034.544245827221
 30
0.0
 11
3591.327369693814
 21
2034.544245827221
 31
0.0
  0
LINE
  5
208
330
D9
100
AcDbEntity
  8
OBJECT
100
AcDbLine
 10
3191.327369693814
 20
2034.544245827221
 30
0.0
 11
3191.327369693814
 21
2014.544245827221
 31
0.0
  0
LINE
  5
209
330
D9
100
AcDbEntity
  8
OBJECT
100
AcDbLine
 10
3191.327369693814
 20
2014.544245827221
 30
0.0
 11
3191.327369693814
 21
2034.544245827221
 31
0.0
  0
LINE
  5
20A
330
D9
100
AcDbEntity
  8
OBJECT
100
AcDbLine
 10
3624.032145084461
 20
2014.544245827221
 30
0.0
 11
3624.032145084461
 21
2034.544245827221
 31
0.0
  0
LINE
  5
20B
330
D9
100
AcDbEntity
  8
OBJECT
100
AcDbLine
 10
3591.327369693814
 20
2034.544245827221
 30
0.0
 11
3591.327369693814
 21
2014.544245827221
 31
0.0
  0
ENDBLK
  5
DB
330
D9
100
AcDbEntity
  8
0
100
AcDbBlockEnd
  0
BLOCK
  5
17F
330
175
100
AcDbEntity
  8
0
100
AcDbBlockBegin
  2
*D1
 70
     1
 10
0.0
 20
0.0
 30
0.0
  3
*D1
  1

  0
LINE
  5
176
330
175
100
AcDbEntity
  8
0
 62
     0
100
AcDbLine
 10
1590.621870172532
 20
1770.169245827221
 30
0.0
 11
1590.621870172532
 21
1796.823095298583
 31
0.0
  0
LINE
  5
177
330
175
100
AcDbEntity
  8
0
 62
     0
100
AcDbLine
 10
1962.926684361137
 20
1770.169245827221
 30
0.0
 11
1962.926684361137
 21
1796.823095298583
 31
0.0
  0
LINE
  5
178
330
175
100
AcDbEntity
  8
0
 62
     0
100
AcDbLine
 10
1593.121870172532
 20
1795.573095298583
 30
0.0
 11
1960.426684361137
 21
1795.573095298583
 31
0.0
  0
SOLID
  5
179
330
175
100
AcDbEntity
  8
0
 62
     0
100
AcDbTrace
 10
1593.121870172532
 20
1795.98976196525
 30
0.0
 11
1593.121870172532
 21
1795.156428631916
 31
0.0
 12
1590.621870172532
 22
1795.573095298583
 32
0.0
 13
1590.621870172532
 23
1795.573095298583
 33
0.0
  0
SOLID
  5
17A
330
175
100
AcDbEntity
  8
0
 62
     0
100
AcDbTrace
 10
1960.426684361137
 20
1795.98976196525
 30
0.0
 11
1960.426684361137
 21
1795.156428631916
 31
0.0
 12
1962.926684361137
 22
1795.573095298583
 32
0.0
 13
1962.926684361137
 23
1795.573095298583
 33
0.0
  0
MTEXT
  5
17B
330
175
100
AcDbEntity
  8
0
 62
     0
100
AcDbMText
 10
1776.774277266834
 20
1797.448095298583
 30
0.0
 40
2.5
 41
0.0
 71
     5
 72
     1
  1
372.3
1001
ACAD
1000
MTEXTBEGIN
1070
    73
1070
     1
1070
    44
1040
1.0
1070
    74
1070
     0
1000
MTEXTEND
  0
POINT
  5
17C
330
175
100
AcDbEntity
  8
DEFPOINTS
 62
     0
100
AcDbPoint
 10
1590.621870172532
 20
1769.544245827221
 30
0.0
  0
POINT
  5
17D
330
175
100
AcDbEntity
  8
DEFPOINTS
 62
     0
100
AcDbPoint
 10
1962.926684361137
 20
1769.544245827221
 30
0.0
  0
POINT
  5
17E
330
175
100
AcDbEntity
  8
DEFPOINTS
 62
     0
100
AcDbPoint
 10
1962.926684361137
 20
1795.573095298583
 30
0.0
  0
ENDBLK
  5
180
330
175
100
AcDbEntity
  8
0
100
AcDbBlockEnd
  0
BLOCK
  5
215
330
210
100
AcDbEntity
  8
0
100
AcDbBlockBegin
  2
*U2
 70
     1
 10
0.0
 20
0.0
 30
0.0
  3
*U2
  1

  0
SOLID
  5
211
330
210
100
AcDbEntity
  8
0
  6
CONTINUOUS
 62
   251
100
AcDbTrace
 10
3624.032145084461
 20
1504.544245827221
 30
0.0
 11
3624.032145084461
 21
1524.544245827221
 31
0.0
 12
3591.327369693813
 22
1524.544245827221
 32
0.0
 13
3591.327369693813
 23
1524.544245827221
 33
0.0
210
0.0
220
0.0
230
1.0
  0
SOLID
  5
212
330
210
100
AcDbEntity
  8
0
  6
CONTINUOUS
 62
   251
100
AcDbTrace
 10
3591.327369693813
 20
1524.544245827221
 30
0.0
 11
3591.327369693814
 21
1504.544245827221
 31
0.0
 12
3624.032145084461
 22
1504.544245827221
 32
0.0
 13
3624.032145084461
 23
1504.544245827221
 33
0.0
210
0.0
220
0.0
230
1.0
  0
SOLID
  5
213
330
210
100
AcDbEntity
  8
0
  6
CONTINUOUS
 62
   251
100
AcDbTrace
 10
3591.327369693813
 20
2034.544245827221
 30
0.0
 11
3591.327369693814
 21
2014.544245827221
 31
0.0
 12
3624.032145084461
 22
2014.544245827221
 32
0.0
 13
3624.032145084461
 23
2014.544245827221
 33
0.0
210
0.0
220
0.0
230
1.0
  0
SOLID
  5
214
330
210
100
AcDbEntity
  8
0
  6
CONTINUOUS
 62
   251
100
AcDbTrace
 10
3624.032145084461
 20
2034.544245827221
 30
0.0
 11
3591.327369693813
 21
2034.544245827221
 31
0.0
 12
3624.032145084461
 22
2014.544245827221
 32
0.0
 13
3624.032145084461
 23
2014.544245827221
 33
0.0
210
0.0
220
0.0
230
1.0
  0
ENDBLK
  5
216
330
210
100
AcDbEntity
  8
0
100
AcDbBlockEnd
  0
BLOCK
  5
226
330
217
100
AcDbEntity
  8
0
100
AcDbBlockBegin
  2
*U3
 70
     1
 10
0.0
 20
0.0
 30
0.0
  3
*U3
  1

  0
SOLID
  5
218
330
217
100
AcDbEntity
  8
0
  6
CONTINUOUS
 62
     2
100
AcDbTrace
 10
1567.508693343645
 20
1524.544245827221
 30
0.0
 11
1567.508693343645
 21
1504.544245827221
 31
0.0
 12
1946.683004222528
 22
1504.544245827221
 32
0.0
 13
1946.683004222528
 23
1504.544245827221
 33
0.0
210
0.0
220
0.0
230
1.0
  0
SOLID
  5
219
330
217
100
AcDbEntity
  8
0
  6
CONTINUOUS
 62
     2
100
AcDbTrace
 10
1946.683004222528
 20
1524.544245827221
 30
0.0
 11
1567.508693343645
 21
1524.544245827221
 31
0.0
 12
1946.683004222528
 22
1504.544245827221
 32
0.0
 13
1946.683004222528
 23
1504.544245827221
 33
0.0
210
0.0
220
0.0
230
1.0
  0
SOLID
  5
21A
330
217
100
AcDbEntity
  8
0
  6
CONTINUOUS
 62
     2
100
AcDbTrace
 10
2610.317365939595
 20
1974.54424582722
 30
0.0
 11
2610.317365939596
 21
1564.544245827221
 31
0.0
 12
2645.317365939596
 22
1564.544245827221
 32
0.0
 13
2645.317365939596
 23
1564.544245827221
 33
0.0
210
0.0
220
0.0
230
1.0
  0
SOLID
  5
21B
330
217
100
AcDbEntity
  8
0
  6
CONTINUOUS
 62
     2
100
AcDbTrace
 10
3679.620779473298
 20
1564.544245827221
 30
0.0
 11
3679.620779473298
 21
1974.54424582722
 31
0.0
 12
3644.620779473299
 22
1974.54424582722
 32
0.0
 13
3644.620779473299
 23
1974.54424582722
 33
0.0
210
0.0
220
0.0
230
1.0
  0
SOLID
  5
21C
330
217
100
AcDbEntity
  8
0
  6
CONTINUOUS
 62
     2
100
AcDbTrace
 10
3644.620779473299
 20
1974.54424582722
 30
0.0
 11
3644.620779473299
 21
1564.544245827221
 31
0.0
 12
3679.620779473298
 22
1564.544245827221
 32
0.0
 13
3679.620779473298
 23
1564.544245827221
 33
0.0
210
0.0
220
0.0
230
1.0
  0
SOLID
  5
21D
330
217
100
AcDbEntity
  8
0
  6
CONTINUOUS
 62
     2
100
AcDbTrace
 10
2645.317365939596
 20
1974.54424582722
 30
0.0
 11
2610.317365939595
 21
1974.54424582722
 31
0.0
 12
2645.317365939596
 22
1564.544245827221
 32
0.0
 13
2645.317365939596
 23
1564.544245827221
 33
0.0
210
0.0
220
0.0
230
1.0
  0
SOLID
  5
21E
330
217
100
AcDbEntity
  8
0
  6
CONTINUOUS
 62
     2
100
AcDbTrace
 10
1997.926684361138
 20
1564.544245827221
 30
0.0
 11
1997.926684361138
 21
1974.54424582722
 31
0.0
 12
1962.926684361137
 22
1974.54424582722
 32
0.0
 13
1962.926684361137
 23
1974.54424582722
 33
0.0
210
0.0
220
0.0
230
1.0
  0
SOLID
  5
21F
330
217
100
AcDbEntity
  8
0
  6
CONTINUOUS
 62
     2
100
AcDbTrace
 10
1962.926684361137
 20
1974.54424582722
 30
0.0
 11
1962.926684361137
 21
1564.544245827221
 31
0.0
 12
1997.926684361138
 22
1564.544245827221
 32
0.0
 13
1997.926684361138
 23
1564.544245827221
 33
0.0
210
0.0
220
0.0
230
1.0
  0
SOLID
  5
220
330
217
100
AcDbEntity
  8
0
  6
CONTINUOUS
 62
     2
100
AcDbTrace
 10
3182.107523366853
 20
1974.54424582722
 30
0.0
 11
3147.107523366853
 21
1564.544245827221
 31
0.0
 12
3182.107523366853
 22
1564.544245827221
 32
0.0
 13
3182.107523366853
 23
1564.544245827221
 33
0.0
210
0.0
220
0.0
230
1.0
  0
SOLID
  5
221
330
217
100
AcDbEntity
  8
0
  6
CONTINUOUS
 62
     2
100
AcDbTrace
 10
3147.107523366853
 20
1974.544245827221
 30
0.0
 11
3147.107523366853
 21
1564.544245827221
 31
0.0
 12
3182.107523366853
 22
1974.54424582722
 32
0.0
 13
3182.107523366853
 23
1974.54424582722
 33
0.0
210
0.0
220
0.0
230
1.0
  0
SOLID
  5
222
330
217
100
AcDbEntity
  8
0
  6
CONTINUOUS
 62
     2
100
AcDbTrace
 10
1590.621870172532
 20
1564.544245827221
 30
0.0
 11
1590.621870172532
 21
1974.544245827221
 31
0.0
 12
1555.621870172532
 22
1974.544245827221
 32
0.0
 13
1555.621870172532
 23
1974.544245827221
 33
0.0
210
0.0
220
0.0
230
1.0
  0
SOLID
  5
223
330
217
100
AcDbEntity
  8
0
  6
CONTINUOUS
 62
     2
100
AcDbTrace
 10
1555.621870172532
 20
1974.544245827221
 30
0.0
 11
1555.621870172532
 21
1564.544245827221
 31
0.0
 12
1590.621870172532
 22
1564.544245827221
 32
0.0
 13
1590.621870172532
 23
1564.544245827221
 33
0.0
210
0.0
220
0.0
230
1.0
  0
SOLID
  5
224
330
217
100
AcDbEntity
  8
0
  6
CONTINUOUS
 62
     2
100
AcDbTrace
 10
1946.683004222528
 20
2034.544245827221
 30
0.0
 11
1567.508693343645
 21
2014.544245827221
 31
0.0
 12
1946.683004222528
 22
2014.544245827221
 32
0.0
 13
1946.683004222528
 23
2014.544245827221
 33
0.0
  0
SOLID
  5
225
330
217
100
AcDbEntity
  8
0
  6
CONTINUOUS
 62
     2
100
AcDbTrace
 10
1567.508693343645
 20
2034.544245827221
 30
0.0
 11
1567.508693343645
 21
2014.544245827221
 31
0.0
 12
1946.683004222528
 22
2034.544245827221
 32
0.0
 13
1946.683004222528
 23
2034.544245827221
 33
0.0
210
0.0
220
0.0
230
1.0
  0
ENDBLK
  5
227
330
217
100
AcDbEntity
  8
0
100
AcDbBlockEnd
  0
BLOCK
  5
22D
330
228
100
AcDbEntity
  8
0
100
AcDbBlockBegin
  2
*U4
 70
     1
 10
0.0
 20
0.0
 30
0.0
  3
*U4
  1

  0
SOLID
  5
229
330
228
100
AcDbEntity
  8
0
  6
CONTINUOUS
 62
    41
100
AcDbTrace
 10
3702.817365939596
 20
1524.544245827221
 30
0.0
 11
3702.817365939596
 21
1564.544245827221
 31
0.0
 12
1517.817365939595
 22
1564.544245827221
 32
0.0
 13
1517.817365939595
 23
1564.544245827221
 33
0.0
210
0.0
220
0.0
230
1.0
  0
SOLID
  5
22A
330
228
100
AcDbEntity
  8
0
  6
CONTINUOUS
 62
    41
100
AcDbTrace
 10
1517.817365939595
 20
1564.544245827221
 30
0.0
 11
1517.817365939595
 21
1524.544245827221
 31
0.0
 12
3702.817365939596
 22
1524.544245827221
 32
0.0
 13
3702.817365939596
 23
1524.544245827221
 33
0.0
210
0.0
220
0.0
230
1.0
  0
SOLID
  5
22B
330
228
100
AcDbEntity
  8
0
  6
CONTINUOUS
 62
    41
100
AcDbTrace
 10
1517.817365939595
 20
1974.544245827221
 30
0.0
 11
3702.817365939596
 21
2014.544245827221
 31
0.0
 12
1517.817365939595
 22
2014.544245827221
 32
0.0
 13
1517.817365939595
 23
2014.544245827221
 33
0.0
210
0.0
220
0.0
230
1.0
  0
SOLID
  5
22C
330
228
100
AcDbEntity
  8
0
  6
CONTINUOUS
 62
    41
100
AcDbTrace
 10
3702.817365939596
 20
2014.544245827221
 30
0.0
 11
1517.817365939595
 21
1974.544245827221
 31
0.0
 12
3702.817365939596
 22
1974.54424582722
 32
0.0
 13
3702.817365939596
 23
1974.54424582722
 33
0.0
210
0.0
220
0.0
230
1.0
  0
ENDBLK
  5
22E
330
228
100
AcDbEntity
  8
0
100
AcDbBlockEnd
  0
BLOCK
  5
234
330
22F
100
AcDbEntity
  8
0
100
AcDbBlockBegin
  2
*U5
 70
     1
 10
0.0
 20
0.0
 30
0.0
  3
*U5
  1

  0
SOLID
  5
230
330
22F
100
AcDbEntity
  8
0
  6
CONTINUOUS
 62
     5
100
AcDbTrace
 10
1946.683004222528
 20
1524.544245827221
 30
0.0
 11
1946.683004222528
 21
1504.544245827221
 31
0.0
 12
3191.327369693814
 22
1504.544245827221
 32
0.0
 13
3191.327369693814
 23
1504.544245827221
 33
0.0
210
0.0
220
0.0
230
1.0
  0
SOLID
  5
231
330
22F
100
AcDbEntity
  8
0
  6
CONTINUOUS
 62
     5
100
AcDbTrace
 10
3191.327369693814
 20
1524.544245827221
 30
0.0
 11
1946.683004222528
 21
1524.544245827221
 31
0.0
 12
3191.327369693814
 22
1504.544245827221
 32
0.0
 13
3191.327369693814
 23
1504.544245827221
 33
0.0
210
0.0
220
0.0
230
1.0
  0
SOLID
  5
232
330
22F
100
AcDbEntity
  8
0
  6
CONTINUOUS
 62
     5
100
AcDbTrace
 10
3191.327369693814
 20
2034.544245827221
 30
0.0
 11
1946.683004222528
 21
2014.544245827221
 31
0.0
 12
3191.327369693814
 22
2014.544245827221
 32
0.0
 13
3191.327369693814
 23
2014.544245827221
 33
0.0
210
0.0
220
0.0
230
1.0
  0
SOLID
  5
233
330
22F
100
AcDbEntity
  8
0
  6
CONTINUOUS
 62
     5
100
AcDbTrace
 10
1946.683004222528
 20
2034.544245827221
 30
0.0
 11
1946.683004222528
 21
2014.544245827221
 31
0.0
 12
3191.327369693814
 22
2034.544245827221
 32
0.0
 13
3191.327369693814
 23
2034.544245827221
 33
0.0
210
0.0
220
0.0
230
1.0
  0
ENDBLK
  5
235
330
22F
100
AcDbEntity
  8
0
100
AcDbBlockEnd
  0
BLOCK
  5
247
330
236
100
AcDbEntity
  8
0
100
AcDbBlockBegin
  2
*U6
 70
     1
 10
0.0
 20
0.0
 30
0.0
  3
*U6
  1

  0
SOLID
  5
237
330
236
100
AcDbEntity
  8
0
  6
CONTINUOUS
 62
   251
100
AcDbTrace
 10
3591.327369693814
 20
1504.544245827221
 30
0.0
 11
3591.327369693814
 21
1524.544245827221
 31
0.0
 12
3191.327369693814
 22
1524.544245827221
 32
0.0
 13
3191.327369693814
 23
1524.544245827221
 33
0.0
210
0.0
220
0.0
230
1.0
  0
SOLID
  5
238
330
236
100
AcDbEntity
  8
0
  6
CONTINUOUS
 62
   251
100
AcDbTrace
 10
3191.327369693814
 20
1524.544245827221
 30
0.0
 11
3191.327369693814
 21
1504.544245827221
 31
0.0
 12
3591.327369693814
 22
1504.544245827221
 32
0.0
 13
3591.327369693814
 23
1504.544245827221
 33
0.0
210
0.0
220
0.0
230
1.0
  0
SOLID
  5
239
330
236
100
AcDbEntity
  8
0
  6
CONTINUOUS
 62
   251
100
AcDbTrace
 10
1997.926684361138
 20
1974.54424582722
 30
0.0
 11
1997.926684361138
 21
1564.544245827221
 31
0.0
 12
2610.317365939596
 22
1564.544245827221
 32
0.0
 13
2610.317365939596
 23
1564.544245827221
 33
0.0
210
0.0
220
0.0
230
1.0
  0
SOLID
  5
23A
330
236
100
AcDbEntity
  8
0
  6
CONTINUOUS
 62
   251
100
AcDbTrace
 10
1517.817365939595
 20
1974.54424582722
 30
0.0
 11
1517.817365939595
 21
1564.544245827221
 31
0.0
 12
1555.621870172533
 22
1564.544245827221
 32
0.0
 13
1555.621870172533
 23
1564.544245827221
 33
0.0
210
0.0
220
0.0
230
1.0
  0
SOLID
  5
23B
330
236
100
AcDbEntity
  8
0
  6
CONTINUOUS
 62
   251
100
AcDbTrace
 10
3644.620779473299
 20
1564.544245827221
 30
0.0
 11
3644.620779473299
 21
1974.544245827221
 31
0.0
 12
3182.107523366853
 22
1974.544245827221
 32
0.0
 13
3182.107523366853
 23
1974.544245827221
 33
0.0
210
0.0
220
0.0
230
1.0
  0
SOLID
  5
23C
330
236
100
AcDbEntity
  8
0
  6
CONTINUOUS
 62
   251
100
AcDbTrace
 10
3182.107523366853
 20
1974.544245827221
 30
0.0
 11
3182.107523366853
 21
1564.544245827221
 31
0.0
 12
3644.620779473299
 22
1564.544245827221
 32
0.0
 13
3644.620779473299
 23
1564.544245827221
 33
0.0
210
0.0
220
0.0
230
1.0
  0
SOLID
  5
23D
330
236
100
AcDbEntity
  8
0
  6
CONTINUOUS
 62
   251
100
AcDbTrace
 10
3702.817365939596
 20
1564.544245827221
 30
0.0
 11
3702.817365939596
 21
1974.544245827221
 31
0.0
 12
3679.620779473299
 22
1974.544245827221
 32
0.0
 13
3679.620779473299
 23
1974.544245827221
 33
0.0
210
0.0
220
0.0
230
1.0
  0
SOLID
  5
23E
330
236
100
AcDbEntity
  8
0
  6
CONTINUOUS
 62
   251
100
AcDbTrace
 10
3679.620779473299
 20
1974.544245827221
 30
0.0
 11
3679.620779473298
 21
1564.544245827221
 31
0.0
 12
3702.817365939596
 22
1564.544245827221
 32
0.0
 13
3702.817365939596
 23
1564.544245827221
 33
0.0
210
0.0
220
0.0
230
1.0
  0
SOLID
  5
23F
330
236
100
AcDbEntity
  8
0
  6
CONTINUOUS
 62
   251
100
AcDbTrace
 10
1555.621870172533
 20
1974.544245827221
 30
0.0
 11
1517.817365939595
 21
1974.54424582722
 31
0.0
 12
1555.621870172533
 22
1564.544245827221
 32
0.0
 13
1555.621870172533
 23
1564.544245827221
 33
0.0
210
0.0
220
0.0
230
1.0
  0
SOLID
  5
240
330
236
100
AcDbEntity
  8
0
  6
CONTINUOUS
 62
   251
100
AcDbTrace
 10
3147.107523366853
 20
1564.544245827221
 30
0.0
 11
3147.107523366853
 21
1974.544245827221
 31
0.0
 12
2645.317365939596
 22
1974.544245827221
 32
0.0
 13
2645.317365939596
 23
1974.544245827221
 33
0.0
210
0.0
220
0.0
230
1.0
  0
SOLID
  5
241
330
236
100
AcDbEntity
  8
0
  6
CONTINUOUS
 62
   251
100
AcDbTrace
 10
2645.317365939596
 20
1974.544245827221
 30
0.0
 11
2645.317365939596
 21
1564.544245827221
 31
0.0
 12
3147.107523366853
 22
1564.544245827221
 32
0.0
 13
3147.107523366853
 23
1564.544245827221
 33
0.0
210
0.0
220
0.0
230
1.0
  0
SOLID
  5
242
330
236
100
AcDbEntity
  8
0
  6
CONTINUOUS
 62
   251
100
AcDbTrace
 10
2610.317365939596
 20
1974.544245827221
 30
0.0
 11
1997.926684361138
 21
1974.54424582722
 31
0.0
 12
2610.317365939596
 22
1564.544245827221
 32
0.0
 13
2610.317365939596
 23
1564.544245827221
 33
0.0
210
0.0
220
0.0
230
1.0
  0
SOLID
  5
243
330
236
100
AcDbEntity
  8
0
  6
CONTINUOUS
 62
   251
100
AcDbTrace
 10
1962.926684361137
 20
1974.544245827221
 30
0.0
 11
1590.621870172532
 21
1564.544245827221
 31
0.0
 12
1962.926684361137
 22
1564.544245827221
 32
0.0
 13
1962.926684361137
 23
1564.544245827221
 33
0.0
210
0.0
220
0.0
230
1.0
  0
SOLID
  5
244
330
236
100
AcDbEntity
  8
0
  6
CONTINUOUS
 62
   251
100
AcDbTrace
 10
1590.621870172532
 20
1974.544245827221
 30
0.0
 11
1590.621870172532
 21
1564.544245827221
 31
0.0
 12
1962.926684361137
 22
1974.544245827221
 32
0.0
 13
1962.926684361137
 23
1974.544245827221
 33
0.0
210
0.0
220
0.0
230
1.0
  0
SOLID
  5
245
330
236
100
AcDbEntity
  8
0
  6
CONTINUOUS
 62
   251
100
AcDbTrace
 10
3191.327369693814
 20
2034.544245827221
 30
0.0
 11
3191.327369693814
 21
2014.544245827221
 31
0.0
 12
3591.327369693814
 22
2014.544245827221
 32
0.0
 13
3591.327369693814
 23
2014.544245827221
 33
0.0
210
0.0
220
0.0
230
1.0
  0
SOLID
  5
246
330
236
100
AcDbEntity
  8
0
  6
CONTINUOUS
 62
   251
100
AcDbTrace
 10
3591.327369693814
 20
2034.544245827221
 30
0.0
 11
3191.327369693814
 21
2034.544245827221
 31
0.0
 12
3591.327369693814
 22
2014.544245827221
 32
0.0
 13
3591.327369693814
 23
2014.544245827221
 33
0.0
  0
ENDBLK
  5
248
330
236
100
AcDbEntity
  8
0
100
AcDbBlockEnd
  0
ENDSEC
  0
SECTION
  2
ENTITIES
  0
INSERT
  5
20C
330
1F
100
AcDbEntity
  8
0
100
AcDbBlockReference
  2
ABKC
 10
0.0
 20
0.0
 30
0.0
  0
ENDSEC
  0
SECTION
  2
OBJECTS
  0
DICTIONARY
  5
C
330
0
100
AcDbDictionary
  3
ACAD_GROUP
350
D
  3
ACAD_LAYOUT
350
1A
  3
ACAD_MLINESTYLE
350
17
  3
ACAD_PLOTSETTINGS
350
19
1001
ACAD
1000
TREAT_AS_HARD
1070
     0
1000
TREAT_AS_HARD
1070
     0
  0
DICTIONARY
  5
CD
330
1F
100
AcDbDictionary
  3
ACAD_LAYOUTSELFREF
350
20E
  3
ACAD_SORTENTS
350
1E1
1001
ACAD
1000
TREAT_AS_HARD
1070
     1
1000
TREAT_AS_HARD
1070
     0
  0
DICTIONARY
  5
CF
330
50
100
AcDbDictionary
  3
ACAD_LAYOUTSELFREF
350
20F
1001
ACAD
1000
TREAT_AS_HARD
1070
     1
1000
TREAT_AS_HARD
1070
     0
  0
DICTIONARY
  5
D
102
{ACAD_REACTORS
330
C
102
}
330
C
100
AcDbDictionary
1001
ACAD
1000
TREAT_AS_HARD
1070
     0
1000
TREAT_AS_HARD
1070
     0
  0
DICTIONARY
  5
1A
102
{ACAD_REACTORS
330
C
102
}
330
C
100
AcDbDictionary
1001
ACAD
1000
TREAT_AS_HARD
1070
     0
1000
TREAT_AS_HARD
1070
     0
  0
DICTIONARY
  5
17
102
{ACAD_REACTORS
330
C
102
}
330
C
100
AcDbDictionary
  3
STANDARD
350
18
1001
ACAD
1000
TREAT_AS_HARD
1070
     0
1000
TREAT_AS_HARD
1070
     0
  0
DICTIONARY
  5
19
102
{ACAD_REACTORS
330
C
102
}
330
C
100
AcDbDictionary
1001
ACAD
1000
TREAT_AS_HARD
1070
     0
1000
TREAT_AS_HARD
1070
     0
  0
XRECORD
  5
20E
102
{ACAD_REACTORS
330
CD
102
}
330
CD
100
AcDbXrecord
340
1F
  0
SORTENTSTABLE
  5
1E1
102
{ACAD_REACTORS
330
CD
102
}
330
CD
100
AcDbSortentsTable
330
1F
331
16C
  5
171
331
15B
  5
160
331
1AA
  5
150
331
16A
  5
16F
331
159
  5
15E
331
168
  5
16D
331
157
  5
15C
331
166
  5
16B
331
155
  5
15A
331
164
  5
169
331
153
  5
158
331
162
  5
167
331
151
  5
156
331
171
  5
1D6
331
160
  5
165
331
14F
  5
154
331
16F
  5
1AA
331
15E
  5
163
331
1E0
  5
133
331
15C
  5
161
331
16D
  5
172
331
1A0
  5
14F
331
16B
  5
170
331
15A
  5
15F
331
169
  5
16E
331
158
  5
15D
331
167
  5
16C
331
156
  5
15B
331
154
  5
159
331
165
  5
16A
331
1B4
  5
151
331
133
  5
153
331
1D6
  5
152
331
163
  5
168
331
152
  5
157
331
172
  5
1E0
331
150
  5
155
331
161
  5
166
331
170
  5
1B4
331
15F
  5
164
331
16E
  5
1A0
331
15D
  5
162
  0
XRECORD
  5
20F
102
{ACAD_REACTORS
330
CF
102
}
330
CF
100
AcDbXrecord
340
50
  0
MLINESTYLE
  5
18
102
{ACAD_REACTORS
330
17
102
}
330
17
100
AcDbMlineStyle
  2
STANDARD
 70
     0
  3

 62
   256
 51
90.0
 52
90.0
 71
     2
 49
0.5
 62
   256
  6
BYLAYER
 49
-0.5
 62
   256
  6
BYLAYER
  0
ENDSEC
  0
EOF
