  0
SECTION
  2
HEADER
  9
$ACADVER
  1
AC1012
  9
$DWGCODEPAGE
  3
ANSI_1252
  9
$INSBASE
 10
0.0
 20
0.0
 30
0.0
  9
$EXTMIN
 10
-4.649352520431193
 20
-26.01232696562442
 30
0.0
  9
$EXTMAX
 10
5674.971878073929
 20
4219.985341971768
 30
1.0
  9
$LIMMIN
 10
0.0
 20
0.0
  9
$LIMMAX
 10
420.0
 20
297.0
  9
$ORTHOMODE
 70
     0
  9
$REGENMODE
 70
     1
  9
$FILLMODE
 70
     1
  9
$QTEXTMODE
 70
     0
  9
$MIRRTEXT
 70
     1
  9
$DRAGMODE
 70
     2
  9
$LTSCALE
 40
1.0
  9
$OSMODE
 70
  3071
  9
$ATTMODE
 70
     1
  9
$TEXTSIZE
 40
2.5
  9
$TRACEWID
 40
1.0
  9
$TEXTSTYLE
  7
STANDARD
  9
$CLAYER
  8
HATCH
  9
$CELTYPE
  6
BYLAYER
  9
$CECOLOR
 62
   256
  9
$CELTSCALE
 40
1.0
  9
$DELOBJ
 70
     1
  9
$DISPSILH
 70
     0
  9
$DIMSCALE
 40
1.0
  9
$DIMASZ
 40
2.5
  9
$DIMEXO
 40
0.625
  9
$DIMDLI
 40
3.75
  9
$DIMRND
 40
0.0
  9
$DIMDLE
 40
0.0
  9
$DIMEXE
 40
1.25
  9
$DIMTP
 40
0.0
  9
$DIMTM
 40
0.0
  9
$DIMTXT
 40
2.5
  9
$DIMCEN
 40
2.5
  9
$DIMTSZ
 40
0.0
  9
$DIMTOL
 70
     0
  9
$DIMLIM
 70
     0
  9
$DIMTIH
 70
     0
  9
$DIMTOH
 70
     0
  9
$DIMSE1
 70
     0
  9
$DIMSE2
 70
     0
  9
$DIMTAD
 70
     1
  9
$DIMZIN
 70
     8
  9
$DIMBLK
  1

  9
$DIMASO
 70
     1
  9
$DIMSHO
 70
     1
  9
$DIMPOST
  1

  9
$DIMAPOST
  1

  9
$DIMALT
 70
     0
  9
$DIMALTD
 70
     3
  9
$DIMALTF
 40
0.03937007874016
  9
$DIMLFAC
 40
1.0
  9
$DIMTOFL
 70
     1
  9
$DIMTVP
 40
0.0
  9
$DIMTIX
 70
     0
  9
$DIMSOXD
 70
     0
  9
$DIMSAH
 70
     0
  9
$DIMBLK1
  1

  9
$DIMBLK2
  1

  9
$DIMSTYLE
  2
ISO-25
  9
$DIMCLRD
 70
     0
  9
$DIMCLRE
 70
     0
  9
$DIMCLRT
 70
     0
  9
$DIMTFAC
 40
1.0
  9
$DIMGAP
 40
0.625
  9
$DIMJUST
 70
     0
  9
$DIMSD1
 70
     0
  9
$DIMSD2
 70
     0
  9
$DIMTOLJ
 70
     0
  9
$DIMTZIN
 70
     8
  9
$DIMALTZ
 70
     0
  9
$DIMALTTZ
 70
     0
  9
$DIMFIT
 70
     3
  9
$DIMUPT
 70
     0
  9
$DIMUNIT
 70
     2
  9
$DIMDEC
 70
     2
  9
$DIMTDEC
 70
     2
  9
$DIMALTU
 70
     2
  9
$DIMALTTD
 70
     3
  9
$DIMTXSTY
  7
STANDARD
  9
$DIMAUNIT
 70
     0
  9
$LUNITS
 70
     2
  9
$LUPREC
 70
     4
  9
$SKETCHINC
 40
1.0
  9
$FILLETRAD
 40
10.0
  9
$AUNITS
 70
     0
  9
$AUPREC
 70
     0
  9
$MENU
  1
.
  9
$ELEVATION
 40
0.0
  9
$PELEVATION
 40
0.0
  9
$THICKNESS
 40
0.0
  9
$LIMCHECK
 70
     0
  9
$BLIPMODE
 70
     0
  9
$CHAMFERA
 40
10.0
  9
$CHAMFERB
 40
10.0
  9
$CHAMFERC
 40
20.0
  9
$CHAMFERD
 40
0.0
  9
$SKPOLY
 70
     0
  9
$TDCREATE
 40
2452626.506224190
  9
$TDUPDATE
 40
2452772.465428009
  9
$TDINDWG
 40
0.0103900463
  9
$TDUSRTIMER
 40
0.0103810185
  9
$USRTIMER
 70
     1
  9
$ANGBASE
 50
0.0
  9
$ANGDIR
 70
     0
  9
$PDMODE
 70
     0
  9
$PDSIZE
 40
0.0
  9
$PLINEWID
 40
0.0
  9
$COORDS
 70
     2
  9
$SPLFRAME
 70
     0
  9
$SPLINETYPE
 70
     6
  9
$SPLINESEGS
 70
     8
  9
$ATTDIA
 70
     0
  9
$ATTREQ
 70
     1
  9
$HANDLING
 70
-16383
  9
$HANDSEED
  5
7CE
  9
$SURFTAB1
 70
     6
  9
$SURFTAB2
 70
     6
  9
$SURFTYPE
 70
     6
  9
$SURFU
 70
     6
  9
$SURFV
 70
     6
  9
$UCSNAME
  2

  9
$UCSORG
 10
0.0
 20
0.0
 30
0.0
  9
$UCSXDIR
 10
1.0
 20
0.0
 30
0.0
  9
$UCSYDIR
 10
0.0
 20
1.0
 30
0.0
  9
$PUCSNAME
  2

  9
$PUCSORG
 10
0.0
 20
0.0
 30
0.0
  9
$PUCSXDIR
 10
1.0
 20
0.0
 30
0.0
  9
$PUCSYDIR
 10
0.0
 20
1.0
 30
0.0
  9
$USERI1
 70
     0
  9
$USERI2
 70
     0
  9
$USERI3
 70
     0
  9
$USERI4
 70
     0
  9
$USERI5
 70
     0
  9
$USERR1
 40
0.0
  9
$USERR2
 40
0.0
  9
$USERR3
 40
0.0
  9
$USERR4
 40
0.0
  9
$USERR5
 40
0.0
  9
$WORLDVIEW
 70
     1
  9
$SHADEDGE
 70
     3
  9
$SHADEDIF
 70
    70
  9
$TILEMODE
 70
     1
  9
$MAXACTVP
 70
    64
  9
$PINSBASE
 10
0.0
 20
0.0
 30
0.0
  9
$PLIMCHECK
 70
     0
  9
$PEXTMIN
 10
0.0
 20
0.0
 30
0.0
  9
$PEXTMAX
 10
0.0
 20
0.0
 30
0.0
  9
$PLIMMIN
 10
0.0
 20
0.0
  9
$PLIMMAX
 10
12.0
 20
9.0
  9
$UNITMODE
 70
     0
  9
$VISRETAIN
 70
     1
  9
$PLINEGEN
 70
     0
  9
$PSLTSCALE
 70
     1
  9
$TREEDEPTH
 70
  3020
  9
$PICKSTYLE
 70
     1
  9
$CMLSTYLE
  2
STANDARD
  9
$CMLJUST
 70
     0
  9
$CMLSCALE
 40
20.0
  9
$SAVEIMAGES
 70
     1
  0
ENDSEC
  0
SECTION
  2
CLASSES
  0
CLASS
  1
ACDBDICTIONARYWDFLT
  2
AcDbDictionaryWithDefault
  3
AutoCAD 2000
 90
    32768
280
     0
281
     0
  0
CLASS
  1
ACDBPLACEHOLDER
  2
AcDbPlaceHolder
  3
AutoCAD 2000
 90
    32768
280
     0
281
     0
  0
CLASS
  1
LAYOUT
  2
AcDbLayout
  3
AutoCAD 2000
 90
    32768
280
     0
281
     0
  0
CLASS
  1
LONG_TRANSACTION
  2
AcDbLongTransaction
  3
AutoCAD 2000
 90
    32768
280
     0
281
     0
  0
CLASS
  1
LWPOLYLINE
  2
AcDbPolyline
  3
AutoCAD 2000
 90
    32768
280
     0
281
     1
  0
CLASS
  1
HATCH
  2
AcDbHatch
  3
AutoCAD 2000
 90
    32768
280
     0
281
     1
  0
CLASS
  1
XRECORD
  2
AcDbXrecord
  3
AutoCAD 2000
 90
    32768
280
     0
281
     0
  0
CLASS
  1
LONG_TRANSACTION
  2
AcDbLongTransaction
  3
AutoCAD 2000
 90
    32768
280
     0
281
     0
  0
CLASS
  1
LWPOLYLINE
  2
AcDbPolyline
  3
AutoCAD 2000
 90
    32768
280
     0
281
     1
  0
CLASS
  1
HATCH
  2
AcDbHatch
  3
AutoCAD 2000
 90
    32768
280
     0
281
     1
  0
CLASS
  1
XRECORD
  2
AcDbXrecord
  3
AutoCAD 2000
 90
    32768
280
     0
281
     0
  0
CLASS
  1
LONG_TRANSACTION
  2
AcDbLongTransaction
  3
AutoCAD 2000
 90
    32768
280
     0
281
     0
  0
CLASS
  1
LWPOLYLINE
  2
AcDbPolyline
  3
AutoCAD 2000
 90
    32768
280
     0
281
     1
  0
CLASS
  1
HATCH
  2
AcDbHatch
  3
AutoCAD 2000
 90
    32768
280
     0
281
     1
  0
CLASS
  1
XRECORD
  2
AcDbXrecord
  3
AutoCAD 2000
 90
    32768
280
     0
281
     0
  0
CLASS
  1
DICTIONARYVAR
  2
AcDbDictionaryVar
  3
AutoCAD 2000
 90
    32768
280
     0
281
     0
  0
CLASS
  1
SORTENTSTABLE
  2
AcDbSortentsTable
  3
AutoCAD 2000
 90
    32768
280
     0
281
     0
  0
CLASS
  1
LONG_TRANSACTION
  2
AcDbLongTransaction
  3
AutoCAD 2000
 90
    32768
280
     0
281
     0
  0
CLASS
  1
LWPOLYLINE
  2
AcDbPolyline
  3
AutoCAD 2000
 90
    32768
280
     0
281
     1
  0
CLASS
  1
HATCH
  2
AcDbHatch
  3
AutoCAD 2000
 90
    32768
280
     0
281
     1
  0
CLASS
  1
XRECORD
  2
AcDbXrecord
  3
AutoCAD 2000
 90
    32768
280
     0
281
     0
  0
ENDSEC
  0
SECTION
  2
TABLES
  0
TABLE
  2
VPORT
  5
8
330
0
100
AcDbSymbolTable
 70
     3
  0
VPORT
  5
64F
330
8
100
AcDbSymbolTableRecord
100
AcDbViewportTableRecord
  2
*ACTIVE
 70
     0
 10
0.0
 20
0.0
 11
1.0
 21
1.0
 12
1933.972234009718
 22
1065.118070461927
 13
0.0
 23
0.0
 14
10.0
 24
10.0
 15
10.0
 25
10.0
 16
0.0
 26
0.0
 36
1.0
 17
0.0
 27
0.0
 37
0.0
 40
7329.995187190255
 41
1.52092050209205
 42
50.0
 43
0.0
 44
0.0
 50
0.0
 51
0.0
 71
     0
 72
   100
 73
     1
 74
     3
 75
     0
 76
     0
 77
     0
 78
     0
  0
ENDTAB
  0
TABLE
  2
LTYPE
  5
5
330
0
100
AcDbSymbolTable
 70
     2
  0
LTYPE
  5
14
330
5
100
AcDbSymbolTableRecord
100
AcDbLinetypeTableRecord
  2
BYBLOCK
 70
     0
  3

 72
    65
 73
     0
 40
0.0
  0
LTYPE
  5
15
330
5
100
AcDbSymbolTableRecord
100
AcDbLinetypeTableRecord
  2
BYLAYER
 70
     0
  3

 72
    65
 73
     0
 40
0.0
  0
LTYPE
  5
16
330
5
100
AcDbSymbolTableRecord
100
AcDbLinetypeTableRecord
  2
CONTINUOUS
 70
     0
  3
Solid line
 72
    65
 73
     0
 40
0.0
  0
LTYPE
  5
5D
330
5
100
AcDbSymbolTableRecord
100
AcDbLinetypeTableRecord
  2
DASHED
 70
     0
  3
Dashed __ __ __ __ __ __ __ __ __ __ __ __ __ _
 72
    65
 73
     2
 40
0.75
 49
0.5
 74
     0
 49
-0.25
 74
     0
  0
ENDTAB
  0
TABLE
  2
LAYER
  5
2
330
0
100
AcDbSymbolTable
 70
     5
  0
LAYER
  5
10
330
2
100
AcDbSymbolTableRecord
100
AcDbLayerTableRecord
  2
0
 70
     0
 62
     7
  6
CONTINUOUS
  0
LAYER
  5
5E
330
2
100
AcDbSymbolTableRecord
100
AcDbLayerTableRecord
  2
OBJECT
 70
     0
 62
     7
  6
CONTINUOUS
  0
LAYER
  5
5F
330
2
100
AcDbSymbolTableRecord
100
AcDbLayerTableRecord
  2
SAFETY
 70
     0
 62
     7
  6
CONTINUOUS
  0
LAYER
  5
227
330
2
100
AcDbSymbolTableRecord
100
AcDbLayerTableRecord
  2
TEKST
 70
     0
 62
     7
  6
CONTINUOUS
  0
LAYER
  5
2B6
330
2
100
AcDbSymbolTableRecord
100
AcDbLayerTableRecord
  2
HATCH
 70
     0
 62
     7
  6
CONTINUOUS
  0
ENDTAB
  0
TABLE
  2
STYLE
  5
3
330
0
100
AcDbSymbolTable
 70
     2
  0
STYLE
  5
11
330
3
100
AcDbSymbolTableRecord
100
AcDbTextStyleTableRecord
  2
STANDARD
 70
     0
 40
0.0
 41
1.0
 50
0.0
 71
     0
 42
2.5
  3
txt
  4

  0
STYLE
  5
60
330
3
100
AcDbSymbolTableRecord
100
AcDbTextStyleTableRecord
  2
STYLE1
 70
     0
 40
20.0
 41
1.0
 50
0.0
 71
     0
 42
20.0
  3
romans.shx
  4

  0
ENDTAB
  0
TABLE
  2
VIEW
  5
6
330
0
100
AcDbSymbolTable
 70
     0
  0
ENDTAB
  0
TABLE
  2
UCS
  5
7
330
0
100
AcDbSymbolTable
 70
     0
  0
ENDTAB
  0
TABLE
  2
APPID
  5
9
330
0
100
AcDbSymbolTable
 70
     3
  0
APPID
  5
12
330
9
100
AcDbSymbolTableRecord
100
AcDbRegAppTableRecord
  2
ACAD
 70
     0
  0
APPID
  5
62
330
9
100
AcDbSymbolTableRecord
100
AcDbRegAppTableRecord
  2
AVE_FINISH
 70
     0
  0
APPID
  5
21F
330
9
100
AcDbSymbolTableRecord
100
AcDbRegAppTableRecord
  2
CONTENTBLOCKICON
 70
     0
  0
ENDTAB
  0
TABLE
  2
DIMSTYLE
  5
A
330
0
100
AcDbSymbolTable
 70
     2
  0
DIMSTYLE
105
27
330
A
100
AcDbSymbolTableRecord
100
AcDbDimStyleTableRecord
  2
ISO-25
 70
     0
  3

  4

  5

  6

  7

 40
1.0
 41
2.5
 42
0.625
 43
3.75
 44
1.25
 45
0.0
 46
0.0
 47
0.0
 48
0.0
140
2.5
141
2.5
142
0.0
143
0.03937007874016
144
1.0
145
0.0
146
1.0
147
0.625
 71
     0
 72
     0
 73
     0
 74
     0
 75
     0
 76
     0
 77
     1
 78
     8
170
     0
171
     3
172
     1
173
     0
174
     0
175
     0
176
     0
177
     0
178
     0
270
     2
271
     2
272
     2
273
     2
274
     3
340
11
275
     0
280
     0
281
     0
282
     0
283
     0
284
     8
285
     0
286
     0
287
     3
288
     0
  0
DIMSTYLE
105
61
330
A
100
AcDbSymbolTableRecord
100
AcDbDimStyleTableRecord
  2
STANDARD
 70
     0
  3

  4

  5

  6

  7

 40
5.0
 41
4.0
 42
1.0
 43
7.0
 44
1.0
 45
0.0
 46
0.0
 47
0.0
 48
0.0
140
20.0
141
0.09
142
0.0
143
25.4
144
1.0
145
0.0
146
1.0
147
1.0
 71
     0
 72
     0
 73
     0
 74
     0
 75
     0
 76
     0
 77
     1
 78
     8
170
     0
171
     2
172
     1
173
     0
174
     0
175
     0
176
     1
177
     1
178
     1
270
     2
271
     1
272
     0
273
     2
274
     2
340
60
275
     0
280
     0
281
     0
282
     0
283
     1
284
     0
285
     0
286
     0
287
     3
288
     0
  0
ENDTAB
  0
TABLE
  2
BLOCK_RECORD
  5
1
330
0
100
AcDbSymbolTable
 70
    14
  0
BLOCK_RECORD
  5
1F
102
{ACAD_XDICTIONARY
360
174
102
}
330
1
100
AcDbSymbolTableRecord
100
AcDbBlockTableRecord
  2
*MODEL_SPACE
  0
BLOCK_RECORD
  5
50
102
{ACAD_XDICTIONARY
360
176
102
}
330
1
100
AcDbSymbolTableRecord
100
AcDbBlockTableRecord
  2
*PAPER_SPACE
  0
BLOCK_RECORD
  5
181
330
1
100
AcDbSymbolTableRecord
100
AcDbBlockTableRecord
  2
ABKA0
1001
ACAD
1000
DesignCenter Data
1002
{
1070
     1
1070
     4
1002
}
  0
BLOCK_RECORD
  5
5C8
330
1
100
AcDbSymbolTableRecord
100
AcDbBlockTableRecord
  2
ABKA1
  0
BLOCK_RECORD
  5
652
330
1
100
AcDbSymbolTableRecord
100
AcDbBlockTableRecord
  2
*U2
  0
BLOCK_RECORD
  5
65D
330
1
100
AcDbSymbolTableRecord
100
AcDbBlockTableRecord
  2
*U3
  0
BLOCK_RECORD
  5
67E
330
1
100
AcDbSymbolTableRecord
100
AcDbBlockTableRecord
  2
*U4
  0
BLOCK_RECORD
  5
699
330
1
100
AcDbSymbolTableRecord
100
AcDbBlockTableRecord
  2
*U5
  0
BLOCK_RECORD
  5
6A0
330
1
100
AcDbSymbolTableRecord
100
AcDbBlockTableRecord
  2
*U6
  0
BLOCK_RECORD
  5
70B
330
1
100
AcDbSymbolTableRecord
100
AcDbBlockTableRecord
  2
*U7
  0
BLOCK_RECORD
  5
71A
330
1
100
AcDbSymbolTableRecord
100
AcDbBlockTableRecord
  2
*U8
  0
BLOCK_RECORD
  5
725
330
1
100
AcDbSymbolTableRecord
100
AcDbBlockTableRecord
  2
*U9
  0
BLOCK_RECORD
  5
730
330
1
100
AcDbSymbolTableRecord
100
AcDbBlockTableRecord
  2
*U10
  0
BLOCK_RECORD
  5
741
330
1
100
AcDbSymbolTableRecord
100
AcDbBlockTableRecord
  2
*U11
  0
BLOCK_RECORD
  5
758
330
1
100
AcDbSymbolTableRecord
100
AcDbBlockTableRecord
  2
*U12
  0
BLOCK_RECORD
  5
7C3
330
1
100
AcDbSymbolTableRecord
100
AcDbBlockTableRecord
  2
*U13
  0
ENDTAB
  0
ENDSEC
  0
SECTION
  2
BLOCKS
  0
BLOCK
  5
20
330
1F
100
AcDbEntity
  8
0
100
AcDbBlockBegin
  2
*MODEL_SPACE
 70
     0
 10
0.0
 20
0.0
 30
0.0
  3
*MODEL_SPACE
  1

  0
ENDBLK
  5
21
330
1F
100
AcDbEntity
  8
0
100
AcDbBlockEnd
  0
BLOCK
  5
52
330
50
100
AcDbEntity
 67
     1
  8
0
100
AcDbBlockBegin
  2
*PAPER_SPACE
 70
     0
 10
0.0
 20
0.0
 30
0.0
  3
*PAPER_SPACE
  1

  0
ENDBLK
  5
53
330
50
100
AcDbEntity
 67
     1
  8
0
100
AcDbBlockEnd
  0
BLOCK
  5
182
330
181
100
AcDbEntity
  8
0
100
AcDbBlockBegin
  2
ABKA0
 70
     0
 10
0.0
 20
0.0
 30
0.0
  3
ABKA0
  1

  0
INSERT
  5
36D
330
181
100
AcDbEntity
  8
HATCH
  6
CONTINUOUS
 62
     2
100
AcDbBlockReference
  2
*U2
 10
0.0
 20
0.0
 30
0.0
1001
ACAD
1002
{
1000
R14_HATCH_DATA
1000
36D
1011
1.0
1021
0.0
1031
0.0
1011
0.0
1021
1.0
1031
0.0
1011
0.0
1021
0.0
1031
1.0
1040
0.0
1010
0.0
1020
0.0
1030
1.0
1000
SOLID
1070
     1
1070
     1
1071
        2
1071
        7
1070
     0
1070
     1
1071
        6
1040
2437.661417406358
1040
2164.032893738153
1040
2437.661417406358
1040
2204.204884010659
1040
2397.464535700066
1040
2204.204884010659
1040
2397.464535700065
1040
2023.430907820763
1040
2437.661417406357
1040
2023.430907820762
1040
2437.661417406357
1040
2063.602898093269
1071
        6
1005
3AA
1005
3AB
1005
37B
1005
394
1005
395
1005
37A
1071
        7
1070
     0
1070
     1
1071
        6
1040
3448.325853239904
1040
2063.602898093269
1040
3448.325853239904
1040
2023.430907820763
1040
3479.909104721631
1040
2023.430907820763
1040
3479.909104721631
1040
2204.204884010659
1040
3448.325853239905
1040
2204.204884010659
1040
3448.325853239905
1040
2164.032893738153
1071
        6
1005
3DA
1005
3D9
1005
3B3
1005
3C2
1005
3C3
1005
3B4
1070
     0
1070
     1
1040
2.371407896553095
1071
        2
1040
2401.874426061815
1040
2136.821372020009
1040
0.0
1040
3460.279151471797
1040
2146.307003048974
1040
0.0
1002
}
  0
INSERT
  5
36E
330
181
100
AcDbEntity
  8
HATCH
  6
CONTINUOUS
 62
     1
100
AcDbBlockReference
  2
*U3
 10
0.0
 20
0.0
 30
0.0
1001
ACAD
1002
{
1000
R14_HATCH_DATA
1000
36E
1011
1.0
1021
0.0
1031
0.0
1011
0.0
1021
1.0
1031
0.0
1011
0.0
1021
0.0
1031
1.0
1040
0.0
1010
0.0
1020
0.0
1030
1.0
1000
SOLID
1070
     1
1070
     0
1071
        7
1071
        7
1070
     0
1070
     1
1071
        4
1040
4048.40785797005
1040
2143.946898601899
1040
3973.756503917777
1040
2143.946898601899
1040
3973.756503917777
1040
2123.860893483834
1040
4048.40785797005
1040
2123.860893483834
1071
        0
1071
        7
1070
     0
1070
     1
1071
        4
1040
4048.407857970049
1040
2103.774898347587
1040
3973.756503917777
1040
2103.774898347587
1040
3973.756503917777
1040
2083.688893229522
1040
4048.407857970049
1040
2083.688893229522
1071
        0
1071
        7
1070
     0
1070
     1
1071
       10
1040
3563.174072814374
1040
2169.77174521345
1040
3545.946844733434
1040
2172.641175942001
1040
3545.946844733434
1040
2273.071161605078
1040
3479.909104721631
1040
2273.071161605078
1040
3479.909104721631
1040
2204.204884010659
1040
3479.909104721631
1040
2023.430907820763
1040
3479.909104721631
1040
1954.564630226342
1040
3545.946844733432
1040
1954.564630226341
1040
3545.946844733432
1040
2054.994615889421
1040
3563.174072814373
1040
2057.864046617972
1071
        0
1071
        7
1070
     0
1070
     1
1071
        8
1040
3448.325853239905
1040
2139.032893738153
1040
3198.530948961677
1040
2139.032893738153
1040
2684.585117004429
1040
2139.032893738153
1040
2437.661417406357
1040
2139.032893738153
1040
2437.661417406357
1040
2088.602898093268
1040
2684.585117004429
1040
2088.602898093268
1040
3198.530948961677
1040
2088.602898093268
1040
3448.325853239904
1040
2088.602898093268
1071
        0
1071
        7
1070
     0
1070
     1
1071
       10
1040
2397.464535700066
1040
2204.204884010659
1040
2397.464535700066
1040
2273.071161605078
1040
2340.04042591283
1040
2273.071161605077
1040
2340.04042591283
1040
2178.380027417297
1040
2322.813181647791
1040
2169.771745213449
1040
2322.813181647789
1040
2057.864046617972
1040
2340.040425912829
1040
2049.255764414124
1040
2340.040425912829
1040
1954.564630226341
1040
2397.464535700064
1040
1954.564630226341
1040
2397.464535700065
1040
2023.430907820763
1071
        0
1071
        7
1070
     0
1070
     1
1071
        4
1040
1912.230750544386
1040
2143.946898601899
1040
1837.579396492114
1040
2143.946898601899
1040
1837.579396492114
1040
2123.860893483833
1040
1912.230750544385
1040
2123.860893483834
1071
        0
1071
        7
1070
     0
1070
     1
1071
        4
1040
1912.230750544386
1040
2103.774898347587
1040
1837.579396492115
1040
2103.774898347587
1040
1837.579396492115
1040
2083.688893229522
1040
1912.230750544385
1040
2083.688893229522
1071
        0
1070
     0
1070
     1
1040
4.640655647259539
1071
        7
1040
4012.11655079426
1040
2135.454644657902
1040
0.0
1040
4012.11655079426
1040
2089.048087297838
1040
0.0
1040
3505.923134864512
1040
2116.89201973668
1040
0.0
1040
3366.60384621445
1040
2102.970053517259
1040
0.0
1040
2391.368825664018
1040
2112.251370920863
1040
0.0
1040
1857.311555011414
1040
2130.813985956101
1040
0.0
1040
1866.599511597629
1040
2093.688745999641
1040
0.0
1002
}
  0
INSERT
  5
36F
330
181
100
AcDbEntity
  8
HATCH
  6
CONTINUOUS
 62
     2
100
AcDbBlockReference
  2
*U4
 10
0.0
 20
0.0
 30
0.0
1001
ACAD
1002
{
1000
R14_HATCH_DATA
1000
36F
1011
1.0
1021
0.0
1031
0.0
1011
0.0
1021
1.0
1031
0.0
1011
0.0
1021
0.0
1031
1.0
1040
0.0
1010
0.0
1020
0.0
1030
1.0
1000
SOLID
1070
     1
1070
     1
1071
        7
1071
        7
1070
     0
1070
     1
1071
        6
1040
1912.230750544386
1040
2123.860893483834
1040
1837.579396492114
1040
2123.860893483834
1040
1616.496555199548
1040
2123.860893483834
1040
1616.496555199549
1040
2103.774898347587
1040
1837.579396492115
1040
2103.774898347587
1040
1912.230750544385
1040
2103.774898347587
1071
        6
1005
3E8
1005
397
1005
399
1005
398
1005
3E9
1005
37E
1071
        7
1070
     0
1070
     1
1071
        4
1040
2775.622840832136
1040
2628.880252527772
1040
2750.622840832136
1040
2628.880252527772
1040
2750.622840832138
1040
2528.880252527772
1040
2775.622840832136
1040
2528.880252527772
1071
        4
1005
3B0
1005
3AC
1005
3AE
1005
3AD
1071
        7
1070
     0
1070
     1
1071
        4
1040
3141.106822990343
1040
2628.880252527772
1040
3116.106822990343
1040
2628.880252527772
1040
3116.106822990344
1040
2528.880252527772
1040
3141.106822990344
1040
2528.880252527772
1071
        4
1005
3D6
1005
3D3
1005
3D4
1005
3D2
1071
        7
1070
     0
1070
     1
1071
        4
1040
3141.106822990341
1040
1698.755539303648
1040
3116.106822990343
1040
1698.755539303649
1040
3116.106822990341
1040
1598.755539303648
1040
3141.106822990341
1040
1598.755539303648
1071
        4
1005
3BF
1005
3BC
1005
3BE
1005
3BB
1071
        7
1070
     0
1070
     1
1071
        4
1040
2775.622840832136
1040
1698.755539303649
1040
2750.622840832136
1040
1698.755539303648
1040
2750.622840832136
1040
1598.755539303652
1040
2775.622840832134
1040
1598.755539303647
1071
        4
1005
390
1005
38C
1005
38F
1005
38D
1071
        7
1070
     0
1070
     1
1071
        8
1040
2684.585117004429
1040
2139.032893738153
1040
3198.530948961677
1040
2139.032893738153
1040
3448.325853239905
1040
2139.032893738153
1040
3448.325853239905
1040
2164.032893738153
1040
3198.530948961677
1040
2164.032893738153
1040
2684.585117004429
1040
2164.032893738153
1040
2437.661417406358
1040
2164.032893738153
1040
2437.661417406357
1040
2139.032893738153
1071
        8
1005
3CF
1005
376
1005
3A7
1005
37A
1005
3A8
1005
377
1005
3D0
1005
3B3
1071
        7
1070
     0
1070
     1
1071
        8
1040
2684.585117004429
1040
2063.602898093269
1040
3198.530948961677
1040
2063.602898093269
1040
3448.325853239903
1040
2063.602898093269
1040
3448.325853239905
1040
2088.602898093268
1040
3198.530948961677
1040
2088.602898093268
1040
2684.585117004429
1040
2088.602898093268
1040
2437.661417406357
1040
2088.602898093268
1040
2437.661417406357
1040
2063.602898093269
1071
        8
1005
3B9
1005
378
1005
392
1005
37A
1005
391
1005
375
1005
3B8
1005
3B3
1070
     0
1070
     1
1040
4.379727255390789
1071
        7
1040
1873.849655549096
1040
2111.036822206433
1040
0.0
1040
2765.902139026541
1040
2588.41816940782
1040
0.0
1040
3129.679619447222
1040
2584.038444651303
1040
0.0
1040
3129.679619447222
1040
1664.295716317971
1040
0.0
1040
2757.136418757385
1040
1638.017347799064
1040
0.0
1040
2594.970564027775
1040
2150.44544400859
1040
0.0
1040
2586.204843758623
1040
2075.990073198292
1040
0.0
1002
}
  0
INSERT
  5
370
330
181
100
AcDbEntity
  8
HATCH
  6
CONTINUOUS
 62
     2
100
AcDbBlockReference
  2
*U5
 10
0.0
 20
0.0
 30
0.0
1001
ACAD
1002
{
1000
R14_HATCH_DATA
1000
370
1011
1.0
1021
0.0
1031
0.0
1011
0.0
1021
1.0
1031
0.0
1011
0.0
1021
0.0
1031
1.0
1040
0.0
1010
0.0
1020
0.0
1030
1.0
1000
SOLID
1070
     1
1070
     1
1071
        1
1071
        7
1070
     0
1070
     1
1071
        6
1040
4269.490699262616
1040
2123.860893483834
1040
4048.40785797005
1040
2123.860893483834
1040
3973.756503917777
1040
2123.860893483834
1040
3973.756503917777
1040
2103.774898347587
1040
4048.40785797005
1040
2103.774898347587
1040
4269.490699262616
1040
2103.774898347587
1071
        6
1005
3DF
1005
3EA
1005
3B2
1005
3EB
1005
3E0
1005
3E7
1070
     0
1070
     1
1040
1.486780251899007
1071
        1
1040
4171.714887223099
1040
2108.144110470206
1040
0.0
1002
}
  0
INSERT
  5
371
330
181
100
AcDbEntity
  8
HATCH
  6
CONTINUOUS
 62
   251
100
AcDbBlockReference
  2
*U6
 10
0.0
 20
0.0
 30
0.0
1001
ACAD
1002
{
1000
R14_HATCH_DATA
1000
371
1011
1.0
1021
0.0
1031
0.0
1011
0.0
1021
1.0
1031
0.0
1011
0.0
1021
0.0
1031
1.0
1040
0.0
1010
0.0
1020
0.0
1030
1.0
1000
SOLID
1070
     1
1070
     1
1071
       12
1071
        7
1070
     0
1070
     1
1071
       16
1040
3815.840181772761
1040
2258.724017944122
1040
3721.090394959393
1040
2238.638022807871
1040
3652.181450267431
1040
2189.857740349704
1040
3574.658907719099
1040
2178.380027417298
1040
3563.174072814373
1040
2169.77174521345
1040
3563.174072814373
1040
2057.864046617972
1040
3574.658907719098
1040
2049.255764414124
1040
3652.18145026743
1040
2037.778051481716
1040
3721.090394959389
1040
1988.99776902355
1040
3815.840181772759
1040
1968.9117738873
1040
3916.332377946442
1040
1968.9117738873
1040
3973.756503917776
1040
2017.692046363656
1040
3973.756503917777
1040
2083.688893229522
1040
3973.756503917777
1040
2143.946898601899
1040
3973.756503917776
1040
2209.943745467764
1040
3916.332377946443
1040
2258.724017944122
1071
       16
1005
3E5
1005
3E1
1005
3E3
1005
3E2
1005
3CD
1005
3DC
1005
3DD
1005
3B5
1005
3C7
1005
3C4
1005
3B6
1005
3CA
1005
3C9
1005
3C8
1005
3CC
1005
3B2
1071
       22
1070
     1
1070
     1
1071
        2
1040
3702.549760258622
1040
2178.866666293936
1040
-1.0
1040
3736.530358457934
1040
2178.866666293936
1040
-1.0
1071
        1
1005
3CE
1071
       22
1070
     1
1070
     1
1071
        2
1040
3736.530358457934
1040
2048.769125537482
1040
-1.0
1040
3702.549760258622
1040
2048.769125537482
1040
-1.0
1071
        1
1005
3B7
1071
        7
1070
     1
1070
     1
1071
        6
1040
3198.530948961677
1040
2164.032893738153
1040
0.0
1040
3198.530948961677
1040
2614.963094529892
1040
0.4142135623730951
1040
3098.530948961677
1040
2714.963094529892
1040
0.0
1040
2784.58511700443
1040
2714.963094529892
1040
0.4142135623730978
1040
2684.585117004429
1040
2614.963094529892
1040
0.0
1040
2684.585117004429
1040
2164.032893738152
1040
0.0
1071
        6
1005
3D5
1005
373
1005
3AF
1005
3A6
1005
376
1005
3D1
1071
       22
1070
     0
1070
     1
1071
        4
1040
3116.106822990345
1040
2528.880252527768
1040
3116.106822990343
1040
2628.880252527772
1040
3141.106822990343
1040
2628.880252527772
1040
3141.106822990344
1040
2528.880252527772
1071
        4
1005
3D3
1005
3D6
1005
3D2
1005
3D4
1071
       22
1070
     0
1070
     1
1071
        4
1040
2775.622840832133
1040
2528.880252527772
1040
2750.622840832138
1040
2528.880252527772
1040
2750.622840832136
1040
2628.880252527772
1040
2775.622840832136
1040
2628.880252527772
1071
        4
1005
3AE
1005
3AC
1005
3B0
1005
3AD
1071
        7
1070
     1
1070
     1
1071
        6
1040
2684.585117004428
1040
1612.672697301528
1040
0.4142135623730937
1040
2784.585117004427
1040
1512.672697301528
1040
0.0
1040
3098.530948961672
1040
1512.672697301526
1040
0.4142135623730984
1040
3198.530948961674
1040
1612.672697301525
1040
0.0
1040
3198.530948961677
1040
2063.602898093269
1040
0.0
1040
2684.585117004429
1040
2063.602898093269
1040
0.0
1071
        6
1005
375
1005
38B
1005
38E
1005
374
1005
3BD
1005
3BA
1071
       22
1070
     0
1070
     1
1071
        4
1040
2775.622840832136
1040
1698.755539303649
1040
2775.622840832134
1040
1598.755539303648
1040
2750.622840832136
1040
1598.755539303652
1040
2750.622840832136
1040
1698.755539303649
1071
        4
1005
38D
1005
38F
1005
38C
1005
390
1071
       22
1070
     0
1070
     1
1071
        4
1040
3116.106822990342
1040
1698.755539303649
1040
3141.106822990341
1040
1698.755539303648
1040
3141.106822990341
1040
1598.755539303648
1040
3116.106822990341
1040
1598.755539303648
1071
        4
1005
3BF
1005
3BB
1005
3BE
1005
3BC
1071
        7
1070
     0
1070
     1
1071
       16
1040
2322.813181647791
1040
2169.77174521345
1040
2311.328346743066
1040
2178.380027417298
1040
2233.805804194733
1040
2189.857740349704
1040
2164.896859502773
1040
2238.638022807871
1040
2070.147072689402
1040
2258.724017944122
1040
1969.654876515718
1040
2258.724017944122
1040
1912.230750544385
1040
2209.943745467764
1040
1912.230750544386
1040
2143.946898601899
1040
1912.230750544386
1040
2083.688893229522
1040
1912.230750544386
1040
2017.692046363657
1040
1969.654876515721
1040
1968.9117738873
1040
2070.147072689402
1040
1968.911773887299
1040
2164.896859502773
1040
1988.99776902355
1040
2233.805804194732
1040
2037.778051481716
1040
2311.328346743067
1040
2049.255764414124
1040
2322.813181647789
1040
2057.86404661797
1071
       16
1005
3A5
1005
3A3
1005
39F
1005
3A0
1005
3A1
1005
396
1005
39A
1005
37E
1005
381
1005
37F
1005
385
1005
386
1005
384
1005
387
1005
38A
1005
37C
1071
       22
1070
     1
1070
     1
1071
        2
1040
2149.456896004231
1040
2048.769125537482
1040
-1.0
1040
2183.437494203543
1040
2048.769125537482
1040
-1.0
1071
        1
1005
383
1071
       22
1070
     1
1070
     1
1071
        2
1040
2149.456896004231
1040
2178.866666293936
1040
-1.0
1040
2183.437494203543
1040
2178.866666293936
1040
-1.0
1071
        1
1005
39E
1070
     0
1070
     1
1040
4.640655647259539
1071
       12
1040
3831.00148005992
1040
2140.095303359705
1040
0.0
1040
3831.00148005992
1040
2140.095303359705
1040
0.0
1040
3831.00148005992
1040
2140.095303359705
1040
0.0
1040
3004.373704745765
1040
2242.189725597451
1040
0.0
1040
3004.373704745765
1040
2242.189725597451
1040
0.0
1040
3004.373704745765
1040
2242.189725597451
1040
0.0
1040
2920.782125541411
1040
1782.764810698616
1040
0.0
1040
2920.782125541411
1040
1782.764810698616
1040
0.0
1040
2920.782125541411
1040
1782.764810698616
1040
0.0
1040
2275.269420961598
1040
2093.688745999641
1040
0.0
1040
2275.269420961598
1040
2093.688745999641
1040
0.0
1040
2275.269420961598
1040
2093.688745999641
1040
0.0
1002
}
  0
MTEXT
  5
372
330
181
100
AcDbEntity
  8
OBJECT
100
AcDbMText
 10
2606.658712420698
 20
3392.951302672879
 30
0.0
 40
75.18097186823435
 41
868.6785999999997
 71
     1
 72
     1
  1
{\FIMPACT.TTF;Hoogte: 80 cm\PMax. valhoogte: 80 cm}
1001
ACAD
1000
MTEXTBEGIN
1070
    73
1070
     1
1070
    44
1040
1.0
1070
    74
1070
     0
1000
MTEXTEND
1000
MTEXTBEGIN
1070
    73
1070
     1
1070
    44
1040
1.0
1070
    74
1070
     0
1000
MTEXTEND
  0
LINE
  5
373
330
181
100
AcDbEntity
  8
OBJECT
  6
BYBLOCK
100
AcDbLine
 10
3098.530948961677
 20
2714.963094529892
 30
0.0
 11
2784.58511700443
 21
2714.963094529892
 31
0.0
  0
LINE
  5
374
330
181
100
AcDbEntity
  8
OBJECT
  6
BYBLOCK
100
AcDbLine
 10
3098.530948961673
 20
1512.672697301526
 30
0.0
 11
2784.585117004427
 21
1512.672697301528
 31
0.0
  0
LINE
  5
375
330
181
100
AcDbEntity
  8
OBJECT
  6
BYBLOCK
100
AcDbLine
 10
2684.585117004429
 20
2063.602898093269
 30
0.0
 11
3198.530948961677
 21
2063.602898093269
 31
0.0
  0
LINE
  5
376
330
181
100
AcDbEntity
  8
OBJECT
  6
BYBLOCK
100
AcDbLine
 10
2684.585117004429
 20
2164.032893738153
 30
0.0
 11
3198.530948961677
 21
2164.032893738153
 31
0.0
  0
LINE
  5
377
330
181
100
AcDbEntity
  8
OBJECT
  6
BYBLOCK
100
AcDbLine
 10
2684.585117004429
 20
2139.032893738153
 30
0.0
 11
3198.530948961677
 21
2139.032893738153
 31
0.0
  0
LINE
  5
378
330
181
100
AcDbEntity
  8
OBJECT
  6
BYBLOCK
100
AcDbLine
 10
2684.585117004429
 20
2088.602898093268
 30
0.0
 11
3198.530948961677
 21
2088.602898093268
 31
0.0
  0
REGION
  5
379
330
181
100
AcDbEntity
  8
OBJECT
  6
DASHED
 48
50000.0
100
AcDbModelerGeometry
 70
     1
  1
noi ii n o          
  1
=0;& {rn {n {rn {rn |
  1
3*2/ {rn {rn {m {o |
  1
,7:33 {rn {rn {rn {l {n |
  1
9><: {rn {rn {k {m {rn {j 90-(>-; ;0*=3: 0*+ |
  1
300/ {rn {rn {i {l |
  1
/3>1:r,*-9><: {rn mingqmjnmmmkjgmlhf knhgqnifhgfmlilkjk n o o n n o o o V V V V |
  1
<0:;8: {rn {h {g {rn {f n {k {rn |
  1
<0:;8: {rn {no {i {rn {nn n {k {rn |
  1
<0:;8: {rn {i {nm {rn {nl n {k {rn |
  1
:;8: {rn {nk {nj {i {ni o |
  1
<0:;8: {rn {nh {h {rn {ng n {k {rn |
  1
:;8: {rn {nf {nk {h {mo o |
  1
<0:;8: {rn {g {mn {rn {mm n {k {rn |
  1
:;8: {rn {nj {ml {g {mk o |
  1
):-+:' {rn {f {mj |
  1
):-+:' {rn {f {mi |
  1
,+->687+r<*-): {rn lokiqfofiimjokiogi knhhqfllolfkggogff n oqffffffgkhkgomnom roqooojjmlolgimjlijhnmm o V V |
  1
<0:;8: {rn {mh {no {rn {mg n {k {rn |
  1
:;8: {rn {mf {nf {no {lo o |
  1
):-+:' {rn {nn {ln |
  1
:336/,:r<*-): {rn miniqjfklnnnmlfnmn mihgqnhohokljjoofj n o o rn rljjqnlmghhnfnjihj nkjhqljlfgjiiiliih o n Y roqmkonmflfkofgojfih Y oqmkonmflfkofgoiofm |
  1
<0:;8: {rn {nm {lm {rn {ll n {k {rn |
  1
:;8: {rn {ml {lk {nm {lj o |
  1
):-+:' {rn {mm {li |
  1
:336/,:r<*-): {rn lohlqinojiljknjlin mihgqnhohokljkfifj n o o rn lmiqgnofghmifkjjj nkilqfijlinnllfijm o n Y roqmlhklhnkogmnimimi Y oqmlhklhnkogmnimhnh |
  1
/061+ {rn mingqmjnmmmkjgmlhf knhgqnifhgfmlilkjk n |
  1
/061+ {rn lokiqfofiimjokiogi knhhqfllolfkggogff n |
  1
<0:;8: {rn {lh {nh {rn {lg n {k {rn |
  1
:;8: {rn {lf {mf {nh {ko o |
  1
):-+:' {rn {ng {kn |
  1
,+->687+r<*-): {rn nfmjqojnnjnfikiffn koofqmkgkgjlljjiof n oqgggohhfifkjjonffl oqkjfifmgjknilnlklm o V V |
  1
/061+ {rn nfmjqojnnjnfikiffn koofqmkgkgjlljjiof n |
  1
<0:;8: {rn {mn {km {rn {kl n {k {rn |
  1
:;8: {rn {lk {kk {mn {kj o |
  1
):-+:' {rn {ll {ki |
  1
,+->687+r<*-): {rn kfnlqhlfjihkohkijn lkogqohjkgfhkgjljg n oqgginkmmmhogjgnhkh roqkilknllhmomfnohnj o V V |
  1
/061+ {rn lhljqjfjkofjfkjmim komkqnfloniojjhjhh n |
  1
<0:;8: {rn {kh {mh {rn {kg n {k {rn |
  1
:;8: {rn {kf {lf {mh {jo o |
  1
):-+:' {rn {mg {jn |
  1
:336/,:r<*-): {rn njnhqgnojiinokkhhi mnofqijjniklfojkgi n o o rn rnkffqhhkmlgknkjgkf miqomlhnjghkfijoln o n Y rnqojghmkogjmkmogih Y nqojghmkogjmkmogij |
  1
/061+ {rn gojqimfhilhjlfhfkl lkmfqgoinokjlkiiln n |
  1
<0:;8: {rn {lm {kh {rn {jm n {k {rn |
  1
:;8: {rn {kk {jl {lm {jk o |
  1
):-+:' {rn {kl {jj |
  1
:336/,:r<*-): {rn knimqihojjihfgkn mnofqijjniklfojkgi n o o rn nkffqflmihjonfnljg rnkqmnnimflfofmljmf o n Y rnqojjgkgffmnnmnjlk Y nqojjgkgffmnnmnjlh |
  1
/061+ {rn kfnlqhlfjihkohkijn lkogqohjkgfhkgjljg n |
  1
<0:;8: {rn {km {lh {rn {ji n {k {rn |
  1
:;8: {rn {jh {kf {lh {jg o |
  1
):-+:' {rn {lg {jf |
  1
,+->687+r<*-): {rn hioqmjgkollllllnih gnjqooiihnmfminjif n roqghfhhiokooojliili oqkhjlgglghfgijhigk o V V |
  1
/061+ {rn hioqmjgkollllllnih gnjqooiihnmfminjif n |
  1
:;8: {rn {jl {io {km {in o |
  1
):-+:' {rn {jm {im |
  1
,+->687+r<*-): {rn lhnfqnkimjimonifjf nimqgjiomhimfgihgh n roqghfoiggjflifgnnin roqkhiifkgogjlhnlhhj o V V |
  1
/061+ {rn kggfqoommhkgfkifih hfhqmliifillhmhkkj n |
  1
:;8: {rn {io {jh {kh {il o |
  1
):-+:' {rn {kg {ik |
  1
:336/,:r<*-): {rn miniqjfklnnnmlfolf njniqgkkoggiflogj n o o rn rlinqmhknijhmgignim rnkjjqgklhllhhihlg o n Y roqmklmkofilggikjjg Y oqmklmkofilggikjjgi |
  1
/061+ {rn nfnjqlnioolfggjlli nfoqgifkjmkjhokiif n |
  1
):-+:' {rn {ji {ij |
  1
:336/,:r<*-): {rn lohlqinojiljknjlhf njniqgkkoggiflnlml n o o rn lloqfmnlhnilnijgkm rnkilqoknhnomokmfii o n Y roqmmmkkknfonmljnhgg Y oqmmmkkknfonmljnigj |
  1
/061+ {rn lhnfqnkimjimonifjf nimqgjiomhimfgihgh n |
  1
,+->687+r<*-): {rn miniqjfklnnnmlfohi niqgkkoggiflnolmln n rn o o V V |
  1
/061+ {rn miniqjfklnnnmlfohi niqgkkoggiflnolmln n |
  1
/061+ {rn lohlqinojiljknjkin niqgkkoggiflnolmln n |
1001
AVE_FINISH
1002
{
1070
     0
1005
0
1002
}
  0
LINE
  5
37A
330
181
100
AcDbEntity
  8
OBJECT
  6
BYBLOCK
100
AcDbLine
 10
2437.661417406358
 20
2164.032893738153
 30
0.0
 11
2437.661417406357
 21
2063.602898093269
 31
0.0
  0
LINE
  5
37B
330
181
100
AcDbEntity
  8
OBJECT
  6
BYBLOCK
100
AcDbLine
 10
2397.464535700066
 20
2204.204884010659
 30
0.0
 11
2397.464535700065
 21
2023.430907820763
 31
0.0
  0
LINE
  5
37C
330
181
100
AcDbEntity
  8
OBJECT
  6
BYBLOCK
100
AcDbLine
 10
2322.813181647791
 20
2169.77174521345
 30
0.0
 11
2322.813181647789
 21
2057.864046617972
 31
0.0
  0
LINE
  5
37D
330
181
100
AcDbEntity
  8
OBJECT
  6
BYBLOCK
100
AcDbLine
 10
1837.579396492115
 20
2103.774898347587
 30
0.0
 11
1837.579396492115
 21
2083.688893229522
 31
0.0
  0
LINE
  5
37E
330
181
100
AcDbEntity
  8
OBJECT
  6
BYBLOCK
100
AcDbLine
 10
1912.230750544386
 20
2143.946898601899
 30
0.0
 11
1912.230750544386
 21
2083.688893229522
 31
0.0
  0
LINE
  5
37F
330
181
100
AcDbEntity
  8
OBJECT
  6
BYBLOCK
100
AcDbLine
 10
1912.230750544386
 20
2017.692046363657
 30
0.0
 11
1969.654876515721
 21
1968.9117738873
 31
0.0
  0
LINE
  5
380
330
181
100
AcDbEntity
  8
OBJECT
  6
BYBLOCK
100
AcDbLine
 10
1837.579396492115
 20
2083.688893229522
 30
0.0
 11
1912.230750544386
 21
2083.688893229522
 31
0.0
  0
LINE
  5
381
330
181
100
AcDbEntity
  8
OBJECT
  6
BYBLOCK
100
AcDbLine
 10
1912.230750544386
 20
2083.688893229522
 30
0.0
 11
1912.230750544386
 21
2017.692046363657
 31
0.0
  0
LINE
  5
382
330
181
100
AcDbEntity
  8
OBJECT
  6
BYBLOCK
100
AcDbLine
 10
2397.464535700065
 20
1954.564630226342
 30
0.0
 11
2340.040425912829
 21
1954.564630226342
 31
0.0
  0
CIRCLE
  5
383
330
181
100
AcDbEntity
  8
OBJECT
  6
BYBLOCK
100
AcDbCircle
 10
2166.447195103887
 20
2048.769125537482
 30
0.0
 40
16.99029909965609
  0
LINE
  5
384
330
181
100
AcDbEntity
  8
OBJECT
  6
BYBLOCK
100
AcDbLine
 10
2164.896859502773
 20
1988.997769023551
 30
0.0
 11
2233.805804194733
 21
2037.778051481716
 31
0.0
  0
LINE
  5
385
330
181
100
AcDbEntity
  8
OBJECT
  6
BYBLOCK
100
AcDbLine
 10
1969.654876515721
 20
1968.9117738873
 30
0.0
 11
2070.147072689405
 21
1968.9117738873
 31
0.0
  0
LINE
  5
386
330
181
100
AcDbEntity
  8
OBJECT
  6
BYBLOCK
100
AcDbLine
 10
2070.147072689405
 20
1968.9117738873
 30
0.0
 11
2164.896859502773
 21
1988.997769023551
 31
0.0
  0
LINE
  5
387
330
181
100
AcDbEntity
  8
OBJECT
  6
BYBLOCK
100
AcDbLine
 10
2233.805804194733
 20
2037.778051481716
 30
0.0
 11
2311.328346743067
 21
2049.255764414124
 31
0.0
  0
LINE
  5
388
330
181
100
AcDbEntity
  8
OBJECT
  6
BYBLOCK
100
AcDbLine
 10
2340.040425912829
 20
1954.564630226342
 30
0.0
 11
2340.040425912829
 21
2049.255764414124
 31
0.0
  0
LINE
  5
389
330
181
100
AcDbEntity
  8
OBJECT
  6
BYBLOCK
100
AcDbLine
 10
2340.040425912829
 20
2049.255764414124
 30
0.0
 11
2322.813181647789
 21
2057.864046617972
 31
0.0
  0
LINE
  5
38A
330
181
100
AcDbEntity
  8
OBJECT
  6
BYBLOCK
100
AcDbLine
 10
2311.328346743067
 20
2049.255764414124
 30
0.0
 11
2322.813181647791
 21
2057.864046617972
 31
0.0
  0
LINE
  5
38B
330
181
100
AcDbEntity
  8
OBJECT
  6
BYBLOCK
100
AcDbLine
 10
2684.585117004428
 20
1612.672697301528
 30
0.0
 11
2684.585117004429
 21
2063.602898093269
 31
0.0
  0
LINE
  5
38C
330
181
100
AcDbEntity
  8
OBJECT
  6
BYBLOCK
100
AcDbLine
 10
2750.622840832136
 20
1698.755539303649
 30
0.0
 11
2750.622840832136
 21
1598.755539303648
 31
0.0
  0
LINE
  5
38D
330
181
100
AcDbEntity
  8
OBJECT
  6
BYBLOCK
100
AcDbLine
 10
2775.622840832136
 20
1698.755539303649
 30
0.0
 11
2775.622840832134
 21
1598.755539303648
 31
0.0
  0
ARC
  5
38E
330
181
100
AcDbEntity
  8
OBJECT
  6
BYBLOCK
100
AcDbCircle
 10
2784.585117004428
 20
1612.672697301528
 30
0.0
 40
100.0
100
AcDbArc
 50
180.0
 51
270.0
  0
LINE
  5
38F
330
181
100
AcDbEntity
  8
OBJECT
  6
BYBLOCK
100
AcDbLine
 10
2750.622840832136
 20
1598.755539303652
 30
0.0
 11
2775.622840832134
 21
1598.755539303648
 31
0.0
  0
LINE
  5
390
330
181
100
AcDbEntity
  8
OBJECT
  6
BYBLOCK
100
AcDbLine
 10
2750.622840832136
 20
1698.755539303649
 30
0.0
 11
2775.622840832136
 21
1698.755539303649
 31
0.0
  0
LINE
  5
391
330
181
100
AcDbEntity
  8
OBJECT
  6
BYBLOCK
100
AcDbLine
 10
2684.585117004429
 20
2063.602898093269
 30
0.0
 11
2437.661417406357
 21
2063.602898093269
 31
0.0
  0
LINE
  5
392
330
181
100
AcDbEntity
  8
OBJECT
  6
BYBLOCK
100
AcDbLine
 10
2684.585117004429
 20
2088.602898093268
 30
0.0
 11
2437.661417406357
 21
2088.602898093268
 31
0.0
  0
LINE
  5
393
330
181
100
AcDbEntity
  8
OBJECT
  6
BYBLOCK
100
AcDbLine
 10
2397.464535700065
 20
2023.430907820763
 30
0.0
 11
2397.464535700065
 21
1954.564630226342
 31
0.0
  0
LINE
  5
394
330
181
100
AcDbEntity
  8
OBJECT
  6
BYBLOCK
100
AcDbLine
 10
2437.661417406357
 20
2023.430907820763
 30
0.0
 11
2397.464535700065
 21
2023.430907820763
 31
0.0
  0
LINE
  5
395
330
181
100
AcDbEntity
  8
OBJECT
  6
BYBLOCK
100
AcDbLine
 10
2437.661417406357
 20
2063.602898093269
 30
0.0
 11
2437.661417406357
 21
2023.430907820763
 31
0.0
  0
LINE
  5
396
330
181
100
AcDbEntity
  8
OBJECT
  6
BYBLOCK
100
AcDbLine
 10
1912.230750544386
 20
2209.943745467765
 30
0.0
 11
1969.654876515718
 21
2258.724017944122
 31
0.0
  0
LINE
  5
397
330
181
100
AcDbEntity
  8
OBJECT
  6
BYBLOCK
100
AcDbLine
 10
1616.496555199548
 20
2123.860893483834
 30
0.0
 11
1837.579396492114
 21
2123.860893483834
 31
0.0
  0
LINE
  5
398
330
181
100
AcDbEntity
  8
OBJECT
  6
BYBLOCK
100
AcDbLine
 10
1616.496555199549
 20
2103.774898347587
 30
0.0
 11
1837.579396492115
 21
2103.774898347587
 31
0.0
  0
LINE
  5
399
330
181
100
AcDbEntity
  8
OBJECT
  6
BYBLOCK
100
AcDbLine
 10
1616.496555199548
 20
2123.860893483834
 30
0.0
 11
1616.496555199549
 21
2103.774898347587
 31
0.0
  0
LINE
  5
39A
330
181
100
AcDbEntity
  8
OBJECT
  6
BYBLOCK
100
AcDbLine
 10
1912.230750544386
 20
2143.946898601899
 30
0.0
 11
1912.230750544386
 21
2209.943745467765
 31
0.0
  0
LINE
  5
39B
330
181
100
AcDbEntity
  8
OBJECT
  6
BYBLOCK
100
AcDbLine
 10
1837.579396492114
 20
2143.946898601899
 30
0.0
 11
1912.230750544386
 21
2143.946898601899
 31
0.0
  0
LINE
  5
39C
330
181
100
AcDbEntity
  8
OBJECT
  6
BYBLOCK
100
AcDbLine
 10
1837.579396492114
 20
2123.860893483834
 30
0.0
 11
1837.579396492114
 21
2143.946898601899
 31
0.0
  0
LINE
  5
39D
330
181
100
AcDbEntity
  8
OBJECT
  6
BYBLOCK
100
AcDbLine
 10
2397.464535700066
 20
2273.071161605078
 30
0.0
 11
2340.04042591283
 21
2273.071161605078
 31
0.0
  0
CIRCLE
  5
39E
330
181
100
AcDbEntity
  8
OBJECT
  6
BYBLOCK
100
AcDbCircle
 10
2166.447195103887
 20
2178.866666293936
 30
0.0
 40
16.99029909965609
  0
LINE
  5
39F
330
181
100
AcDbEntity
  8
OBJECT
  6
BYBLOCK
100
AcDbLine
 10
2164.896859502773
 20
2238.638022807871
 30
0.0
 11
2233.805804194733
 21
2189.857740349704
 31
0.0
  0
LINE
  5
3A0
330
181
100
AcDbEntity
  8
OBJECT
  6
BYBLOCK
100
AcDbLine
 10
2070.147072689404
 20
2258.724017944122
 30
0.0
 11
2164.896859502773
 21
2238.638022807871
 31
0.0
  0
LINE
  5
3A1
330
181
100
AcDbEntity
  8
OBJECT
  6
BYBLOCK
100
AcDbLine
 10
1969.654876515718
 20
2258.724017944122
 30
0.0
 11
2070.147072689404
 21
2258.724017944122
 31
0.0
  0
LINE
  5
3A2
330
181
100
AcDbEntity
  8
OBJECT
  6
BYBLOCK
100
AcDbLine
 10
2340.04042591283
 20
2273.071161605078
 30
0.0
 11
2340.04042591283
 21
2178.380027417298
 31
0.0
  0
LINE
  5
3A3
330
181
100
AcDbEntity
  8
OBJECT
  6
BYBLOCK
100
AcDbLine
 10
2233.805804194733
 20
2189.857740349704
 30
0.0
 11
2311.328346743066
 21
2178.380027417298
 31
0.0
  0
LINE
  5
3A4
330
181
100
AcDbEntity
  8
OBJECT
  6
BYBLOCK
100
AcDbLine
 10
2340.04042591283
 20
2178.380027417298
 30
0.0
 11
2322.813181647791
 21
2169.77174521345
 31
0.0
  0
LINE
  5
3A5
330
181
100
AcDbEntity
  8
OBJECT
  6
BYBLOCK
100
AcDbLine
 10
2311.328346743066
 20
2178.380027417298
 30
0.0
 11
2322.813181647791
 21
2169.77174521345
 31
0.0
  0
LINE
  5
3A6
330
181
100
AcDbEntity
  8
OBJECT
  6
BYBLOCK
100
AcDbLine
 10
2684.585117004429
 20
2614.963094529892
 30
0.0
 11
2684.585117004429
 21
2164.032893738153
 31
0.0
  0
LINE
  5
3A7
330
181
100
AcDbEntity
  8
OBJECT
  6
BYBLOCK
100
AcDbLine
 10
2684.585117004429
 20
2164.032893738153
 30
0.0
 11
2437.661417406358
 21
2164.032893738153
 31
0.0
  0
LINE
  5
3A8
330
181
100
AcDbEntity
  8
OBJECT
  6
BYBLOCK
100
AcDbLine
 10
2684.585117004429
 20
2139.032893738153
 30
0.0
 11
2437.661417406358
 21
2139.032893738153
 31
0.0
  0
LINE
  5
3A9
330
181
100
AcDbEntity
  8
OBJECT
  6
BYBLOCK
100
AcDbLine
 10
2397.464535700066
 20
2204.204884010659
 30
0.0
 11
2397.464535700066
 21
2273.071161605078
 31
0.0
  0
LINE
  5
3AA
330
181
100
AcDbEntity
  8
OBJECT
  6
BYBLOCK
100
AcDbLine
 10
2437.661417406358
 20
2164.032893738153
 30
0.0
 11
2437.661417406358
 21
2204.204884010659
 31
0.0
  0
LINE
  5
3AB
330
181
100
AcDbEntity
  8
OBJECT
  6
BYBLOCK
100
AcDbLine
 10
2437.661417406358
 20
2204.204884010659
 30
0.0
 11
2397.464535700066
 21
2204.204884010659
 31
0.0
  0
LINE
  5
3AC
330
181
100
AcDbEntity
  8
OBJECT
  6
BYBLOCK
100
AcDbLine
 10
2750.622840832136
 20
2628.880252527772
 30
0.0
 11
2750.622840832138
 21
2528.880252527768
 31
0.0
  0
LINE
  5
3AD
330
181
100
AcDbEntity
  8
OBJECT
  6
BYBLOCK
100
AcDbLine
 10
2775.622840832136
 20
2628.880252527772
 30
0.0
 11
2775.622840832136
 21
2528.880252527768
 31
0.0
  0
LINE
  5
3AE
330
181
100
AcDbEntity
  8
OBJECT
  6
BYBLOCK
100
AcDbLine
 10
2750.622840832136
 20
2528.880252527772
 30
0.0
 11
2775.622840832136
 21
2528.880252527772
 31
0.0
  0
ARC
  5
3AF
330
181
100
AcDbEntity
  8
OBJECT
  6
BYBLOCK
100
AcDbCircle
 10
2784.58511700443
 20
2614.963094529892
 30
0.0
 40
100.0
100
AcDbArc
 50
90.0
 51
180.0
  0
LINE
  5
3B0
330
181
100
AcDbEntity
  8
OBJECT
  6
BYBLOCK
100
AcDbLine
 10
2750.622840832136
 20
2628.880252527772
 30
0.0
 11
2775.622840832136
 21
2628.880252527772
 31
0.0
  0
LINE
  5
3B1
330
181
100
AcDbEntity
  8
OBJECT
  6
BYBLOCK
100
AcDbLine
 10
4048.40785797005
 20
2103.774898347587
 30
0.0
 11
4048.40785797005
 21
2083.688893229522
 31
0.0
  0
LINE
  5
3B2
330
181
100
AcDbEntity
  8
OBJECT
  6
BYBLOCK
100
AcDbLine
 10
3973.756503917777
 20
2143.946898601899
 30
0.0
 11
3973.756503917777
 21
2083.688893229522
 31
0.0
  0
LINE
  5
3B3
330
181
100
AcDbEntity
  8
OBJECT
  6
BYBLOCK
100
AcDbLine
 10
3448.325853239905
 20
2164.032893738153
 30
0.0
 11
3448.325853239904
 21
2063.602898093269
 31
0.0
  0
LINE
  5
3B4
330
181
100
AcDbEntity
  8
OBJECT
  6
BYBLOCK
100
AcDbLine
 10
3479.909104721631
 20
2204.204884010659
 30
0.0
 11
3479.909104721631
 21
2023.430907820763
 31
0.0
  0
LINE
  5
3B5
330
181
100
AcDbEntity
  8
OBJECT
  6
BYBLOCK
100
AcDbLine
 10
3563.174072814374
 20
2169.77174521345
 30
0.0
 11
3563.174072814373
 21
2057.864046617972
 31
0.0
  0
LINE
  5
3B6
330
181
100
AcDbEntity
  8
OBJECT
  6
BYBLOCK
100
AcDbLine
 10
3721.090394959389
 20
1988.997769023551
 30
0.0
 11
3652.181450267431
 21
2037.778051481716
 31
0.0
  0
CIRCLE
  5
3B7
330
181
100
AcDbEntity
  8
OBJECT
  6
BYBLOCK
100
AcDbCircle
 10
3719.540059358278
 20
2048.769125537482
 30
0.0
 40
16.99029909965609
  0
LINE
  5
3B8
330
181
100
AcDbEntity
  8
OBJECT
  6
BYBLOCK
100
AcDbLine
 10
3448.325853239904
 20
2063.602898093269
 30
0.0
 11
3198.530948961677
 21
2063.602898093269
 31
0.0
  0
LINE
  5
3B9
330
181
100
AcDbEntity
  8
OBJECT
  6
BYBLOCK
100
AcDbLine
 10
3448.325853239904
 20
2088.602898093268
 30
0.0
 11
3198.530948961677
 21
2088.602898093268
 31
0.0
  0
LINE
  5
3BA
330
181
100
AcDbEntity
  8
OBJECT
  6
BYBLOCK
100
AcDbLine
 10
3198.530948961677
 20
2063.602898093269
 30
0.0
 11
3198.530948961674
 21
1612.672697301524
 31
0.0
  0
LINE
  5
3BB
330
181
100
AcDbEntity
  8
OBJECT
  6
BYBLOCK
100
AcDbLine
 10
3141.106822990341
 20
1698.755539303649
 30
0.0
 11
3141.106822990341
 21
1598.755539303648
 31
0.0
  0
LINE
  5
3BC
330
181
100
AcDbEntity
  8
OBJECT
  6
BYBLOCK
100
AcDbLine
 10
3116.106822990343
 20
1698.755539303649
 30
0.0
 11
3116.106822990341
 21
1598.755539303648
 31
0.0
  0
ARC
  5
3BD
330
181
100
AcDbEntity
  8
OBJECT
  6
BYBLOCK
100
AcDbCircle
 10
3098.530948961673
 20
1612.672697301524
 30
0.0
 40
100.0
100
AcDbArc
 50
270.0
 51
0.0
  0
LINE
  5
3BE
330
181
100
AcDbEntity
  8
OBJECT
  6
BYBLOCK
100
AcDbLine
 10
3116.106822990341
 20
1598.755539303648
 30
0.0
 11
3141.106822990341
 21
1598.755539303648
 31
0.0
  0
LINE
  5
3BF
330
181
100
AcDbEntity
  8
OBJECT
  6
BYBLOCK
100
AcDbLine
 10
3116.106822990343
 20
1698.755539303649
 30
0.0
 11
3141.106822990341
 21
1698.755539303649
 31
0.0
  0
LINE
  5
3C0
330
181
100
AcDbEntity
  8
OBJECT
  6
BYBLOCK
100
AcDbLine
 10
3545.946844733432
 20
1954.564630226342
 30
0.0
 11
3479.909104721631
 21
1954.564630226342
 31
0.0
  0
LINE
  5
3C1
330
181
100
AcDbEntity
  8
OBJECT
  6
BYBLOCK
100
AcDbLine
 10
3479.909104721631
 20
1954.564630226342
 30
0.0
 11
3479.909104721631
 21
2023.430907820763
 31
0.0
  0
LINE
  5
3C2
330
181
100
AcDbEntity
  8
OBJECT
  6
BYBLOCK
100
AcDbLine
 10
3448.325853239904
 20
2023.430907820763
 30
0.0
 11
3448.325853239904
 21
2063.602898093269
 31
0.0
  0
LINE
  5
3C3
330
181
100
AcDbEntity
  8
OBJECT
  6
BYBLOCK
100
AcDbLine
 10
3479.909104721631
 20
2023.430907820763
 30
0.0
 11
3448.325853239904
 21
2023.430907820763
 31
0.0
  0
LINE
  5
3C4
330
181
100
AcDbEntity
  8
OBJECT
  6
BYBLOCK
100
AcDbLine
 10
3652.181450267431
 20
2037.778051481716
 30
0.0
 11
3574.658907719097
 21
2049.255764414124
 31
0.0
  0
LINE
  5
3C5
330
181
100
AcDbEntity
  8
OBJECT
  6
BYBLOCK
100
AcDbLine
 10
3545.946844733432
 20
2054.994615889421
 30
0.0
 11
3545.946844733432
 21
1954.564630226342
 31
0.0
  0
LINE
  5
3C6
330
181
100
AcDbEntity
  8
OBJECT
  6
BYBLOCK
100
AcDbLine
 10
3563.174072814373
 20
2057.864046617972
 30
0.0
 11
3545.946844733432
 21
2054.994615889421
 31
0.0
  0
LINE
  5
3C7
330
181
100
AcDbEntity
  8
OBJECT
  6
BYBLOCK
100
AcDbLine
 10
3574.658907719097
 20
2049.255764414124
 30
0.0
 11
3563.174072814373
 21
2057.864046617972
 31
0.0
  0
LINE
  5
3C8
330
181
100
AcDbEntity
  8
OBJECT
  6
BYBLOCK
100
AcDbLine
 10
3973.756503917777
 20
2017.692046363657
 30
0.0
 11
3916.332377946442
 21
1968.9117738873
 31
0.0
  0
LINE
  5
3C9
330
181
100
AcDbEntity
  8
OBJECT
  6
BYBLOCK
100
AcDbLine
 10
3916.332377946442
 20
1968.9117738873
 30
0.0
 11
3815.84018177276
 21
1968.9117738873
 31
0.0
  0
LINE
  5
3CA
330
181
100
AcDbEntity
  8
OBJECT
  6
BYBLOCK
100
AcDbLine
 10
3815.84018177276
 20
1968.9117738873
 30
0.0
 11
3721.090394959389
 21
1988.997769023551
 31
0.0
  0
LINE
  5
3CB
330
181
100
AcDbEntity
  8
OBJECT
  6
BYBLOCK
100
AcDbLine
 10
4048.40785797005
 20
2083.688893229522
 30
0.0
 11
3973.756503917777
 21
2083.688893229522
 31
0.0
  0
LINE
  5
3CC
330
181
100
AcDbEntity
  8
OBJECT
  6
BYBLOCK
100
AcDbLine
 10
3973.756503917777
 20
2083.688893229522
 30
0.0
 11
3973.756503917777
 21
2017.692046363657
 31
0.0
  0
LINE
  5
3CD
330
181
100
AcDbEntity
  8
OBJECT
  6
BYBLOCK
100
AcDbLine
 10
3721.090394959392
 20
2238.638022807871
 30
0.0
 11
3652.181450267431
 21
2189.857740349704
 31
0.0
  0
CIRCLE
  5
3CE
330
181
100
AcDbEntity
  8
OBJECT
  6
BYBLOCK
100
AcDbCircle
 10
3719.540059358278
 20
2178.866666293936
 30
0.0
 40
16.99029909965609
  0
LINE
  5
3CF
330
181
100
AcDbEntity
  8
OBJECT
  6
BYBLOCK
100
AcDbLine
 10
3448.325853239905
 20
2164.032893738153
 30
0.0
 11
3198.530948961677
 21
2164.032893738153
 31
0.0
  0
LINE
  5
3D0
330
181
100
AcDbEntity
  8
OBJECT
  6
BYBLOCK
100
AcDbLine
 10
3448.325853239905
 20
2139.032893738153
 30
0.0
 11
3198.530948961677
 21
2139.032893738153
 31
0.0
  0
LINE
  5
3D1
330
181
100
AcDbEntity
  8
OBJECT
  6
BYBLOCK
100
AcDbLine
 10
3198.530948961677
 20
2164.032893738153
 30
0.0
 11
3198.530948961677
 21
2614.963094529892
 31
0.0
  0
LINE
  5
3D2
330
181
100
AcDbEntity
  8
OBJECT
  6
BYBLOCK
100
AcDbLine
 10
3141.106822990343
 20
2628.880252527772
 30
0.0
 11
3141.106822990344
 21
2528.880252527768
 31
0.0
  0
LINE
  5
3D3
330
181
100
AcDbEntity
  8
OBJECT
  6
BYBLOCK
100
AcDbLine
 10
3116.106822990343
 20
2628.880252527772
 30
0.0
 11
3116.106822990344
 21
2528.880252527768
 31
0.0
  0
LINE
  5
3D4
330
181
100
AcDbEntity
  8
OBJECT
  6
BYBLOCK
100
AcDbLine
 10
3116.106822990344
 20
2528.880252527772
 30
0.0
 11
3141.106822990344
 21
2528.880252527772
 31
0.0
  0
ARC
  5
3D5
330
181
100
AcDbEntity
  8
OBJECT
  6
BYBLOCK
100
AcDbCircle
 10
3098.530948961677
 20
2614.963094529892
 30
0.0
 40
100.0
100
AcDbArc
 50
0.0
 51
90.0
  0
LINE
  5
3D6
330
181
100
AcDbEntity
  8
OBJECT
  6
BYBLOCK
100
AcDbLine
 10
3116.106822990343
 20
2628.880252527772
 30
0.0
 11
3141.106822990344
 21
2628.880252527772
 31
0.0
  0
LINE
  5
3D7
330
181
100
AcDbEntity
  8
OBJECT
  6
BYBLOCK
100
AcDbLine
 10
3545.946844733434
 20
2273.071161605078
 30
0.0
 11
3479.909104721631
 21
2273.071161605078
 31
0.0
  0
LINE
  5
3D8
330
181
100
AcDbEntity
  8
OBJECT
  6
BYBLOCK
100
AcDbLine
 10
3479.909104721631
 20
2273.071161605078
 30
0.0
 11
3479.909104721631
 21
2204.204884010659
 31
0.0
  0
LINE
  5
3D9
330
181
100
AcDbEntity
  8
OBJECT
  6
BYBLOCK
100
AcDbLine
 10
3448.325853239905
 20
2204.204884010659
 30
0.0
 11
3448.325853239905
 21
2164.032893738153
 31
0.0
  0
LINE
  5
3DA
330
181
100
AcDbEntity
  8
OBJECT
  6
BYBLOCK
100
AcDbLine
 10
3479.909104721631
 20
2204.204884010659
 30
0.0
 11
3448.325853239905
 21
2204.204884010659
 31
0.0
  0
LINE
  5
3DB
330
181
100
AcDbEntity
  8
OBJECT
  6
BYBLOCK
100
AcDbLine
 10
3545.946844733434
 20
2172.641175942001
 30
0.0
 11
3545.946844733434
 21
2273.071161605078
 31
0.0
  0
LINE
  5
3DC
330
181
100
AcDbEntity
  8
OBJECT
  6
BYBLOCK
100
AcDbLine
 10
3652.181450267431
 20
2189.857740349704
 30
0.0
 11
3574.658907719098
 21
2178.380027417298
 31
0.0
  0
LINE
  5
3DD
330
181
100
AcDbEntity
  8
OBJECT
  6
BYBLOCK
100
AcDbLine
 10
3574.658907719098
 20
2178.380027417298
 30
0.0
 11
3563.174072814374
 21
2169.77174521345
 31
0.0
  0
LINE
  5
3DE
330
181
100
AcDbEntity
  8
OBJECT
  6
BYBLOCK
100
AcDbLine
 10
3563.174072814374
 20
2169.77174521345
 30
0.0
 11
3545.946844733434
 21
2172.641175942001
 31
0.0
  0
LINE
  5
3DF
330
181
100
AcDbEntity
  8
OBJECT
  6
BYBLOCK
100
AcDbLine
 10
4269.490699262616
 20
2123.860893483834
 30
0.0
 11
4048.40785797005
 21
2123.860893483834
 31
0.0
  0
LINE
  5
3E0
330
181
100
AcDbEntity
  8
OBJECT
  6
BYBLOCK
100
AcDbLine
 10
4269.490699262616
 20
2103.774898347587
 30
0.0
 11
4048.40785797005
 21
2103.774898347587
 31
0.0
  0
LINE
  5
3E1
330
181
100
AcDbEntity
  8
OBJECT
  6
BYBLOCK
100
AcDbLine
 10
3973.756503917777
 20
2209.943745467765
 30
0.0
 11
3916.332377946444
 21
2258.724017944122
 31
0.0
  0
LINE
  5
3E2
330
181
100
AcDbEntity
  8
OBJECT
  6
BYBLOCK
100
AcDbLine
 10
3815.84018177276
 20
2258.724017944122
 30
0.0
 11
3721.090394959392
 21
2238.638022807871
 31
0.0
  0
LINE
  5
3E3
330
181
100
AcDbEntity
  8
OBJECT
  6
BYBLOCK
100
AcDbLine
 10
3916.332377946444
 20
2258.724017944122
 30
0.0
 11
3815.84018177276
 21
2258.724017944122
 31
0.0
  0
LINE
  5
3E4
330
181
100
AcDbEntity
  8
OBJECT
  6
BYBLOCK
100
AcDbLine
 10
4048.40785797005
 20
2143.946898601899
 30
0.0
 11
3973.756503917777
 21
2143.946898601899
 31
0.0
  0
LINE
  5
3E5
330
181
100
AcDbEntity
  8
OBJECT
  6
BYBLOCK
100
AcDbLine
 10
3973.756503917777
 20
2143.946898601899
 30
0.0
 11
3973.756503917777
 21
2209.943745467765
 31
0.0
  0
LINE
  5
3E6
330
181
100
AcDbEntity
  8
OBJECT
  6
BYBLOCK
100
AcDbLine
 10
4048.40785797005
 20
2123.860893483834
 30
0.0
 11
4048.40785797005
 21
2143.946898601899
 31
0.0
  0
LINE
  5
3E7
330
181
100
AcDbEntity
  8
OBJECT
  6
BYBLOCK
100
AcDbLine
 10
4269.490699262616
 20
2123.860893483834
 30
0.0
 11
4269.490699262616
 21
2103.774898347587
 31
0.0
  0
LINE
  5
3E8
330
181
100
AcDbEntity
  8
OBJECT
100
AcDbLine
 10
1837.579396492114
 20
2123.860893483834
 30
0.0
 11
1912.230750544386
 21
2123.860893483834
 31
0.0
  0
LINE
  5
3E9
330
181
100
AcDbEntity
  8
OBJECT
100
AcDbLine
 10
1837.579396492115
 20
2103.774898347587
 30
0.0
 11
1912.230750544386
 21
2103.774898347587
 31
0.0
  0
LINE
  5
3EA
330
181
100
AcDbEntity
  8
OBJECT
100
AcDbLine
 10
4048.40785797005
 20
2123.860893483834
 30
0.0
 11
3973.756503917777
 21
2123.860893483834
 31
0.0
  0
LINE
  5
3EB
330
181
100
AcDbEntity
  8
OBJECT
100
AcDbLine
 10
4048.40785797005
 20
2103.774898347587
 30
0.0
 11
3973.756503917777
 21
2103.774898347587
 31
0.0
  0
ENDBLK
  5
183
330
181
100
AcDbEntity
  8
0
100
AcDbBlockEnd
  0
BLOCK
  5
5C9
330
5C8
100
AcDbEntity
  8
0
100
AcDbBlockBegin
  2
ABKA1
 70
     0
 10
0.0
 20
0.0
 30
0.0
  3
ABKA1
  1

  0
INSERT
  5
5CB
330
5C8
100
AcDbEntity
  8
HATCH
  6
CONTINUOUS
 62
     2
100
AcDbBlockReference
  2
*U7
 10
0.0
 20
0.0
 30
0.0
1001
ACAD
1002
{
1000
R14_HATCH_DATA
1000
5CB
1011
1.0
1021
0.0
1031
0.0
1011
0.0
1021
1.0
1031
0.0
1011
0.0
1021
0.0
1031
1.0
1040
0.0
1010
0.0
1020
0.0
1030
1.0
1000
SOLID
1070
     1
1070
     1
1071
        2
1071
        7
1070
     0
1070
     1
1071
        8
1040
2340.040425912829
1040
1954.564630226341
1040
2368.752480806447
1040
1954.564630226341
1040
2368.752480806448
1040
2273.071161605078
1040
2340.04042591283
1040
2273.071161605077
1040
2340.04042591283
1040
2178.380027417297
1040
2322.813181647791
1040
2169.771745213449
1040
2322.813181647789
1040
2057.864046617972
1040
2340.040425912829
1040
2049.255764414124
1071
        8
1005
5FD
1005
602
1005
604
1005
5DC
1005
5E9
1005
5E8
1005
5E2
1005
64C
1071
        7
1070
     0
1070
     1
1071
        8
1040
3512.927974727532
1040
1954.564630226342
1040
3545.946844733432
1040
1954.564630226342
1040
3545.946844733431
1040
2054.99461588942
1040
3563.174072814372
1040
2057.864046617972
1040
3563.174072814374
1040
2169.77174521345
1040
3545.946844733434
1040
2172.641175942001
1040
3545.946844733434
1040
2273.071161605078
1040
3512.927974727532
1040
2273.071161605078
1071
        8
1005
63E
1005
63B
1005
637
1005
64D
1005
620
1005
625
1005
626
1005
615
1070
     0
1070
     1
1040
5.843635042489673
1071
        4
1040
3537.554493782369
1040
2110.757737185855
1040
0.0
1040
2344.599939245194
1040
2110.757737185855
1040
0.0
1040
2338.752112482699
1040
2122.445006445281
1040
0.0
1040
3543.402320544861
1040
2116.601371815568
1040
0.0
1002
}
  0
INSERT
  5
5CC
330
5C8
100
AcDbEntity
  8
HATCH
  6
CONTINUOUS
 62
     1
100
AcDbBlockReference
  2
*U8
 10
0.0
 20
0.0
 30
0.0
1001
ACAD
1002
{
1000
R14_HATCH_DATA
1000
5CC
1011
1.0
1021
0.0
1031
0.0
1011
0.0
1021
1.0
1031
0.0
1011
0.0
1021
0.0
1031
1.0
1040
0.0
1010
0.0
1020
0.0
1030
1.0
1000
SOLID
1070
     1
1070
     1
1071
        2
1071
        7
1070
     0
1070
     1
1071
        6
1040
3512.927974727532
1040
2273.071161605078
1040
3479.909104721631
1040
2273.071161605078
1040
3479.909104721631
1040
2204.204884010659
1040
3479.909104721631
1040
2023.430907820763
1040
3479.909104721631
1040
1954.564630226342
1040
3512.927974727531
1040
1954.564630226342
1071
        6
1005
637
1005
638
1005
614
1005
621
1005
620
1005
64D
1071
        7
1070
     0
1070
     1
1071
        6
1040
2368.752480806447
1040
1954.564630226342
1040
2397.464535700064
1040
1954.564630226342
1040
2397.464535700065
1040
2023.430907820763
1040
2397.464535700066
1040
2204.204884010659
1040
2397.464535700066
1040
2273.071161605078
1040
2368.752480806448
1040
2273.071161605077
1071
        6
1005
609
1005
5FD
1005
64C
1005
5E2
1005
5F3
1005
5DB
1070
     0
1070
     1
1040
5.843635042489673
1071
        2
1040
3496.619781623897
1040
2157.506824109548
1040
0.0
1040
2379.686839676969
1040
2093.226833296712
1040
0.0
1002
}
  0
INSERT
  5
5CD
330
5C8
100
AcDbEntity
  8
HATCH
  6
CONTINUOUS
 62
     5
100
AcDbBlockReference
  2
*U9
 10
0.0
 20
0.0
 30
0.0
1001
ACAD
1002
{
1000
R14_HATCH_DATA
1000
5CD
1011
1.0
1021
0.0
1031
0.0
1011
0.0
1021
1.0
1031
0.0
1011
0.0
1021
0.0
1031
1.0
1040
0.0
1010
0.0
1020
0.0
1030
1.0
1000
SOLID
1070
     1
1070
     1
1071
        4
1071
        7
1070
     0
1070
     1
1071
        4
1040
1837.579396492114
1040
2143.946898601899
1040
1837.579396492113
1040
2123.860893483833
1040
1912.230750544385
1040
2123.860893483833
1040
1912.230750544385
1040
2143.946898601899
1071
        4
1005
5FB
1005
5FC
1005
648
1005
5DE
1071
        7
1070
     0
1070
     1
1071
        4
1040
1837.579396492115
1040
2103.774898347587
1040
1837.579396492115
1040
2083.688893229522
1040
1912.230750544385
1040
2083.688893229521
1040
1912.230750544385
1040
2103.774898347587
1071
        4
1005
649
1005
5DD
1005
5E0
1005
5DE
1071
        7
1070
     0
1070
     1
1071
        4
1040
3973.756503917777
1040
2143.946898601899
1040
3973.756503917777
1040
2123.860893483834
1040
4048.40785797005
1040
2123.860893483834
1040
4048.407857970049
1040
2143.946898601899
1071
        4
1005
644
1005
612
1005
64A
1005
646
1071
        7
1070
     0
1070
     1
1071
        4
1040
3973.756503917777
1040
2103.774898347587
1040
3973.756503917777
1040
2083.688893229522
1040
4048.407857970049
1040
2083.688893229522
1040
4048.40785797005
1040
2103.774898347587
1071
        4
1005
64B
1005
612
1005
62B
1005
611
1070
     0
1070
     1
1040
3.771288369408536
1071
        4
1040
1864.657187559496
1040
2135.225032800224
1040
0.0
1040
1868.431187218077
1040
2093.740855019783
1040
0.0
1040
4008.281776451037
1040
2135.225032800224
1040
0.0
1040
4019.603730319393
1040
2093.740855019783
1040
0.0
1002
}
  0
INSERT
  5
5CE
330
5C8
100
AcDbEntity
  8
HATCH
  6
CONTINUOUS
 62
     5
100
AcDbBlockReference
  2
*U10
 10
0.0
 20
0.0
 30
0.0
1001
ACAD
1002
{
1000
R14_HATCH_DATA
1000
5CE
1011
1.0
1021
0.0
1031
0.0
1011
0.0
1021
1.0
1031
0.0
1011
0.0
1021
0.0
1031
1.0
1040
0.0
1010
0.0
1020
0.0
1030
1.0
1000
SOLID
1070
     1
1070
     1
1071
        3
1071
        7
1070
     0
1070
     1
1071
        6
1040
4048.40785797005
1040
2123.860893483834
1040
3973.756503917777
1040
2123.860893483834
1040
3973.756503917777
1040
2103.774898347587
1040
4048.40785797005
1040
2103.774898347587
1040
4269.490699262616
1040
2103.774898347587
1040
4269.490699262616
1040
2123.860893483834
1071
        6
1005
63F
1005
64A
1005
612
1005
64B
1005
640
1005
647
1071
        7
1070
     0
1070
     1
1071
        8
1040
3448.325853239905
1040
2088.602898093268
1040
3448.325853239905
1040
2139.032893738153
1040
3198.530948961677
1040
2139.032893738153
1040
2684.585117004429
1040
2139.032893738153
1040
2437.661417406357
1040
2139.032893738153
1040
2437.661417406357
1040
2088.602898093268
1040
2684.585117004429
1040
2088.602898093268
1040
3198.530948961677
1040
2088.602898093268
1071
        8
1005
630
1005
5D7
1005
608
1005
5DA
1005
5F2
1005
5D8
1005
619
1005
613
1071
        7
1070
     0
1070
     1
1071
        6
1040
1616.496555199548
1040
2123.860893483834
1040
1616.496555199549
1040
2103.774898347587
1040
1837.579396492115
1040
2103.774898347587
1040
1912.230750544385
1040
2103.774898347587
1040
1912.230750544385
1040
2123.860893483834
1040
1837.579396492114
1040
2123.860893483834
1071
        6
1005
648
1005
5F7
1005
5F9
1005
5F8
1005
649
1005
5DE
1070
     0
1070
     1
1040
7.380109801424914
1071
        3
1040
4130.619051482086
1040
2116.181029674146
1040
0.0
1040
3207.445216583654
1040
2108.800925342002
1040
0.0
1040
1767.294037750694
1040
2116.181029674146
1040
0.0
1002
}
  0
INSERT
  5
5CF
330
5C8
100
AcDbEntity
  8
HATCH
  6
CONTINUOUS
 62
     2
100
AcDbBlockReference
  2
*U11
 10
0.0
 20
0.0
 30
0.0
1001
ACAD
1002
{
1000
R14_HATCH_DATA
1000
5CF
1011
1.0
1021
0.0
1031
0.0
1011
0.0
1021
1.0
1031
0.0
1011
0.0
1021
0.0
1031
1.0
1040
0.0
1010
0.0
1020
0.0
1030
1.0
1000
SOLID
1070
     1
1070
     1
1071
        6
1071
        7
1070
     0
1070
     1
1071
        4
1040
2750.622840832138
1040
2528.880252527772
1040
2775.622840832136
1040
2528.880252527772
1040
2775.622840832136
1040
2628.880252527772
1040
2750.622840832136
1040
2628.880252527771
1071
        4
1005
610
1005
60C
1005
60E
1005
60D
1071
        7
1070
     0
1070
     1
1071
        4
1040
3116.106822990344
1040
2528.880252527772
1040
3141.106822990344
1040
2528.880252527772
1040
3141.106822990343
1040
2628.880252527772
1040
3116.106822990343
1040
2628.880252527772
1071
        4
1005
636
1005
633
1005
634
1005
632
1071
        7
1070
     0
1070
     1
1071
        4
1040
3116.106822990341
1040
1598.755539303648
1040
3141.106822990341
1040
1598.755539303648
1040
3141.106822990341
1040
1698.755539303649
1040
3116.106822990342
1040
1698.755539303649
1071
        4
1005
61F
1005
61C
1005
61E
1005
61B
1071
        7
1070
     0
1070
     1
1071
        4
1040
2750.622840832136
1040
1598.755539303652
1040
2775.622840832134
1040
1598.755539303647
1040
2775.622840832136
1040
1698.755539303649
1040
2750.622840832136
1040
1698.755539303648
1071
        4
1005
5F0
1005
5EC
1005
5EF
1005
5ED
1071
        7
1070
     0
1070
     1
1071
        8
1040
2684.585117004429
1040
2088.602898093268
1040
2437.661417406357
1040
2088.602898093268
1040
2437.661417406357
1040
2063.602898093269
1040
2684.585117004429
1040
2063.602898093269
1040
3198.530948961677
1040
2063.602898093269
1040
3448.325853239903
1040
2063.602898093269
1040
3448.325853239905
1040
2088.602898093268
1040
3198.530948961677
1040
2088.602898093268
1071
        8
1005
619
1005
5D8
1005
5F2
1005
5DA
1005
5F1
1005
5D5
1005
618
1005
613
1071
        7
1070
     0
1070
     1
1071
        8
1040
3198.530948961677
1040
2139.032893738153
1040
3448.325853239905
1040
2139.032893738153
1040
3448.325853239905
1040
2164.032893738153
1040
3198.530948961677
1040
2164.032893738153
1040
2684.585117004429
1040
2164.032893738153
1040
2437.661417406358
1040
2164.032893738153
1040
2437.661417406357
1040
2139.032893738153
1040
2684.585117004429
1040
2139.032893738153
1071
        8
1005
62F
1005
5D6
1005
607
1005
5DA
1005
608
1005
5D7
1005
630
1005
613
1070
     0
1070
     1
1040
4.003802640455852
1071
        6
1040
2761.934797016712
1040
2574.450332393031
1040
0.0
1040
3126.541556435259
1040
2582.457939655267
1040
0.0
1040
3126.541556435259
1040
1653.575724613492
1040
0.0
1040
2761.934797016712
1040
1649.571920982374
1040
0.0
1040
2994.321523791333
1040
2077.97880076619
1040
0.0
1040
2974.288175943716
1040
2150.047256240332
1040
0.0
1002
}
  0
INSERT
  5
5D0
330
5C8
100
AcDbEntity
  8
HATCH
  6
CONTINUOUS
 62
   251
100
AcDbBlockReference
  2
*U12
 10
0.0
 20
0.0
 30
0.0
1001
ACAD
1002
{
1000
R14_HATCH_DATA
1000
5D0
1011
1.0
1021
0.0
1031
0.0
1011
0.0
1021
1.0
1031
0.0
1011
0.0
1021
0.0
1031
1.0
1040
0.0
1010
0.0
1020
0.0
1030
1.0
1000
SOLID
1070
     1
1070
     1
1071
       12
1071
        7
1070
     0
1070
     1
1071
       16
1040
3815.840181772761
1040
2258.724017944122
1040
3721.090394959393
1040
2238.638022807871
1040
3652.181450267431
1040
2189.857740349704
1040
3574.658907719099
1040
2178.380027417298
1040
3563.174072814373
1040
2169.77174521345
1040
3563.174072814373
1040
2057.864046617972
1040
3574.658907719098
1040
2049.255764414124
1040
3652.18145026743
1040
2037.778051481716
1040
3721.090394959389
1040
1988.99776902355
1040
3815.840181772759
1040
1968.9117738873
1040
3916.332377946442
1040
1968.9117738873
1040
3973.756503917776
1040
2017.692046363656
1040
3973.756503917777
1040
2083.688893229522
1040
3973.756503917777
1040
2143.946898601899
1040
3973.756503917776
1040
2209.943745467764
1040
3916.332377946443
1040
2258.724017944122
1071
       16
1005
645
1005
641
1005
643
1005
642
1005
62D
1005
63C
1005
63D
1005
615
1005
627
1005
624
1005
616
1005
62A
1005
629
1005
628
1005
62C
1005
612
1071
       22
1070
     1
1070
     1
1071
        2
1040
3702.549760258622
1040
2178.866666293936
1040
-1.0
1040
3736.530358457934
1040
2178.866666293936
1040
-1.0
1071
        1
1005
62E
1071
       22
1070
     1
1070
     1
1071
        2
1040
3736.530358457934
1040
2048.769125537482
1040
-1.0
1040
3702.549760258622
1040
2048.769125537482
1040
-1.0
1071
        1
1005
617
1071
        7
1070
     1
1070
     1
1071
        6
1040
3198.530948961677
1040
2164.032893738153
1040
0.0
1040
3198.530948961677
1040
2614.963094529892
1040
0.4142135623730951
1040
3098.530948961677
1040
2714.963094529892
1040
0.0
1040
2784.58511700443
1040
2714.963094529892
1040
0.4142135623730978
1040
2684.585117004429
1040
2614.963094529892
1040
0.0
1040
2684.585117004429
1040
2164.032893738152
1040
0.0
1071
        6
1005
635
1005
5D3
1005
60F
1005
606
1005
5D6
1005
631
1071
       22
1070
     0
1070
     1
1071
        4
1040
3116.106822990345
1040
2528.880252527768
1040
3116.106822990343
1040
2628.880252527772
1040
3141.106822990343
1040
2628.880252527772
1040
3141.106822990344
1040
2528.880252527772
1071
        4
1005
633
1005
636
1005
632
1005
634
1071
       22
1070
     0
1070
     1
1071
        4
1040
2775.622840832133
1040
2528.880252527772
1040
2750.622840832138
1040
2528.880252527772
1040
2750.622840832136
1040
2628.880252527772
1040
2775.622840832136
1040
2628.880252527772
1071
        4
1005
60E
1005
60C
1005
610
1005
60D
1071
        7
1070
     1
1070
     1
1071
        6
1040
2684.585117004428
1040
1612.672697301528
1040
0.4142135623730937
1040
2784.585117004427
1040
1512.672697301528
1040
0.0
1040
3098.530948961672
1040
1512.672697301526
1040
0.4142135623730984
1040
3198.530948961674
1040
1612.672697301525
1040
0.0
1040
3198.530948961677
1040
2063.602898093269
1040
0.0
1040
2684.585117004429
1040
2063.602898093269
1040
0.0
1071
        6
1005
5D5
1005
5EB
1005
5EE
1005
5D4
1005
61D
1005
61A
1071
       22
1070
     0
1070
     1
1071
        4
1040
2775.622840832136
1040
1698.755539303649
1040
2775.622840832134
1040
1598.755539303648
1040
2750.622840832136
1040
1598.755539303652
1040
2750.622840832136
1040
1698.755539303649
1071
        4
1005
5ED
1005
5EF
1005
5EC
1005
5F0
1071
       22
1070
     0
1070
     1
1071
        4
1040
3116.106822990342
1040
1698.755539303649
1040
3141.106822990341
1040
1698.755539303648
1040
3141.106822990341
1040
1598.755539303648
1040
3116.106822990341
1040
1598.755539303648
1071
        4
1005
61F
1005
61B
1005
61E
1005
61C
1071
        7
1070
     0
1070
     1
1071
       16
1040
2322.813181647791
1040
2169.77174521345
1040
2311.328346743066
1040
2178.380027417298
1040
2233.805804194733
1040
2189.857740349704
1040
2164.896859502773
1040
2238.638022807871
1040
2070.147072689402
1040
2258.724017944122
1040
1969.654876515718
1040
2258.724017944122
1040
1912.230750544385
1040
2209.943745467764
1040
1912.230750544386
1040
2143.946898601899
1040
1912.230750544386
1040
2083.688893229522
1040
1912.230750544386
1040
2017.692046363657
1040
1969.654876515721
1040
1968.9117738873
1040
2070.147072689402
1040
1968.911773887299
1040
2164.896859502773
1040
1988.99776902355
1040
2233.805804194732
1040
2037.778051481716
1040
2311.328346743067
1040
2049.255764414124
1040
2322.813181647789
1040
2057.86404661797
1071
       16
1005
605
1005
603
1005
5FF
1005
600
1005
601
1005
5F6
1005
5FA
1005
5DE
1005
5E1
1005
5DF
1005
5E5
1005
5E6
1005
5E4
1005
5E7
1005
5EA
1005
5DC
1071
       22
1070
     1
1070
     1
1071
        2
1040
2149.456896004231
1040
2048.769125537482
1040
-1.0
1040
2183.437494203543
1040
2048.769125537482
1040
-1.0
1071
        1
1005
5E3
1071
       22
1070
     1
1070
     1
1071
        2
1040
2149.456896004231
1040
2178.866666293936
1040
-1.0
1040
2183.437494203543
1040
2178.866666293936
1040
-1.0
1071
        1
1005
5FE
1070
     0
1070
     1
1040
4.640655647259539
1071
       12
1040
3831.00148005992
1040
2140.095303359705
1040
0.0
1040
3831.00148005992
1040
2140.095303359705
1040
0.0
1040
3831.00148005992
1040
2140.095303359705
1040
0.0
1040
3004.373704745765
1040
2242.189725597451
1040
0.0
1040
3004.373704745765
1040
2242.189725597451
1040
0.0
1040
3004.373704745765
1040
2242.189725597451
1040
0.0
1040
2920.782125541411
1040
1782.764810698616
1040
0.0
1040
2920.782125541411
1040
1782.764810698616
1040
0.0
1040
2920.782125541411
1040
1782.764810698616
1040
0.0
1040
2275.269420961598
1040
2093.688745999641
1040
0.0
1040
2275.269420961598
1040
2093.688745999641
1040
0.0
1040
2275.269420961598
1040
2093.688745999641
1040
0.0
1002
}
  0
INSERT
  5
5D1
330
5C8
100
AcDbEntity
  8
HATCH
  6
CONTINUOUS
 62
     2
100
AcDbBlockReference
  2
*U13
 10
0.0
 20
0.0
 30
0.0
1001
ACAD
1002
{
1000
R14_HATCH_DATA
1000
5D1
1011
1.0
1021
0.0
1031
0.0
1011
0.0
1021
1.0
1031
0.0
1011
0.0
1021
0.0
1031
1.0
1040
0.0
1010
0.0
1020
0.0
1030
1.0
1000
SOLID
1070
     1
1070
     1
1071
        2
1071
        7
1070
     0
1070
     1
1071
        6
1040
2437.661417406358
1040
2164.032893738153
1040
2437.661417406358
1040
2204.204884010659
1040
2397.464535700066
1040
2204.204884010659
1040
2397.464535700065
1040
2023.430907820763
1040
2437.661417406357
1040
2023.430907820762
1040
2437.661417406357
1040
2063.602898093269
1071
        6
1005
60A
1005
60B
1005
5DB
1005
5F4
1005
5F5
1005
5DA
1071
        7
1070
     0
1070
     1
1071
        6
1040
3448.325853239904
1040
2063.602898093269
1040
3448.325853239904
1040
2023.430907820763
1040
3479.909104721631
1040
2023.430907820763
1040
3479.909104721631
1040
2204.204884010659
1040
3448.325853239905
1040
2204.204884010659
1040
3448.325853239905
1040
2164.032893738153
1071
        6
1005
63A
1005
639
1005
613
1005
622
1005
623
1005
614
1070
     0
1070
     1
1040
2.371407896553095
1071
        2
1040
2401.874426061815
1040
2136.821372020009
1040
0.0
1040
3460.279151471797
1040
2146.307003048974
1040
0.0
1002
}
  0
MTEXT
  5
5D2
330
5C8
100
AcDbEntity
  8
OBJECT
100
AcDbMText
 10
2606.658712420698
 20
3392.951302672879
 30
0.0
 40
75.18097186823435
 41
868.6785999999997
 71
     1
 72
     1
  1
{\FIMPACT.TTF;Hoogte: 80 cm\PMax. valhoogte: 80 cm}
1001
ACAD
1000
MTEXTBEGIN
1070
    73
1070
     1
1070
    44
1040
1.0
1070
    74
1070
     0
1000
MTEXTEND
1000
MTEXTBEGIN
1070
    73
1070
     1
1070
    44
1040
1.0
1070
    74
1070
     0
1000
MTEXTEND
  0
LINE
  5
5D3
330
5C8
100
AcDbEntity
  8
OBJECT
  6
BYBLOCK
100
AcDbLine
 10
3098.530948961677
 20
2714.963094529892
 30
0.0
 11
2784.58511700443
 21
2714.963094529892
 31
0.0
  0
LINE
  5
5D4
330
5C8
100
AcDbEntity
  8
OBJECT
  6
BYBLOCK
100
AcDbLine
 10
3098.530948961673
 20
1512.672697301526
 30
0.0
 11
2784.585117004427
 21
1512.672697301528
 31
0.0
  0
LINE
  5
5D5
330
5C8
100
AcDbEntity
  8
OBJECT
  6
BYBLOCK
100
AcDbLine
 10
2684.585117004429
 20
2063.602898093269
 30
0.0
 11
3198.530948961677
 21
2063.602898093269
 31
0.0
  0
LINE
  5
5D6
330
5C8
100
AcDbEntity
  8
OBJECT
  6
BYBLOCK
100
AcDbLine
 10
2684.585117004429
 20
2164.032893738153
 30
0.0
 11
3198.530948961677
 21
2164.032893738153
 31
0.0
  0
LINE
  5
5D7
330
5C8
100
AcDbEntity
  8
OBJECT
  6
BYBLOCK
100
AcDbLine
 10
2684.585117004429
 20
2139.032893738153
 30
0.0
 11
3198.530948961677
 21
2139.032893738153
 31
0.0
  0
LINE
  5
5D8
330
5C8
100
AcDbEntity
  8
OBJECT
  6
BYBLOCK
100
AcDbLine
 10
2684.585117004429
 20
2088.602898093268
 30
0.0
 11
3198.530948961677
 21
2088.602898093268
 31
0.0
  0
REGION
  5
5D9
330
5C8
100
AcDbEntity
  8
OBJECT
  6
DASHED
 48
50000.0
100
AcDbModelerGeometry
 70
     1
  1
noi ii n o          
  1
=0;& {rn {n {rn {rn |
  1
3*2/ {rn {rn {m {o |
  1
,7:33 {rn {rn {rn {l {n |
  1
9><: {rn {rn {k {m {rn {j 90-(>-; ;0*=3: 0*+ |
  1
300/ {rn {rn {i {l |
  1
/3>1:r,*-9><: {rn mingqmjnmmmkjgmlhf knhgqnifhgfmlilkjk n o o n n o o o V V V V |
  1
<0:;8: {rn {h {g {rn {f n {k {rn |
  1
<0:;8: {rn {no {i {rn {nn n {k {rn |
  1
<0:;8: {rn {i {nm {rn {nl n {k {rn |
  1
:;8: {rn {nk {nj {i {ni o |
  1
<0:;8: {rn {nh {h {rn {ng n {k {rn |
  1
:;8: {rn {nf {nk {h {mo o |
  1
<0:;8: {rn {g {mn {rn {mm n {k {rn |
  1
:;8: {rn {nj {ml {g {mk o |
  1
):-+:' {rn {f {mj |
  1
):-+:' {rn {f {mi |
  1
,+->687+r<*-): {rn lokiqfofiimjokiogi knhhqfllolfkggogff n oqffffffgkhkgomnom roqooojjmlolgimjlijhnmm o V V |
  1
<0:;8: {rn {mh {no {rn {mg n {k {rn |
  1
:;8: {rn {mf {nf {no {lo o |
  1
):-+:' {rn {nn {ln |
  1
:336/,:r<*-): {rn miniqjfklnnnmlfnmn mihgqnhohokljjoofj n o o rn rljjqnlmghhnfnjihj nkjhqljlfgjiiiliih o n Y roqmkonmflfkofgojfih Y oqmkonmflfkofgoiofm |
  1
<0:;8: {rn {nm {lm {rn {ll n {k {rn |
  1
:;8: {rn {ml {lk {nm {lj o |
  1
):-+:' {rn {mm {li |
  1
:336/,:r<*-): {rn lohlqinojiljknjlin mihgqnhohokljkfifj n o o rn lmiqgnofghmifkjjj nkilqfijlinnllfijm o n Y roqmlhklhnkogmnimimi Y oqmlhklhnkogmnimhnh |
  1
/061+ {rn mingqmjnmmmkjgmlhf knhgqnifhgfmlilkjk n |
  1
/061+ {rn lokiqfofiimjokiogi knhhqfllolfkggogff n |
  1
<0:;8: {rn {lh {nh {rn {lg n {k {rn |
  1
:;8: {rn {lf {mf {nh {ko o |
  1
):-+:' {rn {ng {kn |
  1
,+->687+r<*-): {rn nfmjqojnnjnfikiffn koofqmkgkgjlljjiof n oqgggohhfifkjjonffl oqkjfifmgjknilnlklm o V V |
  1
/061+ {rn nfmjqojnnjnfikiffn koofqmkgkgjlljjiof n |
  1
<0:;8: {rn {mn {km {rn {kl n {k {rn |
  1
:;8: {rn {lk {kk {mn {kj o |
  1
):-+:' {rn {ll {ki |
  1
,+->687+r<*-): {rn kfnlqhlfjihkohkijn lkogqohjkgfhkgjljg n oqgginkmmmhogjgnhkh roqkilknllhmomfnohnj o V V |
  1
/061+ {rn lhljqjfjkofjfkjmim komkqnfloniojjhjhh n |
  1
<0:;8: {rn {kh {mh {rn {kg n {k {rn |
  1
:;8: {rn {kf {lf {mh {jo o |
  1
):-+:' {rn {mg {jn |
  1
:336/,:r<*-): {rn njnhqgnojiinokkhhi mnofqijjniklfojkgi n o o rn rnkffqhhkmlgknkjgkf miqomlhnjghkfijoln o n Y rnqojghmkogjmkmogih Y nqojghmkogjmkmogij |
  1
/061+ {rn gojqimfhilhjlfhfkl lkmfqgoinokjlkiiln n |
  1
<0:;8: {rn {lm {kh {rn {jm n {k {rn |
  1
:;8: {rn {kk {jl {lm {jk o |
  1
):-+:' {rn {kl {jj |
  1
:336/,:r<*-): {rn knimqihojjihfgkn mnofqijjniklfojkgi n o o rn nkffqflmihjonfnljg rnkqmnnimflfofmljmf o n Y rnqojjgkgffmnnmnjlk Y nqojjgkgffmnnmnjlh |
  1
/061+ {rn kfnlqhlfjihkohkijn lkogqohjkgfhkgjljg n |
  1
<0:;8: {rn {km {lh {rn {ji n {k {rn |
  1
:;8: {rn {jh {kf {lh {jg o |
  1
):-+:' {rn {lg {jf |
  1
,+->687+r<*-): {rn hioqmjgkollllllnih gnjqooiihnmfminjif n roqghfhhiokooojliili oqkhjlgglghfgijhigk o V V |
  1
/061+ {rn hioqmjgkollllllnih gnjqooiihnmfminjif n |
  1
:;8: {rn {jl {io {km {in o |
  1
):-+:' {rn {jm {im |
  1
,+->687+r<*-): {rn lhnfqnkimjimonifjf nimqgjiomhimfgihgh n roqghfoiggjflifgnnin roqkhiifkgogjlhnlhhj o V V |
  1
/061+ {rn kggfqoommhkgfkifih hfhqmliifillhmhkkj n |
  1
:;8: {rn {io {jh {kh {il o |
  1
):-+:' {rn {kg {ik |
  1
:336/,:r<*-): {rn miniqjfklnnnmlfolf njniqgkkoggiflogj n o o rn rlinqmhknijhmgignim rnkjjqgklhllhhihlg o n Y roqmklmkofilggikjjg Y oqmklmkofilggikjjgi |
  1
/061+ {rn nfnjqlnioolfggjlli nfoqgifkjmkjhokiif n |
  1
):-+:' {rn {ji {ij |
  1
:336/,:r<*-): {rn lohlqinojiljknjlhf njniqgkkoggiflnlml n o o rn lloqfmnlhnilnijgkm rnkilqoknhnomokmfii o n Y roqmmmkkknfonmljnhgg Y oqmmmkkknfonmljnigj |
  1
/061+ {rn lhnfqnkimjimonifjf nimqgjiomhimfgihgh n |
  1
,+->687+r<*-): {rn miniqjfklnnnmlfohi niqgkkoggiflnolmln n rn o o V V |
  1
/061+ {rn miniqjfklnnnmlfohi niqgkkoggiflnolmln n |
  1
/061+ {rn lohlqinojiljknjkin niqgkkoggiflnolmln n |
1001
AVE_FINISH
1002
{
1070
     0
1005
0
1002
}
  0
LINE
  5
5DA
330
5C8
100
AcDbEntity
  8
OBJECT
  6
BYBLOCK
100
AcDbLine
 10
2437.661417406358
 20
2164.032893738153
 30
0.0
 11
2437.661417406357
 21
2063.602898093269
 31
0.0
  0
LINE
  5
5DB
330
5C8
100
AcDbEntity
  8
OBJECT
  6
BYBLOCK
100
AcDbLine
 10
2397.464535700066
 20
2204.204884010659
 30
0.0
 11
2397.464535700065
 21
2023.430907820763
 31
0.0
  0
LINE
  5
5DC
330
5C8
100
AcDbEntity
  8
OBJECT
  6
BYBLOCK
100
AcDbLine
 10
2322.813181647791
 20
2169.77174521345
 30
0.0
 11
2322.813181647789
 21
2057.864046617972
 31
0.0
  0
LINE
  5
5DD
330
5C8
100
AcDbEntity
  8
OBJECT
  6
BYBLOCK
100
AcDbLine
 10
1837.579396492115
 20
2103.774898347587
 30
0.0
 11
1837.579396492115
 21
2083.688893229522
 31
0.0
  0
LINE
  5
5DE
330
5C8
100
AcDbEntity
  8
OBJECT
  6
BYBLOCK
100
AcDbLine
 10
1912.230750544386
 20
2143.946898601899
 30
0.0
 11
1912.230750544386
 21
2083.688893229522
 31
0.0
  0
LINE
  5
5DF
330
5C8
100
AcDbEntity
  8
OBJECT
  6
BYBLOCK
100
AcDbLine
 10
1912.230750544386
 20
2017.692046363657
 30
0.0
 11
1969.654876515721
 21
1968.9117738873
 31
0.0
  0
LINE
  5
5E0
330
5C8
100
AcDbEntity
  8
OBJECT
  6
BYBLOCK
100
AcDbLine
 10
1837.579396492115
 20
2083.688893229522
 30
0.0
 11
1912.230750544386
 21
2083.688893229522
 31
0.0
  0
LINE
  5
5E1
330
5C8
100
AcDbEntity
  8
OBJECT
  6
BYBLOCK
100
AcDbLine
 10
1912.230750544386
 20
2083.688893229522
 30
0.0
 11
1912.230750544386
 21
2017.692046363657
 31
0.0
  0
LINE
  5
5E2
330
5C8
100
AcDbEntity
  8
OBJECT
  6
BYBLOCK
100
AcDbLine
 10
2397.464535700065
 20
1954.564630226342
 30
0.0
 11
2340.040425912829
 21
1954.564630226342
 31
0.0
  0
CIRCLE
  5
5E3
330
5C8
100
AcDbEntity
  8
OBJECT
  6
BYBLOCK
100
AcDbCircle
 10
2166.447195103887
 20
2048.769125537482
 30
0.0
 40
16.99029909965609
  0
LINE
  5
5E4
330
5C8
100
AcDbEntity
  8
OBJECT
  6
BYBLOCK
100
AcDbLine
 10
2164.896859502773
 20
1988.997769023551
 30
0.0
 11
2233.805804194733
 21
2037.778051481716
 31
0.0
  0
LINE
  5
5E5
330
5C8
100
AcDbEntity
  8
OBJECT
  6
BYBLOCK
100
AcDbLine
 10
1969.654876515721
 20
1968.9117738873
 30
0.0
 11
2070.147072689405
 21
1968.9117738873
 31
0.0
  0
LINE
  5
5E6
330
5C8
100
AcDbEntity
  8
OBJECT
  6
BYBLOCK
100
AcDbLine
 10
2070.147072689405
 20
1968.9117738873
 30
0.0
 11
2164.896859502773
 21
1988.997769023551
 31
0.0
  0
LINE
  5
5E7
330
5C8
100
AcDbEntity
  8
OBJECT
  6
BYBLOCK
100
AcDbLine
 10
2233.805804194733
 20
2037.778051481716
 30
0.0
 11
2311.328346743067
 21
2049.255764414124
 31
0.0
  0
LINE
  5
5E8
330
5C8
100
AcDbEntity
  8
OBJECT
  6
BYBLOCK
100
AcDbLine
 10
2340.040425912829
 20
1954.564630226342
 30
0.0
 11
2340.040425912829
 21
2049.255764414124
 31
0.0
  0
LINE
  5
5E9
330
5C8
100
AcDbEntity
  8
OBJECT
  6
BYBLOCK
100
AcDbLine
 10
2340.040425912829
 20
2049.255764414124
 30
0.0
 11
2322.813181647789
 21
2057.864046617972
 31
0.0
  0
LINE
  5
5EA
330
5C8
100
AcDbEntity
  8
OBJECT
  6
BYBLOCK
100
AcDbLine
 10
2311.328346743067
 20
2049.255764414124
 30
0.0
 11
2322.813181647791
 21
2057.864046617972
 31
0.0
  0
LINE
  5
5EB
330
5C8
100
AcDbEntity
  8
OBJECT
  6
BYBLOCK
100
AcDbLine
 10
2684.585117004428
 20
1612.672697301528
 30
0.0
 11
2684.585117004429
 21
2063.602898093269
 31
0.0
  0
LINE
  5
5EC
330
5C8
100
AcDbEntity
  8
OBJECT
  6
BYBLOCK
100
AcDbLine
 10
2750.622840832136
 20
1698.755539303649
 30
0.0
 11
2750.622840832136
 21
1598.755539303648
 31
0.0
  0
LINE
  5
5ED
330
5C8
100
AcDbEntity
  8
OBJECT
  6
BYBLOCK
100
AcDbLine
 10
2775.622840832136
 20
1698.755539303649
 30
0.0
 11
2775.622840832134
 21
1598.755539303648
 31
0.0
  0
ARC
  5
5EE
330
5C8
100
AcDbEntity
  8
OBJECT
  6
BYBLOCK
100
AcDbCircle
 10
2784.585117004428
 20
1612.672697301528
 30
0.0
 40
100.0
100
AcDbArc
 50
180.0
 51
270.0
  0
LINE
  5
5EF
330
5C8
100
AcDbEntity
  8
OBJECT
  6
BYBLOCK
100
AcDbLine
 10
2750.622840832136
 20
1598.755539303652
 30
0.0
 11
2775.622840832134
 21
1598.755539303648
 31
0.0
  0
LINE
  5
5F0
330
5C8
100
AcDbEntity
  8
OBJECT
  6
BYBLOCK
100
AcDbLine
 10
2750.622840832136
 20
1698.755539303649
 30
0.0
 11
2775.622840832136
 21
1698.755539303649
 31
0.0
  0
LINE
  5
5F1
330
5C8
100
AcDbEntity
  8
OBJECT
  6
BYBLOCK
100
AcDbLine
 10
2684.585117004429
 20
2063.602898093269
 30
0.0
 11
2437.661417406357
 21
2063.602898093269
 31
0.0
  0
LINE
  5
5F2
330
5C8
100
AcDbEntity
  8
OBJECT
  6
BYBLOCK
100
AcDbLine
 10
2684.585117004429
 20
2088.602898093268
 30
0.0
 11
2437.661417406357
 21
2088.602898093268
 31
0.0
  0
LINE
  5
5F3
330
5C8
100
AcDbEntity
  8
OBJECT
  6
BYBLOCK
100
AcDbLine
 10
2397.464535700065
 20
2023.430907820763
 30
0.0
 11
2397.464535700065
 21
1954.564630226342
 31
0.0
  0
LINE
  5
5F4
330
5C8
100
AcDbEntity
  8
OBJECT
  6
BYBLOCK
100
AcDbLine
 10
2437.661417406357
 20
2023.430907820763
 30
0.0
 11
2397.464535700065
 21
2023.430907820763
 31
0.0
  0
LINE
  5
5F5
330
5C8
100
AcDbEntity
  8
OBJECT
  6
BYBLOCK
100
AcDbLine
 10
2437.661417406357
 20
2063.602898093269
 30
0.0
 11
2437.661417406357
 21
2023.430907820763
 31
0.0
  0
LINE
  5
5F6
330
5C8
100
AcDbEntity
  8
OBJECT
  6
BYBLOCK
100
AcDbLine
 10
1912.230750544386
 20
2209.943745467765
 30
0.0
 11
1969.654876515718
 21
2258.724017944122
 31
0.0
  0
LINE
  5
5F7
330
5C8
100
AcDbEntity
  8
OBJECT
  6
BYBLOCK
100
AcDbLine
 10
1616.496555199548
 20
2123.860893483834
 30
0.0
 11
1837.579396492114
 21
2123.860893483834
 31
0.0
  0
LINE
  5
5F8
330
5C8
100
AcDbEntity
  8
OBJECT
  6
BYBLOCK
100
AcDbLine
 10
1616.496555199549
 20
2103.774898347587
 30
0.0
 11
1837.579396492115
 21
2103.774898347587
 31
0.0
  0
LINE
  5
5F9
330
5C8
100
AcDbEntity
  8
OBJECT
  6
BYBLOCK
100
AcDbLine
 10
1616.496555199548
 20
2123.860893483834
 30
0.0
 11
1616.496555199549
 21
2103.774898347587
 31
0.0
  0
LINE
  5
5FA
330
5C8
100
AcDbEntity
  8
OBJECT
  6
BYBLOCK
100
AcDbLine
 10
1912.230750544386
 20
2143.946898601899
 30
0.0
 11
1912.230750544386
 21
2209.943745467765
 31
0.0
  0
LINE
  5
5FB
330
5C8
100
AcDbEntity
  8
OBJECT
  6
BYBLOCK
100
AcDbLine
 10
1837.579396492114
 20
2143.946898601899
 30
0.0
 11
1912.230750544386
 21
2143.946898601899
 31
0.0
  0
LINE
  5
5FC
330
5C8
100
AcDbEntity
  8
OBJECT
  6
BYBLOCK
100
AcDbLine
 10
1837.579396492114
 20
2123.860893483834
 30
0.0
 11
1837.579396492114
 21
2143.946898601899
 31
0.0
  0
LINE
  5
5FD
330
5C8
100
AcDbEntity
  8
OBJECT
  6
BYBLOCK
100
AcDbLine
 10
2397.464535700066
 20
2273.071161605078
 30
0.0
 11
2340.04042591283
 21
2273.071161605078
 31
0.0
  0
CIRCLE
  5
5FE
330
5C8
100
AcDbEntity
  8
OBJECT
  6
BYBLOCK
100
AcDbCircle
 10
2166.447195103887
 20
2178.866666293936
 30
0.0
 40
16.99029909965609
  0
LINE
  5
5FF
330
5C8
100
AcDbEntity
  8
OBJECT
  6
BYBLOCK
100
AcDbLine
 10
2164.896859502773
 20
2238.638022807871
 30
0.0
 11
2233.805804194733
 21
2189.857740349704
 31
0.0
  0
LINE
  5
600
330
5C8
100
AcDbEntity
  8
OBJECT
  6
BYBLOCK
100
AcDbLine
 10
2070.147072689404
 20
2258.724017944122
 30
0.0
 11
2164.896859502773
 21
2238.638022807871
 31
0.0
  0
LINE
  5
601
330
5C8
100
AcDbEntity
  8
OBJECT
  6
BYBLOCK
100
AcDbLine
 10
1969.654876515718
 20
2258.724017944122
 30
0.0
 11
2070.147072689404
 21
2258.724017944122
 31
0.0
  0
LINE
  5
602
330
5C8
100
AcDbEntity
  8
OBJECT
  6
BYBLOCK
100
AcDbLine
 10
2340.04042591283
 20
2273.071161605078
 30
0.0
 11
2340.04042591283
 21
2178.380027417298
 31
0.0
  0
LINE
  5
603
330
5C8
100
AcDbEntity
  8
OBJECT
  6
BYBLOCK
100
AcDbLine
 10
2233.805804194733
 20
2189.857740349704
 30
0.0
 11
2311.328346743066
 21
2178.380027417298
 31
0.0
  0
LINE
  5
604
330
5C8
100
AcDbEntity
  8
OBJECT
  6
BYBLOCK
100
AcDbLine
 10
2340.04042591283
 20
2178.380027417298
 30
0.0
 11
2322.813181647791
 21
2169.77174521345
 31
0.0
  0
LINE
  5
605
330
5C8
100
AcDbEntity
  8
OBJECT
  6
BYBLOCK
100
AcDbLine
 10
2311.328346743066
 20
2178.380027417298
 30
0.0
 11
2322.813181647791
 21
2169.77174521345
 31
0.0
  0
LINE
  5
606
330
5C8
100
AcDbEntity
  8
OBJECT
  6
BYBLOCK
100
AcDbLine
 10
2684.585117004429
 20
2614.963094529892
 30
0.0
 11
2684.585117004429
 21
2164.032893738153
 31
0.0
  0
LINE
  5
607
330
5C8
100
AcDbEntity
  8
OBJECT
  6
BYBLOCK
100
AcDbLine
 10
2684.585117004429
 20
2164.032893738153
 30
0.0
 11
2437.661417406358
 21
2164.032893738153
 31
0.0
  0
LINE
  5
608
330
5C8
100
AcDbEntity
  8
OBJECT
  6
BYBLOCK
100
AcDbLine
 10
2684.585117004429
 20
2139.032893738153
 30
0.0
 11
2437.661417406358
 21
2139.032893738153
 31
0.0
  0
LINE
  5
609
330
5C8
100
AcDbEntity
  8
OBJECT
  6
BYBLOCK
100
AcDbLine
 10
2397.464535700066
 20
2204.204884010659
 30
0.0
 11
2397.464535700066
 21
2273.071161605078
 31
0.0
  0
LINE
  5
60A
330
5C8
100
AcDbEntity
  8
OBJECT
  6
BYBLOCK
100
AcDbLine
 10
2437.661417406358
 20
2164.032893738153
 30
0.0
 11
2437.661417406358
 21
2204.204884010659
 31
0.0
  0
LINE
  5
60B
330
5C8
100
AcDbEntity
  8
OBJECT
  6
BYBLOCK
100
AcDbLine
 10
2437.661417406358
 20
2204.204884010659
 30
0.0
 11
2397.464535700066
 21
2204.204884010659
 31
0.0
  0
LINE
  5
60C
330
5C8
100
AcDbEntity
  8
OBJECT
  6
BYBLOCK
100
AcDbLine
 10
2750.622840832136
 20
2628.880252527772
 30
0.0
 11
2750.622840832138
 21
2528.880252527768
 31
0.0
  0
LINE
  5
60D
330
5C8
100
AcDbEntity
  8
OBJECT
  6
BYBLOCK
100
AcDbLine
 10
2775.622840832136
 20
2628.880252527772
 30
0.0
 11
2775.622840832136
 21
2528.880252527768
 31
0.0
  0
LINE
  5
60E
330
5C8
100
AcDbEntity
  8
OBJECT
  6
BYBLOCK
100
AcDbLine
 10
2750.622840832136
 20
2528.880252527772
 30
0.0
 11
2775.622840832136
 21
2528.880252527772
 31
0.0
  0
ARC
  5
60F
330
5C8
100
AcDbEntity
  8
OBJECT
  6
BYBLOCK
100
AcDbCircle
 10
2784.58511700443
 20
2614.963094529892
 30
0.0
 40
100.0
100
AcDbArc
 50
90.0
 51
180.0
  0
LINE
  5
610
330
5C8
100
AcDbEntity
  8
OBJECT
  6
BYBLOCK
100
AcDbLine
 10
2750.622840832136
 20
2628.880252527772
 30
0.0
 11
2775.622840832136
 21
2628.880252527772
 31
0.0
  0
LINE
  5
611
330
5C8
100
AcDbEntity
  8
OBJECT
  6
BYBLOCK
100
AcDbLine
 10
4048.40785797005
 20
2103.774898347587
 30
0.0
 11
4048.40785797005
 21
2083.688893229522
 31
0.0
  0
LINE
  5
612
330
5C8
100
AcDbEntity
  8
OBJECT
  6
BYBLOCK
100
AcDbLine
 10
3973.756503917777
 20
2143.946898601899
 30
0.0
 11
3973.756503917777
 21
2083.688893229522
 31
0.0
  0
LINE
  5
613
330
5C8
100
AcDbEntity
  8
OBJECT
  6
BYBLOCK
100
AcDbLine
 10
3448.325853239905
 20
2164.032893738153
 30
0.0
 11
3448.325853239904
 21
2063.602898093269
 31
0.0
  0
LINE
  5
614
330
5C8
100
AcDbEntity
  8
OBJECT
  6
BYBLOCK
100
AcDbLine
 10
3479.909104721631
 20
2204.204884010659
 30
0.0
 11
3479.909104721631
 21
2023.430907820763
 31
0.0
  0
LINE
  5
615
330
5C8
100
AcDbEntity
  8
OBJECT
  6
BYBLOCK
100
AcDbLine
 10
3563.174072814374
 20
2169.77174521345
 30
0.0
 11
3563.174072814373
 21
2057.864046617972
 31
0.0
  0
LINE
  5
616
330
5C8
100
AcDbEntity
  8
OBJECT
  6
BYBLOCK
100
AcDbLine
 10
3721.090394959389
 20
1988.997769023551
 30
0.0
 11
3652.181450267431
 21
2037.778051481716
 31
0.0
  0
CIRCLE
  5
617
330
5C8
100
AcDbEntity
  8
OBJECT
  6
BYBLOCK
100
AcDbCircle
 10
3719.540059358278
 20
2048.769125537482
 30
0.0
 40
16.99029909965609
  0
LINE
  5
618
330
5C8
100
AcDbEntity
  8
OBJECT
  6
BYBLOCK
100
AcDbLine
 10
3448.325853239904
 20
2063.602898093269
 30
0.0
 11
3198.530948961677
 21
2063.602898093269
 31
0.0
  0
LINE
  5
619
330
5C8
100
AcDbEntity
  8
OBJECT
  6
BYBLOCK
100
AcDbLine
 10
3448.325853239904
 20
2088.602898093268
 30
0.0
 11
3198.530948961677
 21
2088.602898093268
 31
0.0
  0
LINE
  5
61A
330
5C8
100
AcDbEntity
  8
OBJECT
  6
BYBLOCK
100
AcDbLine
 10
3198.530948961677
 20
2063.602898093269
 30
0.0
 11
3198.530948961674
 21
1612.672697301524
 31
0.0
  0
LINE
  5
61B
330
5C8
100
AcDbEntity
  8
OBJECT
  6
BYBLOCK
100
AcDbLine
 10
3141.106822990341
 20
1698.755539303649
 30
0.0
 11
3141.106822990341
 21
1598.755539303648
 31
0.0
  0
LINE
  5
61C
330
5C8
100
AcDbEntity
  8
OBJECT
  6
BYBLOCK
100
AcDbLine
 10
3116.106822990343
 20
1698.755539303649
 30
0.0
 11
3116.106822990341
 21
1598.755539303648
 31
0.0
  0
ARC
  5
61D
330
5C8
100
AcDbEntity
  8
OBJECT
  6
BYBLOCK
100
AcDbCircle
 10
3098.530948961673
 20
1612.672697301524
 30
0.0
 40
100.0
100
AcDbArc
 50
270.0
 51
0.0
  0
LINE
  5
61E
330
5C8
100
AcDbEntity
  8
OBJECT
  6
BYBLOCK
100
AcDbLine
 10
3116.106822990341
 20
1598.755539303648
 30
0.0
 11
3141.106822990341
 21
1598.755539303648
 31
0.0
  0
LINE
  5
61F
330
5C8
100
AcDbEntity
  8
OBJECT
  6
BYBLOCK
100
AcDbLine
 10
3116.106822990343
 20
1698.755539303649
 30
0.0
 11
3141.106822990341
 21
1698.755539303649
 31
0.0
  0
LINE
  5
620
330
5C8
100
AcDbEntity
  8
OBJECT
  6
BYBLOCK
100
AcDbLine
 10
3545.946844733432
 20
1954.564630226342
 30
0.0
 11
3479.909104721631
 21
1954.564630226342
 31
0.0
  0
LINE
  5
621
330
5C8
100
AcDbEntity
  8
OBJECT
  6
BYBLOCK
100
AcDbLine
 10
3479.909104721631
 20
1954.564630226342
 30
0.0
 11
3479.909104721631
 21
2023.430907820763
 31
0.0
  0
LINE
  5
622
330
5C8
100
AcDbEntity
  8
OBJECT
  6
BYBLOCK
100
AcDbLine
 10
3448.325853239904
 20
2023.430907820763
 30
0.0
 11
3448.325853239904
 21
2063.602898093269
 31
0.0
  0
LINE
  5
623
330
5C8
100
AcDbEntity
  8
OBJECT
  6
BYBLOCK
100
AcDbLine
 10
3479.909104721631
 20
2023.430907820763
 30
0.0
 11
3448.325853239904
 21
2023.430907820763
 31
0.0
  0
LINE
  5
624
330
5C8
100
AcDbEntity
  8
OBJECT
  6
BYBLOCK
100
AcDbLine
 10
3652.181450267431
 20
2037.778051481716
 30
0.0
 11
3574.658907719097
 21
2049.255764414124
 31
0.0
  0
LINE
  5
625
330
5C8
100
AcDbEntity
  8
OBJECT
  6
BYBLOCK
100
AcDbLine
 10
3545.946844733432
 20
2054.994615889421
 30
0.0
 11
3545.946844733432
 21
1954.564630226342
 31
0.0
  0
LINE
  5
626
330
5C8
100
AcDbEntity
  8
OBJECT
  6
BYBLOCK
100
AcDbLine
 10
3563.174072814373
 20
2057.864046617972
 30
0.0
 11
3545.946844733432
 21
2054.994615889421
 31
0.0
  0
LINE
  5
627
330
5C8
100
AcDbEntity
  8
OBJECT
  6
BYBLOCK
100
AcDbLine
 10
3574.658907719097
 20
2049.255764414124
 30
0.0
 11
3563.174072814373
 21
2057.864046617972
 31
0.0
  0
LINE
  5
628
330
5C8
100
AcDbEntity
  8
OBJECT
  6
BYBLOCK
100
AcDbLine
 10
3973.756503917777
 20
2017.692046363657
 30
0.0
 11
3916.332377946442
 21
1968.9117738873
 31
0.0
  0
LINE
  5
629
330
5C8
100
AcDbEntity
  8
OBJECT
  6
BYBLOCK
100
AcDbLine
 10
3916.332377946442
 20
1968.9117738873
 30
0.0
 11
3815.84018177276
 21
1968.9117738873
 31
0.0
  0
LINE
  5
62A
330
5C8
100
AcDbEntity
  8
OBJECT
  6
BYBLOCK
100
AcDbLine
 10
3815.84018177276
 20
1968.9117738873
 30
0.0
 11
3721.090394959389
 21
1988.997769023551
 31
0.0
  0
LINE
  5
62B
330
5C8
100
AcDbEntity
  8
OBJECT
  6
BYBLOCK
100
AcDbLine
 10
4048.40785797005
 20
2083.688893229522
 30
0.0
 11
3973.756503917777
 21
2083.688893229522
 31
0.0
  0
LINE
  5
62C
330
5C8
100
AcDbEntity
  8
OBJECT
  6
BYBLOCK
100
AcDbLine
 10
3973.756503917777
 20
2083.688893229522
 30
0.0
 11
3973.756503917777
 21
2017.692046363657
 31
0.0
  0
LINE
  5
62D
330
5C8
100
AcDbEntity
  8
OBJECT
  6
BYBLOCK
100
AcDbLine
 10
3721.090394959392
 20
2238.638022807871
 30
0.0
 11
3652.181450267431
 21
2189.857740349704
 31
0.0
  0
CIRCLE
  5
62E
330
5C8
100
AcDbEntity
  8
OBJECT
  6
BYBLOCK
100
AcDbCircle
 10
3719.540059358278
 20
2178.866666293936
 30
0.0
 40
16.99029909965609
  0
LINE
  5
62F
330
5C8
100
AcDbEntity
  8
OBJECT
  6
BYBLOCK
100
AcDbLine
 10
3448.325853239905
 20
2164.032893738153
 30
0.0
 11
3198.530948961677
 21
2164.032893738153
 31
0.0
  0
LINE
  5
630
330
5C8
100
AcDbEntity
  8
OBJECT
  6
BYBLOCK
100
AcDbLine
 10
3448.325853239905
 20
2139.032893738153
 30
0.0
 11
3198.530948961677
 21
2139.032893738153
 31
0.0
  0
LINE
  5
631
330
5C8
100
AcDbEntity
  8
OBJECT
  6
BYBLOCK
100
AcDbLine
 10
3198.530948961677
 20
2164.032893738153
 30
0.0
 11
3198.530948961677
 21
2614.963094529892
 31
0.0
  0
LINE
  5
632
330
5C8
100
AcDbEntity
  8
OBJECT
  6
BYBLOCK
100
AcDbLine
 10
3141.106822990343
 20
2628.880252527772
 30
0.0
 11
3141.106822990344
 21
2528.880252527768
 31
0.0
  0
LINE
  5
633
330
5C8
100
AcDbEntity
  8
OBJECT
  6
BYBLOCK
100
AcDbLine
 10
3116.106822990343
 20
2628.880252527772
 30
0.0
 11
3116.106822990344
 21
2528.880252527768
 31
0.0
  0
LINE
  5
634
330
5C8
100
AcDbEntity
  8
OBJECT
  6
BYBLOCK
100
AcDbLine
 10
3116.106822990344
 20
2528.880252527772
 30
0.0
 11
3141.106822990344
 21
2528.880252527772
 31
0.0
  0
ARC
  5
635
330
5C8
100
AcDbEntity
  8
OBJECT
  6
BYBLOCK
100
AcDbCircle
 10
3098.530948961677
 20
2614.963094529892
 30
0.0
 40
100.0
100
AcDbArc
 50
0.0
 51
90.0
  0
LINE
  5
636
330
5C8
100
AcDbEntity
  8
OBJECT
  6
BYBLOCK
100
AcDbLine
 10
3116.106822990343
 20
2628.880252527772
 30
0.0
 11
3141.106822990344
 21
2628.880252527772
 31
0.0
  0
LINE
  5
637
330
5C8
100
AcDbEntity
  8
OBJECT
  6
BYBLOCK
100
AcDbLine
 10
3545.946844733434
 20
2273.071161605078
 30
0.0
 11
3479.909104721631
 21
2273.071161605078
 31
0.0
  0
LINE
  5
638
330
5C8
100
AcDbEntity
  8
OBJECT
  6
BYBLOCK
100
AcDbLine
 10
3479.909104721631
 20
2273.071161605078
 30
0.0
 11
3479.909104721631
 21
2204.204884010659
 31
0.0
  0
LINE
  5
639
330
5C8
100
AcDbEntity
  8
OBJECT
  6
BYBLOCK
100
AcDbLine
 10
3448.325853239905
 20
2204.204884010659
 30
0.0
 11
3448.325853239905
 21
2164.032893738153
 31
0.0
  0
LINE
  5
63A
330
5C8
100
AcDbEntity
  8
OBJECT
  6
BYBLOCK
100
AcDbLine
 10
3479.909104721631
 20
2204.204884010659
 30
0.0
 11
3448.325853239905
 21
2204.204884010659
 31
0.0
  0
LINE
  5
63B
330
5C8
100
AcDbEntity
  8
OBJECT
  6
BYBLOCK
100
AcDbLine
 10
3545.946844733434
 20
2172.641175942001
 30
0.0
 11
3545.946844733434
 21
2273.071161605078
 31
0.0
  0
LINE
  5
63C
330
5C8
100
AcDbEntity
  8
OBJECT
  6
BYBLOCK
100
AcDbLine
 10
3652.181450267431
 20
2189.857740349704
 30
0.0
 11
3574.658907719098
 21
2178.380027417298
 31
0.0
  0
LINE
  5
63D
330
5C8
100
AcDbEntity
  8
OBJECT
  6
BYBLOCK
100
AcDbLine
 10
3574.658907719098
 20
2178.380027417298
 30
0.0
 11
3563.174072814374
 21
2169.77174521345
 31
0.0
  0
LINE
  5
63E
330
5C8
100
AcDbEntity
  8
OBJECT
  6
BYBLOCK
100
AcDbLine
 10
3563.174072814374
 20
2169.77174521345
 30
0.0
 11
3545.946844733434
 21
2172.641175942001
 31
0.0
  0
LINE
  5
63F
330
5C8
100
AcDbEntity
  8
OBJECT
  6
BYBLOCK
100
AcDbLine
 10
4269.490699262616
 20
2123.860893483834
 30
0.0
 11
4048.40785797005
 21
2123.860893483834
 31
0.0
  0
LINE
  5
640
330
5C8
100
AcDbEntity
  8
OBJECT
  6
BYBLOCK
100
AcDbLine
 10
4269.490699262616
 20
2103.774898347587
 30
0.0
 11
4048.40785797005
 21
2103.774898347587
 31
0.0
  0
LINE
  5
641
330
5C8
100
AcDbEntity
  8
OBJECT
  6
BYBLOCK
100
AcDbLine
 10
3973.756503917777
 20
2209.943745467765
 30
0.0
 11
3916.332377946444
 21
2258.724017944122
 31
0.0
  0
LINE
  5
642
330
5C8
100
AcDbEntity
  8
OBJECT
  6
BYBLOCK
100
AcDbLine
 10
3815.84018177276
 20
2258.724017944122
 30
0.0
 11
3721.090394959392
 21
2238.638022807871
 31
0.0
  0
LINE
  5
643
330
5C8
100
AcDbEntity
  8
OBJECT
  6
BYBLOCK
100
AcDbLine
 10
3916.332377946444
 20
2258.724017944122
 30
0.0
 11
3815.84018177276
 21
2258.724017944122
 31
0.0
  0
LINE
  5
644
330
5C8
100
AcDbEntity
  8
OBJECT
  6
BYBLOCK
100
AcDbLine
 10
4048.40785797005
 20
2143.946898601899
 30
0.0
 11
3973.756503917777
 21
2143.946898601899
 31
0.0
  0
LINE
  5
645
330
5C8
100
AcDbEntity
  8
OBJECT
  6
BYBLOCK
100
AcDbLine
 10
3973.756503917777
 20
2143.946898601899
 30
0.0
 11
3973.756503917777
 21
2209.943745467765
 31
0.0
  0
LINE
  5
646
330
5C8
100
AcDbEntity
  8
OBJECT
  6
BYBLOCK
100
AcDbLine
 10
4048.40785797005
 20
2123.860893483834
 30
0.0
 11
4048.40785797005
 21
2143.946898601899
 31
0.0
  0
LINE
  5
647
330
5C8
100
AcDbEntity
  8
OBJECT
  6
BYBLOCK
100
AcDbLine
 10
4269.490699262616
 20
2123.860893483834
 30
0.0
 11
4269.490699262616
 21
2103.774898347587
 31
0.0
  0
LINE
  5
648
330
5C8
100
AcDbEntity
  8
OBJECT
100
AcDbLine
 10
1837.579396492114
 20
2123.860893483834
 30
0.0
 11
1912.230750544386
 21
2123.860893483834
 31
0.0
  0
LINE
  5
649
330
5C8
100
AcDbEntity
  8
OBJECT
100
AcDbLine
 10
1837.579396492115
 20
2103.774898347587
 30
0.0
 11
1912.230750544386
 21
2103.774898347587
 31
0.0
  0
LINE
  5
64A
330
5C8
100
AcDbEntity
  8
OBJECT
100
AcDbLine
 10
4048.40785797005
 20
2123.860893483834
 30
0.0
 11
3973.756503917777
 21
2123.860893483834
 31
0.0
  0
LINE
  5
64B
330
5C8
100
AcDbEntity
  8
OBJECT
100
AcDbLine
 10
4048.40785797005
 20
2103.774898347587
 30
0.0
 11
3973.756503917777
 21
2103.774898347587
 31
0.0
  0
LINE
  5
64C
330
5C8
100
AcDbEntity
  8
HATCH
100
AcDbLine
 10
2368.752480806448
 20
2273.071161605078
 30
0.0
 11
2368.752480806447
 21
1954.564630226342
 31
0.0
  0
LINE
  5
64D
330
5C8
100
AcDbEntity
  8
HATCH
100
AcDbLine
 10
3512.927974727532
 20
2273.071161605078
 30
0.0
 11
3512.927974727531
 21
1954.564630226342
 31
0.0
  0
ENDBLK
  5
5CA
330
5C8
100
AcDbEntity
  8
0
100
AcDbBlockEnd
  0
BLOCK
  5
65B
330
652
100
AcDbEntity
  8
0
100
AcDbBlockBegin
  2
*U2
 70
     1
 10
0.0
 20
0.0
 30
0.0
  3
*U2
  1

  0
SOLID
  5
653
330
652
100
AcDbEntity
  8
HATCH
  6
CONTINUOUS
 62
     2
100
AcDbTrace
 10
2437.661417406357
 20
2063.602898093269
 30
0.0
 11
2397.464535700065
 21
2023.430907820763
 31
0.0
 12
2437.661417406357
 22
2023.430907820762
 32
0.0
 13
2437.661417406357
 23
2023.430907820762
 33
0.0
  0
SOLID
  5
654
330
652
100
AcDbEntity
  8
HATCH
  6
CONTINUOUS
 62
     2
100
AcDbTrace
 10
3448.325853239904
 20
2063.602898093269
 30
0.0
 11
3448.325853239904
 21
2023.430907820763
 31
0.0
 12
3479.909104721631
 22
2023.430907820763
 32
0.0
 13
3479.909104721631
 23
2023.430907820763
 33
0.0
210
0.0
220
0.0
230
1.0
  0
SOLID
  5
655
330
652
100
AcDbEntity
  8
HATCH
  6
CONTINUOUS
 62
     2
100
AcDbTrace
 10
2437.661417406358
 20
2164.032893738153
 30
0.0
 11
2397.464535700065
 21
2023.430907820763
 31
0.0
 12
2437.661417406357
 22
2063.602898093269
 32
0.0
 13
2437.661417406357
 23
2063.602898093269
 33
0.0
210
0.0
220
0.0
230
1.0
  0
SOLID
  5
656
330
652
100
AcDbEntity
  8
HATCH
  6
CONTINUOUS
 62
     2
100
AcDbTrace
 10
3448.325853239905
 20
2164.032893738153
 30
0.0
 11
3448.325853239904
 21
2063.602898093269
 31
0.0
 12
3479.909104721631
 22
2023.430907820763
 32
0.0
 13
3479.909104721631
 23
2023.430907820763
 33
0.0
210
0.0
220
0.0
230
1.0
  0
SOLID
  5
657
330
652
100
AcDbEntity
  8
HATCH
  6
CONTINUOUS
 62
     2
100
AcDbTrace
 10
3448.325853239905
 20
2164.032893738153
 30
0.0
 11
3479.909104721631
 21
2204.204884010659
 31
0.0
 12
3448.325853239905
 22
2204.204884010659
 32
0.0
 13
3448.325853239905
 23
2204.204884010659
 33
0.0
210
0.0
220
0.0
230
1.0
  0
SOLID
  5
658
330
652
100
AcDbEntity
  8
HATCH
  6
CONTINUOUS
 62
     2
100
AcDbTrace
 10
3479.909104721631
 20
2204.204884010659
 30
0.0
 11
3448.325853239905
 21
2164.032893738153
 31
0.0
 12
3479.909104721631
 22
2023.430907820763
 32
0.0
 13
3479.909104721631
 23
2023.430907820763
 33
0.0
  0
SOLID
  5
659
330
652
100
AcDbEntity
  8
HATCH
  6
CONTINUOUS
 62
     2
100
AcDbTrace
 10
2437.661417406358
 20
2164.032893738153
 30
0.0
 11
2437.661417406358
 21
2204.204884010659
 31
0.0
 12
2397.464535700066
 22
2204.204884010659
 32
0.0
 13
2397.464535700066
 23
2204.204884010659
 33
0.0
210
0.0
220
0.0
230
1.0
  0
SOLID
  5
65A
330
652
100
AcDbEntity
  8
HATCH
  6
CONTINUOUS
 62
     2
100
AcDbTrace
 10
2397.464535700066
 20
2204.204884010659
 30
0.0
 11
2397.464535700065
 21
2023.430907820763
 31
0.0
 12
2437.661417406358
 22
2164.032893738153
 32
0.0
 13
2437.661417406358
 23
2164.032893738153
 33
0.0
210
0.0
220
0.0
230
1.0
  0
ENDBLK
  5
65C
330
652
100
AcDbEntity
  8
0
100
AcDbBlockEnd
  0
BLOCK
  5
67C
330
65D
100
AcDbEntity
  8
0
100
AcDbBlockBegin
  2
*U3
 70
     1
 10
0.0
 20
0.0
 30
0.0
  3
*U3
  1

  0
SOLID
  5
65E
330
65D
100
AcDbEntity
  8
HATCH
  6
CONTINUOUS
 62
     1
100
AcDbTrace
 10
2397.464535700065
 20
2023.430907820763
 30
0.0
 11
2340.040425912829
 21
1954.564630226341
 31
0.0
 12
2397.464535700064
 22
1954.564630226341
 32
0.0
 13
2397.464535700064
 23
1954.564630226341
 33
0.0
  0
SOLID
  5
65F
330
65D
100
AcDbEntity
  8
HATCH
  6
CONTINUOUS
 62
     1
100
AcDbTrace
 10
3479.909104721631
 20
2023.430907820763
 30
0.0
 11
3479.909104721631
 21
1954.564630226342
 31
0.0
 12
3545.946844733432
 22
1954.564630226341
 32
0.0
 13
3545.946844733432
 23
1954.564630226341
 33
0.0
210
0.0
220
0.0
230
1.0
  0
SOLID
  5
660
330
65D
100
AcDbEntity
  8
HATCH
  6
CONTINUOUS
 62
     1
100
AcDbTrace
 10
2340.040425912829
 20
2049.255764414124
 30
0.0
 11
2340.040425912829
 21
1954.564630226341
 31
0.0
 12
2397.464535700065
 22
2023.430907820763
 32
0.0
 13
2397.464535700065
 23
2023.430907820763
 33
0.0
210
0.0
220
0.0
230
1.0
  0
SOLID
  5
661
330
65D
100
AcDbEntity
  8
HATCH
  6
CONTINUOUS
 62
     1
100
AcDbTrace
 10
3545.946844733432
 20
2054.994615889421
 30
0.0
 11
3479.909104721631
 21
2023.430907820763
 31
0.0
 12
3545.946844733432
 22
1954.564630226341
 32
0.0
 13
3545.946844733432
 23
1954.564630226341
 33
0.0
210
0.0
220
0.0
230
1.0
  0
SOLID
  5
662
330
65D
100
AcDbEntity
  8
HATCH
  6
CONTINUOUS
 62
     1
100
AcDbTrace
 10
2322.813181647789
 20
2057.864046617972
 30
0.0
 11
2340.040425912829
 21
2049.255764414124
 31
0.0
 12
2397.464535700065
 22
2023.430907820763
 32
0.0
 13
2397.464535700065
 23
2023.430907820763
 33
0.0
  0
SOLID
  5
663
330
65D
100
AcDbEntity
  8
HATCH
  6
CONTINUOUS
 62
     1
100
AcDbTrace
 10
4048.407857970049
 20
2083.688893229522
 30
0.0
 11
4048.407857970049
 21
2103.774898347587
 31
0.0
 12
3973.756503917777
 22
2103.774898347587
 32
0.0
 13
3973.756503917777
 23
2103.774898347587
 33
0.0
210
0.0
220
0.0
230
1.0
  0
SOLID
  5
664
330
65D
100
AcDbEntity
  8
HATCH
  6
CONTINUOUS
 62
     1
100
AcDbTrace
 10
3973.756503917777
 20
2103.774898347587
 30
0.0
 11
3973.756503917777
 21
2083.688893229522
 31
0.0
 12
4048.407857970049
 22
2083.688893229522
 32
0.0
 13
4048.407857970049
 23
2083.688893229522
 33
0.0
210
0.0
220
0.0
230
1.0
  0
SOLID
  5
665
330
65D
100
AcDbEntity
  8
HATCH
  6
CONTINUOUS
 62
     1
100
AcDbTrace
 10
1912.230750544386
 20
2103.774898347587
 30
0.0
 11
1837.579396492115
 21
2083.688893229522
 31
0.0
 12
1912.230750544385
 22
2083.688893229522
 32
0.0
 13
1912.230750544385
 23
2083.688893229522
 33
0.0
210
0.0
220
0.0
230
1.0
  0
SOLID
  5
666
330
65D
100
AcDbEntity
  8
HATCH
  6
CONTINUOUS
 62
     1
100
AcDbTrace
 10
1837.579396492115
 20
2103.774898347587
 30
0.0
 11
1837.579396492115
 21
2083.688893229522
 31
0.0
 12
1912.230750544386
 22
2103.774898347587
 32
0.0
 13
1912.230750544386
 23
2103.774898347587
 33
0.0
210
0.0
220
0.0
230
1.0
  0
SOLID
  5
667
330
65D
100
AcDbEntity
  8
HATCH
  6
CONTINUOUS
 62
     1
100
AcDbTrace
 10
3448.325853239904
 20
2088.602898093268
 30
0.0
 11
3448.325853239905
 21
2139.032893738153
 31
0.0
 12
3198.530948961677
 22
2139.032893738153
 32
0.0
 13
3198.530948961677
 23
2139.032893738153
 33
0.0
210
0.0
220
0.0
230
1.0
  0
SOLID
  5
668
330
65D
100
AcDbEntity
  8
HATCH
  6
CONTINUOUS
 62
     1
100
AcDbTrace
 10
3448.325853239904
 20
2088.602898093268
 30
0.0
 11
3198.530948961677
 21
2139.032893738153
 31
0.0
 12
2684.585117004429
 22
2139.032893738153
 32
0.0
 13
2684.585117004429
 23
2139.032893738153
 33
0.0
210
0.0
220
0.0
230
1.0
  0
SOLID
  5
669
330
65D
100
AcDbEntity
  8
HATCH
  6
CONTINUOUS
 62
     1
100
AcDbTrace
 10
3448.325853239904
 20
2088.602898093268
 30
0.0
 11
2684.585117004429
 21
2139.032893738153
 31
0.0
 12
2437.661417406357
 22
2139.032893738153
 32
0.0
 13
2437.661417406357
 23
2139.032893738153
 33
0.0
210
0.0
220
0.0
230
1.0
  0
SOLID
  5
66A
330
65D
100
AcDbEntity
  8
HATCH
  6
CONTINUOUS
 62
     1
100
AcDbTrace
 10
2437.661417406357
 20
2139.032893738153
 30
0.0
 11
3198.530948961677
 21
2088.602898093268
 31
0.0
 12
3448.325853239904
 22
2088.602898093268
 32
0.0
 13
3448.325853239904
 23
2088.602898093268
 33
0.0
210
0.0
220
0.0
230
1.0
  0
SOLID
  5
66B
330
65D
100
AcDbEntity
  8
HATCH
  6
CONTINUOUS
 62
     1
100
AcDbTrace
 10
2437.661417406357
 20
2139.032893738153
 30
0.0
 11
2684.585117004429
 21
2088.602898093268
 31
0.0
 12
3198.530948961677
 22
2088.602898093268
 32
0.0
 13
3198.530948961677
 23
2088.602898093268
 33
0.0
210
0.0
220
0.0
230
1.0
  0
SOLID
  5
66C
330
65D
100
AcDbEntity
  8
HATCH
  6
CONTINUOUS
 62
     1
100
AcDbTrace
 10
2437.661417406357
 20
2139.032893738153
 30
0.0
 11
2437.661417406357
 21
2088.602898093268
 31
0.0
 12
2684.585117004429
 22
2088.602898093268
 32
0.0
 13
2684.585117004429
 23
2088.602898093268
 33
0.0
210
0.0
220
0.0
230
1.0
  0
SOLID
  5
66D
330
65D
100
AcDbEntity
  8
HATCH
  6
CONTINUOUS
 62
     1
100
AcDbTrace
 10
4048.40785797005
 20
2123.860893483834
 30
0.0
 11
4048.40785797005
 21
2143.946898601899
 31
0.0
 12
3973.756503917777
 22
2143.946898601899
 32
0.0
 13
3973.756503917777
 23
2143.946898601899
 33
0.0
210
0.0
220
0.0
230
1.0
  0
SOLID
  5
66E
330
65D
100
AcDbEntity
  8
HATCH
  6
CONTINUOUS
 62
     1
100
AcDbTrace
 10
3973.756503917777
 20
2143.946898601899
 30
0.0
 11
3973.756503917777
 21
2123.860893483834
 31
0.0
 12
4048.40785797005
 22
2123.860893483834
 32
0.0
 13
4048.40785797005
 23
2123.860893483834
 33
0.0
210
0.0
220
0.0
230
1.0
  0
SOLID
  5
66F
330
65D
100
AcDbEntity
  8
HATCH
  6
CONTINUOUS
 62
     1
100
AcDbTrace
 10
1912.230750544385
 20
2123.860893483834
 30
0.0
 11
1912.230750544386
 21
2143.946898601899
 31
0.0
 12
1837.579396492114
 22
2143.946898601899
 32
0.0
 13
1837.579396492114
 23
2143.946898601899
 33
0.0
210
0.0
220
0.0
230
1.0
  0
SOLID
  5
670
330
65D
100
AcDbEntity
  8
HATCH
  6
CONTINUOUS
 62
     1
100
AcDbTrace
 10
1837.579396492114
 20
2143.946898601899
 30
0.0
 11
1837.579396492114
 21
2123.860893483833
 31
0.0
 12
1912.230750544385
 22
2123.860893483834
 32
0.0
 13
1912.230750544385
 23
2123.860893483834
 33
0.0
210
0.0
220
0.0
230
1.0
  0
SOLID
  5
671
330
65D
100
AcDbEntity
  8
HATCH
  6
CONTINUOUS
 62
     1
100
AcDbTrace
 10
2322.813181647791
 20
2169.771745213449
 30
0.0
 11
2322.813181647789
 21
2057.864046617972
 31
0.0
 12
2397.464535700065
 22
2023.430907820763
 32
0.0
 13
2397.464535700065
 23
2023.430907820763
 33
0.0
210
0.0
220
0.0
230
1.0
  0
SOLID
  5
672
330
65D
100
AcDbEntity
  8
HATCH
  6
CONTINUOUS
 62
     1
100
AcDbTrace
 10
3563.174072814374
 20
2169.77174521345
 30
0.0
 11
3545.946844733432
 21
2054.994615889421
 31
0.0
 12
3563.174072814373
 22
2057.864046617972
 32
0.0
 13
3563.174072814373
 23
2057.864046617972
 33
0.0
210
0.0
220
0.0
230
1.0
  0
SOLID
  5
673
330
65D
100
AcDbEntity
  8
HATCH
  6
CONTINUOUS
 62
     1
100
AcDbTrace
 10
3563.174072814374
 20
2169.77174521345
 30
0.0
 11
3479.909104721631
 21
2023.430907820763
 31
0.0
 12
3545.946844733432
 22
2054.994615889421
 32
0.0
 13
3545.946844733432
 23
2054.994615889421
 33
0.0
210
0.0
220
0.0
230
1.0
  0
SOLID
  5
674
330
65D
100
AcDbEntity
  8
HATCH
  6
CONTINUOUS
 62
     1
100
AcDbTrace
 10
3545.946844733434
 20
2172.641175942001
 30
0.0
 11
3479.909104721631
 21
2023.430907820763
 31
0.0
 12
3563.174072814374
 22
2169.77174521345
 32
0.0
 13
3563.174072814374
 23
2169.77174521345
 33
0.0
210
0.0
220
0.0
230
1.0
  0
SOLID
  5
675
330
65D
100
AcDbEntity
  8
HATCH
  6
CONTINUOUS
 62
     1
100
AcDbTrace
 10
2340.04042591283
 20
2178.380027417297
 30
0.0
 11
2322.813181647791
 21
2169.771745213449
 31
0.0
 12
2397.464535700065
 22
2023.430907820763
 32
0.0
 13
2397.464535700065
 23
2023.430907820763
 33
0.0
210
0.0
220
0.0
230
1.0
  0
SOLID
  5
676
330
65D
100
AcDbEntity
  8
HATCH
  6
CONTINUOUS
 62
     1
100
AcDbTrace
 10
2397.464535700066
 20
2204.204884010659
 30
0.0
 11
2340.04042591283
 21
2178.380027417297
 31
0.0
 12
2397.464535700065
 22
2023.430907820763
 32
0.0
 13
2397.464535700065
 23
2023.430907820763
 33
0.0
210
0.0
220
0.0
230
1.0
  0
SOLID
  5
677
330
65D
100
AcDbEntity
  8
HATCH
  6
CONTINUOUS
 62
     1
100
AcDbTrace
 10
3479.909104721631
 20
2204.204884010659
 30
0.0
 11
3479.909104721631
 21
2023.430907820763
 31
0.0
 12
3545.946844733434
 22
2172.641175942001
 32
0.0
 13
3545.946844733434
 23
2172.641175942001
 33
0.0
210
0.0
220
0.0
230
1.0
  0
SOLID
  5
678
330
65D
100
AcDbEntity
  8
HATCH
  6
CONTINUOUS
 62
     1
100
AcDbTrace
 10
2340.04042591283
 20
2273.071161605077
 30
0.0
 11
2340.04042591283
 21
2178.380027417297
 31
0.0
 12
2397.464535700066
 22
2204.204884010659
 32
0.0
 13
2397.464535700066
 23
2204.204884010659
 33
0.0
210
0.0
220
0.0
230
1.0
  0
SOLID
  5
679
330
65D
100
AcDbEntity
  8
HATCH
  6
CONTINUOUS
 62
     1
100
AcDbTrace
 10
2397.464535700066
 20
2273.071161605078
 30
0.0
 11
2340.04042591283
 21
2273.071161605077
 31
0.0
 12
2397.464535700066
 22
2204.204884010659
 32
0.0
 13
2397.464535700066
 23
2204.204884010659
 33
0.0
210
0.0
220
0.0
230
1.0
  0
SOLID
  5
67A
330
65D
100
AcDbEntity
  8
HATCH
  6
CONTINUOUS
 62
     1
100
AcDbTrace
 10
3479.909104721631
 20
2204.204884010659
 30
0.0
 11
3545.946844733434
 21
2273.071161605078
 31
0.0
 12
3479.909104721631
 22
2273.071161605078
 32
0.0
 13
3479.909104721631
 23
2273.071161605078
 33
0.0
210
0.0
220
0.0
230
1.0
  0
SOLID
  5
67B
330
65D
100
AcDbEntity
  8
HATCH
  6
CONTINUOUS
 62
     1
100
AcDbTrace
 10
3545.946844733434
 20
2273.071161605078
 30
0.0
 11
3479.909104721631
 21
2204.204884010659
 31
0.0
 12
3545.946844733434
 22
2172.641175942001
 32
0.0
 13
3545.946844733434
 23
2172.641175942001
 33
0.0
210
0.0
220
0.0
230
1.0
  0
ENDBLK
  5
67D
330
65D
100
AcDbEntity
  8
0
100
AcDbBlockEnd
  0
BLOCK
  5
697
330
67E
100
AcDbEntity
  8
0
100
AcDbBlockBegin
  2
*U4
 70
     1
 10
0.0
 20
0.0
 30
0.0
  3
*U4
  1

  0
SOLID
  5
67F
330
67E
100
AcDbEntity
  8
HATCH
  6
CONTINUOUS
 62
     2
100
AcDbTrace
 10
3141.106822990341
 20
1698.755539303648
 30
0.0
 11
3116.106822990341
 21
1598.755539303648
 31
0.0
 12
3141.106822990341
 22
1598.755539303648
 32
0.0
 13
3141.106822990341
 23
1598.755539303648
 33
0.0
210
0.0
220
0.0
230
1.0
  0
SOLID
  5
680
330
67E
100
AcDbEntity
  8
HATCH
  6
CONTINUOUS
 62
     2
100
AcDbTrace
 10
2750.622840832136
 20
1698.755539303648
 30
0.0
 11
2750.622840832136
 21
1598.755539303652
 31
0.0
 12
2775.622840832134
 22
1598.755539303647
 32
0.0
 13
2775.622840832134
 23
1598.755539303647
 33
0.0
210
0.0
220
0.0
230
1.0
  0
SOLID
  5
681
330
67E
100
AcDbEntity
  8
HATCH
  6
CONTINUOUS
 62
     2
100
AcDbTrace
 10
3116.106822990343
 20
1698.755539303649
 30
0.0
 11
3116.106822990341
 21
1598.755539303648
 31
0.0
 12
3141.106822990341
 22
1698.755539303648
 32
0.0
 13
3141.106822990341
 23
1698.755539303648
 33
0.0
  0
SOLID
  5
682
330
67E
100
AcDbEntity
  8
HATCH
  6
CONTINUOUS
 62
     2
100
AcDbTrace
 10
2775.622840832136
 20
1698.755539303649
 30
0.0
 11
2750.622840832136
 21
1698.755539303648
 31
0.0
 12
2775.622840832134
 22
1598.755539303647
 32
0.0
 13
2775.622840832134
 23
1598.755539303647
 33
0.0
  0
SOLID
  5
683
330
67E
100
AcDbEntity
  8
HATCH
  6
CONTINUOUS
 62
     2
100
AcDbTrace
 10
2437.661417406357
 20
2063.602898093269
 30
0.0
 11
3448.325853239905
 21
2088.602898093268
 31
0.0
 12
3198.530948961677
 22
2088.602898093268
 32
0.0
 13
3198.530948961677
 23
2088.602898093268
 33
0.0
210
0.0
220
0.0
230
1.0
  0
SOLID
  5
684
330
67E
100
AcDbEntity
  8
HATCH
  6
CONTINUOUS
 62
     2
100
AcDbTrace
 10
2437.661417406357
 20
2063.602898093269
 30
0.0
 11
3198.530948961677
 21
2088.602898093268
 31
0.0
 12
2684.585117004429
 22
2088.602898093268
 32
0.0
 13
2684.585117004429
 23
2088.602898093268
 33
0.0
210
0.0
220
0.0
230
1.0
  0
SOLID
  5
685
330
67E
100
AcDbEntity
  8
HATCH
  6
CONTINUOUS
 62
     2
100
AcDbTrace
 10
2437.661417406357
 20
2063.602898093269
 30
0.0
 11
2684.585117004429
 21
2088.602898093268
 31
0.0
 12
2437.661417406357
 22
2088.602898093268
 32
0.0
 13
2437.661417406357
 23
2088.602898093268
 33
0.0
210
0.0
220
0.0
230
1.0
  0
SOLID
  5
686
330
67E
100
AcDbEntity
  8
HATCH
  6
CONTINUOUS
 62
     2
100
AcDbTrace
 10
3448.325853239905
 20
2088.602898093268
 30
0.0
 11
2437.661417406357
 21
2063.602898093269
 31
0.0
 12
2684.585117004429
 22
2063.602898093269
 32
0.0
 13
2684.585117004429
 23
2063.602898093269
 33
0.0
210
0.0
220
0.0
230
1.0
  0
SOLID
  5
687
330
67E
100
AcDbEntity
  8
HATCH
  6
CONTINUOUS
 62
     2
100
AcDbTrace
 10
3448.325853239905
 20
2088.602898093268
 30
0.0
 11
2684.585117004429
 21
2063.602898093269
 31
0.0
 12
3198.530948961677
 22
2063.602898093269
 32
0.0
 13
3198.530948961677
 23
2063.602898093269
 33
0.0
210
0.0
220
0.0
230
1.0
  0
SOLID
  5
688
330
67E
100
AcDbEntity
  8
HATCH
  6
CONTINUOUS
 62
     2
100
AcDbTrace
 10
3448.325853239905
 20
2088.602898093268
 30
0.0
 11
3198.530948961677
 21
2063.602898093269
 31
0.0
 12
3448.325853239903
 22
2063.602898093269
 32
0.0
 13
3448.325853239903
 23
2063.602898093269
 33
0.0
  0
SOLID
  5
689
330
67E
100
AcDbEntity
  8
HATCH
  6
CONTINUOUS
 62
     2
100
AcDbTrace
 10
1912.230750544385
 20
2103.774898347587
 30
0.0
 11
1912.230750544386
 21
2123.860893483834
 31
0.0
 12
1837.579396492114
 22
2123.860893483834
 32
0.0
 13
1837.579396492114
 23
2123.860893483834
 33
0.0
210
0.0
220
0.0
230
1.0
  0
SOLID
  5
68A
330
67E
100
AcDbEntity
  8
HATCH
  6
CONTINUOUS
 62
     2
100
AcDbTrace
 10
1912.230750544385
 20
2103.774898347587
 30
0.0
 11
1837.579396492114
 21
2123.860893483834
 31
0.0
 12
1616.496555199548
 22
2123.860893483834
 32
0.0
 13
1616.496555199548
 23
2123.860893483834
 33
0.0
210
0.0
220
0.0
230
1.0
  0
SOLID
  5
68B
330
67E
100
AcDbEntity
  8
HATCH
  6
CONTINUOUS
 62
     2
100
AcDbTrace
 10
1616.496555199548
 20
2123.860893483834
 30
0.0
 11
1837.579396492115
 21
2103.774898347587
 31
0.0
 12
1912.230750544385
 22
2103.774898347587
 32
0.0
 13
1912.230750544385
 23
2103.774898347587
 33
0.0
210
0.0
220
0.0
230
1.0
  0
SOLID
  5
68C
330
67E
100
AcDbEntity
  8
HATCH
  6
CONTINUOUS
 62
     2
100
AcDbTrace
 10
1616.496555199548
 20
2123.860893483834
 30
0.0
 11
1616.496555199549
 21
2103.774898347587
 31
0.0
 12
1837.579396492115
 22
2103.774898347587
 32
0.0
 13
1837.579396492115
 23
2103.774898347587
 33
0.0
210
0.0
220
0.0
230
1.0
  0
SOLID
  5
68D
330
67E
100
AcDbEntity
  8
HATCH
  6
CONTINUOUS
 62
     2
100
AcDbTrace
 10
3448.325853239905
 20
2139.032893738153
 30
0.0
 11
3448.325853239905
 21
2164.032893738153
 31
0.0
 12
3198.530948961677
 22
2164.032893738153
 32
0.0
 13
3198.530948961677
 23
2164.032893738153
 33
0.0
210
0.0
220
0.0
230
1.0
  0
SOLID
  5
68E
330
67E
100
AcDbEntity
  8
HATCH
  6
CONTINUOUS
 62
     2
100
AcDbTrace
 10
3448.325853239905
 20
2139.032893738153
 30
0.0
 11
3198.530948961677
 21
2164.032893738153
 31
0.0
 12
2684.585117004429
 22
2164.032893738153
 32
0.0
 13
2684.585117004429
 23
2164.032893738153
 33
0.0
210
0.0
220
0.0
230
1.0
  0
SOLID
  5
68F
330
67E
100
AcDbEntity
  8
HATCH
  6
CONTINUOUS
 62
     2
100
AcDbTrace
 10
3448.325853239905
 20
2139.032893738153
 30
0.0
 11
2684.585117004429
 21
2164.032893738153
 31
0.0
 12
2437.661417406358
 22
2164.032893738153
 32
0.0
 13
2437.661417406358
 23
2164.032893738153
 33
0.0
210
0.0
220
0.0
230
1.0
  0
SOLID
  5
690
330
67E
100
AcDbEntity
  8
HATCH
  6
CONTINUOUS
 62
     2
100
AcDbTrace
 10
2437.661417406358
 20
2164.032893738153
 30
0.0
 11
3198.530948961677
 21
2139.032893738153
 31
0.0
 12
3448.325853239905
 22
2139.032893738153
 32
0.0
 13
3448.325853239905
 23
2139.032893738153
 33
0.0
210
0.0
220
0.0
230
1.0
  0
SOLID
  5
691
330
67E
100
AcDbEntity
  8
HATCH
  6
CONTINUOUS
 62
     2
100
AcDbTrace
 10
2437.661417406358
 20
2164.032893738153
 30
0.0
 11
2684.585117004429
 21
2139.032893738153
 31
0.0
 12
3198.530948961677
 22
2139.032893738153
 32
0.0
 13
3198.530948961677
 23
2139.032893738153
 33
0.0
  0
SOLID
  5
692
330
67E
100
AcDbEntity
  8
HATCH
  6
CONTINUOUS
 62
     2
100
AcDbTrace
 10
2437.661417406358
 20
2164.032893738153
 30
0.0
 11
2437.661417406357
 21
2139.032893738153
 31
0.0
 12
2684.585117004429
 22
2139.032893738153
 32
0.0
 13
2684.585117004429
 23
2139.032893738153
 33
0.0
210
0.0
220
0.0
230
1.0
  0
SOLID
  5
693
330
67E
100
AcDbEntity
  8
HATCH
  6
CONTINUOUS
 62
     2
100
AcDbTrace
 10
2750.622840832138
 20
2528.880252527772
 30
0.0
 11
2775.622840832136
 21
2628.880252527772
 31
0.0
 12
2750.622840832136
 22
2628.880252527772
 32
0.0
 13
2750.622840832136
 23
2628.880252527772
 33
0.0
  0
SOLID
  5
694
330
67E
100
AcDbEntity
  8
HATCH
  6
CONTINUOUS
 62
     2
100
AcDbTrace
 10
2775.622840832136
 20
2628.880252527772
 30
0.0
 11
2750.622840832138
 21
2528.880252527772
 31
0.0
 12
2775.622840832136
 22
2528.880252527772
 32
0.0
 13
2775.622840832136
 23
2528.880252527772
 33
0.0
210
0.0
220
0.0
230
1.0
  0
SOLID
  5
695
330
67E
100
AcDbEntity
  8
HATCH
  6
CONTINUOUS
 62
     2
100
AcDbTrace
 10
3141.106822990344
 20
2528.880252527772
 30
0.0
 11
3141.106822990343
 21
2628.880252527772
 31
0.0
 12
3116.106822990343
 22
2628.880252527772
 32
0.0
 13
3116.106822990343
 23
2628.880252527772
 33
0.0
210
0.0
220
0.0
230
1.0
  0
SOLID
  5
696
330
67E
100
AcDbEntity
  8
HATCH
  6
CONTINUOUS
 62
     2
100
AcDbTrace
 10
3116.106822990343
 20
2628.880252527772
 30
0.0
 11
3116.106822990344
 21
2528.880252527772
 31
0.0
 12
3141.106822990344
 22
2528.880252527772
 32
0.0
 13
3141.106822990344
 23
2528.880252527772
 33
0.0
210
0.0
220
0.0
230
1.0
  0
ENDBLK
  5
698
330
67E
100
AcDbEntity
  8
0
100
AcDbBlockEnd
  0
BLOCK
  5
69E
330
699
100
AcDbEntity
  8
0
100
AcDbBlockBegin
  2
*U5
 70
     1
 10
0.0
 20
0.0
 30
0.0
  3
*U5
  1

  0
SOLID
  5
69A
330
699
100
AcDbEntity
  8
HATCH
  6
CONTINUOUS
 62
     2
100
AcDbTrace
 10
4269.490699262616
 20
2123.860893483834
 30
0.0
 11
4048.40785797005
 21
2123.860893483834
 31
0.0
 12
4269.490699262616
 22
2103.774898347587
 32
0.0
 13
4269.490699262616
 23
2103.774898347587
 33
0.0
210
0.0
220
0.0
230
1.0
  0
SOLID
  5
69B
330
699
100
AcDbEntity
  8
HATCH
  6
CONTINUOUS
 62
     2
100
AcDbTrace
 10
3973.756503917777
 20
2123.860893483834
 30
0.0
 11
4269.490699262616
 21
2103.774898347587
 31
0.0
 12
4048.40785797005
 22
2123.860893483834
 32
0.0
 13
4048.40785797005
 23
2123.860893483834
 33
0.0
210
0.0
220
0.0
230
1.0
  0
SOLID
  5
69C
330
699
100
AcDbEntity
  8
HATCH
  6
CONTINUOUS
 62
     2
100
AcDbTrace
 10
4269.490699262616
 20
2103.774898347587
 30
0.0
 11
3973.756503917777
 21
2123.860893483834
 31
0.0
 12
4048.40785797005
 22
2103.774898347587
 32
0.0
 13
4048.40785797005
 23
2103.774898347587
 33
0.0
210
0.0
220
0.0
230
1.0
  0
SOLID
  5
69D
330
699
100
AcDbEntity
  8
HATCH
  6
CONTINUOUS
 62
     2
100
AcDbTrace
 10
3973.756503917777
 20
2103.774898347587
 30
0.0
 11
4048.40785797005
 21
2103.774898347587
 31
0.0
 12
3973.756503917777
 22
2123.860893483834
 32
0.0
 13
3973.756503917777
 23
2123.860893483834
 33
0.0
210
0.0
220
0.0
230
1.0
  0
ENDBLK
  5
69F
330
699
100
AcDbEntity
  8
0
100
AcDbBlockEnd
  0
BLOCK
  5
709
330
6A0
100
AcDbEntity
  8
0
100
AcDbBlockBegin
  2
*U6
 70
     1
 10
0.0
 20
0.0
 30
0.0
  3
*U6
  1

  0
SOLID
  5
6A1
330
6A0
100
AcDbEntity
  8
HATCH
  6
CONTINUOUS
 62
   251
100
AcDbTrace
 10
3169.241627080328
 20
1541.96201918287
 30
0.0
 11
2784.585117004427
 21
1512.672697301528
 31
0.0
 12
3098.530948961672
 22
1512.672697301526
 32
0.0
 13
3098.530948961672
 23
1512.672697301526
 33
0.0
210
0.0
220
0.0
230
1.0
  0
SOLID
  5
6A2
330
6A0
100
AcDbEntity
  8
HATCH
  6
CONTINUOUS
 62
   251
100
AcDbTrace
 10
2713.874438885773
 20
1541.962019182873
 30
0.0
 11
2784.585117004427
 21
1512.672697301528
 31
0.0
 12
3169.241627080328
 22
1541.96201918287
 32
0.0
 13
3169.241627080328
 23
1541.96201918287
 33
0.0
  0
SOLID
  5
6A3
330
6A0
100
AcDbEntity
  8
HATCH
  6
CONTINUOUS
 62
   251
100
AcDbTrace
 10
3141.106822990341
 20
1598.755539303648
 30
0.0
 11
2713.874438885773
 21
1541.962019182873
 31
0.0
 12
3169.241627080328
 22
1541.96201918287
 32
0.0
 13
3169.241627080328
 23
1541.96201918287
 33
0.0
210
0.0
220
0.0
230
1.0
  0
SOLID
  5
6A4
330
6A0
100
AcDbEntity
  8
HATCH
  6
CONTINUOUS
 62
   251
100
AcDbTrace
 10
2775.622840832134
 20
1598.755539303648
 30
0.0
 11
2713.874438885773
 21
1541.962019182873
 31
0.0
 12
3141.106822990341
 22
1598.755539303648
 32
0.0
 13
3141.106822990341
 23
1598.755539303648
 33
0.0
210
0.0
220
0.0
230
1.0
  0
SOLID
  5
6A5
330
6A0
100
AcDbEntity
  8
HATCH
  6
CONTINUOUS
 62
   251
100
AcDbTrace
 10
3116.106822990341
 20
1598.755539303648
 30
0.0
 11
2775.622840832134
 21
1598.755539303648
 31
0.0
 12
3141.106822990341
 22
1598.755539303648
 32
0.0
 13
3141.106822990341
 23
1598.755539303648
 33
0.0
210
0.0
220
0.0
230
1.0
  0
SOLID
  5
6A6
330
6A0
100
AcDbEntity
  8
HATCH
  6
CONTINUOUS
 62
   251
100
AcDbTrace
 10
2750.622840832136
 20
1598.755539303652
 30
0.0
 11
2713.874438885773
 21
1541.962019182873
 31
0.0
 12
2775.622840832134
 22
1598.755539303648
 32
0.0
 13
2775.622840832134
 23
1598.755539303648
 33
0.0
210
0.0
220
0.0
230
1.0
  0
SOLID
  5
6A7
330
6A0
100
AcDbEntity
  8
HATCH
  6
CONTINUOUS
 62
   251
100
AcDbTrace
 10
3198.530948961674
 20
1612.672697301525
 30
0.0
 11
3141.106822990341
 21
1598.755539303648
 31
0.0
 12
3169.241627080328
 22
1541.96201918287
 32
0.0
 13
3169.241627080328
 23
1541.96201918287
 33
0.0
210
0.0
220
0.0
230
1.0
  0
SOLID
  5
6A8
330
6A0
100
AcDbEntity
  8
HATCH
  6
CONTINUOUS
 62
   251
100
AcDbTrace
 10
2684.585117004428
 20
1612.672697301528
 30
0.0
 11
2713.874438885773
 21
1541.962019182873
 31
0.0
 12
2750.622840832136
 22
1598.755539303652
 32
0.0
 13
2750.622840832136
 23
1598.755539303652
 33
0.0
210
0.0
220
0.0
230
1.0
  0
SOLID
  5
6A9
330
6A0
100
AcDbEntity
  8
HATCH
  6
CONTINUOUS
 62
   251
100
AcDbTrace
 10
3141.106822990341
 20
1698.755539303648
 30
0.0
 11
3141.106822990341
 21
1598.755539303648
 31
0.0
 12
3198.530948961674
 22
1612.672697301525
 32
0.0
 13
3198.530948961674
 23
1612.672697301525
 33
0.0
210
0.0
220
0.0
230
1.0
  0
SOLID
  5
6AA
330
6A0
100
AcDbEntity
  8
HATCH
  6
CONTINUOUS
 62
   251
100
AcDbTrace
 10
2750.622840832136
 20
1698.755539303649
 30
0.0
 11
2684.585117004428
 21
1612.672697301528
 31
0.0
 12
2750.622840832136
 22
1598.755539303652
 32
0.0
 13
2750.622840832136
 23
1598.755539303652
 33
0.0
210
0.0
220
0.0
230
1.0
  0
SOLID
  5
6AB
330
6A0
100
AcDbEntity
  8
HATCH
  6
CONTINUOUS
 62
   251
100
AcDbTrace
 10
2775.622840832136
 20
1698.755539303649
 30
0.0
 11
2775.622840832134
 21
1598.755539303648
 31
0.0
 12
3116.106822990341
 22
1598.755539303648
 32
0.0
 13
3116.106822990341
 23
1598.755539303648
 33
0.0
210
0.0
220
0.0
230
1.0
  0
SOLID
  5
6AC
330
6A0
100
AcDbEntity
  8
HATCH
  6
CONTINUOUS
 62
   251
100
AcDbTrace
 10
3116.106822990342
 20
1698.755539303649
 30
0.0
 11
2775.622840832136
 21
1698.755539303649
 31
0.0
 12
3116.106822990341
 22
1598.755539303648
 32
0.0
 13
3116.106822990341
 23
1598.755539303648
 33
0.0
210
0.0
220
0.0
230
1.0
  0
SOLID
  5
6AD
330
6A0
100
AcDbEntity
  8
HATCH
  6
CONTINUOUS
 62
   251
100
AcDbTrace
 10
3721.090394959389
 20
1988.99776902355
 30
0.0
 11
3815.840181772759
 21
1968.9117738873
 31
0.0
 12
3916.332377946442
 22
1968.9117738873
 32
0.0
 13
3916.332377946442
 23
1968.9117738873
 33
0.0
210
0.0
220
0.0
230
1.0
  0
SOLID
  5
6AE
330
6A0
100
AcDbEntity
  8
HATCH
  6
CONTINUOUS
 62
   251
100
AcDbTrace
 10
2164.896859502773
 20
1988.99776902355
 30
0.0
 11
1969.654876515721
 21
1968.9117738873
 31
0.0
 12
2070.147072689402
 22
1968.911773887299
 32
0.0
 13
2070.147072689402
 23
1968.911773887299
 33
0.0
210
0.0
220
0.0
230
1.0
  0
SOLID
  5
6AF
330
6A0
100
AcDbEntity
  8
HATCH
  6
CONTINUOUS
 62
   251
100
AcDbTrace
 10
3973.756503917776
 20
2017.692046363656
 30
0.0
 11
3721.090394959389
 21
1988.99776902355
 31
0.0
 12
3916.332377946442
 22
1968.9117738873
 32
0.0
 13
3916.332377946442
 23
1968.9117738873
 33
0.0
210
0.0
220
0.0
230
1.0
  0
SOLID
  5
6B0
330
6A0
100
AcDbEntity
  8
HATCH
  6
CONTINUOUS
 62
   251
100
AcDbTrace
 10
1912.230750544386
 20
2017.692046363657
 30
0.0
 11
1969.654876515721
 21
1968.9117738873
 31
0.0
 12
2164.896859502773
 22
1988.99776902355
 32
0.0
 13
2164.896859502773
 23
1988.99776902355
 33
0.0
210
0.0
220
0.0
230
1.0
  0
SOLID
  5
6B1
330
6A0
100
AcDbEntity
  8
HATCH
  6
CONTINUOUS
 62
   251
100
AcDbTrace
 10
3719.540059358278
 20
2031.778826437826
 30
0.0
 11
3721.090394959389
 21
1988.99776902355
 31
0.0
 12
3973.756503917776
 22
2017.692046363656
 32
0.0
 13
3973.756503917776
 23
2017.692046363656
 33
0.0
210
0.0
220
0.0
230
1.0
  0
SOLID
  5
6B2
330
6A0
100
AcDbEntity
  8
HATCH
  6
CONTINUOUS
 62
   251
100
AcDbTrace
 10
2166.447195103887
 20
2031.778826437826
 30
0.0
 11
1912.230750544386
 21
2017.692046363657
 31
0.0
 12
2164.896859502773
 22
1988.99776902355
 32
0.0
 13
2164.896859502773
 23
1988.99776902355
 33
0.0
210
0.0
220
0.0
230
1.0
  0
SOLID
  5
6B3
330
6A0
100
AcDbEntity
  8
HATCH
  6
CONTINUOUS
 62
   251
100
AcDbTrace
 10
2154.433239396132
 20
2036.755169829727
 30
0.0
 11
1912.230750544386
 21
2017.692046363657
 31
0.0
 12
2166.447195103887
 22
2031.778826437826
 32
0.0
 13
2166.447195103887
 23
2031.778826437826
 33
0.0
210
0.0
220
0.0
230
1.0
  0
SOLID
  5
6B4
330
6A0
100
AcDbEntity
  8
HATCH
  6
CONTINUOUS
 62
   251
100
AcDbTrace
 10
3707.526103650524
 20
2036.755169829727
 30
0.0
 11
3721.090394959389
 21
1988.99776902355
 31
0.0
 12
3719.540059358278
 22
2031.778826437826
 32
0.0
 13
3719.540059358278
 23
2031.778826437826
 33
0.0
210
0.0
220
0.0
230
1.0
  0
SOLID
  5
6B5
330
6A0
100
AcDbEntity
  8
HATCH
  6
CONTINUOUS
 62
   251
100
AcDbTrace
 10
2178.461150811642
 20
2036.755169829727
 30
0.0
 11
2166.447195103887
 21
2031.778826437826
 31
0.0
 12
2164.896859502773
 22
1988.99776902355
 32
0.0
 13
2164.896859502773
 23
1988.99776902355
 33
0.0
210
0.0
220
0.0
230
1.0
  0
SOLID
  5
6B6
330
6A0
100
AcDbEntity
  8
HATCH
  6
CONTINUOUS
 62
   251
100
AcDbTrace
 10
3731.554015066032
 20
2036.755169829727
 30
0.0
 11
3719.540059358278
 21
2031.778826437826
 31
0.0
 12
3973.756503917776
 22
2017.692046363656
 32
0.0
 13
3973.756503917776
 23
2017.692046363656
 33
0.0
210
0.0
220
0.0
230
1.0
  0
SOLID
  5
6B7
330
6A0
100
AcDbEntity
  8
HATCH
  6
CONTINUOUS
 62
   251
100
AcDbTrace
 10
2233.805804194732
 20
2037.778051481716
 30
0.0
 11
2178.461150811642
 21
2036.755169829727
 31
0.0
 12
2164.896859502773
 22
1988.99776902355
 32
0.0
 13
2164.896859502773
 23
1988.99776902355
 33
0.0
  0
SOLID
  5
6B8
330
6A0
100
AcDbEntity
  8
HATCH
  6
CONTINUOUS
 62
   251
100
AcDbTrace
 10
3652.18145026743
 20
2037.778051481716
 30
0.0
 11
3721.090394959389
 21
1988.99776902355
 31
0.0
 12
3707.526103650524
 22
2036.755169829727
 32
0.0
 13
3707.526103650524
 23
2036.755169829727
 33
0.0
210
0.0
220
0.0
230
1.0
  0
SOLID
  5
6B9
330
6A0
100
AcDbEntity
  8
HATCH
  6
CONTINUOUS
 62
   251
100
AcDbTrace
 10
2149.456896004231
 20
2048.769125537482
 30
0.0
 11
1912.230750544386
 21
2017.692046363657
 31
0.0
 12
2154.433239396132
 22
2036.755169829727
 32
0.0
 13
2154.433239396132
 23
2036.755169829727
 33
0.0
210
0.0
220
0.0
230
1.0
  0
SOLID
  5
6BA
330
6A0
100
AcDbEntity
  8
HATCH
  6
CONTINUOUS
 62
   251
100
AcDbTrace
 10
3702.549760258622
 20
2048.769125537482
 30
0.0
 11
3652.18145026743
 21
2037.778051481716
 31
0.0
 12
3707.526103650524
 22
2036.755169829727
 32
0.0
 13
3707.526103650524
 23
2036.755169829727
 33
0.0
210
0.0
220
0.0
230
1.0
  0
SOLID
  5
6BB
330
6A0
100
AcDbEntity
  8
HATCH
  6
CONTINUOUS
 62
   251
100
AcDbTrace
 10
3736.530358457934
 20
2048.769125537482
 30
0.0
 11
3731.554015066032
 21
2036.755169829727
 31
0.0
 12
3973.756503917776
 22
2017.692046363656
 32
0.0
 13
3973.756503917776
 23
2017.692046363656
 33
0.0
210
0.0
220
0.0
230
1.0
  0
SOLID
  5
6BC
330
6A0
100
AcDbEntity
  8
HATCH
  6
CONTINUOUS
 62
   251
100
AcDbTrace
 10
2183.437494203543
 20
2048.769125537482
 30
0.0
 11
2178.461150811642
 21
2036.755169829727
 31
0.0
 12
2233.805804194732
 22
2037.778051481716
 32
0.0
 13
2233.805804194732
 23
2037.778051481716
 33
0.0
210
0.0
220
0.0
230
1.0
  0
SOLID
  5
6BD
330
6A0
100
AcDbEntity
  8
HATCH
  6
CONTINUOUS
 62
   251
100
AcDbTrace
 10
3574.658907719098
 20
2049.255764414124
 30
0.0
 11
3652.18145026743
 21
2037.778051481716
 31
0.0
 12
3702.549760258622
 22
2048.769125537482
 32
0.0
 13
3702.549760258622
 23
2048.769125537482
 33
0.0
210
0.0
220
0.0
230
1.0
  0
SOLID
  5
6BE
330
6A0
100
AcDbEntity
  8
HATCH
  6
CONTINUOUS
 62
   251
100
AcDbTrace
 10
2311.328346743067
 20
2049.255764414124
 30
0.0
 11
2183.437494203543
 21
2048.769125537482
 31
0.0
 12
2233.805804194732
 22
2037.778051481716
 32
0.0
 13
2233.805804194732
 23
2037.778051481716
 33
0.0
210
0.0
220
0.0
230
1.0
  0
SOLID
  5
6BF
330
6A0
100
AcDbEntity
  8
HATCH
  6
CONTINUOUS
 62
   251
100
AcDbTrace
 10
2322.813181647789
 20
2057.86404661797
 30
0.0
 11
2183.437494203543
 21
2048.769125537482
 31
0.0
 12
2311.328346743067
 22
2049.255764414124
 32
0.0
 13
2311.328346743067
 23
2049.255764414124
 33
0.0
  0
SOLID
  5
6C0
330
6A0
100
AcDbEntity
  8
HATCH
  6
CONTINUOUS
 62
   251
100
AcDbTrace
 10
3563.174072814373
 20
2057.864046617972
 30
0.0
 11
3574.658907719098
 21
2049.255764414124
 31
0.0
 12
3702.549760258622
 22
2048.769125537482
 32
0.0
 13
3702.549760258622
 23
2048.769125537482
 33
0.0
210
0.0
220
0.0
230
1.0
  0
SOLID
  5
6C1
330
6A0
100
AcDbEntity
  8
HATCH
  6
CONTINUOUS
 62
   251
100
AcDbTrace
 10
3707.526103650524
 20
2060.783081245236
 30
0.0
 11
3563.174072814373
 21
2057.864046617972
 31
0.0
 12
3702.549760258622
 22
2048.769125537482
 32
0.0
 13
3702.549760258622
 23
2048.769125537482
 33
0.0
210
0.0
220
0.0
230
1.0
  0
SOLID
  5
6C2
330
6A0
100
AcDbEntity
  8
HATCH
  6
CONTINUOUS
 62
   251
100
AcDbTrace
 10
2154.433239396132
 20
2060.783081245236
 30
0.0
 11
1912.230750544386
 21
2017.692046363657
 31
0.0
 12
2149.456896004231
 22
2048.769125537482
 32
0.0
 13
2149.456896004231
 23
2048.769125537482
 33
0.0
210
0.0
220
0.0
230
1.0
  0
SOLID
  5
6C3
330
6A0
100
AcDbEntity
  8
HATCH
  6
CONTINUOUS
 62
   251
100
AcDbTrace
 10
2178.461150811642
 20
2060.783081245236
 30
0.0
 11
2183.437494203543
 21
2048.769125537482
 31
0.0
 12
2322.813181647789
 22
2057.86404661797
 32
0.0
 13
2322.813181647789
 23
2057.86404661797
 33
0.0
  0
SOLID
  5
6C4
330
6A0
100
AcDbEntity
  8
HATCH
  6
CONTINUOUS
 62
   251
100
AcDbTrace
 10
3731.554015066032
 20
2060.783081245236
 30
0.0
 11
3736.530358457934
 21
2048.769125537482
 31
0.0
 12
3973.756503917776
 22
2017.692046363656
 32
0.0
 13
3973.756503917776
 23
2017.692046363656
 33
0.0
  0
SOLID
  5
6C5
330
6A0
100
AcDbEntity
  8
HATCH
  6
CONTINUOUS
 62
   251
100
AcDbTrace
 10
3198.530948961677
 20
2063.602898093269
 30
0.0
 11
3116.106822990342
 21
1698.755539303649
 31
0.0
 12
3141.106822990341
 22
1698.755539303648
 32
0.0
 13
3141.106822990341
 23
1698.755539303648
 33
0.0
210
0.0
220
0.0
230
1.0
  0
SOLID
  5
6C6
330
6A0
100
AcDbEntity
  8
HATCH
  6
CONTINUOUS
 62
   251
100
AcDbTrace
 10
3198.530948961677
 20
2063.602898093269
 30
0.0
 11
3141.106822990341
 21
1698.755539303648
 31
0.0
 12
3198.530948961674
 22
1612.672697301525
 32
0.0
 13
3198.530948961674
 23
1612.672697301525
 33
0.0
210
0.0
220
0.0
230
1.0
  0
SOLID
  5
6C7
330
6A0
100
AcDbEntity
  8
HATCH
  6
CONTINUOUS
 62
   251
100
AcDbTrace
 10
2684.585117004429
 20
2063.602898093269
 30
0.0
 11
3116.106822990342
 21
1698.755539303649
 31
0.0
 12
3198.530948961677
 22
2063.602898093269
 32
0.0
 13
3198.530948961677
 23
2063.602898093269
 33
0.0
210
0.0
220
0.0
230
1.0
  0
SOLID
  5
6C8
330
6A0
100
AcDbEntity
  8
HATCH
  6
CONTINUOUS
 62
   251
100
AcDbTrace
 10
2684.585117004429
 20
2063.602898093269
 30
0.0
 11
2775.622840832136
 21
1698.755539303649
 31
0.0
 12
3116.106822990342
 22
1698.755539303649
 32
0.0
 13
3116.106822990342
 23
1698.755539303649
 33
0.0
210
0.0
220
0.0
230
1.0
  0
SOLID
  5
6C9
330
6A0
100
AcDbEntity
  8
HATCH
  6
CONTINUOUS
 62
   251
100
AcDbTrace
 10
2684.585117004429
 20
2063.602898093269
 30
0.0
 11
2750.622840832136
 21
1698.755539303649
 31
0.0
 12
2775.622840832136
 22
1698.755539303649
 32
0.0
 13
2775.622840832136
 23
1698.755539303649
 33
0.0
210
0.0
220
0.0
230
1.0
  0
SOLID
  5
6CA
330
6A0
100
AcDbEntity
  8
HATCH
  6
CONTINUOUS
 62
   251
100
AcDbTrace
 10
2684.585117004429
 20
2063.602898093269
 30
0.0
 11
2684.585117004428
 21
1612.672697301528
 31
0.0
 12
2750.622840832136
 22
1698.755539303649
 32
0.0
 13
2750.622840832136
 23
1698.755539303649
 33
0.0
210
0.0
220
0.0
230
1.0
  0
SOLID
  5
6CB
330
6A0
100
AcDbEntity
  8
HATCH
  6
CONTINUOUS
 62
   251
100
AcDbTrace
 10
3719.540059358278
 20
2065.759424637138
 30
0.0
 11
3563.174072814373
 21
2057.864046617972
 31
0.0
 12
3707.526103650524
 22
2060.783081245236
 32
0.0
 13
3707.526103650524
 23
2060.783081245236
 33
0.0
210
0.0
220
0.0
230
1.0
  0
SOLID
  5
6CC
330
6A0
100
AcDbEntity
  8
HATCH
  6
CONTINUOUS
 62
   251
100
AcDbTrace
 10
3719.540059358278
 20
2065.759424637138
 30
0.0
 11
3731.554015066032
 21
2060.783081245236
 31
0.0
 12
3973.756503917776
 22
2017.692046363656
 32
0.0
 13
3973.756503917776
 23
2017.692046363656
 33
0.0
210
0.0
220
0.0
230
1.0
  0
SOLID
  5
6CD
330
6A0
100
AcDbEntity
  8
HATCH
  6
CONTINUOUS
 62
   251
100
AcDbTrace
 10
2166.447195103887
 20
2065.759424637138
 30
0.0
 11
1912.230750544386
 21
2017.692046363657
 31
0.0
 12
2154.433239396132
 22
2060.783081245236
 32
0.0
 13
2154.433239396132
 23
2060.783081245236
 33
0.0
210
0.0
220
0.0
230
1.0
  0
SOLID
  5
6CE
330
6A0
100
AcDbEntity
  8
HATCH
  6
CONTINUOUS
 62
   251
100
AcDbTrace
 10
2166.447195103887
 20
2065.759424637138
 30
0.0
 11
2178.461150811642
 21
2060.783081245236
 31
0.0
 12
2322.813181647789
 22
2057.86404661797
 32
0.0
 13
2322.813181647789
 23
2057.86404661797
 33
0.0
210
0.0
220
0.0
230
1.0
  0
SOLID
  5
6CF
330
6A0
100
AcDbEntity
  8
HATCH
  6
CONTINUOUS
 62
   251
100
AcDbTrace
 10
3973.756503917777
 20
2083.688893229522
 30
0.0
 11
3719.540059358278
 21
2065.759424637138
 31
0.0
 12
3973.756503917776
 22
2017.692046363656
 32
0.0
 13
3973.756503917776
 23
2017.692046363656
 33
0.0
210
0.0
220
0.0
230
1.0
  0
SOLID
  5
6D0
330
6A0
100
AcDbEntity
  8
HATCH
  6
CONTINUOUS
 62
   251
100
AcDbTrace
 10
1912.230750544386
 20
2083.688893229522
 30
0.0
 11
1912.230750544386
 21
2017.692046363657
 31
0.0
 12
2166.447195103887
 22
2065.759424637138
 32
0.0
 13
2166.447195103887
 23
2065.759424637138
 33
0.0
210
0.0
220
0.0
230
1.0
  0
SOLID
  5
6D1
330
6A0
100
AcDbEntity
  8
HATCH
  6
CONTINUOUS
 62
   251
100
AcDbTrace
 10
3973.756503917777
 20
2143.946898601899
 30
0.0
 11
3719.540059358278
 21
2065.759424637138
 31
0.0
 12
3973.756503917777
 22
2083.688893229522
 32
0.0
 13
3973.756503917777
 23
2083.688893229522
 33
0.0
210
0.0
220
0.0
230
1.0
  0
SOLID
  5
6D2
330
6A0
100
AcDbEntity
  8
HATCH
  6
CONTINUOUS
 62
   251
100
AcDbTrace
 10
3973.756503917777
 20
2143.946898601899
 30
0.0
 11
3563.174072814373
 21
2057.864046617972
 31
0.0
 12
3719.540059358278
 22
2065.759424637138
 32
0.0
 13
3719.540059358278
 23
2065.759424637138
 33
0.0
210
0.0
220
0.0
230
1.0
  0
SOLID
  5
6D3
330
6A0
100
AcDbEntity
  8
HATCH
  6
CONTINUOUS
 62
   251
100
AcDbTrace
 10
1912.230750544386
 20
2143.946898601899
 30
0.0
 11
1912.230750544386
 21
2083.688893229522
 31
0.0
 12
2166.447195103887
 22
2065.759424637138
 32
0.0
 13
2166.447195103887
 23
2065.759424637138
 33
0.0
  0
SOLID
  5
6D4
330
6A0
100
AcDbEntity
  8
HATCH
  6
CONTINUOUS
 62
   251
100
AcDbTrace
 10
1912.230750544386
 20
2143.946898601899
 30
0.0
 11
2166.447195103887
 21
2065.759424637138
 31
0.0
 12
2322.813181647789
 22
2057.86404661797
 32
0.0
 13
2322.813181647789
 23
2057.86404661797
 33
0.0
210
0.0
220
0.0
230
1.0
  0
SOLID
  5
6D5
330
6A0
100
AcDbEntity
  8
HATCH
  6
CONTINUOUS
 62
   251
100
AcDbTrace
 10
3719.540059358278
 20
2161.876367194279
 30
0.0
 11
3563.174072814373
 21
2057.864046617972
 31
0.0
 12
3973.756503917777
 22
2143.946898601899
 32
0.0
 13
3973.756503917777
 23
2143.946898601899
 33
0.0
  0
SOLID
  5
6D6
330
6A0
100
AcDbEntity
  8
HATCH
  6
CONTINUOUS
 62
   251
100
AcDbTrace
 10
2166.447195103887
 20
2161.876367194279
 30
0.0
 11
1912.230750544386
 21
2143.946898601899
 31
0.0
 12
2322.813181647789
 22
2057.86404661797
 32
0.0
 13
2322.813181647789
 23
2057.86404661797
 33
0.0
210
0.0
220
0.0
230
1.0
  0
SOLID
  5
6D7
330
6A0
100
AcDbEntity
  8
HATCH
  6
CONTINUOUS
 62
   251
100
AcDbTrace
 10
3707.526103650524
 20
2166.852710586181
 30
0.0
 11
3563.174072814373
 21
2057.864046617972
 31
0.0
 12
3719.540059358278
 22
2161.876367194279
 32
0.0
 13
3719.540059358278
 23
2161.876367194279
 33
0.0
210
0.0
220
0.0
230
1.0
  0
SOLID
  5
6D8
330
6A0
100
AcDbEntity
  8
HATCH
  6
CONTINUOUS
 62
   251
100
AcDbTrace
 10
2154.433239396132
 20
2166.852710586181
 30
0.0
 11
1912.230750544386
 21
2143.946898601899
 31
0.0
 12
2166.447195103887
 22
2161.876367194279
 32
0.0
 13
2166.447195103887
 23
2161.876367194279
 33
0.0
  0
SOLID
  5
6D9
330
6A0
100
AcDbEntity
  8
HATCH
  6
CONTINUOUS
 62
   251
100
AcDbTrace
 10
2178.461150811642
 20
2166.852710586181
 30
0.0
 11
2166.447195103887
 21
2161.876367194279
 31
0.0
 12
2322.813181647789
 22
2057.86404661797
 32
0.0
 13
2322.813181647789
 23
2057.86404661797
 33
0.0
210
0.0
220
0.0
230
1.0
  0
SOLID
  5
6DA
330
6A0
100
AcDbEntity
  8
HATCH
  6
CONTINUOUS
 62
   251
100
AcDbTrace
 10
3731.554015066032
 20
2166.852710586181
 30
0.0
 11
3719.540059358278
 21
2161.876367194279
 31
0.0
 12
3973.756503917777
 22
2143.946898601899
 32
0.0
 13
3973.756503917777
 23
2143.946898601899
 33
0.0
210
0.0
220
0.0
230
1.0
  0
SOLID
  5
6DB
330
6A0
100
AcDbEntity
  8
HATCH
  6
CONTINUOUS
 62
   251
100
AcDbTrace
 10
3563.174072814373
 20
2169.77174521345
 30
0.0
 11
3563.174072814373
 21
2057.864046617972
 31
0.0
 12
3707.526103650524
 22
2166.852710586181
 32
0.0
 13
3707.526103650524
 23
2166.852710586181
 33
0.0
210
0.0
220
0.0
230
1.0
  0
SOLID
  5
6DC
330
6A0
100
AcDbEntity
  8
HATCH
  6
CONTINUOUS
 62
   251
100
AcDbTrace
 10
2322.813181647791
 20
2169.77174521345
 30
0.0
 11
2178.461150811642
 21
2166.852710586181
 31
0.0
 12
2322.813181647789
 22
2057.86404661797
 32
0.0
 13
2322.813181647789
 23
2057.86404661797
 33
0.0
210
0.0
220
0.0
230
1.0
  0
SOLID
  5
6DD
330
6A0
100
AcDbEntity
  8
HATCH
  6
CONTINUOUS
 62
   251
100
AcDbTrace
 10
2311.328346743066
 20
2178.380027417298
 30
0.0
 11
2178.461150811642
 21
2166.852710586181
 31
0.0
 12
2322.813181647791
 22
2169.77174521345
 32
0.0
 13
2322.813181647791
 23
2169.77174521345
 33
0.0
210
0.0
220
0.0
230
1.0
  0
SOLID
  5
6DE
330
6A0
100
AcDbEntity
  8
HATCH
  6
CONTINUOUS
 62
   251
100
AcDbTrace
 10
3574.658907719099
 20
2178.380027417298
 30
0.0
 11
3563.174072814373
 21
2169.77174521345
 31
0.0
 12
3707.526103650524
 22
2166.852710586181
 32
0.0
 13
3707.526103650524
 23
2166.852710586181
 33
0.0
210
0.0
220
0.0
230
1.0
  0
SOLID
  5
6DF
330
6A0
100
AcDbEntity
  8
HATCH
  6
CONTINUOUS
 62
   251
100
AcDbTrace
 10
3702.549760258622
 20
2178.866666293936
 30
0.0
 11
3574.658907719099
 21
2178.380027417298
 31
0.0
 12
3707.526103650524
 22
2166.852710586181
 32
0.0
 13
3707.526103650524
 23
2166.852710586181
 33
0.0
210
0.0
220
0.0
230
1.0
  0
SOLID
  5
6E0
330
6A0
100
AcDbEntity
  8
HATCH
  6
CONTINUOUS
 62
   251
100
AcDbTrace
 10
2149.456896004231
 20
2178.866666293936
 30
0.0
 11
1912.230750544386
 21
2143.946898601899
 31
0.0
 12
2154.433239396132
 22
2166.852710586181
 32
0.0
 13
2154.433239396132
 23
2166.852710586181
 33
0.0
210
0.0
220
0.0
230
1.0
  0
SOLID
  5
6E1
330
6A0
100
AcDbEntity
  8
HATCH
  6
CONTINUOUS
 62
   251
100
AcDbTrace
 10
2183.437494203543
 20
2178.866666293936
 30
0.0
 11
2178.461150811642
 21
2166.852710586181
 31
0.0
 12
2311.328346743066
 22
2178.380027417298
 32
0.0
 13
2311.328346743066
 23
2178.380027417298
 33
0.0
210
0.0
220
0.0
230
1.0
  0
SOLID
  5
6E2
330
6A0
100
AcDbEntity
  8
HATCH
  6
CONTINUOUS
 62
   251
100
AcDbTrace
 10
3736.530358457934
 20
2178.866666293936
 30
0.0
 11
3731.554015066032
 21
2166.852710586181
 31
0.0
 12
3973.756503917777
 22
2143.946898601899
 32
0.0
 13
3973.756503917777
 23
2143.946898601899
 33
0.0
210
0.0
220
0.0
230
1.0
  0
SOLID
  5
6E3
330
6A0
100
AcDbEntity
  8
HATCH
  6
CONTINUOUS
 62
   251
100
AcDbTrace
 10
2233.805804194733
 20
2189.857740349704
 30
0.0
 11
2183.437494203543
 21
2178.866666293936
 31
0.0
 12
2311.328346743066
 22
2178.380027417298
 32
0.0
 13
2311.328346743066
 23
2178.380027417298
 33
0.0
210
0.0
220
0.0
230
1.0
  0
SOLID
  5
6E4
330
6A0
100
AcDbEntity
  8
HATCH
  6
CONTINUOUS
 62
   251
100
AcDbTrace
 10
3652.181450267431
 20
2189.857740349704
 30
0.0
 11
3574.658907719099
 21
2178.380027417298
 31
0.0
 12
3702.549760258622
 22
2178.866666293936
 32
0.0
 13
3702.549760258622
 23
2178.866666293936
 33
0.0
210
0.0
220
0.0
230
1.0
  0
SOLID
  5
6E5
330
6A0
100
AcDbEntity
  8
HATCH
  6
CONTINUOUS
 62
   251
100
AcDbTrace
 10
2154.433239396132
 20
2190.88062200169
 30
0.0
 11
1912.230750544386
 21
2143.946898601899
 31
0.0
 12
2149.456896004231
 22
2178.866666293936
 32
0.0
 13
2149.456896004231
 23
2178.866666293936
 33
0.0
210
0.0
220
0.0
230
1.0
  0
SOLID
  5
6E6
330
6A0
100
AcDbEntity
  8
HATCH
  6
CONTINUOUS
 62
   251
100
AcDbTrace
 10
3707.526103650524
 20
2190.88062200169
 30
0.0
 11
3652.181450267431
 21
2189.857740349704
 31
0.0
 12
3702.549760258622
 22
2178.866666293936
 32
0.0
 13
3702.549760258622
 23
2178.866666293936
 33
0.0
210
0.0
220
0.0
230
1.0
  0
SOLID
  5
6E7
330
6A0
100
AcDbEntity
  8
HATCH
  6
CONTINUOUS
 62
   251
100
AcDbTrace
 10
2178.461150811642
 20
2190.88062200169
 30
0.0
 11
2183.437494203543
 21
2178.866666293936
 31
0.0
 12
2233.805804194733
 22
2189.857740349704
 32
0.0
 13
2233.805804194733
 23
2189.857740349704
 33
0.0
210
0.0
220
0.0
230
1.0
  0
SOLID
  5
6E8
330
6A0
100
AcDbEntity
  8
HATCH
  6
CONTINUOUS
 62
   251
100
AcDbTrace
 10
3731.554015066032
 20
2190.88062200169
 30
0.0
 11
3736.530358457934
 21
2178.866666293936
 31
0.0
 12
3973.756503917777
 22
2143.946898601899
 32
0.0
 13
3973.756503917777
 23
2143.946898601899
 33
0.0
210
0.0
220
0.0
230
1.0
  0
SOLID
  5
6E9
330
6A0
100
AcDbEntity
  8
HATCH
  6
CONTINUOUS
 62
   251
100
AcDbTrace
 10
2166.447195103887
 20
2195.856965393592
 30
0.0
 11
1912.230750544386
 21
2143.946898601899
 31
0.0
 12
2154.433239396132
 22
2190.88062200169
 32
0.0
 13
2154.433239396132
 23
2190.88062200169
 33
0.0
210
0.0
220
0.0
230
1.0
  0
SOLID
  5
6EA
330
6A0
100
AcDbEntity
  8
HATCH
  6
CONTINUOUS
 62
   251
100
AcDbTrace
 10
2166.447195103887
 20
2195.856965393592
 30
0.0
 11
2178.461150811642
 21
2190.88062200169
 31
0.0
 12
2233.805804194733
 22
2189.857740349704
 32
0.0
 13
2233.805804194733
 23
2189.857740349704
 33
0.0
210
0.0
220
0.0
230
1.0
  0
SOLID
  5
6EB
330
6A0
100
AcDbEntity
  8
HATCH
  6
CONTINUOUS
 62
   251
100
AcDbTrace
 10
3719.540059358278
 20
2195.856965393592
 30
0.0
 11
3652.181450267431
 21
2189.857740349704
 31
0.0
 12
3707.526103650524
 22
2190.88062200169
 32
0.0
 13
3707.526103650524
 23
2190.88062200169
 33
0.0
210
0.0
220
0.0
230
1.0
  0
SOLID
  5
6EC
330
6A0
100
AcDbEntity
  8
HATCH
  6
CONTINUOUS
 62
   251
100
AcDbTrace
 10
3719.540059358278
 20
2195.856965393592
 30
0.0
 11
3731.554015066032
 21
2190.88062200169
 31
0.0
 12
3973.756503917777
 22
2143.946898601899
 32
0.0
 13
3973.756503917777
 23
2143.946898601899
 33
0.0
210
0.0
220
0.0
230
1.0
  0
SOLID
  5
6ED
330
6A0
100
AcDbEntity
  8
HATCH
  6
CONTINUOUS
 62
   251
100
AcDbTrace
 10
3973.756503917776
 20
2209.943745467764
 30
0.0
 11
3719.540059358278
 21
2195.856965393592
 31
0.0
 12
3973.756503917777
 22
2143.946898601899
 32
0.0
 13
3973.756503917777
 23
2143.946898601899
 33
0.0
210
0.0
220
0.0
230
1.0
  0
SOLID
  5
6EE
330
6A0
100
AcDbEntity
  8
HATCH
  6
CONTINUOUS
 62
   251
100
AcDbTrace
 10
1912.230750544385
 20
2209.943745467764
 30
0.0
 11
1912.230750544386
 21
2143.946898601899
 31
0.0
 12
2166.447195103887
 22
2195.856965393592
 32
0.0
 13
2166.447195103887
 23
2195.856965393592
 33
0.0
210
0.0
220
0.0
230
1.0
  0
SOLID
  5
6EF
330
6A0
100
AcDbEntity
  8
HATCH
  6
CONTINUOUS
 62
   251
100
AcDbTrace
 10
2164.896859502773
 20
2238.638022807871
 30
0.0
 11
1912.230750544385
 21
2209.943745467764
 31
0.0
 12
2166.447195103887
 22
2195.856965393592
 32
0.0
 13
2166.447195103887
 23
2195.856965393592
 33
0.0
210
0.0
220
0.0
230
1.0
  0
SOLID
  5
6F0
330
6A0
100
AcDbEntity
  8
HATCH
  6
CONTINUOUS
 62
   251
100
AcDbTrace
 10
2164.896859502773
 20
2238.638022807871
 30
0.0
 11
2166.447195103887
 21
2195.856965393592
 31
0.0
 12
2233.805804194733
 22
2189.857740349704
 32
0.0
 13
2233.805804194733
 23
2189.857740349704
 33
0.0
210
0.0
220
0.0
230
1.0
  0
SOLID
  5
6F1
330
6A0
100
AcDbEntity
  8
HATCH
  6
CONTINUOUS
 62
   251
100
AcDbTrace
 10
3721.090394959393
 20
2238.638022807871
 30
0.0
 11
3719.540059358278
 21
2195.856965393592
 31
0.0
 12
3973.756503917776
 22
2209.943745467764
 32
0.0
 13
3973.756503917776
 23
2209.943745467764
 33
0.0
210
0.0
220
0.0
230
1.0
  0
SOLID
  5
6F2
330
6A0
100
AcDbEntity
  8
HATCH
  6
CONTINUOUS
 62
   251
100
AcDbTrace
 10
3721.090394959393
 20
2238.638022807871
 30
0.0
 11
3652.181450267431
 21
2189.857740349704
 31
0.0
 12
3719.540059358278
 22
2195.856965393592
 32
0.0
 13
3719.540059358278
 23
2195.856965393592
 33
0.0
210
0.0
220
0.0
230
1.0
  0
SOLID
  5
6F3
330
6A0
100
AcDbEntity
  8
HATCH
  6
CONTINUOUS
 62
   251
100
AcDbTrace
 10
3721.090394959393
 20
2238.638022807871
 30
0.0
 11
3916.332377946443
 21
2258.724017944122
 31
0.0
 12
3815.840181772761
 22
2258.724017944122
 32
0.0
 13
3815.840181772761
 23
2258.724017944122
 33
0.0
210
0.0
220
0.0
230
1.0
  0
SOLID
  5
6F4
330
6A0
100
AcDbEntity
  8
HATCH
  6
CONTINUOUS
 62
   251
100
AcDbTrace
 10
3916.332377946443
 20
2258.724017944122
 30
0.0
 11
3721.090394959393
 21
2238.638022807871
 31
0.0
 12
3973.756503917776
 22
2209.943745467764
 32
0.0
 13
3973.756503917776
 23
2209.943745467764
 33
0.0
210
0.0
220
0.0
230
1.0
  0
SOLID
  5
6F5
330
6A0
100
AcDbEntity
  8
HATCH
  6
CONTINUOUS
 62
   251
100
AcDbTrace
 10
2070.147072689402
 20
2258.724017944122
 30
0.0
 11
1912.230750544385
 21
2209.943745467764
 31
0.0
 12
2164.896859502773
 22
2238.638022807871
 32
0.0
 13
2164.896859502773
 23
2238.638022807871
 33
0.0
210
0.0
220
0.0
230
1.0
  0
SOLID
  5
6F6
330
6A0
100
AcDbEntity
  8
HATCH
  6
CONTINUOUS
 62
   251
100
AcDbTrace
 10
1969.654876515718
 20
2258.724017944122
 30
0.0
 11
1912.230750544385
 21
2209.943745467764
 31
0.0
 12
2070.147072689402
 22
2258.724017944122
 32
0.0
 13
2070.147072689402
 23
2258.724017944122
 33
0.0
210
0.0
220
0.0
230
1.0
  0
SOLID
  5
6F7
330
6A0
100
AcDbEntity
  8
HATCH
  6
CONTINUOUS
 62
   251
100
AcDbTrace
 10
3116.106822990345
 20
2528.880252527768
 30
0.0
 11
2684.585117004429
 21
2164.032893738152
 31
0.0
 12
3198.530948961677
 22
2164.032893738153
 32
0.0
 13
3198.530948961677
 23
2164.032893738153
 33
0.0
210
0.0
220
0.0
230
1.0
  0
SOLID
  5
6F8
330
6A0
100
AcDbEntity
  8
HATCH
  6
CONTINUOUS
 62
   251
100
AcDbTrace
 10
3141.106822990344
 20
2528.880252527772
 30
0.0
 11
3116.106822990345
 21
2528.880252527768
 31
0.0
 12
3198.530948961677
 22
2164.032893738153
 32
0.0
 13
3198.530948961677
 23
2164.032893738153
 33
0.0
210
0.0
220
0.0
230
1.0
  0
SOLID
  5
6F9
330
6A0
100
AcDbEntity
  8
HATCH
  6
CONTINUOUS
 62
   251
100
AcDbTrace
 10
2750.622840832138
 20
2528.880252527772
 30
0.0
 11
2684.585117004429
 21
2164.032893738152
 31
0.0
 12
3116.106822990345
 22
2528.880252527768
 32
0.0
 13
3116.106822990345
 23
2528.880252527768
 33
0.0
210
0.0
220
0.0
230
1.0
  0
SOLID
  5
6FA
330
6A0
100
AcDbEntity
  8
HATCH
  6
CONTINUOUS
 62
   251
100
AcDbTrace
 10
2775.622840832133
 20
2528.880252527772
 30
0.0
 11
2750.622840832138
 21
2528.880252527772
 31
0.0
 12
3116.106822990345
 22
2528.880252527768
 32
0.0
 13
3116.106822990345
 23
2528.880252527768
 33
0.0
210
0.0
220
0.0
230
1.0
  0
SOLID
  5
6FB
330
6A0
100
AcDbEntity
  8
HATCH
  6
CONTINUOUS
 62
   251
100
AcDbTrace
 10
3198.530948961677
 20
2614.963094529892
 30
0.0
 11
3141.106822990344
 21
2528.880252527772
 31
0.0
 12
3198.530948961677
 22
2164.032893738153
 32
0.0
 13
3198.530948961677
 23
2164.032893738153
 33
0.0
210
0.0
220
0.0
230
1.0
  0
SOLID
  5
6FC
330
6A0
100
AcDbEntity
  8
HATCH
  6
CONTINUOUS
 62
   251
100
AcDbTrace
 10
2684.585117004429
 20
2614.963094529892
 30
0.0
 11
2684.585117004429
 21
2164.032893738152
 31
0.0
 12
2750.622840832138
 22
2528.880252527772
 32
0.0
 13
2750.622840832138
 23
2528.880252527772
 33
0.0
210
0.0
220
0.0
230
1.0
  0
SOLID
  5
6FD
330
6A0
100
AcDbEntity
  8
HATCH
  6
CONTINUOUS
 62
   251
100
AcDbTrace
 10
3116.106822990343
 20
2628.880252527772
 30
0.0
 11
2775.622840832133
 21
2528.880252527772
 31
0.0
 12
3116.106822990345
 22
2528.880252527768
 32
0.0
 13
3116.106822990345
 23
2528.880252527768
 33
0.0
210
0.0
220
0.0
230
1.0
  0
SOLID
  5
6FE
330
6A0
100
AcDbEntity
  8
HATCH
  6
CONTINUOUS
 62
   251
100
AcDbTrace
 10
3141.106822990343
 20
2628.880252527772
 30
0.0
 11
3141.106822990344
 21
2528.880252527772
 31
0.0
 12
3198.530948961677
 22
2614.963094529892
 32
0.0
 13
3198.530948961677
 23
2614.963094529892
 33
0.0
210
0.0
220
0.0
230
1.0
  0
SOLID
  5
6FF
330
6A0
100
AcDbEntity
  8
HATCH
  6
CONTINUOUS
 62
   251
100
AcDbTrace
 10
2775.622840832136
 20
2628.880252527772
 30
0.0
 11
2775.622840832133
 21
2528.880252527772
 31
0.0
 12
3116.106822990343
 22
2628.880252527772
 32
0.0
 13
3116.106822990343
 23
2628.880252527772
 33
0.0
210
0.0
220
0.0
230
1.0
  0
SOLID
  5
700
330
6A0
100
AcDbEntity
  8
HATCH
  6
CONTINUOUS
 62
   251
100
AcDbTrace
 10
2750.622840832136
 20
2628.880252527772
 30
0.0
 11
2684.585117004429
 21
2614.963094529892
 31
0.0
 12
2750.622840832138
 22
2528.880252527772
 32
0.0
 13
2750.622840832138
 23
2528.880252527772
 33
0.0
210
0.0
220
0.0
230
1.0
  0
SOLID
  5
701
330
6A0
100
AcDbEntity
  8
HATCH
  6
CONTINUOUS
 62
   251
100
AcDbTrace
 10
2750.622840832136
 20
2628.880252527772
 30
0.0
 11
2775.622840832136
 21
2628.880252527772
 31
0.0
 12
3116.106822990343
 22
2628.880252527772
 32
0.0
 13
3116.106822990343
 23
2628.880252527772
 33
0.0
210
0.0
220
0.0
230
1.0
  0
SOLID
  5
702
330
6A0
100
AcDbEntity
  8
HATCH
  6
CONTINUOUS
 62
   251
100
AcDbTrace
 10
2750.622840832136
 20
2628.880252527772
 30
0.0
 11
3116.106822990343
 21
2628.880252527772
 31
0.0
 12
3141.106822990343
 22
2628.880252527772
 32
0.0
 13
3141.106822990343
 23
2628.880252527772
 33
0.0
210
0.0
220
0.0
230
1.0
  0
SOLID
  5
703
330
6A0
100
AcDbEntity
  8
HATCH
  6
CONTINUOUS
 62
   251
100
AcDbTrace
 10
3169.241627080332
 20
2685.673772648546
 30
0.0
 11
2750.622840832136
 21
2628.880252527772
 31
0.0
 12
3141.106822990343
 22
2628.880252527772
 32
0.0
 13
3141.106822990343
 23
2628.880252527772
 33
0.0
210
0.0
220
0.0
230
1.0
  0
SOLID
  5
704
330
6A0
100
AcDbEntity
  8
HATCH
  6
CONTINUOUS
 62
   251
100
AcDbTrace
 10
3169.241627080332
 20
2685.673772648546
 30
0.0
 11
3141.106822990343
 21
2628.880252527772
 31
0.0
 12
3198.530948961677
 22
2614.963094529892
 32
0.0
 13
3198.530948961677
 23
2614.963094529892
 33
0.0
210
0.0
220
0.0
230
1.0
  0
SOLID
  5
705
330
6A0
100
AcDbEntity
  8
HATCH
  6
CONTINUOUS
 62
   251
100
AcDbTrace
 10
2713.874438885774
 20
2685.673772648547
 30
0.0
 11
2750.622840832136
 21
2628.880252527772
 31
0.0
 12
3169.241627080332
 22
2685.673772648546
 32
0.0
 13
3169.241627080332
 23
2685.673772648546
 33
0.0
210
0.0
220
0.0
230
1.0
  0
SOLID
  5
706
330
6A0
100
AcDbEntity
  8
HATCH
  6
CONTINUOUS
 62
   251
100
AcDbTrace
 10
2713.874438885774
 20
2685.673772648547
 30
0.0
 11
2684.585117004429
 21
2614.963094529892
 31
0.0
 12
2750.622840832136
 22
2628.880252527772
 32
0.0
 13
2750.622840832136
 23
2628.880252527772
 33
0.0
210
0.0
220
0.0
230
1.0
  0
SOLID
  5
707
330
6A0
100
AcDbEntity
  8
HATCH
  6
CONTINUOUS
 62
   251
100
AcDbTrace
 10
2713.874438885774
 20
2685.673772648547
 30
0.0
 11
3098.530948961677
 21
2714.963094529892
 31
0.0
 12
2784.58511700443
 22
2714.963094529892
 32
0.0
 13
2784.58511700443
 23
2714.963094529892
 33
0.0
210
0.0
220
0.0
230
1.0
  0
SOLID
  5
708
330
6A0
100
AcDbEntity
  8
HATCH
  6
CONTINUOUS
 62
   251
100
AcDbTrace
 10
3098.530948961677
 20
2714.963094529892
 30
0.0
 11
2713.874438885774
 21
2685.673772648547
 31
0.0
 12
3169.241627080332
 22
2685.673772648546
 32
0.0
 13
3169.241627080332
 23
2685.673772648546
 33
0.0
210
0.0
220
0.0
230
1.0
  0
ENDBLK
  5
70A
330
6A0
100
AcDbEntity
  8
0
100
AcDbBlockEnd
  0
BLOCK
  5
718
330
70B
100
AcDbEntity
  8
0
100
AcDbBlockBegin
  2
*U7
 70
     1
 10
0.0
 20
0.0
 30
0.0
  3
*U7
  1

  0
SOLID
  5
70C
330
70B
100
AcDbEntity
  8
HATCH
  6
CONTINUOUS
 62
     2
100
AcDbTrace
 10
2340.040425912829
 20
2049.255764414124
 30
0.0
 11
2340.040425912829
 21
1954.564630226341
 31
0.0
 12
2368.752480806447
 22
1954.564630226341
 32
0.0
 13
2368.752480806447
 23
1954.564630226341
 33
0.0
210
0.0
220
0.0
230
1.0
  0
SOLID
  5
70D
330
70B
100
AcDbEntity
  8
HATCH
  6
CONTINUOUS
 62
     2
100
AcDbTrace
 10
3545.946844733431
 20
2054.99461588942
 30
0.0
 11
3512.927974727532
 21
1954.564630226342
 31
0.0
 12
3545.946844733432
 22
1954.564630226342
 32
0.0
 13
3545.946844733432
 23
1954.564630226342
 33
0.0
  0
SOLID
  5
70E
330
70B
100
AcDbEntity
  8
HATCH
  6
CONTINUOUS
 62
     2
100
AcDbTrace
 10
2322.813181647791
 20
2169.771745213449
 30
0.0
 11
2322.813181647789
 21
2057.864046617972
 31
0.0
 12
2340.040425912829
 22
2049.255764414124
 32
0.0
 13
2340.040425912829
 23
2049.255764414124
 33
0.0
210
0.0
220
0.0
230
1.0
  0
SOLID
  5
70F
330
70B
100
AcDbEntity
  8
HATCH
  6
CONTINUOUS
 62
     2
100
AcDbTrace
 10
2322.813181647791
 20
2169.771745213449
 30
0.0
 11
2340.040425912829
 21
2049.255764414124
 31
0.0
 12
2368.752480806447
 22
1954.564630226341
 32
0.0
 13
2368.752480806447
 23
1954.564630226341
 33
0.0
210
0.0
220
0.0
230
1.0
  0
SOLID
  5
710
330
70B
100
AcDbEntity
  8
HATCH
  6
CONTINUOUS
 62
     2
100
AcDbTrace
 10
3563.174072814374
 20
2169.77174521345
 30
0.0
 11
3545.946844733431
 21
2054.99461588942
 31
0.0
 12
3563.174072814372
 22
2057.864046617972
 32
0.0
 13
3563.174072814372
 23
2057.864046617972
 33
0.0
210
0.0
220
0.0
230
1.0
  0
SOLID
  5
711
330
70B
100
AcDbEntity
  8
HATCH
  6
CONTINUOUS
 62
     2
100
AcDbTrace
 10
3563.174072814374
 20
2169.77174521345
 30
0.0
 11
3512.927974727532
 21
1954.564630226342
 31
0.0
 12
3545.946844733431
 22
2054.99461588942
 32
0.0
 13
3545.946844733431
 23
2054.99461588942
 33
0.0
210
0.0
220
0.0
230
1.0
  0
SOLID
  5
712
330
70B
100
AcDbEntity
  8
HATCH
  6
CONTINUOUS
 62
     2
100
AcDbTrace
 10
3545.946844733434
 20
2172.641175942001
 30
0.0
 11
3512.927974727532
 21
1954.564630226342
 31
0.0
 12
3563.174072814374
 22
2169.77174521345
 32
0.0
 13
3563.174072814374
 23
2169.77174521345
 33
0.0
210
0.0
220
0.0
230
1.0
  0
SOLID
  5
713
330
70B
100
AcDbEntity
  8
HATCH
  6
CONTINUOUS
 62
     2
100
AcDbTrace
 10
2340.04042591283
 20
2178.380027417297
 30
0.0
 11
2322.813181647791
 21
2169.771745213449
 31
0.0
 12
2368.752480806447
 22
1954.564630226341
 32
0.0
 13
2368.752480806447
 23
1954.564630226341
 33
0.0
210
0.0
220
0.0
230
1.0
  0
SOLID
  5
714
330
70B
100
AcDbEntity
  8
HATCH
  6
CONTINUOUS
 62
     2
100
AcDbTrace
 10
2340.04042591283
 20
2273.071161605077
 30
0.0
 11
2340.04042591283
 21
2178.380027417297
 31
0.0
 12
2368.752480806447
 22
1954.564630226341
 32
0.0
 13
2368.752480806447
 23
1954.564630226341
 33
0.0
210
0.0
220
0.0
230
1.0
  0
SOLID
  5
715
330
70B
100
AcDbEntity
  8
HATCH
  6
CONTINUOUS
 62
     2
100
AcDbTrace
 10
2368.752480806448
 20
2273.071161605078
 30
0.0
 11
2340.04042591283
 21
2273.071161605077
 31
0.0
 12
2368.752480806447
 22
1954.564630226341
 32
0.0
 13
2368.752480806447
 23
1954.564630226341
 33
0.0
210
0.0
220
0.0
230
1.0
  0
SOLID
  5
716
330
70B
100
AcDbEntity
  8
HATCH
  6
CONTINUOUS
 62
     2
100
AcDbTrace
 10
3512.927974727532
 20
2273.071161605078
 30
0.0
 11
3512.927974727532
 21
1954.564630226342
 31
0.0
 12
3545.946844733434
 22
2172.641175942001
 32
0.0
 13
3545.946844733434
 23
2172.641175942001
 33
0.0
210
0.0
220
0.0
230
1.0
  0
SOLID
  5
717
330
70B
100
AcDbEntity
  8
HATCH
  6
CONTINUOUS
 62
     2
100
AcDbTrace
 10
3545.946844733434
 20
2273.071161605078
 30
0.0
 11
3512.927974727532
 21
2273.071161605078
 31
0.0
 12
3545.946844733434
 22
2172.641175942001
 32
0.0
 13
3545.946844733434
 23
2172.641175942001
 33
0.0
210
0.0
220
0.0
230
1.0
  0
ENDBLK
  5
719
330
70B
100
AcDbEntity
  8
0
100
AcDbBlockEnd
  0
BLOCK
  5
723
330
71A
100
AcDbEntity
  8
0
100
AcDbBlockBegin
  2
*U8
 70
     1
 10
0.0
 20
0.0
 30
0.0
  3
*U8
  1

  0
SOLID
  5
71B
330
71A
100
AcDbEntity
  8
HATCH
  6
CONTINUOUS
 62
     1
100
AcDbTrace
 10
2397.464535700065
 20
2023.430907820763
 30
0.0
 11
2368.752480806447
 21
1954.564630226342
 31
0.0
 12
2397.464535700064
 22
1954.564630226342
 32
0.0
 13
2397.464535700064
 23
1954.564630226342
 33
0.0
  0
SOLID
  5
71C
330
71A
100
AcDbEntity
  8
HATCH
  6
CONTINUOUS
 62
     1
100
AcDbTrace
 10
3479.909104721631
 20
2023.430907820763
 30
0.0
 11
3479.909104721631
 21
1954.564630226342
 31
0.0
 12
3512.927974727531
 22
1954.564630226342
 32
0.0
 13
3512.927974727531
 23
1954.564630226342
 33
0.0
210
0.0
220
0.0
230
1.0
  0
SOLID
  5
71D
330
71A
100
AcDbEntity
  8
HATCH
  6
CONTINUOUS
 62
     1
100
AcDbTrace
 10
2397.464535700066
 20
2204.204884010659
 30
0.0
 11
2368.752480806447
 21
1954.564630226342
 31
0.0
 12
2397.464535700065
 22
2023.430907820763
 32
0.0
 13
2397.464535700065
 23
2023.430907820763
 33
0.0
210
0.0
220
0.0
230
1.0
  0
SOLID
  5
71E
330
71A
100
AcDbEntity
  8
HATCH
  6
CONTINUOUS
 62
     1
100
AcDbTrace
 10
3479.909104721631
 20
2204.204884010659
 30
0.0
 11
3479.909104721631
 21
2023.430907820763
 31
0.0
 12
3512.927974727531
 22
1954.564630226342
 32
0.0
 13
3512.927974727531
 23
1954.564630226342
 33
0.0
  0
SOLID
  5
71F
330
71A
100
AcDbEntity
  8
HATCH
  6
CONTINUOUS
 62
     1
100
AcDbTrace
 10
2368.752480806448
 20
2273.071161605077
 30
0.0
 11
2368.752480806447
 21
1954.564630226342
 31
0.0
 12
2397.464535700066
 22
2204.204884010659
 32
0.0
 13
2397.464535700066
 23
2204.204884010659
 33
0.0
210
0.0
220
0.0
230
1.0
  0
SOLID
  5
720
330
71A
100
AcDbEntity
  8
HATCH
  6
CONTINUOUS
 62
     1
100
AcDbTrace
 10
2397.464535700066
 20
2273.071161605078
 30
0.0
 11
2368.752480806448
 21
2273.071161605077
 31
0.0
 12
2397.464535700066
 22
2204.204884010659
 32
0.0
 13
2397.464535700066
 23
2204.204884010659
 33
0.0
210
0.0
220
0.0
230
1.0
  0
SOLID
  5
721
330
71A
100
AcDbEntity
  8
HATCH
  6
CONTINUOUS
 62
     1
100
AcDbTrace
 10
3479.909104721631
 20
2204.204884010659
 30
0.0
 11
3512.927974727532
 21
2273.071161605078
 31
0.0
 12
3479.909104721631
 22
2273.071161605078
 32
0.0
 13
3479.909104721631
 23
2273.071161605078
 33
0.0
  0
SOLID
  5
722
330
71A
100
AcDbEntity
  8
HATCH
  6
CONTINUOUS
 62
     1
100
AcDbTrace
 10
3512.927974727532
 20
2273.071161605078
 30
0.0
 11
3479.909104721631
 21
2204.204884010659
 31
0.0
 12
3512.927974727531
 22
1954.564630226342
 32
0.0
 13
3512.927974727531
 23
1954.564630226342
 33
0.0
  0
ENDBLK
  5
724
330
71A
100
AcDbEntity
  8
0
100
AcDbBlockEnd
  0
BLOCK
  5
72E
330
725
100
AcDbEntity
  8
0
100
AcDbBlockBegin
  2
*U9
 70
     1
 10
0.0
 20
0.0
 30
0.0
  3
*U9
  1

  0
SOLID
  5
726
330
725
100
AcDbEntity
  8
HATCH
  6
CONTINUOUS
 62
     5
100
AcDbTrace
 10
1837.579396492115
 20
2083.688893229522
 30
0.0
 11
1912.230750544385
 21
2103.774898347587
 31
0.0
 12
1837.579396492115
 22
2103.774898347587
 32
0.0
 13
1837.579396492115
 23
2103.774898347587
 33
0.0
210
0.0
220
0.0
230
1.0
  0
SOLID
  5
727
330
725
100
AcDbEntity
  8
HATCH
  6
CONTINUOUS
 62
     5
100
AcDbTrace
 10
1912.230750544385
 20
2103.774898347587
 30
0.0
 11
1837.579396492115
 21
2083.688893229522
 31
0.0
 12
1912.230750544385
 22
2083.688893229521
 32
0.0
 13
1912.230750544385
 23
2083.688893229521
 33
0.0
210
0.0
220
0.0
230
1.0
  0
SOLID
  5
728
330
725
100
AcDbEntity
  8
HATCH
  6
CONTINUOUS
 62
     5
100
AcDbTrace
 10
4048.407857970049
 20
2083.688893229522
 30
0.0
 11
4048.40785797005
 21
2103.774898347587
 31
0.0
 12
3973.756503917777
 22
2103.774898347587
 32
0.0
 13
3973.756503917777
 23
2103.774898347587
 33
0.0
210
0.0
220
0.0
230
1.0
  0
SOLID
  5
729
330
725
100
AcDbEntity
  8
HATCH
  6
CONTINUOUS
 62
     5
100
AcDbTrace
 10
3973.756503917777
 20
2103.774898347587
 30
0.0
 11
3973.756503917777
 21
2083.688893229522
 31
0.0
 12
4048.407857970049
 22
2083.688893229522
 32
0.0
 13
4048.407857970049
 23
2083.688893229522
 33
0.0
210
0.0
220
0.0
230
1.0
  0
SOLID
  5
72A
330
725
100
AcDbEntity
  8
HATCH
  6
CONTINUOUS
 62
     5
100
AcDbTrace
 10
1912.230750544385
 20
2123.860893483833
 30
0.0
 11
1912.230750544385
 21
2143.946898601899
 31
0.0
 12
1837.579396492114
 22
2143.946898601899
 32
0.0
 13
1837.579396492114
 23
2143.946898601899
 33
0.0
210
0.0
220
0.0
230
1.0
  0
SOLID
  5
72B
330
725
100
AcDbEntity
  8
HATCH
  6
CONTINUOUS
 62
     5
100
AcDbTrace
 10
1837.579396492114
 20
2143.946898601899
 30
0.0
 11
1837.579396492113
 21
2123.860893483833
 31
0.0
 12
1912.230750544385
 22
2123.860893483833
 32
0.0
 13
1912.230750544385
 23
2123.860893483833
 33
0.0
210
0.0
220
0.0
230
1.0
  0
SOLID
  5
72C
330
725
100
AcDbEntity
  8
HATCH
  6
CONTINUOUS
 62
     5
100
AcDbTrace
 10
4048.407857970049
 20
2143.946898601899
 30
0.0
 11
3973.756503917777
 21
2123.860893483834
 31
0.0
 12
4048.40785797005
 22
2123.860893483834
 32
0.0
 13
4048.40785797005
 23
2123.860893483834
 33
0.0
210
0.0
220
0.0
230
1.0
  0
SOLID
  5
72D
330
725
100
AcDbEntity
  8
HATCH
  6
CONTINUOUS
 62
     5
100
AcDbTrace
 10
3973.756503917777
 20
2143.946898601899
 30
0.0
 11
3973.756503917777
 21
2123.860893483834
 31
0.0
 12
4048.407857970049
 22
2143.946898601899
 32
0.0
 13
4048.407857970049
 23
2143.946898601899
 33
0.0
210
0.0
220
0.0
230
1.0
  0
ENDBLK
  5
72F
330
725
100
AcDbEntity
  8
0
100
AcDbBlockEnd
  0
BLOCK
  5
73F
330
730
100
AcDbEntity
  8
0
100
AcDbBlockBegin
  2
*U10
 70
     1
 10
0.0
 20
0.0
 30
0.0
  3
*U10
  1

  0
SOLID
  5
731
330
730
100
AcDbEntity
  8
HATCH
  6
CONTINUOUS
 62
     5
100
AcDbTrace
 10
4269.490699262616
 20
2103.774898347587
 30
0.0
 11
4269.490699262616
 21
2123.860893483834
 31
0.0
 12
4048.40785797005
 22
2123.860893483834
 32
0.0
 13
4048.40785797005
 23
2123.860893483834
 33
0.0
210
0.0
220
0.0
230
1.0
  0
SOLID
  5
732
330
730
100
AcDbEntity
  8
HATCH
  6
CONTINUOUS
 62
     5
100
AcDbTrace
 10
4269.490699262616
 20
2103.774898347587
 30
0.0
 11
4048.40785797005
 21
2123.860893483834
 31
0.0
 12
3973.756503917777
 22
2123.860893483834
 32
0.0
 13
3973.756503917777
 23
2123.860893483834
 33
0.0
210
0.0
220
0.0
230
1.0
  0
SOLID
  5
733
330
730
100
AcDbEntity
  8
HATCH
  6
CONTINUOUS
 62
     5
100
AcDbTrace
 10
3973.756503917777
 20
2123.860893483834
 30
0.0
 11
4048.40785797005
 21
2103.774898347587
 31
0.0
 12
4269.490699262616
 22
2103.774898347587
 32
0.0
 13
4269.490699262616
 23
2103.774898347587
 33
0.0
210
0.0
220
0.0
230
1.0
  0
SOLID
  5
734
330
730
100
AcDbEntity
  8
HATCH
  6
CONTINUOUS
 62
     5
100
AcDbTrace
 10
3973.756503917777
 20
2123.860893483834
 30
0.0
 11
3973.756503917777
 21
2103.774898347587
 31
0.0
 12
4048.40785797005
 22
2103.774898347587
 32
0.0
 13
4048.40785797005
 23
2103.774898347587
 33
0.0
210
0.0
220
0.0
230
1.0
  0
SOLID
  5
735
330
730
100
AcDbEntity
  8
HATCH
  6
CONTINUOUS
 62
     5
100
AcDbTrace
 10
1912.230750544385
 20
2103.774898347587
 30
0.0
 11
1912.230750544385
 21
2123.860893483834
 31
0.0
 12
1837.579396492114
 22
2123.860893483834
 32
0.0
 13
1837.579396492114
 23
2123.860893483834
 33
0.0
210
0.0
220
0.0
230
1.0
  0
SOLID
  5
736
330
730
100
AcDbEntity
  8
HATCH
  6
CONTINUOUS
 62
     5
100
AcDbTrace
 10
1912.230750544385
 20
2103.774898347587
 30
0.0
 11
1837.579396492114
 21
2123.860893483834
 31
0.0
 12
1616.496555199548
 22
2123.860893483834
 32
0.0
 13
1616.496555199548
 23
2123.860893483834
 33
0.0
210
0.0
220
0.0
230
1.0
  0
SOLID
  5
737
330
730
100
AcDbEntity
  8
HATCH
  6
CONTINUOUS
 62
     5
100
AcDbTrace
 10
1616.496555199548
 20
2123.860893483834
 30
0.0
 11
1837.579396492115
 21
2103.774898347587
 31
0.0
 12
1912.230750544385
 22
2103.774898347587
 32
0.0
 13
1912.230750544385
 23
2103.774898347587
 33
0.0
  0
SOLID
  5
738
330
730
100
AcDbEntity
  8
HATCH
  6
CONTINUOUS
 62
     5
100
AcDbTrace
 10
1616.496555199548
 20
2123.860893483834
 30
0.0
 11
1616.496555199549
 21
2103.774898347587
 31
0.0
 12
1837.579396492115
 22
2103.774898347587
 32
0.0
 13
1837.579396492115
 23
2103.774898347587
 33
0.0
210
0.0
220
0.0
230
1.0
  0
SOLID
  5
739
330
730
100
AcDbEntity
  8
HATCH
  6
CONTINUOUS
 62
     5
100
AcDbTrace
 10
3448.325853239905
 20
2088.602898093268
 30
0.0
 11
3448.325853239905
 21
2139.032893738153
 31
0.0
 12
3198.530948961677
 22
2139.032893738153
 32
0.0
 13
3198.530948961677
 23
2139.032893738153
 33
0.0
210
0.0
220
0.0
230
1.0
  0
SOLID
  5
73A
330
730
100
AcDbEntity
  8
HATCH
  6
CONTINUOUS
 62
     5
100
AcDbTrace
 10
3448.325853239905
 20
2088.602898093268
 30
0.0
 11
3198.530948961677
 21
2139.032893738153
 31
0.0
 12
2684.585117004429
 22
2139.032893738153
 32
0.0
 13
2684.585117004429
 23
2139.032893738153
 33
0.0
210
0.0
220
0.0
230
1.0
  0
SOLID
  5
73B
330
730
100
AcDbEntity
  8
HATCH
  6
CONTINUOUS
 62
     5
100
AcDbTrace
 10
3448.325853239905
 20
2088.602898093268
 30
0.0
 11
2684.585117004429
 21
2139.032893738153
 31
0.0
 12
2437.661417406357
 22
2139.032893738153
 32
0.0
 13
2437.661417406357
 23
2139.032893738153
 33
0.0
210
0.0
220
0.0
230
1.0
  0
SOLID
  5
73C
330
730
100
AcDbEntity
  8
HATCH
  6
CONTINUOUS
 62
     5
100
AcDbTrace
 10
2437.661417406357
 20
2139.032893738153
 30
0.0
 11
3198.530948961677
 21
2088.602898093268
 31
0.0
 12
3448.325853239905
 22
2088.602898093268
 32
0.0
 13
3448.325853239905
 23
2088.602898093268
 33
0.0
210
0.0
220
0.0
230
1.0
  0
SOLID
  5
73D
330
730
100
AcDbEntity
  8
HATCH
  6
CONTINUOUS
 62
     5
100
AcDbTrace
 10
2437.661417406357
 20
2139.032893738153
 30
0.0
 11
2684.585117004429
 21
2088.602898093268
 31
0.0
 12
3198.530948961677
 22
2088.602898093268
 32
0.0
 13
3198.530948961677
 23
2088.602898093268
 33
0.0
210
0.0
220
0.0
230
1.0
  0
SOLID
  5
73E
330
730
100
AcDbEntity
  8
HATCH
  6
CONTINUOUS
 62
     5
100
AcDbTrace
 10
2437.661417406357
 20
2139.032893738153
 30
0.0
 11
2437.661417406357
 21
2088.602898093268
 31
0.0
 12
2684.585117004429
 22
2088.602898093268
 32
0.0
 13
2684.585117004429
 23
2088.602898093268
 33
0.0
210
0.0
220
0.0
230
1.0
  0
ENDBLK
  5
740
330
730
100
AcDbEntity
  8
0
100
AcDbBlockEnd
  0
BLOCK
  5
756
330
741
100
AcDbEntity
  8
0
100
AcDbBlockBegin
  2
*U11
 70
     1
 10
0.0
 20
0.0
 30
0.0
  3
*U11
  1

  0
SOLID
  5
742
330
741
100
AcDbEntity
  8
HATCH
  6
CONTINUOUS
 62
     2
100
AcDbTrace
 10
2750.622840832136
 20
1698.755539303648
 30
0.0
 11
2750.622840832136
 21
1598.755539303652
 31
0.0
 12
2775.622840832134
 22
1598.755539303647
 32
0.0
 13
2775.622840832134
 23
1598.755539303647
 33
0.0
210
0.0
220
0.0
230
1.0
  0
SOLID
  5
743
330
741
100
AcDbEntity
  8
HATCH
  6
CONTINUOUS
 62
     2
100
AcDbTrace
 10
3141.106822990341
 20
1598.755539303648
 30
0.0
 11
3141.106822990341
 21
1698.755539303649
 31
0.0
 12
3116.106822990342
 22
1698.755539303649
 32
0.0
 13
3116.106822990342
 23
1698.755539303649
 33
0.0
210
0.0
220
0.0
230
1.0
  0
SOLID
  5
744
330
741
100
AcDbEntity
  8
HATCH
  6
CONTINUOUS
 62
     2
100
AcDbTrace
 10
3116.106822990342
 20
1698.755539303649
 30
0.0
 11
3116.106822990341
 21
1598.755539303648
 31
0.0
 12
3141.106822990341
 22
1598.755539303648
 32
0.0
 13
3141.106822990341
 23
1598.755539303648
 33
0.0
210
0.0
220
0.0
230
1.0
  0
SOLID
  5
745
330
741
100
AcDbEntity
  8
HATCH
  6
CONTINUOUS
 62
     2
100
AcDbTrace
 10
2775.622840832136
 20
1698.755539303649
 30
0.0
 11
2750.622840832136
 21
1698.755539303648
 31
0.0
 12
2775.622840832134
 22
1598.755539303647
 32
0.0
 13
2775.622840832134
 23
1598.755539303647
 33
0.0
  0
SOLID
  5
746
330
741
100
AcDbEntity
  8
HATCH
  6
CONTINUOUS
 62
     2
100
AcDbTrace
 10
2437.661417406357
 20
2063.602898093269
 30
0.0
 11
3448.325853239905
 21
2088.602898093268
 31
0.0
 12
3198.530948961677
 22
2088.602898093268
 32
0.0
 13
3198.530948961677
 23
2088.602898093268
 33
0.0
210
0.0
220
0.0
230
1.0
  0
SOLID
  5
747
330
741
100
AcDbEntity
  8
HATCH
  6
CONTINUOUS
 62
     2
100
AcDbTrace
 10
2437.661417406357
 20
2063.602898093269
 30
0.0
 11
3198.530948961677
 21
2088.602898093268
 31
0.0
 12
2684.585117004429
 22
2088.602898093268
 32
0.0
 13
2684.585117004429
 23
2088.602898093268
 33
0.0
210
0.0
220
0.0
230
1.0
  0
SOLID
  5
748
330
741
100
AcDbEntity
  8
HATCH
  6
CONTINUOUS
 62
     2
100
AcDbTrace
 10
2437.661417406357
 20
2063.602898093269
 30
0.0
 11
2684.585117004429
 21
2088.602898093268
 31
0.0
 12
2437.661417406357
 22
2088.602898093268
 32
0.0
 13
2437.661417406357
 23
2088.602898093268
 33
0.0
210
0.0
220
0.0
230
1.0
  0
SOLID
  5
749
330
741
100
AcDbEntity
  8
HATCH
  6
CONTINUOUS
 62
     2
100
AcDbTrace
 10
3448.325853239905
 20
2088.602898093268
 30
0.0
 11
2437.661417406357
 21
2063.602898093269
 31
0.0
 12
2684.585117004429
 22
2063.602898093269
 32
0.0
 13
2684.585117004429
 23
2063.602898093269
 33
0.0
210
0.0
220
0.0
230
1.0
  0
SOLID
  5
74A
330
741
100
AcDbEntity
  8
HATCH
  6
CONTINUOUS
 62
     2
100
AcDbTrace
 10
3448.325853239905
 20
2088.602898093268
 30
0.0
 11
2684.585117004429
 21
2063.602898093269
 31
0.0
 12
3198.530948961677
 22
2063.602898093269
 32
0.0
 13
3198.530948961677
 23
2063.602898093269
 33
0.0
210
0.0
220
0.0
230
1.0
  0
SOLID
  5
74B
330
741
100
AcDbEntity
  8
HATCH
  6
CONTINUOUS
 62
     2
100
AcDbTrace
 10
3448.325853239905
 20
2088.602898093268
 30
0.0
 11
3198.530948961677
 21
2063.602898093269
 31
0.0
 12
3448.325853239903
 22
2063.602898093269
 32
0.0
 13
3448.325853239903
 23
2063.602898093269
 33
0.0
  0
SOLID
  5
74C
330
741
100
AcDbEntity
  8
HATCH
  6
CONTINUOUS
 62
     2
100
AcDbTrace
 10
3448.325853239905
 20
2139.032893738153
 30
0.0
 11
3448.325853239905
 21
2164.032893738153
 31
0.0
 12
3198.530948961677
 22
2164.032893738153
 32
0.0
 13
3198.530948961677
 23
2164.032893738153
 33
0.0
210
0.0
220
0.0
230
1.0
  0
SOLID
  5
74D
330
741
100
AcDbEntity
  8
HATCH
  6
CONTINUOUS
 62
     2
100
AcDbTrace
 10
3448.325853239905
 20
2139.032893738153
 30
0.0
 11
3198.530948961677
 21
2164.032893738153
 31
0.0
 12
2684.585117004429
 22
2164.032893738153
 32
0.0
 13
2684.585117004429
 23
2164.032893738153
 33
0.0
210
0.0
220
0.0
230
1.0
  0
SOLID
  5
74E
330
741
100
AcDbEntity
  8
HATCH
  6
CONTINUOUS
 62
     2
100
AcDbTrace
 10
3448.325853239905
 20
2139.032893738153
 30
0.0
 11
2684.585117004429
 21
2164.032893738153
 31
0.0
 12
2437.661417406358
 22
2164.032893738153
 32
0.0
 13
2437.661417406358
 23
2164.032893738153
 33
0.0
210
0.0
220
0.0
230
1.0
  0
SOLID
  5
74F
330
741
100
AcDbEntity
  8
HATCH
  6
CONTINUOUS
 62
     2
100
AcDbTrace
 10
2437.661417406358
 20
2164.032893738153
 30
0.0
 11
3198.530948961677
 21
2139.032893738153
 31
0.0
 12
3448.325853239905
 22
2139.032893738153
 32
0.0
 13
3448.325853239905
 23
2139.032893738153
 33
0.0
210
0.0
220
0.0
230
1.0
  0
SOLID
  5
750
330
741
100
AcDbEntity
  8
HATCH
  6
CONTINUOUS
 62
     2
100
AcDbTrace
 10
2437.661417406358
 20
2164.032893738153
 30
0.0
 11
2684.585117004429
 21
2139.032893738153
 31
0.0
 12
3198.530948961677
 22
2139.032893738153
 32
0.0
 13
3198.530948961677
 23
2139.032893738153
 33
0.0
  0
SOLID
  5
751
330
741
100
AcDbEntity
  8
HATCH
  6
CONTINUOUS
 62
     2
100
AcDbTrace
 10
2437.661417406358
 20
2164.032893738153
 30
0.0
 11
2437.661417406357
 21
2139.032893738153
 31
0.0
 12
2684.585117004429
 22
2139.032893738153
 32
0.0
 13
2684.585117004429
 23
2139.032893738153
 33
0.0
210
0.0
220
0.0
230
1.0
  0
SOLID
  5
752
330
741
100
AcDbEntity
  8
HATCH
  6
CONTINUOUS
 62
     2
100
AcDbTrace
 10
2750.622840832136
 20
2628.880252527771
 30
0.0
 11
2750.622840832138
 21
2528.880252527772
 31
0.0
 12
2775.622840832136
 22
2528.880252527772
 32
0.0
 13
2775.622840832136
 23
2528.880252527772
 33
0.0
210
0.0
220
0.0
230
1.0
  0
SOLID
  5
753
330
741
100
AcDbEntity
  8
HATCH
  6
CONTINUOUS
 62
     2
100
AcDbTrace
 10
3141.106822990344
 20
2528.880252527772
 30
0.0
 11
3141.106822990343
 21
2628.880252527772
 31
0.0
 12
3116.106822990343
 22
2628.880252527772
 32
0.0
 13
3116.106822990343
 23
2628.880252527772
 33
0.0
210
0.0
220
0.0
230
1.0
  0
SOLID
  5
754
330
741
100
AcDbEntity
  8
HATCH
  6
CONTINUOUS
 62
     2
100
AcDbTrace
 10
3116.106822990343
 20
2628.880252527772
 30
0.0
 11
3116.106822990344
 21
2528.880252527772
 31
0.0
 12
3141.106822990344
 22
2528.880252527772
 32
0.0
 13
3141.106822990344
 23
2528.880252527772
 33
0.0
210
0.0
220
0.0
230
1.0
  0
SOLID
  5
755
330
741
100
AcDbEntity
  8
HATCH
  6
CONTINUOUS
 62
     2
100
AcDbTrace
 10
2775.622840832136
 20
2628.880252527772
 30
0.0
 11
2750.622840832136
 21
2628.880252527771
 31
0.0
 12
2775.622840832136
 22
2528.880252527772
 32
0.0
 13
2775.622840832136
 23
2528.880252527772
 33
0.0
210
0.0
220
0.0
230
1.0
  0
ENDBLK
  5
757
330
741
100
AcDbEntity
  8
0
100
AcDbBlockEnd
  0
BLOCK
  5
7C1
330
758
100
AcDbEntity
  8
0
100
AcDbBlockBegin
  2
*U12
 70
     1
 10
0.0
 20
0.0
 30
0.0
  3
*U12
  1

  0
SOLID
  5
759
330
758
100
AcDbEntity
  8
HATCH
  6
CONTINUOUS
 62
   251
100
AcDbTrace
 10
3169.241627080328
 20
1541.96201918287
 30
0.0
 11
2784.585117004427
 21
1512.672697301528
 31
0.0
 12
3098.530948961672
 22
1512.672697301526
 32
0.0
 13
3098.530948961672
 23
1512.672697301526
 33
0.0
210
0.0
220
0.0
230
1.0
  0
SOLID
  5
75A
330
758
100
AcDbEntity
  8
HATCH
  6
CONTINUOUS
 62
   251
100
AcDbTrace
 10
2713.874438885773
 20
1541.962019182873
 30
0.0
 11
2784.585117004427
 21
1512.672697301528
 31
0.0
 12
3169.241627080328
 22
1541.96201918287
 32
0.0
 13
3169.241627080328
 23
1541.96201918287
 33
0.0
  0
SOLID
  5
75B
330
758
100
AcDbEntity
  8
HATCH
  6
CONTINUOUS
 62
   251
100
AcDbTrace
 10
3141.106822990341
 20
1598.755539303648
 30
0.0
 11
2713.874438885773
 21
1541.962019182873
 31
0.0
 12
3169.241627080328
 22
1541.96201918287
 32
0.0
 13
3169.241627080328
 23
1541.96201918287
 33
0.0
210
0.0
220
0.0
230
1.0
  0
SOLID
  5
75C
330
758
100
AcDbEntity
  8
HATCH
  6
CONTINUOUS
 62
   251
100
AcDbTrace
 10
2775.622840832134
 20
1598.755539303648
 30
0.0
 11
2713.874438885773
 21
1541.962019182873
 31
0.0
 12
3141.106822990341
 22
1598.755539303648
 32
0.0
 13
3141.106822990341
 23
1598.755539303648
 33
0.0
210
0.0
220
0.0
230
1.0
  0
SOLID
  5
75D
330
758
100
AcDbEntity
  8
HATCH
  6
CONTINUOUS
 62
   251
100
AcDbTrace
 10
3116.106822990341
 20
1598.755539303648
 30
0.0
 11
2775.622840832134
 21
1598.755539303648
 31
0.0
 12
3141.106822990341
 22
1598.755539303648
 32
0.0
 13
3141.106822990341
 23
1598.755539303648
 33
0.0
210
0.0
220
0.0
230
1.0
  0
SOLID
  5
75E
330
758
100
AcDbEntity
  8
HATCH
  6
CONTINUOUS
 62
   251
100
AcDbTrace
 10
2750.622840832136
 20
1598.755539303652
 30
0.0
 11
2713.874438885773
 21
1541.962019182873
 31
0.0
 12
2775.622840832134
 22
1598.755539303648
 32
0.0
 13
2775.622840832134
 23
1598.755539303648
 33
0.0
210
0.0
220
0.0
230
1.0
  0
SOLID
  5
75F
330
758
100
AcDbEntity
  8
HATCH
  6
CONTINUOUS
 62
   251
100
AcDbTrace
 10
3198.530948961674
 20
1612.672697301525
 30
0.0
 11
3141.106822990341
 21
1598.755539303648
 31
0.0
 12
3169.241627080328
 22
1541.96201918287
 32
0.0
 13
3169.241627080328
 23
1541.96201918287
 33
0.0
210
0.0
220
0.0
230
1.0
  0
SOLID
  5
760
330
758
100
AcDbEntity
  8
HATCH
  6
CONTINUOUS
 62
   251
100
AcDbTrace
 10
2684.585117004428
 20
1612.672697301528
 30
0.0
 11
2713.874438885773
 21
1541.962019182873
 31
0.0
 12
2750.622840832136
 22
1598.755539303652
 32
0.0
 13
2750.622840832136
 23
1598.755539303652
 33
0.0
210
0.0
220
0.0
230
1.0
  0
SOLID
  5
761
330
758
100
AcDbEntity
  8
HATCH
  6
CONTINUOUS
 62
   251
100
AcDbTrace
 10
3141.106822990341
 20
1698.755539303648
 30
0.0
 11
3141.106822990341
 21
1598.755539303648
 31
0.0
 12
3198.530948961674
 22
1612.672697301525
 32
0.0
 13
3198.530948961674
 23
1612.672697301525
 33
0.0
210
0.0
220
0.0
230
1.0
  0
SOLID
  5
762
330
758
100
AcDbEntity
  8
HATCH
  6
CONTINUOUS
 62
   251
100
AcDbTrace
 10
2750.622840832136
 20
1698.755539303649
 30
0.0
 11
2684.585117004428
 21
1612.672697301528
 31
0.0
 12
2750.622840832136
 22
1598.755539303652
 32
0.0
 13
2750.622840832136
 23
1598.755539303652
 33
0.0
210
0.0
220
0.0
230
1.0
  0
SOLID
  5
763
330
758
100
AcDbEntity
  8
HATCH
  6
CONTINUOUS
 62
   251
100
AcDbTrace
 10
2775.622840832136
 20
1698.755539303649
 30
0.0
 11
2775.622840832134
 21
1598.755539303648
 31
0.0
 12
3116.106822990341
 22
1598.755539303648
 32
0.0
 13
3116.106822990341
 23
1598.755539303648
 33
0.0
210
0.0
220
0.0
230
1.0
  0
SOLID
  5
764
330
758
100
AcDbEntity
  8
HATCH
  6
CONTINUOUS
 62
   251
100
AcDbTrace
 10
3116.106822990342
 20
1698.755539303649
 30
0.0
 11
2775.622840832136
 21
1698.755539303649
 31
0.0
 12
3116.106822990341
 22
1598.755539303648
 32
0.0
 13
3116.106822990341
 23
1598.755539303648
 33
0.0
210
0.0
220
0.0
230
1.0
  0
SOLID
  5
765
330
758
100
AcDbEntity
  8
HATCH
  6
CONTINUOUS
 62
   251
100
AcDbTrace
 10
3721.090394959389
 20
1988.99776902355
 30
0.0
 11
3815.840181772759
 21
1968.9117738873
 31
0.0
 12
3916.332377946442
 22
1968.9117738873
 32
0.0
 13
3916.332377946442
 23
1968.9117738873
 33
0.0
210
0.0
220
0.0
230
1.0
  0
SOLID
  5
766
330
758
100
AcDbEntity
  8
HATCH
  6
CONTINUOUS
 62
   251
100
AcDbTrace
 10
2164.896859502773
 20
1988.99776902355
 30
0.0
 11
1969.654876515721
 21
1968.9117738873
 31
0.0
 12
2070.147072689402
 22
1968.911773887299
 32
0.0
 13
2070.147072689402
 23
1968.911773887299
 33
0.0
210
0.0
220
0.0
230
1.0
  0
SOLID
  5
767
330
758
100
AcDbEntity
  8
HATCH
  6
CONTINUOUS
 62
   251
100
AcDbTrace
 10
3973.756503917776
 20
2017.692046363656
 30
0.0
 11
3721.090394959389
 21
1988.99776902355
 31
0.0
 12
3916.332377946442
 22
1968.9117738873
 32
0.0
 13
3916.332377946442
 23
1968.9117738873
 33
0.0
210
0.0
220
0.0
230
1.0
  0
SOLID
  5
768
330
758
100
AcDbEntity
  8
HATCH
  6
CONTINUOUS
 62
   251
100
AcDbTrace
 10
1912.230750544386
 20
2017.692046363657
 30
0.0
 11
1969.654876515721
 21
1968.9117738873
 31
0.0
 12
2164.896859502773
 22
1988.99776902355
 32
0.0
 13
2164.896859502773
 23
1988.99776902355
 33
0.0
210
0.0
220
0.0
230
1.0
  0
SOLID
  5
769
330
758
100
AcDbEntity
  8
HATCH
  6
CONTINUOUS
 62
   251
100
AcDbTrace
 10
3719.540059358278
 20
2031.778826437826
 30
0.0
 11
3721.090394959389
 21
1988.99776902355
 31
0.0
 12
3973.756503917776
 22
2017.692046363656
 32
0.0
 13
3973.756503917776
 23
2017.692046363656
 33
0.0
210
0.0
220
0.0
230
1.0
  0
SOLID
  5
76A
330
758
100
AcDbEntity
  8
HATCH
  6
CONTINUOUS
 62
   251
100
AcDbTrace
 10
2166.447195103887
 20
2031.778826437826
 30
0.0
 11
1912.230750544386
 21
2017.692046363657
 31
0.0
 12
2164.896859502773
 22
1988.99776902355
 32
0.0
 13
2164.896859502773
 23
1988.99776902355
 33
0.0
210
0.0
220
0.0
230
1.0
  0
SOLID
  5
76B
330
758
100
AcDbEntity
  8
HATCH
  6
CONTINUOUS
 62
   251
100
AcDbTrace
 10
2154.433239396132
 20
2036.755169829727
 30
0.0
 11
1912.230750544386
 21
2017.692046363657
 31
0.0
 12
2166.447195103887
 22
2031.778826437826
 32
0.0
 13
2166.447195103887
 23
2031.778826437826
 33
0.0
210
0.0
220
0.0
230
1.0
  0
SOLID
  5
76C
330
758
100
AcDbEntity
  8
HATCH
  6
CONTINUOUS
 62
   251
100
AcDbTrace
 10
3707.526103650524
 20
2036.755169829727
 30
0.0
 11
3721.090394959389
 21
1988.99776902355
 31
0.0
 12
3719.540059358278
 22
2031.778826437826
 32
0.0
 13
3719.540059358278
 23
2031.778826437826
 33
0.0
210
0.0
220
0.0
230
1.0
  0
SOLID
  5
76D
330
758
100
AcDbEntity
  8
HATCH
  6
CONTINUOUS
 62
   251
100
AcDbTrace
 10
2178.461150811642
 20
2036.755169829727
 30
0.0
 11
2166.447195103887
 21
2031.778826437826
 31
0.0
 12
2164.896859502773
 22
1988.99776902355
 32
0.0
 13
2164.896859502773
 23
1988.99776902355
 33
0.0
210
0.0
220
0.0
230
1.0
  0
SOLID
  5
76E
330
758
100
AcDbEntity
  8
HATCH
  6
CONTINUOUS
 62
   251
100
AcDbTrace
 10
3731.554015066032
 20
2036.755169829727
 30
0.0
 11
3719.540059358278
 21
2031.778826437826
 31
0.0
 12
3973.756503917776
 22
2017.692046363656
 32
0.0
 13
3973.756503917776
 23
2017.692046363656
 33
0.0
210
0.0
220
0.0
230
1.0
  0
SOLID
  5
76F
330
758
100
AcDbEntity
  8
HATCH
  6
CONTINUOUS
 62
   251
100
AcDbTrace
 10
2233.805804194732
 20
2037.778051481716
 30
0.0
 11
2178.461150811642
 21
2036.755169829727
 31
0.0
 12
2164.896859502773
 22
1988.99776902355
 32
0.0
 13
2164.896859502773
 23
1988.99776902355
 33
0.0
  0
SOLID
  5
770
330
758
100
AcDbEntity
  8
HATCH
  6
CONTINUOUS
 62
   251
100
AcDbTrace
 10
3652.18145026743
 20
2037.778051481716
 30
0.0
 11
3721.090394959389
 21
1988.99776902355
 31
0.0
 12
3707.526103650524
 22
2036.755169829727
 32
0.0
 13
3707.526103650524
 23
2036.755169829727
 33
0.0
210
0.0
220
0.0
230
1.0
  0
SOLID
  5
771
330
758
100
AcDbEntity
  8
HATCH
  6
CONTINUOUS
 62
   251
100
AcDbTrace
 10
2149.456896004231
 20
2048.769125537482
 30
0.0
 11
1912.230750544386
 21
2017.692046363657
 31
0.0
 12
2154.433239396132
 22
2036.755169829727
 32
0.0
 13
2154.433239396132
 23
2036.755169829727
 33
0.0
210
0.0
220
0.0
230
1.0
  0
SOLID
  5
772
330
758
100
AcDbEntity
  8
HATCH
  6
CONTINUOUS
 62
   251
100
AcDbTrace
 10
3702.549760258622
 20
2048.769125537482
 30
0.0
 11
3652.18145026743
 21
2037.778051481716
 31
0.0
 12
3707.526103650524
 22
2036.755169829727
 32
0.0
 13
3707.526103650524
 23
2036.755169829727
 33
0.0
210
0.0
220
0.0
230
1.0
  0
SOLID
  5
773
330
758
100
AcDbEntity
  8
HATCH
  6
CONTINUOUS
 62
   251
100
AcDbTrace
 10
3736.530358457934
 20
2048.769125537482
 30
0.0
 11
3731.554015066032
 21
2036.755169829727
 31
0.0
 12
3973.756503917776
 22
2017.692046363656
 32
0.0
 13
3973.756503917776
 23
2017.692046363656
 33
0.0
210
0.0
220
0.0
230
1.0
  0
SOLID
  5
774
330
758
100
AcDbEntity
  8
HATCH
  6
CONTINUOUS
 62
   251
100
AcDbTrace
 10
2183.437494203543
 20
2048.769125537482
 30
0.0
 11
2178.461150811642
 21
2036.755169829727
 31
0.0
 12
2233.805804194732
 22
2037.778051481716
 32
0.0
 13
2233.805804194732
 23
2037.778051481716
 33
0.0
210
0.0
220
0.0
230
1.0
  0
SOLID
  5
775
330
758
100
AcDbEntity
  8
HATCH
  6
CONTINUOUS
 62
   251
100
AcDbTrace
 10
3574.658907719098
 20
2049.255764414124
 30
0.0
 11
3652.18145026743
 21
2037.778051481716
 31
0.0
 12
3702.549760258622
 22
2048.769125537482
 32
0.0
 13
3702.549760258622
 23
2048.769125537482
 33
0.0
210
0.0
220
0.0
230
1.0
  0
SOLID
  5
776
330
758
100
AcDbEntity
  8
HATCH
  6
CONTINUOUS
 62
   251
100
AcDbTrace
 10
2311.328346743067
 20
2049.255764414124
 30
0.0
 11
2183.437494203543
 21
2048.769125537482
 31
0.0
 12
2233.805804194732
 22
2037.778051481716
 32
0.0
 13
2233.805804194732
 23
2037.778051481716
 33
0.0
210
0.0
220
0.0
230
1.0
  0
SOLID
  5
777
330
758
100
AcDbEntity
  8
HATCH
  6
CONTINUOUS
 62
   251
100
AcDbTrace
 10
2322.813181647789
 20
2057.86404661797
 30
0.0
 11
2183.437494203543
 21
2048.769125537482
 31
0.0
 12
2311.328346743067
 22
2049.255764414124
 32
0.0
 13
2311.328346743067
 23
2049.255764414124
 33
0.0
  0
SOLID
  5
778
330
758
100
AcDbEntity
  8
HATCH
  6
CONTINUOUS
 62
   251
100
AcDbTrace
 10
3563.174072814373
 20
2057.864046617972
 30
0.0
 11
3574.658907719098
 21
2049.255764414124
 31
0.0
 12
3702.549760258622
 22
2048.769125537482
 32
0.0
 13
3702.549760258622
 23
2048.769125537482
 33
0.0
210
0.0
220
0.0
230
1.0
  0
SOLID
  5
779
330
758
100
AcDbEntity
  8
HATCH
  6
CONTINUOUS
 62
   251
100
AcDbTrace
 10
3707.526103650524
 20
2060.783081245236
 30
0.0
 11
3563.174072814373
 21
2057.864046617972
 31
0.0
 12
3702.549760258622
 22
2048.769125537482
 32
0.0
 13
3702.549760258622
 23
2048.769125537482
 33
0.0
210
0.0
220
0.0
230
1.0
  0
SOLID
  5
77A
330
758
100
AcDbEntity
  8
HATCH
  6
CONTINUOUS
 62
   251
100
AcDbTrace
 10
2154.433239396132
 20
2060.783081245236
 30
0.0
 11
1912.230750544386
 21
2017.692046363657
 31
0.0
 12
2149.456896004231
 22
2048.769125537482
 32
0.0
 13
2149.456896004231
 23
2048.769125537482
 33
0.0
210
0.0
220
0.0
230
1.0
  0
SOLID
  5
77B
330
758
100
AcDbEntity
  8
HATCH
  6
CONTINUOUS
 62
   251
100
AcDbTrace
 10
2178.461150811642
 20
2060.783081245236
 30
0.0
 11
2183.437494203543
 21
2048.769125537482
 31
0.0
 12
2322.813181647789
 22
2057.86404661797
 32
0.0
 13
2322.813181647789
 23
2057.86404661797
 33
0.0
  0
SOLID
  5
77C
330
758
100
AcDbEntity
  8
HATCH
  6
CONTINUOUS
 62
   251
100
AcDbTrace
 10
3731.554015066032
 20
2060.783081245236
 30
0.0
 11
3736.530358457934
 21
2048.769125537482
 31
0.0
 12
3973.756503917776
 22
2017.692046363656
 32
0.0
 13
3973.756503917776
 23
2017.692046363656
 33
0.0
  0
SOLID
  5
77D
330
758
100
AcDbEntity
  8
HATCH
  6
CONTINUOUS
 62
   251
100
AcDbTrace
 10
3198.530948961677
 20
2063.602898093269
 30
0.0
 11
3116.106822990342
 21
1698.755539303649
 31
0.0
 12
3141.106822990341
 22
1698.755539303648
 32
0.0
 13
3141.106822990341
 23
1698.755539303648
 33
0.0
210
0.0
220
0.0
230
1.0
  0
SOLID
  5
77E
330
758
100
AcDbEntity
  8
HATCH
  6
CONTINUOUS
 62
   251
100
AcDbTrace
 10
3198.530948961677
 20
2063.602898093269
 30
0.0
 11
3141.106822990341
 21
1698.755539303648
 31
0.0
 12
3198.530948961674
 22
1612.672697301525
 32
0.0
 13
3198.530948961674
 23
1612.672697301525
 33
0.0
210
0.0
220
0.0
230
1.0
  0
SOLID
  5
77F
330
758
100
AcDbEntity
  8
HATCH
  6
CONTINUOUS
 62
   251
100
AcDbTrace
 10
2684.585117004429
 20
2063.602898093269
 30
0.0
 11
3116.106822990342
 21
1698.755539303649
 31
0.0
 12
3198.530948961677
 22
2063.602898093269
 32
0.0
 13
3198.530948961677
 23
2063.602898093269
 33
0.0
210
0.0
220
0.0
230
1.0
  0
SOLID
  5
780
330
758
100
AcDbEntity
  8
HATCH
  6
CONTINUOUS
 62
   251
100
AcDbTrace
 10
2684.585117004429
 20
2063.602898093269
 30
0.0
 11
2775.622840832136
 21
1698.755539303649
 31
0.0
 12
3116.106822990342
 22
1698.755539303649
 32
0.0
 13
3116.106822990342
 23
1698.755539303649
 33
0.0
210
0.0
220
0.0
230
1.0
  0
SOLID
  5
781
330
758
100
AcDbEntity
  8
HATCH
  6
CONTINUOUS
 62
   251
100
AcDbTrace
 10
2684.585117004429
 20
2063.602898093269
 30
0.0
 11
2750.622840832136
 21
1698.755539303649
 31
0.0
 12
2775.622840832136
 22
1698.755539303649
 32
0.0
 13
2775.622840832136
 23
1698.755539303649
 33
0.0
210
0.0
220
0.0
230
1.0
  0
SOLID
  5
782
330
758
100
AcDbEntity
  8
HATCH
  6
CONTINUOUS
 62
   251
100
AcDbTrace
 10
2684.585117004429
 20
2063.602898093269
 30
0.0
 11
2684.585117004428
 21
1612.672697301528
 31
0.0
 12
2750.622840832136
 22
1698.755539303649
 32
0.0
 13
2750.622840832136
 23
1698.755539303649
 33
0.0
210
0.0
220
0.0
230
1.0
  0
SOLID
  5
783
330
758
100
AcDbEntity
  8
HATCH
  6
CONTINUOUS
 62
   251
100
AcDbTrace
 10
3719.540059358278
 20
2065.759424637138
 30
0.0
 11
3563.174072814373
 21
2057.864046617972
 31
0.0
 12
3707.526103650524
 22
2060.783081245236
 32
0.0
 13
3707.526103650524
 23
2060.783081245236
 33
0.0
210
0.0
220
0.0
230
1.0
  0
SOLID
  5
784
330
758
100
AcDbEntity
  8
HATCH
  6
CONTINUOUS
 62
   251
100
AcDbTrace
 10
3719.540059358278
 20
2065.759424637138
 30
0.0
 11
3731.554015066032
 21
2060.783081245236
 31
0.0
 12
3973.756503917776
 22
2017.692046363656
 32
0.0
 13
3973.756503917776
 23
2017.692046363656
 33
0.0
210
0.0
220
0.0
230
1.0
  0
SOLID
  5
785
330
758
100
AcDbEntity
  8
HATCH
  6
CONTINUOUS
 62
   251
100
AcDbTrace
 10
2166.447195103887
 20
2065.759424637138
 30
0.0
 11
1912.230750544386
 21
2017.692046363657
 31
0.0
 12
2154.433239396132
 22
2060.783081245236
 32
0.0
 13
2154.433239396132
 23
2060.783081245236
 33
0.0
210
0.0
220
0.0
230
1.0
  0
SOLID
  5
786
330
758
100
AcDbEntity
  8
HATCH
  6
CONTINUOUS
 62
   251
100
AcDbTrace
 10
2166.447195103887
 20
2065.759424637138
 30
0.0
 11
2178.461150811642
 21
2060.783081245236
 31
0.0
 12
2322.813181647789
 22
2057.86404661797
 32
0.0
 13
2322.813181647789
 23
2057.86404661797
 33
0.0
210
0.0
220
0.0
230
1.0
  0
SOLID
  5
787
330
758
100
AcDbEntity
  8
HATCH
  6
CONTINUOUS
 62
   251
100
AcDbTrace
 10
3973.756503917777
 20
2083.688893229522
 30
0.0
 11
3719.540059358278
 21
2065.759424637138
 31
0.0
 12
3973.756503917776
 22
2017.692046363656
 32
0.0
 13
3973.756503917776
 23
2017.692046363656
 33
0.0
210
0.0
220
0.0
230
1.0
  0
SOLID
  5
788
330
758
100
AcDbEntity
  8
HATCH
  6
CONTINUOUS
 62
   251
100
AcDbTrace
 10
1912.230750544386
 20
2083.688893229522
 30
0.0
 11
1912.230750544386
 21
2017.692046363657
 31
0.0
 12
2166.447195103887
 22
2065.759424637138
 32
0.0
 13
2166.447195103887
 23
2065.759424637138
 33
0.0
210
0.0
220
0.0
230
1.0
  0
SOLID
  5
789
330
758
100
AcDbEntity
  8
HATCH
  6
CONTINUOUS
 62
   251
100
AcDbTrace
 10
3973.756503917777
 20
2143.946898601899
 30
0.0
 11
3719.540059358278
 21
2065.759424637138
 31
0.0
 12
3973.756503917777
 22
2083.688893229522
 32
0.0
 13
3973.756503917777
 23
2083.688893229522
 33
0.0
210
0.0
220
0.0
230
1.0
  0
SOLID
  5
78A
330
758
100
AcDbEntity
  8
HATCH
  6
CONTINUOUS
 62
   251
100
AcDbTrace
 10
3973.756503917777
 20
2143.946898601899
 30
0.0
 11
3563.174072814373
 21
2057.864046617972
 31
0.0
 12
3719.540059358278
 22
2065.759424637138
 32
0.0
 13
3719.540059358278
 23
2065.759424637138
 33
0.0
210
0.0
220
0.0
230
1.0
  0
SOLID
  5
78B
330
758
100
AcDbEntity
  8
HATCH
  6
CONTINUOUS
 62
   251
100
AcDbTrace
 10
1912.230750544386
 20
2143.946898601899
 30
0.0
 11
1912.230750544386
 21
2083.688893229522
 31
0.0
 12
2166.447195103887
 22
2065.759424637138
 32
0.0
 13
2166.447195103887
 23
2065.759424637138
 33
0.0
  0
SOLID
  5
78C
330
758
100
AcDbEntity
  8
HATCH
  6
CONTINUOUS
 62
   251
100
AcDbTrace
 10
1912.230750544386
 20
2143.946898601899
 30
0.0
 11
2166.447195103887
 21
2065.759424637138
 31
0.0
 12
2322.813181647789
 22
2057.86404661797
 32
0.0
 13
2322.813181647789
 23
2057.86404661797
 33
0.0
210
0.0
220
0.0
230
1.0
  0
SOLID
  5
78D
330
758
100
AcDbEntity
  8
HATCH
  6
CONTINUOUS
 62
   251
100
AcDbTrace
 10
3719.540059358278
 20
2161.876367194279
 30
0.0
 11
3563.174072814373
 21
2057.864046617972
 31
0.0
 12
3973.756503917777
 22
2143.946898601899
 32
0.0
 13
3973.756503917777
 23
2143.946898601899
 33
0.0
  0
SOLID
  5
78E
330
758
100
AcDbEntity
  8
HATCH
  6
CONTINUOUS
 62
   251
100
AcDbTrace
 10
2166.447195103887
 20
2161.876367194279
 30
0.0
 11
1912.230750544386
 21
2143.946898601899
 31
0.0
 12
2322.813181647789
 22
2057.86404661797
 32
0.0
 13
2322.813181647789
 23
2057.86404661797
 33
0.0
210
0.0
220
0.0
230
1.0
  0
SOLID
  5
78F
330
758
100
AcDbEntity
  8
HATCH
  6
CONTINUOUS
 62
   251
100
AcDbTrace
 10
3707.526103650524
 20
2166.852710586181
 30
0.0
 11
3563.174072814373
 21
2057.864046617972
 31
0.0
 12
3719.540059358278
 22
2161.876367194279
 32
0.0
 13
3719.540059358278
 23
2161.876367194279
 33
0.0
210
0.0
220
0.0
230
1.0
  0
SOLID
  5
790
330
758
100
AcDbEntity
  8
HATCH
  6
CONTINUOUS
 62
   251
100
AcDbTrace
 10
2154.433239396132
 20
2166.852710586181
 30
0.0
 11
1912.230750544386
 21
2143.946898601899
 31
0.0
 12
2166.447195103887
 22
2161.876367194279
 32
0.0
 13
2166.447195103887
 23
2161.876367194279
 33
0.0
  0
SOLID
  5
791
330
758
100
AcDbEntity
  8
HATCH
  6
CONTINUOUS
 62
   251
100
AcDbTrace
 10
2178.461150811642
 20
2166.852710586181
 30
0.0
 11
2166.447195103887
 21
2161.876367194279
 31
0.0
 12
2322.813181647789
 22
2057.86404661797
 32
0.0
 13
2322.813181647789
 23
2057.86404661797
 33
0.0
210
0.0
220
0.0
230
1.0
  0
SOLID
  5
792
330
758
100
AcDbEntity
  8
HATCH
  6
CONTINUOUS
 62
   251
100
AcDbTrace
 10
3731.554015066032
 20
2166.852710586181
 30
0.0
 11
3719.540059358278
 21
2161.876367194279
 31
0.0
 12
3973.756503917777
 22
2143.946898601899
 32
0.0
 13
3973.756503917777
 23
2143.946898601899
 33
0.0
210
0.0
220
0.0
230
1.0
  0
SOLID
  5
793
330
758
100
AcDbEntity
  8
HATCH
  6
CONTINUOUS
 62
   251
100
AcDbTrace
 10
3563.174072814373
 20
2169.77174521345
 30
0.0
 11
3563.174072814373
 21
2057.864046617972
 31
0.0
 12
3707.526103650524
 22
2166.852710586181
 32
0.0
 13
3707.526103650524
 23
2166.852710586181
 33
0.0
210
0.0
220
0.0
230
1.0
  0
SOLID
  5
794
330
758
100
AcDbEntity
  8
HATCH
  6
CONTINUOUS
 62
   251
100
AcDbTrace
 10
2322.813181647791
 20
2169.77174521345
 30
0.0
 11
2178.461150811642
 21
2166.852710586181
 31
0.0
 12
2322.813181647789
 22
2057.86404661797
 32
0.0
 13
2322.813181647789
 23
2057.86404661797
 33
0.0
210
0.0
220
0.0
230
1.0
  0
SOLID
  5
795
330
758
100
AcDbEntity
  8
HATCH
  6
CONTINUOUS
 62
   251
100
AcDbTrace
 10
2311.328346743066
 20
2178.380027417298
 30
0.0
 11
2178.461150811642
 21
2166.852710586181
 31
0.0
 12
2322.813181647791
 22
2169.77174521345
 32
0.0
 13
2322.813181647791
 23
2169.77174521345
 33
0.0
210
0.0
220
0.0
230
1.0
  0
SOLID
  5
796
330
758
100
AcDbEntity
  8
HATCH
  6
CONTINUOUS
 62
   251
100
AcDbTrace
 10
3574.658907719099
 20
2178.380027417298
 30
0.0
 11
3563.174072814373
 21
2169.77174521345
 31
0.0
 12
3707.526103650524
 22
2166.852710586181
 32
0.0
 13
3707.526103650524
 23
2166.852710586181
 33
0.0
210
0.0
220
0.0
230
1.0
  0
SOLID
  5
797
330
758
100
AcDbEntity
  8
HATCH
  6
CONTINUOUS
 62
   251
100
AcDbTrace
 10
3702.549760258622
 20
2178.866666293936
 30
0.0
 11
3574.658907719099
 21
2178.380027417298
 31
0.0
 12
3707.526103650524
 22
2166.852710586181
 32
0.0
 13
3707.526103650524
 23
2166.852710586181
 33
0.0
210
0.0
220
0.0
230
1.0
  0
SOLID
  5
798
330
758
100
AcDbEntity
  8
HATCH
  6
CONTINUOUS
 62
   251
100
AcDbTrace
 10
2149.456896004231
 20
2178.866666293936
 30
0.0
 11
1912.230750544386
 21
2143.946898601899
 31
0.0
 12
2154.433239396132
 22
2166.852710586181
 32
0.0
 13
2154.433239396132
 23
2166.852710586181
 33
0.0
210
0.0
220
0.0
230
1.0
  0
SOLID
  5
799
330
758
100
AcDbEntity
  8
HATCH
  6
CONTINUOUS
 62
   251
100
AcDbTrace
 10
2183.437494203543
 20
2178.866666293936
 30
0.0
 11
2178.461150811642
 21
2166.852710586181
 31
0.0
 12
2311.328346743066
 22
2178.380027417298
 32
0.0
 13
2311.328346743066
 23
2178.380027417298
 33
0.0
210
0.0
220
0.0
230
1.0
  0
SOLID
  5
79A
330
758
100
AcDbEntity
  8
HATCH
  6
CONTINUOUS
 62
   251
100
AcDbTrace
 10
3736.530358457934
 20
2178.866666293936
 30
0.0
 11
3731.554015066032
 21
2166.852710586181
 31
0.0
 12
3973.756503917777
 22
2143.946898601899
 32
0.0
 13
3973.756503917777
 23
2143.946898601899
 33
0.0
210
0.0
220
0.0
230
1.0
  0
SOLID
  5
79B
330
758
100
AcDbEntity
  8
HATCH
  6
CONTINUOUS
 62
   251
100
AcDbTrace
 10
2233.805804194733
 20
2189.857740349704
 30
0.0
 11
2183.437494203543
 21
2178.866666293936
 31
0.0
 12
2311.328346743066
 22
2178.380027417298
 32
0.0
 13
2311.328346743066
 23
2178.380027417298
 33
0.0
210
0.0
220
0.0
230
1.0
  0
SOLID
  5
79C
330
758
100
AcDbEntity
  8
HATCH
  6
CONTINUOUS
 62
   251
100
AcDbTrace
 10
3652.181450267431
 20
2189.857740349704
 30
0.0
 11
3574.658907719099
 21
2178.380027417298
 31
0.0
 12
3702.549760258622
 22
2178.866666293936
 32
0.0
 13
3702.549760258622
 23
2178.866666293936
 33
0.0
210
0.0
220
0.0
230
1.0
  0
SOLID
  5
79D
330
758
100
AcDbEntity
  8
HATCH
  6
CONTINUOUS
 62
   251
100
AcDbTrace
 10
2154.433239396132
 20
2190.88062200169
 30
0.0
 11
1912.230750544386
 21
2143.946898601899
 31
0.0
 12
2149.456896004231
 22
2178.866666293936
 32
0.0
 13
2149.456896004231
 23
2178.866666293936
 33
0.0
210
0.0
220
0.0
230
1.0
  0
SOLID
  5
79E
330
758
100
AcDbEntity
  8
HATCH
  6
CONTINUOUS
 62
   251
100
AcDbTrace
 10
3707.526103650524
 20
2190.88062200169
 30
0.0
 11
3652.181450267431
 21
2189.857740349704
 31
0.0
 12
3702.549760258622
 22
2178.866666293936
 32
0.0
 13
3702.549760258622
 23
2178.866666293936
 33
0.0
210
0.0
220
0.0
230
1.0
  0
SOLID
  5
79F
330
758
100
AcDbEntity
  8
HATCH
  6
CONTINUOUS
 62
   251
100
AcDbTrace
 10
2178.461150811642
 20
2190.88062200169
 30
0.0
 11
2183.437494203543
 21
2178.866666293936
 31
0.0
 12
2233.805804194733
 22
2189.857740349704
 32
0.0
 13
2233.805804194733
 23
2189.857740349704
 33
0.0
210
0.0
220
0.0
230
1.0
  0
SOLID
  5
7A0
330
758
100
AcDbEntity
  8
HATCH
  6
CONTINUOUS
 62
   251
100
AcDbTrace
 10
3731.554015066032
 20
2190.88062200169
 30
0.0
 11
3736.530358457934
 21
2178.866666293936
 31
0.0
 12
3973.756503917777
 22
2143.946898601899
 32
0.0
 13
3973.756503917777
 23
2143.946898601899
 33
0.0
210
0.0
220
0.0
230
1.0
  0
SOLID
  5
7A1
330
758
100
AcDbEntity
  8
HATCH
  6
CONTINUOUS
 62
   251
100
AcDbTrace
 10
2166.447195103887
 20
2195.856965393592
 30
0.0
 11
1912.230750544386
 21
2143.946898601899
 31
0.0
 12
2154.433239396132
 22
2190.88062200169
 32
0.0
 13
2154.433239396132
 23
2190.88062200169
 33
0.0
210
0.0
220
0.0
230
1.0
  0
SOLID
  5
7A2
330
758
100
AcDbEntity
  8
HATCH
  6
CONTINUOUS
 62
   251
100
AcDbTrace
 10
2166.447195103887
 20
2195.856965393592
 30
0.0
 11
2178.461150811642
 21
2190.88062200169
 31
0.0
 12
2233.805804194733
 22
2189.857740349704
 32
0.0
 13
2233.805804194733
 23
2189.857740349704
 33
0.0
210
0.0
220
0.0
230
1.0
  0
SOLID
  5
7A3
330
758
100
AcDbEntity
  8
HATCH
  6
CONTINUOUS
 62
   251
100
AcDbTrace
 10
3719.540059358278
 20
2195.856965393592
 30
0.0
 11
3652.181450267431
 21
2189.857740349704
 31
0.0
 12
3707.526103650524
 22
2190.88062200169
 32
0.0
 13
3707.526103650524
 23
2190.88062200169
 33
0.0
210
0.0
220
0.0
230
1.0
  0
SOLID
  5
7A4
330
758
100
AcDbEntity
  8
HATCH
  6
CONTINUOUS
 62
   251
100
AcDbTrace
 10
3719.540059358278
 20
2195.856965393592
 30
0.0
 11
3731.554015066032
 21
2190.88062200169
 31
0.0
 12
3973.756503917777
 22
2143.946898601899
 32
0.0
 13
3973.756503917777
 23
2143.946898601899
 33
0.0
210
0.0
220
0.0
230
1.0
  0
SOLID
  5
7A5
330
758
100
AcDbEntity
  8
HATCH
  6
CONTINUOUS
 62
   251
100
AcDbTrace
 10
3973.756503917776
 20
2209.943745467764
 30
0.0
 11
3719.540059358278
 21
2195.856965393592
 31
0.0
 12
3973.756503917777
 22
2143.946898601899
 32
0.0
 13
3973.756503917777
 23
2143.946898601899
 33
0.0
210
0.0
220
0.0
230
1.0
  0
SOLID
  5
7A6
330
758
100
AcDbEntity
  8
HATCH
  6
CONTINUOUS
 62
   251
100
AcDbTrace
 10
1912.230750544385
 20
2209.943745467764
 30
0.0
 11
1912.230750544386
 21
2143.946898601899
 31
0.0
 12
2166.447195103887
 22
2195.856965393592
 32
0.0
 13
2166.447195103887
 23
2195.856965393592
 33
0.0
210
0.0
220
0.0
230
1.0
  0
SOLID
  5
7A7
330
758
100
AcDbEntity
  8
HATCH
  6
CONTINUOUS
 62
   251
100
AcDbTrace
 10
2164.896859502773
 20
2238.638022807871
 30
0.0
 11
1912.230750544385
 21
2209.943745467764
 31
0.0
 12
2166.447195103887
 22
2195.856965393592
 32
0.0
 13
2166.447195103887
 23
2195.856965393592
 33
0.0
210
0.0
220
0.0
230
1.0
  0
SOLID
  5
7A8
330
758
100
AcDbEntity
  8
HATCH
  6
CONTINUOUS
 62
   251
100
AcDbTrace
 10
2164.896859502773
 20
2238.638022807871
 30
0.0
 11
2166.447195103887
 21
2195.856965393592
 31
0.0
 12
2233.805804194733
 22
2189.857740349704
 32
0.0
 13
2233.805804194733
 23
2189.857740349704
 33
0.0
210
0.0
220
0.0
230
1.0
  0
SOLID
  5
7A9
330
758
100
AcDbEntity
  8
HATCH
  6
CONTINUOUS
 62
   251
100
AcDbTrace
 10
3721.090394959393
 20
2238.638022807871
 30
0.0
 11
3719.540059358278
 21
2195.856965393592
 31
0.0
 12
3973.756503917776
 22
2209.943745467764
 32
0.0
 13
3973.756503917776
 23
2209.943745467764
 33
0.0
210
0.0
220
0.0
230
1.0
  0
SOLID
  5
7AA
330
758
100
AcDbEntity
  8
HATCH
  6
CONTINUOUS
 62
   251
100
AcDbTrace
 10
3721.090394959393
 20
2238.638022807871
 30
0.0
 11
3652.181450267431
 21
2189.857740349704
 31
0.0
 12
3719.540059358278
 22
2195.856965393592
 32
0.0
 13
3719.540059358278
 23
2195.856965393592
 33
0.0
210
0.0
220
0.0
230
1.0
  0
SOLID
  5
7AB
330
758
100
AcDbEntity
  8
HATCH
  6
CONTINUOUS
 62
   251
100
AcDbTrace
 10
3721.090394959393
 20
2238.638022807871
 30
0.0
 11
3916.332377946443
 21
2258.724017944122
 31
0.0
 12
3815.840181772761
 22
2258.724017944122
 32
0.0
 13
3815.840181772761
 23
2258.724017944122
 33
0.0
210
0.0
220
0.0
230
1.0
  0
SOLID
  5
7AC
330
758
100
AcDbEntity
  8
HATCH
  6
CONTINUOUS
 62
   251
100
AcDbTrace
 10
3916.332377946443
 20
2258.724017944122
 30
0.0
 11
3721.090394959393
 21
2238.638022807871
 31
0.0
 12
3973.756503917776
 22
2209.943745467764
 32
0.0
 13
3973.756503917776
 23
2209.943745467764
 33
0.0
210
0.0
220
0.0
230
1.0
  0
SOLID
  5
7AD
330
758
100
AcDbEntity
  8
HATCH
  6
CONTINUOUS
 62
   251
100
AcDbTrace
 10
2070.147072689402
 20
2258.724017944122
 30
0.0
 11
1912.230750544385
 21
2209.943745467764
 31
0.0
 12
2164.896859502773
 22
2238.638022807871
 32
0.0
 13
2164.896859502773
 23
2238.638022807871
 33
0.0
210
0.0
220
0.0
230
1.0
  0
SOLID
  5
7AE
330
758
100
AcDbEntity
  8
HATCH
  6
CONTINUOUS
 62
   251
100
AcDbTrace
 10
1969.654876515718
 20
2258.724017944122
 30
0.0
 11
1912.230750544385
 21
2209.943745467764
 31
0.0
 12
2070.147072689402
 22
2258.724017944122
 32
0.0
 13
2070.147072689402
 23
2258.724017944122
 33
0.0
210
0.0
220
0.0
230
1.0
  0
SOLID
  5
7AF
330
758
100
AcDbEntity
  8
HATCH
  6
CONTINUOUS
 62
   251
100
AcDbTrace
 10
3116.106822990345
 20
2528.880252527768
 30
0.0
 11
2684.585117004429
 21
2164.032893738152
 31
0.0
 12
3198.530948961677
 22
2164.032893738153
 32
0.0
 13
3198.530948961677
 23
2164.032893738153
 33
0.0
210
0.0
220
0.0
230
1.0
  0
SOLID
  5
7B0
330
758
100
AcDbEntity
  8
HATCH
  6
CONTINUOUS
 62
   251
100
AcDbTrace
 10
3141.106822990344
 20
2528.880252527772
 30
0.0
 11
3116.106822990345
 21
2528.880252527768
 31
0.0
 12
3198.530948961677
 22
2164.032893738153
 32
0.0
 13
3198.530948961677
 23
2164.032893738153
 33
0.0
210
0.0
220
0.0
230
1.0
  0
SOLID
  5
7B1
330
758
100
AcDbEntity
  8
HATCH
  6
CONTINUOUS
 62
   251
100
AcDbTrace
 10
2750.622840832138
 20
2528.880252527772
 30
0.0
 11
2684.585117004429
 21
2164.032893738152
 31
0.0
 12
3116.106822990345
 22
2528.880252527768
 32
0.0
 13
3116.106822990345
 23
2528.880252527768
 33
0.0
210
0.0
220
0.0
230
1.0
  0
SOLID
  5
7B2
330
758
100
AcDbEntity
  8
HATCH
  6
CONTINUOUS
 62
   251
100
AcDbTrace
 10
2775.622840832133
 20
2528.880252527772
 30
0.0
 11
2750.622840832138
 21
2528.880252527772
 31
0.0
 12
3116.106822990345
 22
2528.880252527768
 32
0.0
 13
3116.106822990345
 23
2528.880252527768
 33
0.0
210
0.0
220
0.0
230
1.0
  0
SOLID
  5
7B3
330
758
100
AcDbEntity
  8
HATCH
  6
CONTINUOUS
 62
   251
100
AcDbTrace
 10
3198.530948961677
 20
2614.963094529892
 30
0.0
 11
3141.106822990344
 21
2528.880252527772
 31
0.0
 12
3198.530948961677
 22
2164.032893738153
 32
0.0
 13
3198.530948961677
 23
2164.032893738153
 33
0.0
210
0.0
220
0.0
230
1.0
  0
SOLID
  5
7B4
330
758
100
AcDbEntity
  8
HATCH
  6
CONTINUOUS
 62
   251
100
AcDbTrace
 10
2684.585117004429
 20
2614.963094529892
 30
0.0
 11
2684.585117004429
 21
2164.032893738152
 31
0.0
 12
2750.622840832138
 22
2528.880252527772
 32
0.0
 13
2750.622840832138
 23
2528.880252527772
 33
0.0
210
0.0
220
0.0
230
1.0
  0
SOLID
  5
7B5
330
758
100
AcDbEntity
  8
HATCH
  6
CONTINUOUS
 62
   251
100
AcDbTrace
 10
3116.106822990343
 20
2628.880252527772
 30
0.0
 11
2775.622840832133
 21
2528.880252527772
 31
0.0
 12
3116.106822990345
 22
2528.880252527768
 32
0.0
 13
3116.106822990345
 23
2528.880252527768
 33
0.0
210
0.0
220
0.0
230
1.0
  0
SOLID
  5
7B6
330
758
100
AcDbEntity
  8
HATCH
  6
CONTINUOUS
 62
   251
100
AcDbTrace
 10
3141.106822990343
 20
2628.880252527772
 30
0.0
 11
3141.106822990344
 21
2528.880252527772
 31
0.0
 12
3198.530948961677
 22
2614.963094529892
 32
0.0
 13
3198.530948961677
 23
2614.963094529892
 33
0.0
210
0.0
220
0.0
230
1.0
  0
SOLID
  5
7B7
330
758
100
AcDbEntity
  8
HATCH
  6
CONTINUOUS
 62
   251
100
AcDbTrace
 10
2775.622840832136
 20
2628.880252527772
 30
0.0
 11
2775.622840832133
 21
2528.880252527772
 31
0.0
 12
3116.106822990343
 22
2628.880252527772
 32
0.0
 13
3116.106822990343
 23
2628.880252527772
 33
0.0
210
0.0
220
0.0
230
1.0
  0
SOLID
  5
7B8
330
758
100
AcDbEntity
  8
HATCH
  6
CONTINUOUS
 62
   251
100
AcDbTrace
 10
2750.622840832136
 20
2628.880252527772
 30
0.0
 11
2684.585117004429
 21
2614.963094529892
 31
0.0
 12
2750.622840832138
 22
2528.880252527772
 32
0.0
 13
2750.622840832138
 23
2528.880252527772
 33
0.0
210
0.0
220
0.0
230
1.0
  0
SOLID
  5
7B9
330
758
100
AcDbEntity
  8
HATCH
  6
CONTINUOUS
 62
   251
100
AcDbTrace
 10
2750.622840832136
 20
2628.880252527772
 30
0.0
 11
2775.622840832136
 21
2628.880252527772
 31
0.0
 12
3116.106822990343
 22
2628.880252527772
 32
0.0
 13
3116.106822990343
 23
2628.880252527772
 33
0.0
210
0.0
220
0.0
230
1.0
  0
SOLID
  5
7BA
330
758
100
AcDbEntity
  8
HATCH
  6
CONTINUOUS
 62
   251
100
AcDbTrace
 10
2750.622840832136
 20
2628.880252527772
 30
0.0
 11
3116.106822990343
 21
2628.880252527772
 31
0.0
 12
3141.106822990343
 22
2628.880252527772
 32
0.0
 13
3141.106822990343
 23
2628.880252527772
 33
0.0
210
0.0
220
0.0
230
1.0
  0
SOLID
  5
7BB
330
758
100
AcDbEntity
  8
HATCH
  6
CONTINUOUS
 62
   251
100
AcDbTrace
 10
3169.241627080332
 20
2685.673772648546
 30
0.0
 11
2750.622840832136
 21
2628.880252527772
 31
0.0
 12
3141.106822990343
 22
2628.880252527772
 32
0.0
 13
3141.106822990343
 23
2628.880252527772
 33
0.0
210
0.0
220
0.0
230
1.0
  0
SOLID
  5
7BC
330
758
100
AcDbEntity
  8
HATCH
  6
CONTINUOUS
 62
   251
100
AcDbTrace
 10
3169.241627080332
 20
2685.673772648546
 30
0.0
 11
3141.106822990343
 21
2628.880252527772
 31
0.0
 12
3198.530948961677
 22
2614.963094529892
 32
0.0
 13
3198.530948961677
 23
2614.963094529892
 33
0.0
210
0.0
220
0.0
230
1.0
  0
SOLID
  5
7BD
330
758
100
AcDbEntity
  8
HATCH
  6
CONTINUOUS
 62
   251
100
AcDbTrace
 10
2713.874438885774
 20
2685.673772648547
 30
0.0
 11
2750.622840832136
 21
2628.880252527772
 31
0.0
 12
3169.241627080332
 22
2685.673772648546
 32
0.0
 13
3169.241627080332
 23
2685.673772648546
 33
0.0
210
0.0
220
0.0
230
1.0
  0
SOLID
  5
7BE
330
758
100
AcDbEntity
  8
HATCH
  6
CONTINUOUS
 62
   251
100
AcDbTrace
 10
2713.874438885774
 20
2685.673772648547
 30
0.0
 11
2684.585117004429
 21
2614.963094529892
 31
0.0
 12
2750.622840832136
 22
2628.880252527772
 32
0.0
 13
2750.622840832136
 23
2628.880252527772
 33
0.0
210
0.0
220
0.0
230
1.0
  0
SOLID
  5
7BF
330
758
100
AcDbEntity
  8
HATCH
  6
CONTINUOUS
 62
   251
100
AcDbTrace
 10
2713.874438885774
 20
2685.673772648547
 30
0.0
 11
3098.530948961677
 21
2714.963094529892
 31
0.0
 12
2784.58511700443
 22
2714.963094529892
 32
0.0
 13
2784.58511700443
 23
2714.963094529892
 33
0.0
210
0.0
220
0.0
230
1.0
  0
SOLID
  5
7C0
330
758
100
AcDbEntity
  8
HATCH
  6
CONTINUOUS
 62
   251
100
AcDbTrace
 10
3098.530948961677
 20
2714.963094529892
 30
0.0
 11
2713.874438885774
 21
2685.673772648547
 31
0.0
 12
3169.241627080332
 22
2685.673772648546
 32
0.0
 13
3169.241627080332
 23
2685.673772648546
 33
0.0
210
0.0
220
0.0
230
1.0
  0
ENDBLK
  5
7C2
330
758
100
AcDbEntity
  8
0
100
AcDbBlockEnd
  0
BLOCK
  5
7CC
330
7C3
100
AcDbEntity
  8
0
100
AcDbBlockBegin
  2
*U13
 70
     1
 10
0.0
 20
0.0
 30
0.0
  3
*U13
  1

  0
SOLID
  5
7C4
330
7C3
100
AcDbEntity
  8
HATCH
  6
CONTINUOUS
 62
     2
100
AcDbTrace
 10
2437.661417406357
 20
2063.602898093269
 30
0.0
 11
2397.464535700065
 21
2023.430907820763
 31
0.0
 12
2437.661417406357
 22
2023.430907820762
 32
0.0
 13
2437.661417406357
 23
2023.430907820762
 33
0.0
  0
SOLID
  5
7C5
330
7C3
100
AcDbEntity
  8
HATCH
  6
CONTINUOUS
 62
     2
100
AcDbTrace
 10
3448.325853239904
 20
2063.602898093269
 30
0.0
 11
3448.325853239904
 21
2023.430907820763
 31
0.0
 12
3479.909104721631
 22
2023.430907820763
 32
0.0
 13
3479.909104721631
 23
2023.430907820763
 33
0.0
210
0.0
220
0.0
230
1.0
  0
SOLID
  5
7C6
330
7C3
100
AcDbEntity
  8
HATCH
  6
CONTINUOUS
 62
     2
100
AcDbTrace
 10
2437.661417406358
 20
2164.032893738153
 30
0.0
 11
2397.464535700065
 21
2023.430907820763
 31
0.0
 12
2437.661417406357
 22
2063.602898093269
 32
0.0
 13
2437.661417406357
 23
2063.602898093269
 33
0.0
210
0.0
220
0.0
230
1.0
  0
SOLID
  5
7C7
330
7C3
100
AcDbEntity
  8
HATCH
  6
CONTINUOUS
 62
     2
100
AcDbTrace
 10
3448.325853239905
 20
2164.032893738153
 30
0.0
 11
3448.325853239904
 21
2063.602898093269
 31
0.0
 12
3479.909104721631
 22
2023.430907820763
 32
0.0
 13
3479.909104721631
 23
2023.430907820763
 33
0.0
210
0.0
220
0.0
230
1.0
  0
SOLID
  5
7C8
330
7C3
100
AcDbEntity
  8
HATCH
  6
CONTINUOUS
 62
     2
100
AcDbTrace
 10
3448.325853239905
 20
2164.032893738153
 30
0.0
 11
3479.909104721631
 21
2204.204884010659
 31
0.0
 12
3448.325853239905
 22
2204.204884010659
 32
0.0
 13
3448.325853239905
 23
2204.204884010659
 33
0.0
210
0.0
220
0.0
230
1.0
  0
SOLID
  5
7C9
330
7C3
100
AcDbEntity
  8
HATCH
  6
CONTINUOUS
 62
     2
100
AcDbTrace
 10
3479.909104721631
 20
2204.204884010659
 30
0.0
 11
3448.325853239905
 21
2164.032893738153
 31
0.0
 12
3479.909104721631
 22
2023.430907820763
 32
0.0
 13
3479.909104721631
 23
2023.430907820763
 33
0.0
  0
SOLID
  5
7CA
330
7C3
100
AcDbEntity
  8
HATCH
  6
CONTINUOUS
 62
     2
100
AcDbTrace
 10
2437.661417406358
 20
2164.032893738153
 30
0.0
 11
2437.661417406358
 21
2204.204884010659
 31
0.0
 12
2397.464535700066
 22
2204.204884010659
 32
0.0
 13
2397.464535700066
 23
2204.204884010659
 33
0.0
210
0.0
220
0.0
230
1.0
  0
SOLID
  5
7CB
330
7C3
100
AcDbEntity
  8
HATCH
  6
CONTINUOUS
 62
     2
100
AcDbTrace
 10
2397.464535700066
 20
2204.204884010659
 30
0.0
 11
2397.464535700065
 21
2023.430907820763
 31
0.0
 12
2437.661417406358
 22
2164.032893738153
 32
0.0
 13
2437.661417406358
 23
2164.032893738153
 33
0.0
210
0.0
220
0.0
230
1.0
  0
ENDBLK
  5
7CD
330
7C3
100
AcDbEntity
  8
0
100
AcDbBlockEnd
  0
ENDSEC
  0
SECTION
  2
ENTITIES
  0
INSERT
  5
64E
330
1F
100
AcDbEntity
  8
HATCH
100
AcDbBlockReference
  2
ABKA1
 10
0.0
 20
0.0
 30
0.0
  0
ENDSEC
  0
SECTION
  2
OBJECTS
  0
DICTIONARY
  5
C
330
0
100
AcDbDictionary
  3
ACAD_GROUP
350
D
  3
ACAD_LAYOUT
350
1A
  3
ACAD_MLINESTYLE
350
17
  3
ACAD_PLOTSETTINGS
350
19
1001
ACAD
1000
TREAT_AS_HARD
1070
     0
1000
TREAT_AS_HARD
1070
     0
  0
DICTIONARY
  5
174
330
1F
100
AcDbDictionary
  3
ACAD_LAYOUTSELFREF
350
650
  3
ACAD_SORTENTS
350
36C
1001
ACAD
1000
TREAT_AS_HARD
1070
     1
1000
TREAT_AS_HARD
1070
     0
  0
DICTIONARY
  5
176
330
50
100
AcDbDictionary
  3
ACAD_LAYOUTSELFREF
350
651
1001
ACAD
1000
TREAT_AS_HARD
1070
     1
1000
TREAT_AS_HARD
1070
     0
  0
DICTIONARY
  5
D
102
{ACAD_REACTORS
330
C
102
}
330
C
100
AcDbDictionary
1001
ACAD
1000
TREAT_AS_HARD
1070
     0
1000
TREAT_AS_HARD
1070
     0
  0
DICTIONARY
  5
1A
102
{ACAD_REACTORS
330
C
102
}
330
C
100
AcDbDictionary
1001
ACAD
1000
TREAT_AS_HARD
1070
     0
1000
TREAT_AS_HARD
1070
     0
  0
DICTIONARY
  5
17
102
{ACAD_REACTORS
330
C
102
}
330
C
100
AcDbDictionary
  3
STANDARD
350
18
1001
ACAD
1000
TREAT_AS_HARD
1070
     0
1000
TREAT_AS_HARD
1070
     0
  0
DICTIONARY
  5
19
102
{ACAD_REACTORS
330
C
102
}
330
C
100
AcDbDictionary
1001
ACAD
1000
TREAT_AS_HARD
1070
     0
1000
TREAT_AS_HARD
1070
     0
  0
XRECORD
  5
650
102
{ACAD_REACTORS
330
174
102
}
330
174
100
AcDbXrecord
340
1F
  0
SORTENTSTABLE
  5
36C
102
{ACAD_REACTORS
330
174
102
}
330
174
100
AcDbSortentsTable
330
1F
331
4BC
  5
4C1
331
283
  5
28E
331
261
  5
26C
331
51A
  5
51F
331
500
  5
505
331
4DE
  5
4E3
331
2A5
  5
2B0
331
4EF
  5
4F4
331
4CD
  5
4D2
331
294
  5
29F
331
272
  5
27D
331
250
  5
25B
331
4BA
  5
4BF
331
281
  5
28C
331
518
  5
51D
331
4FE
  5
503
331
4DC
  5
4E1
331
2A3
  5
2AE
331
4A9
  5
4B2
331
270
  5
27B
331
24E
  5
259
331
4CB
  5
4D0
331
292
  5
29D
331
54B
  5
5C7
331
50F
  5
514
331
4ED
  5
4F2
331
25F
  5
26A
331
5A5
  5
23E
331
2B4
  5
4B0
331
5C7
  5
23F
331
4B8
  5
4BD
331
516
  5
51B
331
4FC
  5
501
331
4DA
  5
4DF
331
2A1
  5
2AC
331
4C9
  5
4CE
331
290
  5
29B
331
26E
  5
279
331
24C
  5
257
331
527
  5
593
331
50D
  5
512
331
4EB
  5
4F0
331
2B2
  5
4AE
331
27F
  5
28A
331
25D
  5
268
331
36B
  5
243
331
549
  5
240
331
514
  5
519
331
4FA
  5
4FF
331
4D8
  5
4DD
331
4C7
  5
4CC
331
28E
  5
299
331
26C
  5
277
331
24A
  5
255
331
2B0
  5
4A9
331
525
  5
54B
331
50B
  5
510
331
4E9
  5
4EE
331
2E9
  5
245
331
4B6
  5
4BB
331
27D
  5
288
331
25B
  5
266
331
29F
  5
2AA
331
246
  5
251
331
512
  5
517
331
4F8
  5
4FD
331
4C5
  5
4CA
331
28C
  5
297
331
26A
  5
275
331
248
  5
253
331
523
  5
549
331
509
  5
50E
331
4E7
  5
4EC
331
2AE
  5
33D
331
4B4
  5
4B9
331
27B
  5
286
331
259
  5
264
331
244
  5
24F
331
4D6
  5
4DB
331
29D
  5
2A8
331
510
  5
515
331
4C3
  5
4C8
331
28A
  5
295
331
268
  5
273
331
521
  5
526
331
507
  5
50C
331
4E5
  5
4EA
331
2AC
  5
2E9
331
4B2
  5
4B7
331
279
  5
284
331
257
  5
262
331
242
  5
24D
331
4F6
  5
4FB
331
4D4
  5
4D9
331
29B
  5
2A6
331
4C1
  5
4C6
331
288
  5
293
331
266
  5
271
331
51F
  5
524
331
505
  5
50A
331
4E3
  5
4E8
331
2AA
  5
2B5
331
4B0
  5
4B5
331
277
  5
282
331
255
  5
260
331
240
  5
24B
331
4F4
  5
4F9
331
4D2
  5
4D7
331
299
  5
2A4
331
4BF
  5
4C4
331
286
  5
291
331
264
  5
26F
331
2A8
  5
2B3
331
51D
  5
522
331
503
  5
508
331
4E1
  5
4E6
331
2E1
  5
244
331
4AE
  5
4B3
331
275
  5
280
331
253
  5
25E
331
4F2
  5
4F7
331
4D0
  5
4D5
331
297
  5
2A2
331
23E
  5
249
331
4BD
  5
4C2
331
284
  5
28F
331
262
  5
26D
331
51B
  5
520
331
501
  5
506
331
4DF
  5
4E4
331
2A6
  5
2B1
331
4F0
  5
4F5
331
4CE
  5
4D3
331
295
  5
2A0
331
273
  5
27E
331
251
  5
25C
331
33D
  5
246
331
4BB
  5
4C0
331
282
  5
28D
331
260
  5
26B
331
519
  5
51E
331
4FF
  5
504
331
4DD
  5
4E2
331
2A4
  5
2AF
331
4CC
  5
4D1
331
293
  5
29E
331
271
  5
27C
331
24F
  5
25A
331
4EE
  5
4F3
331
2B5
  5
4B1
331
4B9
  5
4BE
331
280
  5
28B
331
517
  5
51C
331
4FD
  5
502
331
4DB
  5
4E0
331
2A2
  5
2AD
331
4CA
  5
4CF
331
291
  5
29C
331
26F
  5
27A
331
24D
  5
258
331
593
  5
23D
331
54A
  5
5A5
331
50E
  5
513
331
4EC
  5
4F1
331
25E
  5
269
331
2B3
  5
4AF
331
515
  5
51A
331
4FB
  5
500
331
4D9
  5
4DE
331
2A0
  5
2AB
331
4C8
  5
4CD
331
28F
  5
29A
331
26D
  5
278
331
24B
  5
256
331
526
  5
579
331
50C
  5
511
331
4EA
  5
4EF
331
2B1
  5
4AD
331
4B7
  5
4BC
331
27E
  5
289
331
25C
  5
267
331
247
  5
252
331
513
  5
518
331
4F9
  5
4FE
331
249
  5
254
331
4C6
  5
4CB
331
28D
  5
298
331
26B
  5
276
331
579
  5
22E
331
524
  5
54A
331
50A
  5
50F
331
4E8
  5
4ED
331
4B5
  5
4BA
331
27C
  5
287
331
25A
  5
265
331
245
  5
250
331
4D7
  5
4DC
331
29E
  5
2A9
331
2AF
  5
36B
331
511
  5
516
331
4C4
  5
4C9
331
28B
  5
296
331
269
  5
274
331
22E
  5
247
331
522
  5
527
331
508
  5
50D
331
4E6
  5
4EB
331
2AD
  5
2F7
331
4B3
  5
4B8
331
27A
  5
285
331
258
  5
263
331
243
  5
24E
331
4D5
  5
4DA
331
4F7
  5
4FC
331
2F7
  5
242
331
29C
  5
2A7
331
4C2
  5
4C7
331
289
  5
294
331
267
  5
272
331
520
  5
525
331
506
  5
50B
331
4E4
  5
4E9
331
2AB
  5
2E1
331
4B1
  5
4B6
331
278
  5
283
331
256
  5
261
331
241
  5
24C
331
4F5
  5
4FA
331
4D3
  5
4D8
331
29A
  5
2A5
331
4C0
  5
4C5
331
287
  5
292
331
265
  5
270
331
51E
  5
523
331
504
  5
509
331
4E2
  5
4E7
331
2A9
  5
2B4
331
4AF
  5
4B4
331
276
  5
281
331
254
  5
25F
331
23F
  5
24A
331
4F3
  5
4F8
331
4D1
  5
4D6
331
298
  5
2A3
331
4BE
  5
4C3
331
285
  5
290
331
263
  5
26E
331
51C
  5
521
331
502
  5
507
331
4E0
  5
4E5
331
2A7
  5
2B2
331
274
  5
27F
331
252
  5
25D
331
23D
  5
248
331
4F1
  5
4F6
331
4CF
  5
4D4
331
296
  5
2A1
331
4AD
  5
241
  0
XRECORD
  5
651
102
{ACAD_REACTORS
330
176
102
}
330
176
100
AcDbXrecord
340
50
  0
MLINESTYLE
  5
18
102
{ACAD_REACTORS
330
17
102
}
330
17
100
AcDbMlineStyle
  2
STANDARD
 70
     0
  3

 62
   256
 51
90.0
 52
90.0
 71
     2
 49
0.5
 62
   256
  6
BYLAYER
 49
-0.5
 62
   256
  6
BYLAYER
  0
ENDSEC
  0
EOF
