  0
SECTION
  2
HEADER
  9
$ACADVER
  1
AC1012
  9
$DWGCODEPAGE
  3
ANSI_1252
  9
$INSBASE
 10
0.0
 20
0.0
 30
0.0
  9
$EXTMIN
 10
18.04316345201868
 20
16.97901686244722
 30
0.0
  9
$EXTMAX
 10
4353.483048216677
 20
4216.979016862445
 30
0.0
  9
$LIMMIN
 10
0.0
 20
0.0
  9
$LIMMAX
 10
420.0
 20
297.0
  9
$ORTHOMODE
 70
     0
  9
$REGENMODE
 70
     1
  9
$FILLMODE
 70
     1
  9
$QTEXTMODE
 70
     0
  9
$MIRRTEXT
 70
     1
  9
$DRAGMODE
 70
     2
  9
$LTSCALE
 40
1.0
  9
$OSMODE
 70
  2559
  9
$ATTMODE
 70
     1
  9
$TEXTSIZE
 40
2.5
  9
$TRACEWID
 40
1.0
  9
$TEXTSTYLE
  7
STANDARD
  9
$CLAYER
  8
HATCH
  9
$CELTYPE
  6
BYLAYER
  9
$CECOLOR
 62
     5
  9
$CELTSCALE
 40
1.0
  9
$DELOBJ
 70
     1
  9
$DISPSILH
 70
     0
  9
$DIMSCALE
 40
1.0
  9
$DIMASZ
 40
2.5
  9
$DIMEXO
 40
0.625
  9
$DIMDLI
 40
3.75
  9
$DIMRND
 40
0.0
  9
$DIMDLE
 40
0.0
  9
$DIMEXE
 40
1.25
  9
$DIMTP
 40
0.0
  9
$DIMTM
 40
0.0
  9
$DIMTXT
 40
2.5
  9
$DIMCEN
 40
2.5
  9
$DIMTSZ
 40
0.0
  9
$DIMTOL
 70
     0
  9
$DIMLIM
 70
     0
  9
$DIMTIH
 70
     0
  9
$DIMTOH
 70
     0
  9
$DIMSE1
 70
     0
  9
$DIMSE2
 70
     0
  9
$DIMTAD
 70
     1
  9
$DIMZIN
 70
     8
  9
$DIMBLK
  1

  9
$DIMASO
 70
     1
  9
$DIMSHO
 70
     1
  9
$DIMPOST
  1

  9
$DIMAPOST
  1

  9
$DIMALT
 70
     0
  9
$DIMALTD
 70
     3
  9
$DIMALTF
 40
0.03937007874016
  9
$DIMLFAC
 40
1.0
  9
$DIMTOFL
 70
     1
  9
$DIMTVP
 40
0.0
  9
$DIMTIX
 70
     0
  9
$DIMSOXD
 70
     0
  9
$DIMSAH
 70
     0
  9
$DIMBLK1
  1

  9
$DIMBLK2
  1

  9
$DIMSTYLE
  2
ISO-25
  9
$DIMCLRD
 70
     0
  9
$DIMCLRE
 70
     0
  9
$DIMCLRT
 70
     0
  9
$DIMTFAC
 40
1.0
  9
$DIMGAP
 40
0.625
  9
$DIMJUST
 70
     0
  9
$DIMSD1
 70
     0
  9
$DIMSD2
 70
     0
  9
$DIMTOLJ
 70
     0
  9
$DIMTZIN
 70
     8
  9
$DIMALTZ
 70
     0
  9
$DIMALTTZ
 70
     0
  9
$DIMFIT
 70
     3
  9
$DIMUPT
 70
     0
  9
$DIMUNIT
 70
     2
  9
$DIMDEC
 70
     2
  9
$DIMTDEC
 70
     2
  9
$DIMALTU
 70
     2
  9
$DIMALTTD
 70
     3
  9
$DIMTXSTY
  7
STANDARD
  9
$DIMAUNIT
 70
     0
  9
$LUNITS
 70
     2
  9
$LUPREC
 70
     4
  9
$SKETCHINC
 40
1.0
  9
$FILLETRAD
 40
10.0
  9
$AUNITS
 70
     0
  9
$AUPREC
 70
     0
  9
$MENU
  1
.
  9
$ELEVATION
 40
0.0
  9
$PELEVATION
 40
0.0
  9
$THICKNESS
 40
0.0
  9
$LIMCHECK
 70
     0
  9
$BLIPMODE
 70
     0
  9
$CHAMFERA
 40
10.0
  9
$CHAMFERB
 40
10.0
  9
$CHAMFERC
 40
20.0
  9
$CHAMFERD
 40
0.0
  9
$SKPOLY
 70
     0
  9
$TDCREATE
 40
2452626.502873958
  9
$TDUPDATE
 40
2452781.328381250
  9
$TDINDWG
 40
0.0031225694
  9
$TDUSRTIMER
 40
0.0031225694
  9
$USRTIMER
 70
     1
  9
$ANGBASE
 50
0.0
  9
$ANGDIR
 70
     0
  9
$PDMODE
 70
     0
  9
$PDSIZE
 40
0.0
  9
$PLINEWID
 40
0.0
  9
$COORDS
 70
     2
  9
$SPLFRAME
 70
     0
  9
$SPLINETYPE
 70
     6
  9
$SPLINESEGS
 70
     8
  9
$ATTDIA
 70
     0
  9
$ATTREQ
 70
     1
  9
$HANDLING
 70
-16383
  9
$HANDSEED
  5
479
  9
$SURFTAB1
 70
     6
  9
$SURFTAB2
 70
     6
  9
$SURFTYPE
 70
     6
  9
$SURFU
 70
     6
  9
$SURFV
 70
     6
  9
$UCSNAME
  2

  9
$UCSORG
 10
0.0
 20
0.0
 30
0.0
  9
$UCSXDIR
 10
1.0
 20
0.0
 30
0.0
  9
$UCSYDIR
 10
0.0
 20
1.0
 30
0.0
  9
$PUCSNAME
  2

  9
$PUCSORG
 10
0.0
 20
0.0
 30
0.0
  9
$PUCSXDIR
 10
1.0
 20
0.0
 30
0.0
  9
$PUCSYDIR
 10
0.0
 20
1.0
 30
0.0
  9
$USERI1
 70
     0
  9
$USERI2
 70
     0
  9
$USERI3
 70
     0
  9
$USERI4
 70
     0
  9
$USERI5
 70
     0
  9
$USERR1
 40
0.0
  9
$USERR2
 40
0.0
  9
$USERR3
 40
0.0
  9
$USERR4
 40
0.0
  9
$USERR5
 40
0.0
  9
$WORLDVIEW
 70
     1
  9
$SHADEDGE
 70
     3
  9
$SHADEDIF
 70
    70
  9
$TILEMODE
 70
     1
  9
$MAXACTVP
 70
    64
  9
$PINSBASE
 10
0.0
 20
0.0
 30
0.0
  9
$PLIMCHECK
 70
     0
  9
$PEXTMIN
 10
0.0
 20
0.0
 30
0.0
  9
$PEXTMAX
 10
0.0
 20
0.0
 30
0.0
  9
$PLIMMIN
 10
0.0
 20
0.0
  9
$PLIMMAX
 10
12.0
 20
9.0
  9
$UNITMODE
 70
     0
  9
$VISRETAIN
 70
     1
  9
$PLINEGEN
 70
     0
  9
$PSLTSCALE
 70
     1
  9
$TREEDEPTH
 70
  3020
  9
$PICKSTYLE
 70
     1
  9
$CMLSTYLE
  2
STANDARD
  9
$CMLJUST
 70
     0
  9
$CMLSCALE
 40
20.0
  9
$SAVEIMAGES
 70
     1
  0
ENDSEC
  0
SECTION
  2
CLASSES
  0
CLASS
  1
ACDBDICTIONARYWDFLT
  2
AcDbDictionaryWithDefault
  3
AutoCAD 2000
 90
    32768
280
     0
281
     0
  0
CLASS
  1
ACDBPLACEHOLDER
  2
AcDbPlaceHolder
  3
AutoCAD 2000
 90
    32768
280
     0
281
     0
  0
CLASS
  1
LAYOUT
  2
AcDbLayout
  3
AutoCAD 2000
 90
    32768
280
     0
281
     0
  0
CLASS
  1
LONG_TRANSACTION
  2
AcDbLongTransaction
  3
AutoCAD 2000
 90
    32768
280
     0
281
     0
  0
CLASS
  1
LWPOLYLINE
  2
AcDbPolyline
  3
AutoCAD 2000
 90
    32768
280
     0
281
     1
  0
CLASS
  1
HATCH
  2
AcDbHatch
  3
AutoCAD 2000
 90
    32768
280
     0
281
     1
  0
CLASS
  1
XRECORD
  2
AcDbXrecord
  3
AutoCAD 2000
 90
    32768
280
     0
281
     0
  0
CLASS
  1
LONG_TRANSACTION
  2
AcDbLongTransaction
  3
AutoCAD 2000
 90
    32768
280
     0
281
     0
  0
CLASS
  1
LWPOLYLINE
  2
AcDbPolyline
  3
AutoCAD 2000
 90
    32768
280
     0
281
     1
  0
CLASS
  1
HATCH
  2
AcDbHatch
  3
AutoCAD 2000
 90
    32768
280
     0
281
     1
  0
CLASS
  1
XRECORD
  2
AcDbXrecord
  3
AutoCAD 2000
 90
    32768
280
     0
281
     0
  0
CLASS
  1
LONG_TRANSACTION
  2
AcDbLongTransaction
  3
AutoCAD 2000
 90
    32768
280
     0
281
     0
  0
CLASS
  1
LWPOLYLINE
  2
AcDbPolyline
  3
AutoCAD 2000
 90
    32768
280
     0
281
     1
  0
CLASS
  1
HATCH
  2
AcDbHatch
  3
AutoCAD 2000
 90
    32768
280
     0
281
     1
  0
CLASS
  1
XRECORD
  2
AcDbXrecord
  3
AutoCAD 2000
 90
    32768
280
     0
281
     0
  0
CLASS
  1
DICTIONARYVAR
  2
AcDbDictionaryVar
  3
AutoCAD 2000
 90
    32768
280
     0
281
     0
  0
CLASS
  1
SORTENTSTABLE
  2
AcDbSortentsTable
  3
AutoCAD 2000
 90
    32768
280
     0
281
     0
  0
CLASS
  1
LONG_TRANSACTION
  2
AcDbLongTransaction
  3
AutoCAD 2000
 90
    32768
280
     0
281
     0
  0
CLASS
  1
LWPOLYLINE
  2
AcDbPolyline
  3
AutoCAD 2000
 90
    32768
280
     0
281
     1
  0
CLASS
  1
HATCH
  2
AcDbHatch
  3
AutoCAD 2000
 90
    32768
280
     0
281
     1
  0
CLASS
  1
XRECORD
  2
AcDbXrecord
  3
AutoCAD 2000
 90
    32768
280
     0
281
     0
  0
ENDSEC
  0
SECTION
  2
TABLES
  0
TABLE
  2
VPORT
  5
8
330
0
100
AcDbSymbolTable
 70
     2
  0
VPORT
  5
2A3
330
8
100
AcDbSymbolTableRecord
100
AcDbViewportTableRecord
  2
*ACTIVE
 70
     0
 10
0.0
 20
0.0
 11
1.0
 21
1.0
 12
2610.731752784474
 22
1851.796096815194
 13
0.0
 23
0.0
 14
10.0
 24
10.0
 15
10.0
 25
10.0
 16
0.0
 26
0.0
 36
1.0
 17
0.0
 27
0.0
 37
0.0
 40
3601.241110918336
 41
1.47227533460803
 42
50.0
 43
0.0
 44
0.0
 50
0.0
 51
0.0
 71
     0
 72
   100
 73
     1
 74
     3
 75
     0
 76
     0
 77
     0
 78
     0
  0
ENDTAB
  0
TABLE
  2
LTYPE
  5
5
330
0
100
AcDbSymbolTable
 70
     2
  0
LTYPE
  5
14
330
5
100
AcDbSymbolTableRecord
100
AcDbLinetypeTableRecord
  2
BYBLOCK
 70
     0
  3

 72
    65
 73
     0
 40
0.0
  0
LTYPE
  5
15
330
5
100
AcDbSymbolTableRecord
100
AcDbLinetypeTableRecord
  2
BYLAYER
 70
     0
  3

 72
    65
 73
     0
 40
0.0
  0
LTYPE
  5
16
330
5
100
AcDbSymbolTableRecord
100
AcDbLinetypeTableRecord
  2
CONTINUOUS
 70
     0
  3
Solid line
 72
    65
 73
     0
 40
0.0
  0
LTYPE
  5
5D
330
5
100
AcDbSymbolTableRecord
100
AcDbLinetypeTableRecord
  2
DASHED
 70
     0
  3
Dashed __ __ __ __ __ __ __ __ __ __ __ __ __ _
 72
    65
 73
     2
 40
0.75
 49
0.5
 74
     0
 49
-0.25
 74
     0
  0
ENDTAB
  0
TABLE
  2
LAYER
  5
2
330
0
100
AcDbSymbolTable
 70
     5
  0
LAYER
  5
10
330
2
100
AcDbSymbolTableRecord
100
AcDbLayerTableRecord
  2
0
 70
     0
 62
     7
  6
CONTINUOUS
  0
LAYER
  5
5E
330
2
100
AcDbSymbolTableRecord
100
AcDbLayerTableRecord
  2
SAFETY
 70
     0
 62
     7
  6
CONTINUOUS
  0
LAYER
  5
5F
330
2
100
AcDbSymbolTableRecord
100
AcDbLayerTableRecord
  2
OBJECT
 70
     0
 62
     7
  6
CONTINUOUS
  0
LAYER
  5
18A
330
2
100
AcDbSymbolTableRecord
100
AcDbLayerTableRecord
  2
TEKST
 70
     0
 62
     7
  6
CONTINUOUS
  0
LAYER
  5
1A2
330
2
100
AcDbSymbolTableRecord
100
AcDbLayerTableRecord
  2
HATCH
 70
     0
 62
     7
  6
CONTINUOUS
  0
ENDTAB
  0
TABLE
  2
STYLE
  5
3
330
0
100
AcDbSymbolTable
 70
     1
  0
STYLE
  5
11
330
3
100
AcDbSymbolTableRecord
100
AcDbTextStyleTableRecord
  2
STANDARD
 70
     0
 40
0.0
 41
1.0
 50
0.0
 71
     0
 42
2.5
  3
txt
  4

  0
ENDTAB
  0
TABLE
  2
VIEW
  5
6
330
0
100
AcDbSymbolTable
 70
     0
  0
ENDTAB
  0
TABLE
  2
UCS
  5
7
330
0
100
AcDbSymbolTable
 70
     0
  0
ENDTAB
  0
TABLE
  2
APPID
  5
9
330
0
100
AcDbSymbolTable
 70
     2
  0
APPID
  5
12
330
9
100
AcDbSymbolTableRecord
100
AcDbRegAppTableRecord
  2
ACAD
 70
     0
  0
APPID
  5
183
330
9
100
AcDbSymbolTableRecord
100
AcDbRegAppTableRecord
  2
CONTENTBLOCKICON
 70
     0
  0
ENDTAB
  0
TABLE
  2
DIMSTYLE
  5
A
330
0
100
AcDbSymbolTable
 70
     2
  0
DIMSTYLE
105
27
330
A
100
AcDbSymbolTableRecord
100
AcDbDimStyleTableRecord
  2
ISO-25
 70
     0
  3

  4

  5

  6

  7

 40
1.0
 41
2.5
 42
0.625
 43
3.75
 44
1.25
 45
0.0
 46
0.0
 47
0.0
 48
0.0
140
2.5
141
2.5
142
0.0
143
0.03937007874016
144
1.0
145
0.0
146
1.0
147
0.625
 71
     0
 72
     0
 73
     0
 74
     0
 75
     0
 76
     0
 77
     1
 78
     8
170
     0
171
     3
172
     1
173
     0
174
     0
175
     0
176
     0
177
     0
178
     0
270
     2
271
     2
272
     2
273
     2
274
     3
340
11
275
     0
280
     0
281
     0
282
     0
283
     0
284
     8
285
     0
286
     0
287
     3
288
     0
  0
DIMSTYLE
105
1A3
330
A
100
AcDbSymbolTableRecord
100
AcDbDimStyleTableRecord
  2
STANDARD
 70
     0
  3

  4

  5

  6

  7

 40
1.0
 41
0.18
 42
0.0625
 43
0.38
 44
0.18
 45
0.0
 46
0.0
 47
0.0
 48
0.0
140
0.18
141
0.09
142
0.0
143
25.4
144
1.0
145
0.0
146
1.0
147
0.09
 71
     0
 72
     0
 73
     1
 74
     1
 75
     0
 76
     0
 77
     0
 78
     0
170
     0
171
     2
172
     0
173
     0
174
     0
175
     0
176
     0
177
     0
178
     0
270
     2
271
     4
272
     4
273
     2
274
     2
340
11
275
     0
280
     0
281
     0
282
     0
283
     1
284
     0
285
     0
286
     0
287
     3
288
     0
  0
ENDTAB
  0
TABLE
  2
BLOCK_RECORD
  5
1
330
0
100
AcDbSymbolTable
 70
    18
  0
BLOCK_RECORD
  5
1F
102
{ACAD_XDICTIONARY
360
10C
102
}
330
1
100
AcDbSymbolTableRecord
100
AcDbBlockTableRecord
  2
*MODEL_SPACE
  0
BLOCK_RECORD
  5
50
102
{ACAD_XDICTIONARY
360
10E
102
}
330
1
100
AcDbSymbolTableRecord
100
AcDbBlockTableRecord
  2
*PAPER_SPACE
  0
BLOCK_RECORD
  5
118
330
1
100
AcDbSymbolTableRecord
100
AcDbBlockTableRecord
  2
AAKM
1001
ACAD
1000
DesignCenter Data
1002
{
1070
     1
1070
     4
1002
}
1001
CONTENTBLOCKICON
1071
        0
1004
28000000200000002000000001000800000000000004000000000000000000000000000000000000000000004000000080000000FF000000002000004020000080200000FF200000004000004040000080400000FF400000006000004060000080600000FF600000008000004080000080800000FF80000000A0000040A000
1004
0080A00000FFA0000000C0000040C0000080C00000FFC0000000FF000040FF000080FF0000FFFF0000000020004000200080002000FF002000002020004020200080202000FF202000004020004040200080402000FF402000006020004060200080602000FF602000008020004080200080802000FF80200000A0200040A0
1004
200080A02000FFA0200000C0200040C0200080C02000FFC0200000FF200040FF200080FF2000FFFF2000000040004000400080004000FF004000002040004020400080204000FF204000004040004040400080404000FF404000006040004060400080604000FF604000008040004080400080804000FF80400000A0400040
1004
A0400080A04000FFA0400000C0400040C0400080C04000FFC0400000FF400040FF400080FF4000FFFF4000000060004000600080006000FF006000002060004020600080206000FF206000004060004040600080406000FF406000006060004060600080606000FF606000008060004080600080806000FF80600000A06000
1004
40A0600080A06000FFA0600000C0600040C0600080C06000FFC0600000FF600040FF600080FF6000FFFF6000000080004000800080008000FF008000002080004020800080208000FF208000004080004040800080408000FF408000006080004060800080608000FF608000008080004080800080808000FF80800000A080
1004
0040A0800080A08000FFA0800000C0800040C0800080C08000FFC0800000FF800040FF800080FF8000FFFF80000000A0004000A0008000A000FF00A0000020A0004020A0008020A000FF20A0000040A0004040A0008040A000FF40A0000060A0004060A0008060A000FF60A0000080A0004080A0008080A000FF80A00000A0
1004
A00040A0A00080A0A000FFA0A00000C0A00040C0A00080C0A000FFC0A00000FFA00040FFA00080FFA000FFFFA0000000C0004000C0008000C000FF00C0000020C0004020C0008020C000FF20C0000040C0004040C0008040C000FF40C0000060C0004060C0008060C000FF60C0000080C0004080C0008080C000FF80C00000
1004
A0C00040A0C00080A0C000FFA0C00000C0C00040C0C00080C0C000FFC0C00000FFC00040FFC00080FFC000FFFFC0000000FF004000FF008000FF00FF00FF000020FF004020FF008020FF00FF20FF000040FF004040FF008040FF00FF40FF000060FF004060FF008060FF00FF60FF000080FF004080FF008080FF00FF80FF00
1004
00A0FF0040A0FF0080A0FF00FFA0FF0000C0FF0040C0FF0080C0FF00FFC0FF0000FFFF0040FFFF0080FFFF00FFFFFF0000000000000000000000000000000000000000000000000000000000000000000000000000000000000000000000000000000000000000000000000000000000000000000000000000000000FFFFFF
1004
FFFFFFFFFF00000000000000000000000000000000000000000000FFFF0000000000000000FF00000000000000000000000000000000000000FFFF0000000000000000000000FFFF00000000000000000000000000000000FF000000000000000000000000000000FFFF000000000000000000000000FFFF00000000000000
1004
0000000000000000000000FF00000000000000000000FF000000000000000000000000000000000000000000FF000000000000000000FF00000000000000000000000000000000000000000000FF00000000000000FF0000000000000000000000000000000000000000000000FF000000000000FF00000000000000000000
1004
000000000000000000000000000000FF0000000000FF00000000000000000000000000000000000000000000000000FF0000000000FF00000000000000000000FF000000FF0000000000000000000000FF00000000FF00000000000000000000FFFF00FFFFFF00000000000000000000FF00000000FF000000000000000000
1004
00FFFFFFFFFF000000000000000000000000FF000000FF000000000000000000FFFFFFFFFFFFFFFFFF000000000000000000FF0000FF00000000000000000000FFFFFFFFFFFFFFFFFF000000000000000000FF000000FF00000000000000000000FFFFFFFFFF0000000000000000000000FF00000000FF0000000000000000
1004
0000FFFF00FFFFFF00000000000000000000FF00000000FF00000000000000000000FF000000FF0000000000000000000000FF00000000FF00000000000000000000000000000000000000000000000000FF0000000000FF00000000000000000000000000000000000000000000000000FF000000000000FF000000000000
1004
0000000000000000000000000000000000FF0000000000000000FF00000000000000000000000000000000000000000000FF0000000000000000FF000000000000000000000000000000000000000000FF00000000000000000000FF00000000000000000000000000000000000000FF000000000000000000000000FFFF00
1004
000000000000000000000000000000FF000000000000000000000000000000FF00000000000000000000000000FFFF0000000000000000000000000000000000FFFF000000000000000000FFFF000000000000000000000000000000000000000000FFFFFFFFFFFFFFFFFF0000000000000000000000000000000000000000
1004
0000000000000000000000000000000000000000000000000000000000000000000000000000000000000000000000000000000000000000
  0
BLOCK_RECORD
  5
270
330
1
100
AcDbSymbolTableRecord
100
AcDbBlockTableRecord
  2
2
1001
CONTENTBLOCKICON
1071
        0
1004
28000000200000002000000001000800000000000004000000000000000000000000000000000000000000004000000080000000FF000000002000004020000080200000FF200000004000004040000080400000FF400000006000004060000080600000FF600000008000004080000080800000FF80000000A0000040A000
1004
0080A00000FFA0000000C0000040C0000080C00000FFC0000000FF000040FF000080FF0000FFFF0000000020004000200080002000FF002000002020004020200080202000FF202000004020004040200080402000FF402000006020004060200080602000FF602000008020004080200080802000FF80200000A0200040A0
1004
200080A02000FFA0200000C0200040C0200080C02000FFC0200000FF200040FF200080FF2000FFFF2000000040004000400080004000FF004000002040004020400080204000FF204000004040004040400080404000FF404000006040004060400080604000FF604000008040004080400080804000FF80400000A0400040
1004
A0400080A04000FFA0400000C0400040C0400080C04000FFC0400000FF400040FF400080FF4000FFFF4000000060004000600080006000FF006000002060004020600080206000FF206000004060004040600080406000FF406000006060004060600080606000FF606000008060004080600080806000FF80600000A06000
1004
40A0600080A06000FFA0600000C0600040C0600080C06000FFC0600000FF600040FF600080FF6000FFFF6000000080004000800080008000FF008000002080004020800080208000FF208000004080004040800080408000FF408000006080004060800080608000FF608000008080004080800080808000FF80800000A080
1004
0040A0800080A08000FFA0800000C0800040C0800080C08000FFC0800000FF800040FF800080FF8000FFFF80000000A0004000A0008000A000FF00A0000020A0004020A0008020A000FF20A0000040A0004040A0008040A000FF40A0000060A0004060A0008060A000FF60A0000080A0004080A0008080A000FF80A00000A0
1004
A00040A0A00080A0A000FFA0A00000C0A00040C0A00080C0A000FFC0A00000FFA00040FFA00080FFA000FFFFA0000000C0004000C0008000C000FF00C0000020C0004020C0008020C000FF20C0000040C0004040C0008040C000FF40C0000060C0004060C0008060C000FF60C0000080C0004080C0008080C000FF80C00000
1004
A0C00040A0C00080A0C000FFA0C00000C0C00040C0C00080C0C000FFC0C00000FFC00040FFC00080FFC000FFFFC0000000FF004000FF008000FF00FF00FF000020FF004020FF008020FF00FF20FF000040FF004040FF008040FF00FF40FF000060FF004060FF008060FF00FF60FF000080FF004080FF008080FF00FF80FF00
1004
00A0FF0040A0FF0080A0FF00FFA0FF0000C0FF0040C0FF0080C0FF00FFC0FF0000FFFF0040FFFF0080FFFF00FFFFFF0000000000000000000000000000000000000000000000000000000000000000000000000000000000000000000000000000000000000000000000000000000000000000000000000000000000000000
1004
00000000000000000000000000000000000000000000000000000000000000000000000000000000000000000000000000000000FCFCFC00000000000000000000000000FCFCFC00000000000000000000000000FC0000FC0000000000000000000000FC0000FC00000000000000000000000000FC000000FC000000000000
1004
000000FC000000FC00000000000000000000000000FCFC000000FC00000000000000FC000000FCFC0000000000000000000000000000FC00000000FC0000000000FCFC000000FCFC0000000000000000000000000000FC00000000FC0000000000FC00000000FC00000000000000000000000000000000FC00000000FC0000
1004
00FCFC000000FC0000000000000000000000000000000000FCFC000000FCFCFCFCFC000000FCFC00000000000000000000000000000000000000FCFCFC0000000000FCFCFC0000000000000000000000000000000000FCFCFC0000FC00000000000000FC0000000000000000000000000000000000FCFC0000FCFCFC000000
1004
00000000FCFCFCFCFCFCFCFCFCFCFC000000000000FCFCFCFCFCFCFC000000000000000000FC000000000000FCFCFCFCFCFCFC000000FC00000000FC000000000000000000FC000000000000FCFCFCFCFCFCFC000000FC000000FCFCFC00000000000000FCFCFCFCFCFCFCFCFCFCFCFC00000000000000FCFCFC0000FC0000
1004
0000000000FC00000000000000000000000000000000000000000000FCFCFC0000000000FCFCFC00000000000000000000000000000000000000FCFCFC0000FCFCFCFCFC0000FCFCFC0000000000000000000000000000000000FC00000000FC000000FCFC000000FC00000000000000000000000000000000FC00000000FC
1004
0000000000FC00000000FC000000000000000000000000000000FC00000000FC0000000000FCFC000000FCFC00000000000000000000000000FCFC000000FC00000000000000FC000000FCFC00000000000000000000000000FC000000FC000000000000000000FC000000FC00000000000000000000000000FC0000FC0000
1004
000000000000000000FC0000FC00000000000000000000000000FCFCFC00000000000000000000000000FCFCFC00000000000000000000000000000000000000000000000000000000000000000000000000000000000000000000000000000000000000000000000000000000000000000000000000000000000000000000
1004
0000000000000000000000000000000000000000000000000000000000000000000000000000000000000000000000000000000000000000
  0
BLOCK_RECORD
  5
2AA
330
1
100
AcDbSymbolTableRecord
100
AcDbBlockTableRecord
  2
*U3
  0
BLOCK_RECORD
  5
2BB
330
1
100
AcDbSymbolTableRecord
100
AcDbBlockTableRecord
  2
*U4
  0
BLOCK_RECORD
  5
2E6
330
1
100
AcDbSymbolTableRecord
100
AcDbBlockTableRecord
  2
*U5
  0
BLOCK_RECORD
  5
2F7
330
1
100
AcDbSymbolTableRecord
100
AcDbBlockTableRecord
  2
*U6
  0
BLOCK_RECORD
  5
311
330
1
100
AcDbSymbolTableRecord
100
AcDbBlockTableRecord
  2
*U7
  0
BLOCK_RECORD
  5
32A
330
1
100
AcDbSymbolTableRecord
100
AcDbBlockTableRecord
  2
*U8
  0
BLOCK_RECORD
  5
33E
330
1
100
AcDbSymbolTableRecord
100
AcDbBlockTableRecord
  2
*U9
  0
BLOCK_RECORD
  5
34E
330
1
100
AcDbSymbolTableRecord
100
AcDbBlockTableRecord
  2
*U10
  0
BLOCK_RECORD
  5
3D5
330
1
100
AcDbSymbolTableRecord
100
AcDbBlockTableRecord
  2
*U11
  0
BLOCK_RECORD
  5
400
330
1
100
AcDbSymbolTableRecord
100
AcDbBlockTableRecord
  2
*U12
  0
BLOCK_RECORD
  5
411
330
1
100
AcDbSymbolTableRecord
100
AcDbBlockTableRecord
  2
*U13
  0
BLOCK_RECORD
  5
422
330
1
100
AcDbSymbolTableRecord
100
AcDbBlockTableRecord
  2
*U14
  0
BLOCK_RECORD
  5
441
330
1
100
AcDbSymbolTableRecord
100
AcDbBlockTableRecord
  2
*U15
  0
BLOCK_RECORD
  5
450
330
1
100
AcDbSymbolTableRecord
100
AcDbBlockTableRecord
  2
*U16
  0
BLOCK_RECORD
  5
469
330
1
100
AcDbSymbolTableRecord
100
AcDbBlockTableRecord
  2
*U17
  0
ENDTAB
  0
ENDSEC
  0
SECTION
  2
BLOCKS
  0
BLOCK
  5
20
330
1F
100
AcDbEntity
  8
0
100
AcDbBlockBegin
  2
*MODEL_SPACE
 70
     0
 10
0.0
 20
0.0
 30
0.0
  3
*MODEL_SPACE
  1

  0
ENDBLK
  5
21
330
1F
100
AcDbEntity
  8
0
100
AcDbBlockEnd
  0
BLOCK
  5
52
330
50
100
AcDbEntity
 67
     1
  8
0
100
AcDbBlockBegin
  2
*PAPER_SPACE
 70
     0
 10
0.0
 20
0.0
 30
0.0
  3
*PAPER_SPACE
  1

  0
ENDBLK
  5
53
330
50
100
AcDbEntity
 67
     1
  8
0
100
AcDbBlockEnd
  0
BLOCK
  5
119
330
118
100
AcDbEntity
  8
0
100
AcDbBlockBegin
  2
AAKM
 70
     0
 10
0.0
 20
0.0
 30
0.0
  3
AAKM
  1

  0
CIRCLE
  5
11B
330
118
100
AcDbEntity
  8
OBJECT
100
AcDbCircle
 10
2118.043163452019
 20
2116.979016862444
 30
0.0
 40
105.0
  0
CIRCLE
  5
11C
330
118
100
AcDbEntity
  8
OBJECT
100
AcDbCircle
 10
2118.043163452019
 20
2116.979016862444
 30
0.0
 40
150.0
  0
ARC
  5
11D
330
118
100
AcDbEntity
  8
OBJECT
100
AcDbCircle
 10
2118.043163452019
 20
2116.979016862444
 30
0.0
 40
200.0
100
AcDbArc
 50
246.9004216826345
 51
293.0995783173654
  0
ARC
  5
11E
330
118
100
AcDbEntity
  8
OBJECT
100
AcDbCircle
 10
2118.043163452019
 20
2116.979016862444
 30
0.0
 40
200.0
100
AcDbArc
 50
66.90042168263452
 51
113.0995783173654
  0
POLYLINE
  5
11F
330
118
100
AcDbEntity
  8
SAFETY
  6
DASHED
100
AcDb2dPolyline
 66
     1
 10
0.0
 20
0.0
 30
0.0
 70
     1
  0
VERTEX
  5
2A7
330
11F
100
AcDbEntity
  8
SAFETY
  6
DASHED
100
AcDbVertex
100
AcDb2dVertex
 10
3954.821280411221
 20
3134.940778943814
 30
0.0
 42
3.865591539444246
  0
VERTEX
  5
2A8
330
11F
100
AcDbEntity
  8
SAFETY
  6
DASHED
100
AcDbVertex
100
AcDb2dVertex
 10
3954.381284124028
 20
1098.223743714481
 30
0.0
 42
0.3914748695177157
  0
SEQEND
  5
2A9
330
11F
100
AcDbEntity
  8
SAFETY
  6
DASHED
  0
ARC
  5
120
330
118
100
AcDbEntity
  8
OBJECT
100
AcDbCircle
 10
1776.475310034068
 20
2116.979016862444
 30
0.0
 40
100.0
100
AcDbArc
 50
185.1636070908416
 51
319.9947991151428
  0
ARC
  5
121
330
118
100
AcDbEntity
  8
OBJECT
100
AcDbCircle
 10
1758.636773519969
 20
2122.03957160878
 30
0.0
 40
19.84185474633749
100
AcDbArc
 50
225.1236442415274
 51
314.8763557584816
  0
ELLIPSE
  5
122
330
118
100
AcDbEntity
  8
OBJECT
100
AcDbEllipse
 10
1884.305189529267
 20
1822.271038805094
 30
0.0
 11
-128.8446408930179
 21
-183.3441607657877
 31
0.0
210
0.0
220
0.0
230
1.0
 40
0.4072894345895461
 41
4.712388980384663
 42
7.853981633974482
  0
ARC
  5
123
330
118
100
AcDbEntity
  8
OBJECT
100
AcDbCircle
 10
2094.288497302396
 20
1674.7058053635
 30
0.0
 40
347.9177803319156
100
AcDbArc
 50
115.7481956236104
 51
144.9024670405304
  0
ARC
  5
124
330
118
100
AcDbEntity
  8
OBJECT
100
AcDbCircle
 10
1674.32188175614
 20
1969.836272246689
 30
0.0
 40
347.9177803319156
100
AcDbArc
 50
324.9024670405306
 51
351.9822864514828
  0
ARC
  5
125
330
118
100
AcDbEntity
  8
OBJECT
100
AcDbCircle
 10
1895.557208839148
 20
2026.979016862445
 30
0.0
 40
40.0
100
AcDbArc
 50
22.0243128370215
 51
90.0
  0
ARC
  5
126
330
118
100
AcDbEntity
  8
OBJECT
100
AcDbCircle
 10
1883.713362981705
 20
2026.979016862445
 30
0.0
 40
40.0
100
AcDbArc
 50
90.0
 51
139.9947991151429
  0
LINE
  5
127
330
118
100
AcDbEntity
  8
OBJECT
100
AcDbLine
 10
1895.557208839148
 20
2066.979016862446
 30
0.0
 11
1883.713362981705
 21
2066.979016862446
 31
0.0
  0
ARC
  5
128
330
118
100
AcDbEntity
  8
OBJECT
100
AcDbCircle
 10
2118.043163452019
 20
2116.979016862444
 30
0.0
 40
200.0
100
AcDbArc
 50
202.0243128370212
 51
212.4587507350541
  0
ARC
  5
129
330
118
100
AcDbEntity
  8
OBJECT
100
AcDbCircle
 10
1936.63088307465
 20
2001.590176291601
 30
0.0
 40
15.0
100
AcDbArc
 50
295.7481956236104
 51
32.45875073505443
  0
ARC
  5
12A
330
118
100
AcDbEntity
  8
OBJECT
100
AcDbCircle
 10
2033.692138860839
 20
1919.216774130375
 30
0.0
 40
15.0
100
AcDbArc
 50
66.90042168263452
 51
171.9822864514828
  0
CIRCLE
  5
12B
330
118
100
AcDbEntity
  8
OBJECT
100
AcDbCircle
 10
2033.854596522824
 20
2021.226548495263
 30
0.0
 40
6.0
  0
ARC
  5
12C
330
118
100
AcDbEntity
  8
OBJECT
100
AcDbCircle
 10
2094.288497302396
 20
2559.252228361389
 30
0.0
 40
347.9177803319156
100
AcDbArc
 50
215.0975329594693
 51
244.2518043763895
  0
ARC
  5
12D
330
118
100
AcDbEntity
  8
OBJECT
100
AcDbCircle
 10
1776.475310034068
 20
2116.979016862444
 30
0.0
 40
100.0
100
AcDbArc
 50
40.00520088485703
 51
174.8363929091583
  0
LINE
  5
12E
330
118
100
AcDbEntity
  8
OBJECT
100
AcDbLine
 10
1679.893738292872
 20
2125.979016862446
 30
0.0
 11
1873.056881775266
 21
2125.979016862446
 31
0.0
  0
LINE
  5
12F
330
118
100
AcDbEntity
  8
OBJECT
100
AcDbLine
 10
1873.056881775266
 20
2107.979016862445
 30
0.0
 11
1679.893738292872
 21
2107.979016862445
 31
0.0
  0
ELLIPSE
  5
130
330
118
100
AcDbEntity
  8
OBJECT
100
AcDbEllipse
 10
1884.305189529267
 20
2411.686994919794
 30
0.0
 11
-128.8446408930179
 21
183.3441607657877
 31
0.0
210
0.0
220
0.0
230
1.0
 40
0.4072894345895461
 41
4.712388980384688
 42
7.853981633974481
  0
ARC
  5
131
330
118
100
AcDbEntity
  8
OBJECT
100
AcDbCircle
 10
1758.636773519969
 20
2111.91846211611
 30
0.0
 40
19.84185474633749
100
AcDbArc
 50
45.12364424151836
 51
134.8763557584724
  0
LINE
  5
132
330
118
100
AcDbEntity
  8
OBJECT
100
AcDbLine
 10
1676.881133497487
 20
2125.979016862446
 30
0.0
 11
1679.893738292872
 21
2125.979016862446
 31
0.0
  0
LINE
  5
133
330
118
100
AcDbEntity
  8
OBJECT
100
AcDbLine
 10
1679.893738292872
 20
2107.979016862445
 30
0.0
 11
1676.881133497487
 21
2107.979016862445
 31
0.0
  0
ARC
  5
134
330
118
100
AcDbEntity
  8
OBJECT
100
AcDbCircle
 10
1679.475310034067
 20
2122.979016862446
 30
0.0
 40
3.0
100
AcDbArc
 50
90.0
 51
180.0
  0
ARC
  5
135
330
118
100
AcDbEntity
  8
OBJECT
100
AcDbCircle
 10
1679.475310034067
 20
2110.979016862446
 30
0.0
 40
3.0
100
AcDbArc
 50
180.0
 51
270.0
  0
LINE
  5
136
330
118
100
AcDbEntity
  8
OBJECT
100
AcDbLine
 10
1676.475310034068
 20
2122.979016862446
 30
0.0
 11
1676.475310034068
 21
2110.979016862446
 31
0.0
  0
ARC
  5
137
330
118
100
AcDbEntity
  8
OBJECT
100
AcDbCircle
 10
1674.32188175614
 20
2264.121761478202
 30
0.0
 40
347.9177803319156
100
AcDbArc
 50
8.017713548517081
 51
35.09753295946932
  0
ARC
  5
138
330
118
100
AcDbEntity
  8
OBJECT
100
AcDbCircle
 10
1895.557208839148
 20
2206.979016862445
 30
0.0
 40
40.0
100
AcDbArc
 50
270.0
 51
337.9756871629784
  0
ARC
  5
139
330
118
100
AcDbEntity
  8
OBJECT
100
AcDbCircle
 10
1883.713362981705
 20
2206.979016862445
 30
0.0
 40
40.0
100
AcDbArc
 50
220.0052008848569
 51
270.0
  0
LINE
  5
13A
330
118
100
AcDbEntity
  8
OBJECT
100
AcDbLine
 10
1876.06948657065
 20
2122.979016862446
 30
0.0
 11
1876.06948657065
 21
2110.979016862446
 31
0.0
  0
SPLINE
  5
13B
330
118
100
AcDbEntity
  8
OBJECT
100
AcDbSpline
210
0.0
220
0.0
230
1.0
 70
     8
 71
     3
 72
    22
 73
    18
 74
     0
 42
0.0000000001
 43
0.0000000001
 40
17.81009623120778
 40
17.81009623120778
 40
17.81009623120778
 40
17.81009623120778
 40
18.36472236098785
 40
18.36472236098785
 40
18.91934849076791
 40
18.91934849076791
 40
19.47512927903884
 40
19.47512927903884
 40
20.0309100673098
 40
20.0309100673098
 40
20.58813597116455
 40
20.58813597116455
 40
21.14536187501931
 40
21.14536187501931
 40
21.70386357547303
 40
21.70386357547303
 40
22.26236527592673
 40
22.26236527592673
 40
22.26236527592673
 40
22.26236527592673
 10
1876.06948657065
 20
2122.979016862446
 30
0.0
 10
1876.06948657065
 20
2123.163892239038
 30
0.0
 10
1876.051194883816
 20
2123.365791627138
 30
0.0
 10
1875.972343267705
 20
2123.761163758869
 30
0.0
 10
1875.911785042162
 20
2123.954636842282
 30
0.0
 10
1875.769854410474
 20
2124.29647903878
 30
0.0
 10
1875.675340165162
 20
2124.476300930705
 30
0.0
 10
1875.4504658779
 20
2124.811937553601
 30
0.0
 10
1875.320109410602
 20
2124.967754679551
 30
0.0
 10
1875.057444475258
 20
2125.229765723081
 30
0.0
 10
1874.900869593841
 20
2125.360030512399
 30
0.0
 10
1874.563778867916
 20
2125.584645269737
 30
0.0
 10
1874.383265544148
 20
2125.678999020738
 30
0.0
 10
1874.039543670793
 20
2125.821026229008
 30
0.0
 10
1873.844624622925
 20
2125.881711505102
 30
0.0
 10
1873.446377078758
 20
2125.960705747257
 30
0.0
 10
1873.243049008749
 20
2125.979016862446
 30
0.0
 10
1873.056881775266
 20
2125.979016862446
 30
0.0
  0
SPLINE
  5
13C
330
118
100
AcDbEntity
  8
OBJECT
100
AcDbSpline
210
0.0
220
0.0
230
1.0
 70
     8
 71
     3
 72
    22
 73
    18
 74
     0
 42
0.0000000001
 43
0.0000000001
 40
13.35782718648888
 40
13.35782718648888
 40
13.35782718648888
 40
13.35782718648888
 40
13.91632888694259
 40
13.91632888694259
 40
14.4748305873963
 40
14.4748305873963
 40
15.03205649125106
 40
15.03205649125106
 40
15.58928239510581
 40
15.58928239510581
 40
16.14506318337675
 40
16.14506318337675
 40
16.70084397164771
 40
16.70084397164771
 40
17.25547010142775
 40
17.25547010142775
 40
17.81009623120778
 40
17.81009623120778
 40
17.81009623120778
 40
17.81009623120778
 10
1873.056881775266
 20
2107.979016862445
 30
0.0
 10
1873.243049008749
 20
2107.979016862445
 30
0.0
 10
1873.446377078758
 20
2107.997327977633
 30
0.0
 10
1873.844624622925
 20
2108.076322219788
 30
0.0
 10
1874.039543670793
 20
2108.13700749588
 30
0.0
 10
1874.383265544148
 20
2108.279034704153
 30
0.0
 10
1874.563778867916
 20
2108.373388455154
 30
0.0
 10
1874.900869593841
 20
2108.59800321249
 30
0.0
 10
1875.057444475258
 20
2108.728268001808
 30
0.0
 10
1875.320109410602
 20
2108.990279045339
 30
0.0
 10
1875.4504658779
 20
2109.146096171289
 30
0.0
 10
1875.675340165162
 20
2109.481732794185
 30
0.0
 10
1875.769854410474
 20
2109.66155468611
 30
0.0
 10
1875.911785042162
 20
2110.003396882607
 30
0.0
 10
1875.972343267705
 20
2110.196869966022
 30
0.0
 10
1876.051194883816
 20
2110.592242097752
 30
0.0
 10
1876.06948657065
 20
2110.794141485852
 30
0.0
 10
1876.06948657065
 20
2110.979016862446
 30
0.0
  0
LINE
  5
13D
330
118
100
AcDbEntity
  8
OBJECT
100
AcDbLine
 10
1883.713362981705
 20
2166.979016862444
 30
0.0
 11
1895.557208839148
 21
2166.979016862444
 31
0.0
  0
ARC
  5
13E
330
118
100
AcDbEntity
  8
OBJECT
100
AcDbCircle
 10
2118.043163452019
 20
2116.979016862444
 30
0.0
 40
200.0
100
AcDbArc
 50
147.5412492649455
 51
157.9756871629784
  0
ARC
  5
13F
330
118
100
AcDbEntity
  8
OBJECT
100
AcDbCircle
 10
1936.63088307465
 20
2232.367857433288
 30
0.0
 40
15.0
100
AcDbArc
 50
327.5412492649453
 51
64.2518043763895
  0
CIRCLE
  5
140
330
118
100
AcDbEntity
  8
OBJECT
100
AcDbCircle
 10
2033.854596522824
 20
2212.731485229628
 30
0.0
 40
6.0
  0
ARC
  5
141
330
118
100
AcDbEntity
  8
OBJECT
100
AcDbCircle
 10
2033.692138860839
 20
2314.741259594515
 30
0.0
 40
15.0
100
AcDbArc
 50
188.0177135485171
 51
293.0995783173654
  0
ELLIPSE
  5
142
330
118
100
AcDbEntity
  8
OBJECT
100
AcDbEllipse
 10
2545.335785642454
 20
2116.979016862447
 30
0.0
 11
307.9133673226363
 21
0.0
 31
0.0
210
0.0
220
0.0
230
1.0
 40
0.195864724856062
 41
4.019190831711694
 42
6.133395243774762
  0
ARC
  5
143
330
118
100
AcDbEntity
  8
OBJECT
100
AcDbCircle
 10
2561.764445147897
 20
1969.836272246689
 30
0.0
 40
347.9177803319156
100
AcDbArc
 50
188.0177135485171
 51
215.0975329594784
  0
ELLIPSE
  5
144
330
118
100
AcDbEntity
  8
OBJECT
100
AcDbEllipse
 10
2351.78113737477
 20
1822.271038805094
 30
0.0
 11
128.8446408930179
 21
-183.3441607657877
 31
0.0
210
0.0
220
0.0
230
1.0
 40
0.4072894345895461
 41
4.712388980384962
 42
7.853981633974481
  0
ARC
  5
145
330
118
100
AcDbEntity
  8
OBJECT
100
AcDbCircle
 10
2342.155070606021
 20
2031.107874609674
 30
0.0
 40
40.0
100
AcDbArc
 50
80.75838497375348
 51
159.0350714715475
  0
ARC
  5
146
330
118
100
AcDbEntity
  8
OBJECT
100
AcDbCircle
 10
2141.797829601643
 20
1674.7058053635
 30
0.0
 40
347.9177803319156
100
AcDbArc
 50
35.09753295946932
 51
64.2518043763895
  0
ARC
  5
147
330
118
100
AcDbEntity
  8
OBJECT
100
AcDbCircle
 10
2202.394188043198
 20
1919.216774130375
 30
0.0
 40
15.0
100
AcDbArc
 50
8.017713548517081
 51
113.0995783173654
  0
CIRCLE
  5
148
330
118
100
AcDbEntity
  8
OBJECT
100
AcDbCircle
 10
2204.437006524646
 20
2023.211464483475
 30
0.0
 40
6.0
  0
ARC
  5
149
330
118
100
AcDbEntity
  8
OBJECT
100
AcDbCircle
 10
2118.043163452019
 20
2116.979016862444
 30
0.0
 40
200.0
100
AcDbArc
 50
327.5412492649453
 51
339.0350714715477
  0
ARC
  5
14A
330
118
100
AcDbEntity
  8
OBJECT
100
AcDbCircle
 10
2299.455443829387
 20
2001.590176291601
 30
0.0
 40
15.0
100
AcDbArc
 50
147.5412492649373
 51
244.2518043763895
  0
SPLINE
  5
14B
330
118
100
AcDbEntity
  8
OBJECT
100
AcDbSpline
210
0.0
220
0.0
230
1.0
 70
    24
 71
     3
 72
    53
 73
    49
 74
     0
 42
0.0000000001
 43
0.0000000001
 40
0.0
 40
0.0
 40
0.0
 40
0.0
 40
81.85513527088041
 40
81.85513527088041
 40
81.85513527088041
 40
196.9054456927533
 40
196.9054456927533
 40
196.9054456927533
 40
280.1825942761353
 40
280.1825942761353
 40
280.1825942761353
 40
339.6662718356939
 40
339.6662718356939
 40
339.6662718356939
 40
382.1546129496644
 40
382.1546129496644
 40
382.1546129496644
 40
412.5034280310718
 40
412.5034280310718
 40
412.5034280310718
 40
448.5483767975757
 40
448.5483767975757
 40
448.5483767975757
 40
474.5354307736026
 40
474.5354307736026
 40
474.5354307736026
 40
493.0976121850504
 40
493.0976121850504
 40
493.0976121850504
 40
506.3563131932273
 40
506.3563131932273
 40
506.3563131932273
 40
515.8268139133537
 40
515.8268139133537
 40
515.8268139133537
 40
524.0128011803398
 40
524.0128011803398
 40
524.0128011803398
 40
529.8599349424724
 40
529.8599349424724
 40
529.8599349424724
 40
535.0476943178591
 40
535.0476943178591
 40
535.0476943178591
 40
539.6972942486495
 40
539.6972942486495
 40
539.6972942486495
 40
542.7420497473088
 40
542.7420497473088
 40
542.7420497473088
 40
542.7420497473088
 10
2322.831294938779
 20
2107.979016862445
 30
0.0
 10
2350.03615744487
 20
2107.979016862445
 30
0.0
 10
2377.37579942553
 20
2107.979016862445
 30
0.0
 10
2404.759052519114
 20
2107.979016862445
 30
0.0
 10
2443.247190842407
 20
2107.979016862445
 30
0.0
 10
2481.818439534576
 20
2107.979016862445
 30
0.0
 10
2520.309211250728
 20
2107.979016862445
 30
0.0
 10
2548.17008101754
 20
2107.979016862445
 30
0.0
 10
2575.99195842496
 20
2107.979016862445
 30
0.0
 10
2603.734090593915
 20
2107.979016862445
 30
0.0
 10
2623.549899286021
 20
2107.979016862445
 30
0.0
 10
2643.326096745274
 20
2107.979016862445
 30
0.0
 10
2663.041953458438
 20
2107.979016862445
 30
0.0
 10
2677.12470825355
 20
2107.979016862445
 30
0.0
 10
2691.176949921764
 20
2107.979016862445
 30
0.0
 10
2705.181952942568
 20
2107.979016862445
 30
0.0
 10
2715.185526528856
 20
2107.979016862445
 30
0.0
 10
2725.165017543799
 20
2107.979016862445
 30
0.0
 10
2735.107741300474
 20
2107.979016862445
 30
0.0
 10
2746.916603275722
 20
2107.979016862445
 30
0.0
 10
2758.77555125725
 20
2107.979016862445
 30
0.0
 10
2770.582439419396
 20
2107.979016862445
 30
0.0
 10
2779.094762240171
 20
2107.979016862445
 30
0.0
 10
2787.544887213082
 20
2107.979016862445
 30
0.0
 10
2795.836002198283
 20
2107.979016862445
 30
0.0
 10
2801.758227187706
 20
2107.979016862445
 30
0.0
 10
2807.601929675963
 20
2107.979016862445
 30
0.0
 10
2813.332364403928
 20
2107.979016862445
 30
0.0
 10
2817.425532066753
 20
2107.979016862445
 30
0.0
 10
2821.462627161664
 20
2107.979016862445
 30
0.0
 10
2825.409005258016
 20
2107.979016862445
 30
0.0
 10
2828.227846755416
 20
2107.979016862445
 30
0.0
 10
2831.001053555739
 20
2107.979016862445
 30
0.0
 10
2833.691971725309
 20
2107.979016862445
 30
0.0
 10
2836.017912298418
 20
2107.979016862445
 30
0.0
 10
2838.300356366696
 20
2107.979016862445
 30
0.0
 10
2840.444501209184
 20
2107.979016862445
 30
0.0
 10
2841.976033239533
 20
2107.979016862445
 30
0.0
 10
2843.437112725498
 20
2107.979016862445
 30
0.0
 10
2844.774165608231
 20
2107.979016862445
 30
0.0
 10
2845.960440612357
 20
2107.979016862445
 30
0.0
 10
2847.063772526412
 20
2107.979016862445
 30
0.0
 10
2847.977064374607
 20
2107.979016862445
 30
0.0
 10
2848.795614620847
 20
2107.979016862445
 30
0.0
 10
2849.454447264291
 20
2107.979016862445
 30
0.0
 10
2849.850403435599
 20
2107.979016862445
 30
0.0
 10
2850.109692352443
 20
2107.979016862445
 30
0.0
 10
2850.247863177671
 20
2107.979016862445
 30
0.0
 10
2850.24915296511
 20
2107.979016862445
 30
0.0
  0
SPLINE
  5
14C
330
118
100
AcDbEntity
  8
OBJECT
100
AcDbSpline
210
0.0
220
0.0
230
1.0
 70
    24
 71
     3
 72
    53
 73
    49
 74
     0
 42
0.0000000001
 43
0.0000000001
 40
-1086.314417252274
 40
-1086.314417252274
 40
-1086.314417252274
 40
-1086.314417252274
 40
-1004.459281981658
 40
-1004.459281981658
 40
-1004.459281981658
 40
-889.4089715597161
 40
-889.4089715597161
 40
-889.4089715597161
 40
-806.1318229762948
 40
-806.1318229762948
 40
-806.1318229762948
 40
-746.648145416708
 40
-746.648145416708
 40
-746.648145416708
 40
-704.1598043027176
 40
-704.1598043027176
 40
-704.1598043027176
 40
-673.810989221296
 40
-673.810989221296
 40
-673.810989221296
 40
-637.7660404547851
 40
-637.7660404547851
 40
-637.7660404547851
 40
-611.7789864787255
 40
-611.7789864787255
 40
-611.7789864787255
 40
-593.2168050672543
 40
-593.2168050672543
 40
-593.2168050672543
 40
-579.9581040590606
 40
-579.9581040590606
 40
-579.9581040590606
 40
-570.4876033389223
 40
-570.4876033389223
 40
-570.4876033389223
 40
-562.3016160719353
 40
-562.3016160719353
 40
-562.3016160719353
 40
-556.4544823098017
 40
-556.4544823098017
 40
-556.4544823098017
 40
-551.2667229344152
 40
-551.2667229344152
 40
-551.2667229344152
 40
-546.6171230036247
 40
-546.6171230036247
 40
-546.6171230036247
 40
-543.5723675051263
 40
-543.5723675051263
 40
-543.5723675051263
 40
-543.5723675051263
 10
2322.831294938779
 20
2125.979016862446
 30
0.0
 10
2350.036157444779
 20
2125.979016862446
 30
0.0
 10
2377.375799425356
 20
2125.979016862446
 30
0.0
 10
2404.759052518848
 20
2125.979016862446
 30
0.0
 10
2443.247190842167
 20
2125.979016862446
 30
0.0
 10
2481.818439534352
 20
2125.979016862446
 30
0.0
 10
2520.30921125053
 20
2125.979016862446
 30
0.0
 10
2548.170081017357
 20
2125.979016862446
 30
0.0
 10
2575.991958424793
 20
2125.979016862446
 30
0.0
 10
2603.734090593758
 20
2125.979016862446
 30
0.0
 10
2623.549899285876
 20
2125.979016862446
 30
0.0
 10
2643.326096745141
 20
2125.979016862446
 30
0.0
 10
2663.041953458307
 20
2125.979016862446
 30
0.0
 10
2677.124708253427
 20
2125.979016862446
 30
0.0
 10
2691.176949921652
 20
2125.979016862446
 30
0.0
 10
2705.181952942463
 20
2125.979016862446
 30
0.0
 10
2715.185526528754
 20
2125.979016862446
 30
0.0
 10
2725.165017543705
 20
2125.979016862446
 30
0.0
 10
2735.107741300383
 20
2125.979016862446
 30
0.0
 10
2746.916603275635
 20
2125.979016862446
 30
0.0
 10
2758.775551257159
 20
2125.979016862446
 30
0.0
 10
2770.582439419313
 20
2125.979016862446
 30
0.0
 10
2779.094762240098
 20
2125.979016862446
 30
0.0
 10
2787.544887213024
 20
2125.979016862446
 30
0.0
 10
2795.836002198231
 20
2125.979016862446
 30
0.0
 10
2801.758227187661
 20
2125.979016862446
 30
0.0
 10
2807.601929675927
 20
2125.979016862446
 30
0.0
 10
2813.332364403898
 20
2125.979016862446
 30
0.0
 10
2817.42553206673
 20
2125.979016862446
 30
0.0
 10
2821.462627161645
 20
2125.979016862446
 30
0.0
 10
2825.409005258009
 20
2125.979016862446
 30
0.0
 10
2828.227846755408
 20
2125.979016862446
 30
0.0
 10
2831.001053555736
 20
2125.979016862446
 30
0.0
 10
2833.691971725306
 20
2125.979016862446
 30
0.0
 10
2836.017912298413
 20
2125.979016862446
 30
0.0
 10
2838.300356366696
 20
2125.979016862446
 30
0.0
 10
2840.444501209184
 20
2125.979016862446
 30
0.0
 10
2841.976033239533
 20
2125.979016862446
 30
0.0
 10
2843.437112725498
 20
2125.979016862446
 30
0.0
 10
2844.774165608231
 20
2125.979016862446
 30
0.0
 10
2845.960440612357
 20
2125.979016862446
 30
0.0
 10
2847.063772526412
 20
2125.979016862446
 30
0.0
 10
2847.977064374607
 20
2125.979016862446
 30
0.0
 10
2848.795614620847
 20
2125.979016862446
 30
0.0
 10
2849.454447264291
 20
2125.979016862446
 30
0.0
 10
2849.850403435599
 20
2125.979016862446
 30
0.0
 10
2850.109692352432
 20
2125.979016862446
 30
0.0
 10
2850.247863177656
 20
2125.979016862446
 30
0.0
 10
2850.24915296511
 20
2125.979016862446
 30
0.0
  0
ELLIPSE
  5
14D
330
118
100
AcDbEntity
  8
OBJECT
100
AcDbEllipse
 10
2545.335785642454
 20
2116.979016862447
 30
0.0
 11
307.9133673226363
 21
0.0
 31
0.0
210
0.0
220
0.0
230
1.0
 40
0.195864724856062
 41
0.1497900634047868
 42
2.263994475467959
  0
ARC
  5
14E
330
118
100
AcDbEntity
  8
OBJECT
100
AcDbCircle
 10
2561.764445147897
 20
2264.121761478202
 30
0.0
 40
347.9177803319156
100
AcDbArc
 50
144.9024670405215
 51
171.9822864514828
  0
ELLIPSE
  5
14F
330
118
100
AcDbEntity
  8
OBJECT
100
AcDbEllipse
 10
2351.78113737477
 20
2411.686994919794
 30
0.0
 11
128.8446408930179
 21
183.3441607657877
 31
0.0
210
0.0
220
0.0
230
1.0
 40
0.4072894345895461
 41
4.712388980384691
 42
7.853981633974162
  0
ARC
  5
150
330
118
100
AcDbEntity
  8
OBJECT
100
AcDbCircle
 10
2342.155070606021
 20
2202.850159115218
 30
0.0
 40
40.0
100
AcDbArc
 50
200.964928528452
 51
279.2416150262464
  0
ARC
  5
151
330
118
100
AcDbEntity
  8
OBJECT
100
AcDbCircle
 10
2141.797829601643
 20
2559.252228361389
 30
0.0
 40
347.9177803319156
100
AcDbArc
 50
295.7481956236104
 51
324.9024670405306
  0
CIRCLE
  5
152
330
118
100
AcDbEntity
  8
OBJECT
100
AcDbCircle
 10
2204.437006524646
 20
2210.746569241412
 30
0.0
 40
6.0
  0
ARC
  5
153
330
118
100
AcDbEntity
  8
OBJECT
100
AcDbCircle
 10
2118.043163452019
 20
2116.979016862444
 30
0.0
 40
200.0
100
AcDbArc
 50
20.96492852845226
 51
32.45875073505443
  0
LINE
  5
154
330
118
100
AcDbEntity
  8
OBJECT
100
AcDbLine
 10
2322.831294938779
 20
2107.979016862445
 30
0.0
 11
2279.43186480379
 21
2107.979016862445
 31
0.0
  0
LINE
  5
155
330
118
100
AcDbEntity
  8
OBJECT
100
AcDbLine
 10
2279.43186480379
 20
2125.979016862446
 30
0.0
 11
2322.831294938779
 21
2125.979016862446
 31
0.0
  0
LINE
  5
156
330
118
100
AcDbEntity
  8
OBJECT
100
AcDbLine
 10
2276.431864803778
 20
2122.979016862446
 30
0.0
 11
2276.431864803778
 21
2110.979016862446
 31
0.0
  0
ARC
  5
157
330
118
100
AcDbEntity
  8
OBJECT
100
AcDbCircle
 10
2279.43186480379
 20
2110.979016862446
 30
0.0
 40
3.000000000009547
100
AcDbArc
 50
180.0
 51
270.0
  0
ARC
  5
158
330
118
100
AcDbEntity
  8
OBJECT
100
AcDbCircle
 10
2279.43186480379
 20
2122.979016862446
 30
0.0
 40
3.0
100
AcDbArc
 50
90.0
 51
180.0
  0
ARC
  5
159
330
118
100
AcDbEntity
  8
OBJECT
100
AcDbCircle
 10
2299.455443829387
 20
2232.367857433288
 30
0.0
 40
15.0
100
AcDbArc
 50
115.7481956236104
 51
212.4587507350541
  0
ARC
  5
15A
330
118
100
AcDbEntity
  8
OBJECT
100
AcDbCircle
 10
2202.394188043198
 20
2314.741259594515
 30
0.0
 40
15.0
100
AcDbArc
 50
246.9004216826345
 51
351.9822864514828
  0
LINE
  5
15B
330
118
100
AcDbEntity
  8
OBJECT
100
AcDbLine
 10
2853.249152965111
 20
2122.979016862446
 30
0.0
 11
2853.249152965111
 21
2110.979016862446
 31
0.0
  0
SPLINE
  5
15C
330
118
100
AcDbEntity
  8
OBJECT
100
AcDbSpline
210
0.0
220
0.0
230
1.0
 70
     8
 71
     3
 72
    18
 73
    14
 74
     0
 42
0.0000000001
 43
0.0000000001
 40
-0.0047123911969002
 40
-0.0047123911969002
 40
-0.0047123911969002
 40
-0.0047123911969002
 40
0.0
 40
0.0
 40
1.187048368610014
 40
1.187048368610014
 40
2.358981788770818
 40
2.358981788770818
 40
3.145499721517851
 40
3.145499721517851
 40
3.932017654264911
 40
3.932017654264911
 40
4.718535587011971
 40
4.718535587011971
 40
4.718535587011971
 40
4.718535587011971
 10
2850.24915296511
 20
2107.979016862445
 30
0.0
 10
2850.250723762174
 20
2107.979016862445
 30
0.0
 10
2850.252294559019
 20
2107.979018096146
 30
0.0
 10
2850.64954765553
 20
2107.979642100628
 30
0.0
 10
2851.04122560091
 20
2108.058539879219
 30
0.0
 10
2851.766706135377
 20
2108.361836035677
 30
0.0
 10
2852.094245952505
 20
2108.581469162721
 30
0.0
 10
2852.555857363261
 20
2109.043080573476
 30
0.0
 10
2852.716142854334
 20
2109.251968692347
 30
0.0
 10
2852.978315498587
 20
2109.706065032542
 30
0.0
 10
2853.079075170537
 20
2109.949320399111
 30
0.0
 10
2853.214785717415
 20
2110.455799055164
 30
0.0
 10
2853.249152965111
 20
2110.716844218196
 30
0.0
 10
2853.249152965111
 20
2110.979016862446
 30
0.0
  0
SPLINE
  5
15D
330
118
100
AcDbEntity
  8
OBJECT
100
AcDbSpline
210
0.0
220
0.0
230
1.0
 70
     8
 71
     3
 72
    18
 73
    14
 74
     0
 42
0.0000000001
 43
0.0000000001
 40
0.0
 40
0.0
 40
0.0
 40
0.0
 40
1.171933420160778
 40
1.171933420160778
 40
2.343866840321569
 40
2.343866840321569
 40
3.515800260482314
 40
3.515800260482314
 40
4.117759217918468
 40
4.117759217918468
 40
4.719718175354461
 40
4.719718175354461
 40
4.724430566551651
 40
4.724430566551651
 40
4.724430566551651
 40
4.724430566551651
 10
2853.249152965111
 20
2122.979016862446
 30
0.0
 10
2853.249152965111
 20
2123.369661335832
 30
0.0
 10
2853.172851412813
 20
2123.756571035135
 30
0.0
 10
2852.876234774807
 20
2124.479364911981
 30
0.0
 10
2852.658755505816
 20
2124.808338786109
 30
0.0
 10
2852.109937579722
 20
2125.364406499925
 30
0.0
 10
2851.783845921121
 20
2125.586184029191
 30
0.0
 10
2851.23981181859
 20
2125.817829405874
 30
0.0
 10
2851.047775794576
 20
2125.877717122385
 30
0.0
 10
2850.654633978463
 20
2125.958252799481
 30
0.0
 10
2850.454518092412
 20
2125.978697976365
 30
0.0
 10
2850.252294559019
 20
2125.979015628743
 30
0.0
 10
2850.250723762174
 20
2125.979016862446
 30
0.0
 10
2850.24915296511
 20
2125.979016862446
 30
0.0
  0
ENDBLK
  5
11A
330
118
100
AcDbEntity
  8
0
100
AcDbBlockEnd
  0
BLOCK
  5
271
330
270
100
AcDbEntity
  8
0
 62
     5
100
AcDbBlockBegin
  2
2
 70
     0
 10
0.0
 20
0.0
 30
0.0
  3
2
  1

  0
ARC
  5
273
330
270
100
AcDbEntity
  8
HATCH
  6
CONTINUOUS
 62
     2
100
AcDbCircle
 10
3444.113209241802
 20
2434.174035060155
 30
0.0
 40
382.7776702532648
100
AcDbArc
 50
185.8139944760478
 51
243.0121420790933
  0
LINE
  5
274
330
270
100
AcDbEntity
  8
HATCH
  6
CONTINUOUS
 62
     2
100
AcDbLine
 10
3535.759606976507
 20
2149.334621450047
 30
0.0
 11
3612.304967005885
 21
2083.133810774271
 31
0.0
  0
ARC
  5
275
330
270
100
AcDbEntity
  8
HATCH
  6
CONTINUOUS
 62
     2
100
AcDbCircle
 10
3445.659264235833
 20
2433.326286322636
 30
0.0
 40
382.7776702532651
100
AcDbArc
 50
297.0850356188731
 51
354.1860055239392
  0
LINE
  5
276
330
270
100
AcDbEntity
  8
HATCH
  6
CONTINUOUS
 62
     2
100
AcDbLine
 10
3354.146087725769
 20
2149.292971225143
 30
0.0
 11
3278.070976803244
 21
2083.665601949668
 31
0.0
  0
INSERT
  5
277
330
270
100
AcDbEntity
  8
HATCH
  6
CONTINUOUS
 62
     2
100
AcDbBlockReference
  2
*U11
 10
0.0
 20
0.0
 30
0.0
1001
ACAD
1002
{
1000
R14_HATCH_DATA
1000
277
1011
1.0
1021
0.0
1031
0.0
1011
0.0
1021
1.0
1031
0.0
1011
0.0
1021
0.0
1031
1.0
1040
0.0
1010
0.0
1020
0.0
1030
1.0
1000
SOLID
1070
     1
1070
     1
1071
        1
1071
        7
1070
     1
1070
     1
1071
       24
1040
3614.091632368859
1040
2071.159767237187
1040
-0.2107377403288865
1040
3612.304967005884
1040
2083.133810774271
1040
0.0
1040
3535.759606976506
1040
2149.334621450047
1040
-0.2299990917574608
1040
3522.671656146561
1040
2148.635478091681
1040
0.2022173141631529
1040
3367.253160061417
1040
2148.590959734698
1040
-0.2303746780640144
1040
3354.146087725769
1040
2149.292971225143
1040
0.0
1040
3278.070976803245
1040
2083.665601949668
1040
-0.2113482481730997
1040
3276.257840550247
1040
2071.663095269264
1040
0.0455562359373722
1040
3259.610233097089
1040
2039.327382542888
1040
-0.305614684580698
1040
3222.529240661611
1040
2014.327382542888
1040
0.0
1040
3222.529240661611
1040
1914.327382542888
1040
-0.3056146845806989
1040
3259.610233097089
1040
1889.327382542888
1040
0.045556235937372
1040
3276.257840550247
1040
1856.991669816512
1040
-0.4424603516165368
1040
3270.408063967505
1040
1835.574950659383
1040
0.0
1040
3349.488755462568
1040
1775.333666493848
1040
-0.342285999402814
1040
3367.253160061416
1040
1780.063805351078
1040
0.2022173141631548
1040
3522.671656146562
1040
1780.019286994095
1040
-0.2299990917574517
1040
3535.759606976507
1040
1779.320143635729
1040
0.0
1040
3614.892638705601
1040
1840.324397804407
1040
-0.314895855660593
1040
3614.09163236886
1040
1857.494997848588
1040
0.0494353321732679
1040
3631.773073600003
1040
1892.762762210286
1040
-0.3106682128449684
1040
3669.124649265108
1040
1918.449838143767
1040
0.0
1040
3669.124649265108
1040
2010.20492694201
1040
-0.3106682128449578
1040
3631.773073600003
1040
2035.89200287549
1040
0.0494353321732694
1071
       22
1005
297
1005
295
1005
296
1005
274
1005
29B
1005
29F
1005
29E
1005
276
1005
28B
1005
282
1005
289
1005
281
1005
28A
1005
287
1005
286
1005
288
1005
27A
1005
27C
1005
293
1005
292
1005
294
1005
291
1070
     0
1070
     1
1040
1.877768683917667
1071
        1
1040
3509.49057930876
1040
1995.31056806849
1040
0.0
1002
}
  0
INSERT
  5
278
330
270
100
AcDbEntity
  8
HATCH
  6
CONTINUOUS
 62
     2
100
AcDbBlockReference
  2
*U12
 10
0.0
 20
0.0
 30
0.0
1001
ACAD
1002
{
1000
R14_HATCH_DATA
1000
278
1011
1.0
1021
0.0
1031
0.0
1011
0.0
1021
1.0
1031
0.0
1011
0.0
1021
0.0
1031
1.0
1040
0.0
1010
0.0
1020
0.0
1030
1.0
1000
SOLID
1070
     1
1070
     1
1071
        1
1071
        7
1070
     1
1070
     1
1071
        6
1040
3826.467924692678
1040
2394.551178771775
1040
0.6358784345199047
1040
3756.114952062358
1040
2444.066765260043
1040
0.2457952058202407
1040
3543.301847372035
1040
2160.053663766349
1040
-0.2299990917574552
1040
3535.759606976506
1040
2149.334621450047
1040
0.0
1040
3612.304967005884
1040
2083.133810774271
1040
-0.2107377403288734
1040
3619.942679331729
1040
2092.527172375682
1040
0.2544366795145571
1071
        6
1005
2A0
1005
29A
1005
29B
1005
274
1005
296
1005
275
1070
     0
1070
     1
1040
1.877768683917667
1071
        1
1040
3663.561933214954
1040
2199.987354911044
1040
0.0
1002
}
  0
INSERT
  5
279
330
270
100
AcDbEntity
  8
HATCH
  6
CONTINUOUS
 62
     2
100
AcDbBlockReference
  2
*U13
 10
0.0
 20
0.0
 30
0.0
1001
ACAD
1002
{
1000
R14_HATCH_DATA
1000
279
1011
1.0
1021
0.0
1031
0.0
1011
0.0
1021
1.0
1031
0.0
1011
0.0
1021
0.0
1031
1.0
1040
0.0
1010
0.0
1020
0.0
1030
1.0
1000
SOLID
1070
     1
1070
     1
1071
        1
1071
        7
1070
     1
1070
     1
1071
        6
1040
3270.408063967505
1040
2093.079814426394
1040
-0.2113482481730951
1040
3278.070976803245
1040
2083.665601949668
1040
0.0
1040
3354.146087725769
1040
2149.292971225143
1040
-0.230374678064004
1040
3346.609604577782
1040
2160.039579392594
1040
0.2463998894494455
1040
3133.657521415281
1040
2444.914513997559
1040
0.6358784345200032
1040
3063.304548784959
1040
2395.398927509284
1040
0.2548881960188074
1071
        6
1005
29D
1005
273
1005
28B
1005
276
1005
29E
1005
29C
1070
     0
1070
     1
1040
1.877768683917667
1071
        1
1040
3212.621391695418
1040
2207.498429426379
1040
0.0
1002
}
  0
ARC
  5
27A
330
270
100
AcDbEntity
  8
HATCH
  6
CONTINUOUS
 62
     2
100
AcDbCircle
 10
3528.495890711969
 20
1766.196179827936
 30
0.0
 40
15.0
100
AcDbArc
 50
9.225940791793012
 51
112.8476615072181
  0
ARC
  5
27B
330
270
100
AcDbEntity
  8
HATCH
  6
CONTINUOUS
 62
     2
100
AcDbCircle
 10
3921.127820452771
 20
1829.971117696437
 30
0.0
 40
382.7776702532688
100
AcDbArc
 50
189.225940791793
 51
244.4630396922007
  0
LINE
  5
27C
330
270
100
AcDbEntity
  8
HATCH
  6
CONTINUOUS
 62
     2
100
AcDbLine
 10
3535.759606976507
 20
1779.320143635729
 30
0.0
 11
3614.892638705601
 21
1840.324397804407
 31
0.0
  0
INSERT
  5
27D
330
270
100
AcDbEntity
  8
HATCH
  6
CONTINUOUS
 62
     2
100
AcDbBlockReference
  2
*U14
 10
0.0
 20
0.0
 30
0.0
1001
ACAD
1002
{
1000
R14_HATCH_DATA
1000
27D
1011
1.0
1021
0.0
1031
0.0
1011
0.0
1021
1.0
1031
0.0
1011
0.0
1021
0.0
1031
1.0
1040
0.0
1010
0.0
1020
0.0
1030
1.0
1000
SOLID
1070
     1
1070
     1
1071
        1
1071
        7
1070
     1
1070
     1
1071
        6
1040
3756.114952062356
1040
1484.587999825735
1040
0.6358784345199439
1040
3826.467924692678
1040
1534.103586314004
1040
0.2544366795145557
1040
3619.942679331729
1040
1836.127592710094
1040
-0.1107811381423299
1040
3614.892638705602
1040
1840.324397804407
1040
0.0
1040
3535.759606976507
1040
1779.32014363573
1040
-0.2299990917574536
1040
3543.301847372035
1040
1768.601101319427
1040
0.2457952058202392
1071
        6
1005
293
1005
27C
1005
27A
1005
27B
1005
290
1005
28F
1070
     0
1070
     1
1040
1.877768683917667
1071
        1
1040
3644.772744125502
1040
1631.023443766186
1040
0.0
1002
}
  0
LINE
  5
27E
330
270
100
AcDbEntity
  8
HATCH
  6
CONTINUOUS
 62
     2
100
AcDbLine
 10
3222.529240661611
 20
1964.327382542888
 30
0.0
 11
3003.447342274481
 21
1964.327382542888
 31
0.0
  0
ARC
  5
27F
330
270
100
AcDbEntity
  8
HATCH
  6
CONTINUOUS
 62
     2
100
AcDbCircle
 10
3444.113209241802
 20
1494.480730025622
 30
0.0
 40
382.7776702532648
100
AcDbArc
 50
116.9878579209066
 51
174.1860055239522
  0
ARC
  5
280
330
270
100
AcDbEntity
  8
HATCH
  6
CONTINUOUS
 62
     2
100
AcDbCircle
 10
2968.644653024864
 20
1829.123368958919
 30
0.0
 40
382.7776702532688
100
AcDbArc
 50
295.5369603077993
 51
350.9047286219491
  0
POLYLINE
  5
281
330
270
100
AcDbEntity
  8
HATCH
  6
CONTINUOUS
 62
     2
100
AcDb2dPolyline
 66
     1
 10
0.0
 20
0.0
 30
0.0
  0
VERTEX
  5
433
330
281
100
AcDbEntity
  8
HATCH
  6
CONTINUOUS
 62
     2
100
AcDbVertex
100
AcDb2dVertex
 10
3276.259586117439
 20
1856.988925417607
 30
0.0
 42
-0.0455603099957841
  0
VERTEX
  5
434
330
281
100
AcDbEntity
  8
HATCH
  6
CONTINUOUS
 62
     2
100
AcDbVertex
100
AcDb2dVertex
 10
3259.610233097089
 20
1889.327382542888
 30
0.0
 42
0.305614684580699
  0
VERTEX
  5
435
330
281
100
AcDbEntity
  8
HATCH
  6
CONTINUOUS
 62
     2
100
AcDbVertex
100
AcDb2dVertex
 10
3222.529240661611
 20
1914.327382542888
 30
0.0
  0
VERTEX
  5
436
330
281
100
AcDbEntity
  8
HATCH
  6
CONTINUOUS
 62
     2
100
AcDbVertex
100
AcDb2dVertex
 10
3210.685395222117
 20
1914.327382542888
 30
0.0
 42
0.2216708542871244
  0
VERTEX
  5
437
330
281
100
AcDbEntity
  8
HATCH
  6
CONTINUOUS
 62
     2
100
AcDbVertex
100
AcDb2dVertex
 10
3180.045951522792
 20
1900.041668257173
 30
0.0
 42
-0.7001737193721347
  0
VERTEX
  5
438
330
281
100
AcDbEntity
  8
HATCH
  6
CONTINUOUS
 62
     2
100
AcDbVertex
100
AcDb2dVertex
 10
3003.447342274481
 20
1964.327382542888
 30
0.0
  0
SEQEND
  5
439
330
281
100
AcDbEntity
  8
HATCH
  6
CONTINUOUS
 62
     2
  0
POLYLINE
  5
282
330
270
100
AcDbEntity
  8
HATCH
  6
CONTINUOUS
 62
     2
100
AcDb2dPolyline
 66
     1
 10
0.0
 20
0.0
 30
0.0
  0
VERTEX
  5
43A
330
282
100
AcDbEntity
  8
HATCH
  6
CONTINUOUS
 62
     2
100
AcDbVertex
100
AcDb2dVertex
 10
3276.259586117439
 20
2071.665839668169
 30
0.0
 42
0.0455603099957841
  0
VERTEX
  5
43B
330
282
100
AcDbEntity
  8
HATCH
  6
CONTINUOUS
 62
     2
100
AcDbVertex
100
AcDb2dVertex
 10
3259.610233097089
 20
2039.327382542888
 30
0.0
 42
-0.305614684580699
  0
VERTEX
  5
43C
330
282
100
AcDbEntity
  8
HATCH
  6
CONTINUOUS
 62
     2
100
AcDbVertex
100
AcDb2dVertex
 10
3222.529240661611
 20
2014.327382542888
 30
0.0
  0
VERTEX
  5
43D
330
282
100
AcDbEntity
  8
HATCH
  6
CONTINUOUS
 62
     2
100
AcDbVertex
100
AcDb2dVertex
 10
3210.685395222117
 20
2014.327382542888
 30
0.0
 42
-0.2216708542871244
  0
VERTEX
  5
43E
330
282
100
AcDbEntity
  8
HATCH
  6
CONTINUOUS
 62
     2
100
AcDbVertex
100
AcDb2dVertex
 10
3180.045951522792
 20
2028.613096828602
 30
0.0
 42
0.7001737193721347
  0
VERTEX
  5
43F
330
282
100
AcDbEntity
  8
HATCH
  6
CONTINUOUS
 62
     2
100
AcDbVertex
100
AcDb2dVertex
 10
3003.447342274481
 20
1964.327382542888
 30
0.0
  0
SEQEND
  5
440
330
282
100
AcDbEntity
  8
HATCH
  6
CONTINUOUS
 62
     2
  0
INSERT
  5
283
330
270
100
AcDbEntity
  8
HATCH
  6
CONTINUOUS
 62
     2
100
AcDbBlockReference
  2
*U15
 10
0.0
 20
0.0
 30
0.0
1001
ACAD
1002
{
1000
R14_HATCH_DATA
1000
283
1011
1.0
1021
0.0
1031
0.0
1011
0.0
1021
1.0
1031
0.0
1011
0.0
1021
0.0
1031
1.0
1040
0.0
1010
0.0
1020
0.0
1030
1.0
1000
SOLID
1070
     1
1070
     1
1071
        1
1071
        7
1070
     1
1070
     1
1071
        5
1040
3063.30454878496
1040
1533.255837576498
1040
0.6358784345200725
1040
3133.657521415284
1040
1483.740251088219
1040
0.2463998894494439
1040
3346.609604577782
1040
1768.615185693183
1040
-0.1236872436006201
1040
3349.488755462567
1040
1775.333666493849
1040
0.0
1040
3270.408063967505
1040
1835.574950659383
1040
0.2548881960188039
1071
        5
1005
286
1005
287
1005
27F
1005
285
1005
280
1070
     0
1070
     1
1040
1.877768683917667
1071
        1
1040
3161.890582840241
1040
1698.623116694993
1040
0.0
1002
}
  0
INSERT
  5
284
330
270
100
AcDbEntity
  8
HATCH
  6
CONTINUOUS
 62
     2
100
AcDbBlockReference
  2
*U16
 10
0.0
 20
0.0
 30
0.0
1001
ACAD
1002
{
1000
R14_HATCH_DATA
1000
284
1011
1.0
1021
0.0
1031
0.0
1011
0.0
1021
1.0
1031
0.0
1011
0.0
1021
0.0
1031
1.0
1040
0.0
1010
0.0
1020
0.0
1030
1.0
1000
SOLID
1070
     1
1070
     1
1071
        2
1071
        7
1070
     1
1070
     1
1071
        5
1040
3222.529240661611
1040
1964.327382542888
1040
0.0
1040
3222.52924066161
1040
2014.327382542888
1040
0.0
1040
3210.685395222116
1040
2014.327382542888
1040
-0.2216708542871185
1040
3180.045951522792
1040
2028.613096828602
1040
0.7001737193721304
1040
3003.447342274481
1040
1964.327382542888
1040
0.0
1071
        3
1005
282
1005
27E
1005
289
1071
        7
1070
     1
1070
     1
1071
        5
1040
3003.447342274481
1040
1964.327382542888
1040
0.7001737193721369
1040
3180.045951522792
1040
1900.041668257173
1040
-0.2216708542871251
1040
3210.685395222116
1040
1914.327382542888
1040
0.0
1040
3222.529240661611
1040
1914.327382542888
1040
0.0
1040
3222.529240661612
1040
1964.327382542888
1040
0.0
1071
        3
1005
27E
1005
281
1005
289
1070
     0
1070
     1
1040
1.877768683917667
1071
        2
1040
3131.827880297118
1040
1997.188336124624
1040
0.0
1040
3126.191121883939
1040
1929.588663195818
1040
0.0
1002
}
  0
ARC
  5
285
330
270
100
AcDbEntity
  8
HATCH
  6
CONTINUOUS
 62
     2
100
AcDbCircle
 10
3110.076956640401
 20
1524.973817086051
 30
0.0
 40
47.49999999999998
100
AcDbArc
 50
169.9586811746955
 51
299.7642846570324
  0
ARC
  5
286
330
270
100
AcDbEntity
  8
HATCH
  6
CONTINUOUS
 62
     2
100
AcDbCircle
 10
3361.421007420437
 20
1766.244037061692
 30
0.0
 40
15.0
100
AcDbArc
 50
67.11951467888152
 51
170.904728621949
  0
LINE
  5
287
330
270
100
AcDbEntity
  8
HATCH
  6
CONTINUOUS
 62
     2
100
AcDbLine
 10
3270.408063967505
 20
1835.574950659383
 30
0.0
 11
3349.488755462568
 21
1775.333666493848
 31
0.0
  0
ARC
  5
288
330
270
100
AcDbEntity
  8
HATCH
  6
CONTINUOUS
 62
     2
100
AcDbCircle
 10
3445.015195274481
 20
1964.327382542888
 30
0.0
 40
200.0
100
AcDbArc
 50
247.1195146788815
 51
292.8476615072181
  0
LINE
  5
289
330
270
100
AcDbEntity
  8
HATCH
  6
CONTINUOUS
 62
     2
100
AcDbLine
 10
3222.529240661611
 20
2014.327382542888
 30
0.0
 11
3222.529240661611
 21
1914.327382542888
 31
0.0
  0
POLYLINE
  5
28A
330
270
100
AcDbEntity
  8
HATCH
  6
CONTINUOUS
 62
     2
100
AcDb2dPolyline
 66
     1
 10
0.0
 20
0.0
 30
0.0
  0
VERTEX
  5
463
330
28A
100
AcDbEntity
  8
HATCH
  6
CONTINUOUS
 62
     2
100
AcDbVertex
100
AcDb2dVertex
 10
3276.257840550247
 20
1856.991669816512
 30
0.0
 42
-0.4424603516165339
  0
VERTEX
  5
464
330
28A
100
AcDbEntity
  8
HATCH
  6
CONTINUOUS
 62
     2
100
AcDbVertex
100
AcDb2dVertex
 10
3270.408063967505
 20
1835.574950659383
 30
0.0
  0
SEQEND
  5
465
330
28A
100
AcDbEntity
  8
HATCH
  6
CONTINUOUS
 62
     2
  0
POLYLINE
  5
28B
330
270
100
AcDbEntity
  8
HATCH
  6
CONTINUOUS
 62
     2
100
AcDb2dPolyline
 66
     1
 10
0.0
 20
0.0
 30
0.0
  0
VERTEX
  5
466
330
28B
100
AcDbEntity
  8
HATCH
  6
CONTINUOUS
 62
     2
100
AcDbVertex
100
AcDb2dVertex
 10
3276.257840550247
 20
2071.663095269264
 30
0.0
 42
0.4424603516165339
  0
VERTEX
  5
467
330
28B
100
AcDbEntity
  8
HATCH
  6
CONTINUOUS
 62
     2
100
AcDbVertex
100
AcDb2dVertex
 10
3270.408063967505
 20
2093.079814426394
 30
0.0
  0
SEQEND
  5
468
330
28B
100
AcDbEntity
  8
HATCH
  6
CONTINUOUS
 62
     2
  0
ARC
  5
28C
330
270
100
AcDbEntity
  8
HATCH
  6
CONTINUOUS
 62
     2
100
AcDbCircle
 10
3869.673400884425
 20
1026.573495290109
 30
0.0
 40
1003.092090683137
100
AcDbArc
 50
73.32133292036505
 51
101.0849428329314
  0
ARC
  5
28D
330
270
100
AcDbEntity
  8
HATCH
  6
CONTINUOUS
 62
     2
100
AcDbCircle
 10
3869.673400884425
 20
2902.081269795668
 30
0.0
 40
1003.092090683137
100
AcDbArc
 50
258.9150571670685
 51
286.6786670796349
  0
INSERT
  5
28E
330
270
100
AcDbEntity
  8
HATCH
  6
CONTINUOUS
 62
     2
100
AcDbBlockReference
  2
*U17
 10
0.0
 20
0.0
 30
0.0
1001
ACAD
1002
{
1000
R14_HATCH_DATA
1000
28E
1011
1.0
1021
0.0
1031
0.0
1011
0.0
1021
1.0
1031
0.0
1011
0.0
1021
0.0
1031
1.0
1040
0.0
1010
0.0
1020
0.0
1030
1.0
1000
SOLID
1070
     1
1070
     1
1071
        1
1071
        7
1070
     1
1070
     1
1071
        7
1040
4157.564717067617
1040
1941.189843849231
1040
0.25006528201964
1040
4180.87867695753
1040
1964.327382542888
1040
0.2500652820254062
1040
4157.564717066891
1040
1987.464921236762
1040
0.1217375040679363
1040
3676.815571129081
1040
2010.951268247791
1040
-0.048407229155705
1040
3669.124649265108
1040
2010.20492694201
1040
0.0
1040
3669.124649265108
1040
1918.449838143766
1040
-0.0484072290673754
1040
3676.815571115243
1040
1917.703496840697
1040
0.1217375040716939
1071
        7
1005
299
1005
28C
1005
297
1005
291
1005
294
1005
28D
1005
298
1070
     0
1070
     1
1040
1.877768683917667
1071
        1
1040
3858.969499745255
1040
1948.366350629552
1040
0.0
1002
}
  0
ARC
  5
28F
330
270
100
AcDbEntity
  8
HATCH
  6
CONTINUOUS
 62
     2
100
AcDbCircle
 10
3445.659264235833
 20
1495.32847876314
 30
0.0
 40
382.7776702532651
100
AcDbArc
 50
5.813994476047794
 51
62.91496438112687
  0
ARC
  5
290
330
270
100
AcDbEntity
  8
HATCH
  6
CONTINUOUS
 62
     2
100
AcDbCircle
 10
3779.695516837233
 20
1525.821565823569
 30
0.0
 40
47.49999999999995
100
AcDbArc
 50
240.2357153429675
 51
10.04131882530445
  0
LINE
  5
291
330
270
100
AcDbEntity
  8
HATCH
  6
CONTINUOUS
 62
     2
100
AcDbLine
 10
3669.124649265108
 20
2010.20492694201
 30
0.0
 11
3669.124649265108
 21
1918.449838143766
 31
0.0
  0
ARC
  5
292
330
270
100
AcDbEntity
  8
HATCH
  6
CONTINUOUS
 62
     2
100
AcDbCircle
 10
3445.015195274481
 20
1964.327382542888
 30
0.0
 40
200.0
100
AcDbArc
 50
327.7129070357409
 51
339.033434709021
  0
ARC
  5
293
330
270
100
AcDbEntity
  8
HATCH
  6
CONTINUOUS
 62
     2
100
AcDbCircle
 10
3626.772365150937
 20
1849.482568996516
 30
0.0
 40
15.0
100
AcDbArc
 50
147.7129070357408
 51
242.9149643811268
  0
ARC
  5
294
330
270
100
AcDbEntity
  8
HATCH
  6
CONTINUOUS
 62
     2
100
AcDbCircle
 10
3669.124649265108
 20
1878.449838143766
 30
0.0
 40
40.0
100
AcDbArc
 50
78.91562420317197
 51
159.033434709021
  0
ARC
  5
295
330
270
100
AcDbEntity
  8
HATCH
  6
CONTINUOUS
 62
     2
100
AcDbCircle
 10
3445.015195274481
 20
1964.327382542888
 30
0.0
 40
200.0
100
AcDbArc
 50
20.96656529097896
 51
32.2870929642591
  0
ARC
  5
296
330
270
100
AcDbEntity
  8
HATCH
  6
CONTINUOUS
 62
     2
100
AcDbCircle
 10
3626.772365150937
 20
2079.17219608926
 30
0.0
 40
15.0
100
AcDbArc
 50
117.0850356188731
 51
212.2870929642591
  0
ARC
  5
297
330
270
100
AcDbEntity
  8
HATCH
  6
CONTINUOUS
 62
     2
100
AcDbCircle
 10
3669.124649265108
 20
2050.204926942009
 30
0.0
 40
40.0
100
AcDbArc
 50
200.9665652909789
 51
281.0843757968279
  0
ARC
  5
298
330
270
100
AcDbEntity
  8
HATCH
  6
CONTINUOUS
 62
     2
100
AcDbCircle
 10
4147.536672387318
 20
1974.608983757021
 30
0.0
 40
34.8912681381247
100
AcDbArc
 50
286.6527239357326
 51
342.8619211944145
  0
ARC
  5
299
330
270
100
AcDbEntity
  8
HATCH
  6
CONTINUOUS
 62
     2
100
AcDbCircle
 10
4147.536672387318
 20
1954.045781328755
 30
0.0
 40
34.8912681381247
100
AcDbArc
 50
17.13807880558545
 51
73.34727606426743
  0
ARC
  5
29A
330
270
100
AcDbEntity
  8
HATCH
  6
CONTINUOUS
 62
     2
100
AcDbCircle
 10
3921.127820452771
 20
2098.683647389339
 30
0.0
 40
382.7776702532688
100
AcDbArc
 50
115.5369603077992
 51
170.7740592082069
  0
ARC
  5
29B
330
270
100
AcDbEntity
  8
HATCH
  6
CONTINUOUS
 62
     2
100
AcDbCircle
 10
3528.495890711969
 20
2162.45858525784
 30
0.0
 40
15.0
100
AcDbArc
 50
247.1523384927818
 51
350.774059208207
  0
ARC
  5
29C
330
270
100
AcDbEntity
  8
HATCH
  6
CONTINUOUS
 62
     2
100
AcDbCircle
 10
2968.644653024864
 20
2099.531396126857
 30
0.0
 40
382.7776702532688
100
AcDbArc
 50
9.095271378050895
 51
64.46303969220068
  0
ARC
  5
29D
330
270
100
AcDbEntity
  8
HATCH
  6
CONTINUOUS
 62
     2
100
AcDbCircle
 10
3110.076956640401
 20
2403.680947999725
 30
0.0
 40
47.49999999999998
100
AcDbArc
 50
60.23571534296755
 51
190.0413188253044
  0
ARC
  5
29E
330
270
100
AcDbEntity
  8
HATCH
  6
CONTINUOUS
 62
     2
100
AcDbCircle
 10
3361.421007420437
 20
2162.410728024084
 30
0.0
 40
15.0
100
AcDbArc
 50
189.0952713780509
 51
292.8804853211185
  0
ARC
  5
29F
330
270
100
AcDbEntity
  8
HATCH
  6
CONTINUOUS
 62
     2
100
AcDbCircle
 10
3445.015195274481
 20
1964.327382542888
 30
0.0
 40
200.0
100
AcDbArc
 50
67.15233849278182
 51
112.8804853211184
  0
ARC
  5
2A0
330
270
100
AcDbEntity
  8
HATCH
  6
CONTINUOUS
 62
     2
100
AcDbCircle
 10
3779.695516837233
 20
2402.833199262207
 30
0.0
 40
47.49999999999995
100
AcDbArc
 50
349.9586811746955
 51
119.7642846570324
  0
ENDBLK
  5
272
330
270
100
AcDbEntity
  8
0
 62
     5
100
AcDbBlockEnd
  0
BLOCK
  5
2B9
330
2AA
100
AcDbEntity
  8
0
 62
     5
100
AcDbBlockBegin
  2
*U3
 70
     1
 10
0.0
 20
0.0
 30
0.0
  3
*U3
  1

  0
SOLID
  5
2AB
330
2AA
100
AcDbEntity
  8
HATCH
  6
CONTINUOUS
 62
     2
100
AcDbTrace
 10
532.3122641321674
 20
671.8085749049969
 30
0.0
 11
616.4953364873893
 21
615.0011258306322
 31
0.0
 12
695.1482177089538
 22
668.4990479079332
 32
0.0
 13
695.1482177089538
 23
668.4990479079332
 33
0.0
210
0.0
220
0.0
230
1.0
  0
SOLID
  5
2AC
330
2AA
100
AcDbEntity
  8
HATCH
  6
CONTINUOUS
 62
     2
100
AcDbTrace
 10
532.3122641321674
 20
671.8085749049969
 30
0.0
 11
611.6867124254802
 21
611.109222148342
 31
0.0
 12
616.4953364873893
 22
615.0011258306322
 32
0.0
 13
616.4953364873893
 23
615.0011258306322
 33
0.0
  0
SOLID
  5
2AD
330
2AA
100
AcDbEntity
  8
HATCH
  6
CONTINUOUS
 62
     2
100
AcDbTrace
 10
532.3122641321674
 20
671.8085749049969
 30
0.0
 11
608.8576241615444
 21
605.6077642292211
 31
0.0
 12
611.6867124254802
 22
611.109222148342
 32
0.0
 13
611.6867124254802
 23
611.109222148342
 33
0.0
210
0.0
220
0.0
230
1.0
  0
SOLID
  5
2AE
330
2AA
100
AcDbEntity
  8
HATCH
  6
CONTINUOUS
 62
     2
100
AcDbTrace
 10
537.3160693285608
 20
676.300741842754
 30
0.0
 11
532.3122641321674
 21
671.8085749049969
 31
0.0
 12
695.1482177089538
 22
668.4990479079332
 32
0.0
 13
695.1482177089538
 23
668.4990479079332
 33
0.0
210
0.0
220
0.0
230
1.0
  0
SOLID
  5
2AF
330
2AA
100
AcDbEntity
  8
HATCH
  6
CONTINUOUS
 62
     2
100
AcDbTrace
 10
539.8545045276951
 20
682.5276172212989
 30
0.0
 11
537.3160693285608
 21
676.300741842754
 31
0.0
 12
695.1482177089538
 22
668.4990479079332
 32
0.0
 13
695.1482177089538
 23
668.4990479079332
 33
0.0
210
0.0
220
0.0
230
1.0
  0
SOLID
  5
2B0
330
2AA
100
AcDbEntity
  8
HATCH
  6
CONTINUOUS
 62
     2
100
AcDbTrace
 10
758.1809518284142
 20
739.739330195891
 30
0.0
 11
539.8545045276951
 21
682.5276172212989
 31
0.0
 12
695.1482177089538
 22
668.4990479079332
 32
0.0
 13
695.1482177089538
 23
668.4990479079332
 33
0.0
210
0.0
220
0.0
230
1.0
  0
SOLID
  5
2B1
330
2AA
100
AcDbEntity
  8
HATCH
  6
CONTINUOUS
 62
     2
100
AcDbTrace
 10
565.4237664025914
 20
770.9372865662361
 30
0.0
 11
539.8545045276951
 21
682.5276172212989
 31
0.0
 12
758.1809518284142
 22
739.739330195891
 32
0.0
 13
758.1809518284142
 23
739.739330195891
 33
0.0
  0
SOLID
  5
2B2
330
2AA
100
AcDbEntity
  8
HATCH
  6
CONTINUOUS
 62
     2
100
AcDbTrace
 10
801.7009358721031
 20
824.322510438062
 30
0.0
 11
565.4237664025914
 21
770.9372865662361
 31
0.0
 12
758.1809518284142
 22
739.739330195891
 32
0.0
 13
758.1809518284142
 23
739.739330195891
 33
0.0
210
0.0
220
0.0
230
1.0
  0
SOLID
  5
2B3
330
2AA
100
AcDbEntity
  8
HATCH
  6
CONTINUOUS
 62
     2
100
AcDbTrace
 10
611.3565275042126
 20
850.6883884024462
 30
0.0
 11
565.4237664025914
 21
770.9372865662361
 31
0.0
 12
801.7009358721031
 22
824.322510438062
 32
0.0
 13
801.7009358721031
 23
824.322510438062
 33
0.0
  0
SOLID
  5
2B4
330
2AA
100
AcDbEntity
  8
HATCH
  6
CONTINUOUS
 62
     2
100
AcDbTrace
 10
823.0205818483375
 20
917.0251322267176
 30
0.0
 11
611.3565275042126
 21
850.6883884024462
 31
0.0
 12
801.7009358721031
 22
824.322510438062
 32
0.0
 13
801.7009358721031
 23
824.322510438062
 33
0.0
210
0.0
220
0.0
230
1.0
  0
SOLID
  5
2B5
330
2AA
100
AcDbEntity
  8
HATCH
  6
CONTINUOUS
 62
     2
100
AcDbTrace
 10
674.9974750580414
 20
917.1706159595832
 30
0.0
 11
611.3565275042126
 21
850.6883884024462
 31
0.0
 12
823.0205818483375
 22
917.0251322267176
 32
0.0
 13
823.0205818483375
 23
917.0251322267176
 33
0.0
210
0.0
220
0.0
230
1.0
  0
SOLID
  5
2B6
330
2AA
100
AcDbEntity
  8
HATCH
  6
CONTINUOUS
 62
     2
100
AcDbTrace
 10
815.9821199247126
 20
951.335282513347
 30
0.0
 11
674.9974750580414
 21
917.1706159595832
 31
0.0
 12
823.0205818483375
 22
917.0251322267176
 32
0.0
 13
823.0205818483375
 23
917.0251322267176
 33
0.0
210
0.0
220
0.0
230
1.0
  0
SOLID
  5
2B7
330
2AA
100
AcDbEntity
  8
HATCH
  6
CONTINUOUS
 62
     2
100
AcDbTrace
 10
752.6676092180166
 20
966.5407187149916
 30
0.0
 11
674.9974750580414
 21
917.1706159595832
 31
0.0
 12
815.9821199247126
 22
951.335282513347
 32
0.0
 13
815.9821199247126
 23
951.335282513347
 33
0.0
210
0.0
220
0.0
230
1.0
  0
SOLID
  5
2B8
330
2AA
100
AcDbEntity
  8
HATCH
  6
CONTINUOUS
 62
     2
100
AcDbTrace
 10
787.3402546462669
 20
971.4939013229969
 30
0.0
 11
752.6676092180166
 21
966.5407187149916
 31
0.0
 12
815.9821199247126
 22
951.335282513347
 32
0.0
 13
815.9821199247126
 23
951.335282513347
 33
0.0
210
0.0
220
0.0
230
1.0
  0
ENDBLK
  5
2BA
330
2AA
100
AcDbEntity
  8
0
 62
     5
100
AcDbBlockEnd
  0
BLOCK
  5
2E4
330
2BB
100
AcDbEntity
  8
0
 62
     5
100
AcDbBlockBegin
  2
*U4
 70
     1
 10
0.0
 20
0.0
 30
0.0
  3
*U4
  1

  0
SOLID
  5
2BC
330
2BB
100
AcDbEntity
  8
HATCH
  6
CONTINUOUS
 62
     2
100
AcDbTrace
 10
363.8058172170768
 20
302.5377588060281
 30
0.0
 11
441.5105640683598
 21
286.8013442027292
 31
0.0
 12
519.2243133022226
 22
302.4932404490455
 32
0.0
 13
519.2243133022226
 23
302.4932404490455
 33
0.0
210
0.0
220
0.0
230
1.0
  0
SOLID
  5
2BD
330
2BB
100
AcDbEntity
  8
HATCH
  6
CONTINUOUS
 62
     2
100
AcDbTrace
 10
354.1140847646217
 20
303.2129428683699
 30
0.0
 11
363.8058172170768
 21
302.5377588060281
 31
0.0
 12
519.2243133022226
 22
302.4932404490455
 32
0.0
 13
519.2243133022226
 23
302.4932404490455
 33
0.0
210
0.0
220
0.0
230
1.0
  0
SOLID
  5
2BE
330
2BB
100
AcDbEntity
  8
HATCH
  6
CONTINUOUS
 62
     2
100
AcDbTrace
 10
525.8486898859112
 20
303.6487771717892
 30
0.0
 11
354.1140847646217
 21
303.2129428683699
 31
0.0
 12
519.2243133022226
 22
302.4932404490455
 32
0.0
 13
519.2243133022226
 23
302.4932404490455
 33
0.0
210
0.0
220
0.0
230
1.0
  0
SOLID
  5
2BF
330
2BB
100
AcDbEntity
  8
HATCH
  6
CONTINUOUS
 62
     2
100
AcDbTrace
 10
266.9607211231656
 20
358.0489041143327
 30
0.0
 11
354.1140847646217
 21
303.2129428683699
 31
0.0
 12
525.8486898859112
 22
303.6487771717892
 32
0.0
 13
525.8486898859112
 23
303.6487771717892
 33
0.0
210
0.0
220
0.0
230
1.0
  0
SOLID
  5
2C0
330
2BB
100
AcDbEntity
  8
HATCH
  6
CONTINUOUS
 62
     2
100
AcDbTrace
 10
266.9607211231656
 20
358.0489041143327
 30
0.0
 11
346.0414126182275
 21
297.8076199487985
 31
0.0
 12
354.1140847646217
 22
303.2129428683699
 32
0.0
 13
354.1140847646217
 23
303.2129428683699
 33
0.0
210
0.0
220
0.0
230
1.0
  0
SOLID
  5
2C1
330
2BB
100
AcDbEntity
  8
HATCH
  6
CONTINUOUS
 62
     2
100
AcDbTrace
 10
611.4452958612619
 20
362.7983512593574
 30
0.0
 11
266.9607211231656
 21
358.0489041143327
 31
0.0
 12
525.8486898859112
 22
303.6487771717892
 32
0.0
 13
525.8486898859112
 23
303.6487771717892
 33
0.0
210
0.0
220
0.0
230
1.0
  0
SOLID
  5
2C2
330
2BB
100
AcDbEntity
  8
HATCH
  6
CONTINUOUS
 62
     2
100
AcDbTrace
 10
611.4452958612619
 20
362.7983512593574
 30
0.0
 11
525.8486898859112
 21
303.6487771717892
 31
0.0
 12
532.3122641321675
 22
301.7940970906795
 32
0.0
 13
532.3122641321675
 23
301.7940970906795
 33
0.0
  0
SOLID
  5
2C3
330
2BB
100
AcDbEntity
  8
HATCH
  6
CONTINUOUS
 62
     2
100
AcDbTrace
 10
274.6236339589045
 20
367.4631165910586
 30
0.0
 11
266.9607211231656
 21
358.0489041143327
 31
0.0
 12
611.4452958612619
 22
362.7983512593574
 32
0.0
 13
611.4452958612619
 23
362.7983512593574
 33
0.0
210
0.0
220
0.0
230
1.0
  0
SOLID
  5
2C4
330
2BB
100
AcDbEntity
  8
HATCH
  6
CONTINUOUS
 62
     2
100
AcDbTrace
 10
608.3413172963315
 20
371.2575344935492
 30
0.0
 11
274.6236339589045
 21
367.4631165910586
 31
0.0
 12
611.4452958612619
 22
362.7983512593574
 32
0.0
 13
611.4452958612619
 23
362.7983512593574
 33
0.0
210
0.0
220
0.0
230
1.0
  0
SOLID
  5
2C5
330
2BB
100
AcDbEntity
  8
HATCH
  6
CONTINUOUS
 62
     2
100
AcDbTrace
 10
272.8104977059073
 20
379.4656232714625
 30
0.0
 11
274.6236339589045
 21
367.4631165910586
 31
0.0
 12
608.3413172963315
 22
371.2575344935492
 32
0.0
 13
608.3413172963315
 23
371.2575344935492
 33
0.0
210
0.0
220
0.0
230
1.0
  0
SOLID
  5
2C6
330
2BB
100
AcDbEntity
  8
HATCH
  6
CONTINUOUS
 62
     2
100
AcDbTrace
 10
610.6442895245195
 20
379.968951303539
 30
0.0
 11
272.8104977059073
 21
379.4656232714625
 31
0.0
 12
608.3413172963315
 22
371.2575344935492
 32
0.0
 13
608.3413172963315
 23
371.2575344935492
 33
0.0
210
0.0
220
0.0
230
1.0
  0
SOLID
  5
2C7
330
2BB
100
AcDbEntity
  8
HATCH
  6
CONTINUOUS
 62
     2
100
AcDbTrace
 10
263.7501473002455
 20
395.2542784681861
 30
0.0
 11
272.8104977059073
 21
379.4656232714625
 31
0.0
 12
610.6442895245195
 22
379.968951303539
 32
0.0
 13
610.6442895245195
 23
379.968951303539
 33
0.0
210
0.0
220
0.0
230
1.0
  0
SOLID
  5
2C8
330
2BB
100
AcDbEntity
  8
HATCH
  6
CONTINUOUS
 62
     2
100
AcDbTrace
 10
620.3567469632062
 20
397.165789524106
 30
0.0
 11
263.7501473002455
 21
395.2542784681861
 31
0.0
 12
610.6442895245195
 22
379.968951303539
 32
0.0
 13
610.6442895245195
 23
379.968951303539
 33
0.0
210
0.0
220
0.0
230
1.0
  0
SOLID
  5
2C9
330
2BB
100
AcDbEntity
  8
HATCH
  6
CONTINUOUS
 62
     2
100
AcDbTrace
 10
256.1628902527496
 20
411.8013359978383
 30
0.0
 11
263.7501473002455
 21
395.2542784681861
 31
0.0
 12
620.3567469632062
 22
397.165789524106
 32
0.0
 13
620.3567469632062
 23
397.165789524106
 33
0.0
210
0.0
220
0.0
230
1.0
  0
SOLID
  5
2CA
330
2BB
100
AcDbEntity
  8
HATCH
  6
CONTINUOUS
 62
     2
100
AcDbTrace
 10
628.3257307556636
 20
415.2367156652369
 30
0.0
 11
256.1628902527496
 21
411.8013359978383
 31
0.0
 12
620.3567469632062
 22
397.165789524106
 32
0.0
 13
620.3567469632062
 23
397.165789524106
 33
0.0
210
0.0
220
0.0
230
1.0
  0
SOLID
  5
2CB
330
2BB
100
AcDbEntity
  8
HATCH
  6
CONTINUOUS
 62
     2
100
AcDbTrace
 10
241.4425775922692
 20
429.9675839013922
 30
0.0
 11
256.1628902527496
 21
411.8013359978383
 31
0.0
 12
628.3257307556636
 22
415.2367156652369
 32
0.0
 13
628.3257307556636
 23
415.2367156652369
 33
0.0
210
0.0
220
0.0
230
1.0
  0
SOLID
  5
2CC
330
2BB
100
AcDbEntity
  8
HATCH
  6
CONTINUOUS
 62
     2
100
AcDbTrace
 10
643.0114396014825
 20
433.8822272613873
 30
0.0
 11
241.4425775922692
 21
429.9675839013922
 31
0.0
 12
628.3257307556636
 22
415.2367156652369
 32
0.0
 13
628.3257307556636
 23
415.2367156652369
 33
0.0
210
0.0
220
0.0
230
1.0
  0
SOLID
  5
2CD
330
2BB
100
AcDbEntity
  8
HATCH
  6
CONTINUOUS
 62
     2
100
AcDbTrace
 10
219.0818978172713
 20
436.8013359978382
 30
0.0
 11
241.4425775922692
 21
429.9675839013922
 31
0.0
 12
643.0114396014825
 22
433.8822272613873
 32
0.0
 13
643.0114396014825
 23
433.8822272613873
 33
0.0
  0
SOLID
  5
2CE
330
2BB
100
AcDbEntity
  8
HATCH
  6
CONTINUOUS
 62
     2
100
AcDbTrace
 10
665.6773064207682
 20
440.9237915987165
 30
0.0
 11
219.0818978172713
 21
436.8013359978382
 31
0.0
 12
643.0114396014825
 22
433.8822272613873
 32
0.0
 13
643.0114396014825
 23
433.8822272613873
 33
0.0
210
0.0
220
0.0
230
1.0
  0
SOLID
  5
2CF
330
2BB
100
AcDbEntity
  8
HATCH
  6
CONTINUOUS
 62
     2
100
AcDbTrace
 10
665.6773064207682
 20
532.6788803969598
 30
0.0
 11
219.0818978172713
 21
436.8013359978382
 31
0.0
 12
665.6773064207682
 22
440.9237915987165
 32
0.0
 13
665.6773064207682
 23
440.9237915987165
 33
0.0
210
0.0
220
0.0
230
1.0
  0
SOLID
  5
2D0
330
2BB
100
AcDbEntity
  8
HATCH
  6
CONTINUOUS
 62
     2
100
AcDbTrace
 10
219.0818978172714
 20
536.8013359978383
 30
0.0
 11
219.0818978172713
 21
436.8013359978382
 31
0.0
 12
665.6773064207682
 22
532.6788803969598
 32
0.0
 13
665.6773064207682
 23
532.6788803969598
 33
0.0
210
0.0
220
0.0
230
1.0
  0
SOLID
  5
2D1
330
2BB
100
AcDbEntity
  8
HATCH
  6
CONTINUOUS
 62
     2
100
AcDbTrace
 10
643.0114396014825
 20
539.7204447342891
 30
0.0
 11
219.0818978172714
 21
536.8013359978383
 31
0.0
 12
665.6773064207682
 22
532.6788803969598
 32
0.0
 13
665.6773064207682
 23
532.6788803969598
 33
0.0
210
0.0
220
0.0
230
1.0
  0
SOLID
  5
2D2
330
2BB
100
AcDbEntity
  8
HATCH
  6
CONTINUOUS
 62
     2
100
AcDbTrace
 10
241.4425775922692
 20
543.6350880942844
 30
0.0
 11
219.0818978172714
 21
536.8013359978383
 31
0.0
 12
643.0114396014825
 22
539.7204447342891
 32
0.0
 13
643.0114396014825
 23
539.7204447342891
 33
0.0
210
0.0
220
0.0
230
1.0
  0
SOLID
  5
2D3
330
2BB
100
AcDbEntity
  8
HATCH
  6
CONTINUOUS
 62
     2
100
AcDbTrace
 10
628.3257307556636
 20
558.3659563304396
 30
0.0
 11
241.4425775922692
 21
543.6350880942844
 31
0.0
 12
643.0114396014825
 22
539.7204447342891
 32
0.0
 13
643.0114396014825
 23
539.7204447342891
 33
0.0
210
0.0
220
0.0
230
1.0
  0
SOLID
  5
2D4
330
2BB
100
AcDbEntity
  8
HATCH
  6
CONTINUOUS
 62
     2
100
AcDbTrace
 10
256.1628902527496
 20
561.8013359978382
 30
0.0
 11
241.4425775922692
 21
543.6350880942844
 31
0.0
 12
628.3257307556636
 22
558.3659563304396
 32
0.0
 13
628.3257307556636
 23
558.3659563304396
 33
0.0
210
0.0
220
0.0
230
1.0
  0
SOLID
  5
2D5
330
2BB
100
AcDbEntity
  8
HATCH
  6
CONTINUOUS
 62
     2
100
AcDbTrace
 10
620.3567469632062
 20
576.4368824715703
 30
0.0
 11
256.1628902527496
 21
561.8013359978382
 31
0.0
 12
628.3257307556636
 22
558.3659563304396
 32
0.0
 13
628.3257307556636
 23
558.3659563304396
 33
0.0
210
0.0
220
0.0
230
1.0
  0
SOLID
  5
2D6
330
2BB
100
AcDbEntity
  8
HATCH
  6
CONTINUOUS
 62
     2
100
AcDbTrace
 10
263.7501473002456
 20
578.3483935274905
 30
0.0
 11
256.1628902527496
 21
561.8013359978382
 31
0.0
 12
620.3567469632062
 22
576.4368824715703
 32
0.0
 13
620.3567469632062
 23
576.4368824715703
 33
0.0
210
0.0
220
0.0
230
1.0
  0
SOLID
  5
2D7
330
2BB
100
AcDbEntity
  8
HATCH
  6
CONTINUOUS
 62
     2
100
AcDbTrace
 10
610.6442895245196
 20
593.6337206921373
 30
0.0
 11
263.7501473002456
 21
578.3483935274905
 31
0.0
 12
620.3567469632062
 22
576.4368824715703
 32
0.0
 13
620.3567469632062
 23
576.4368824715703
 33
0.0
210
0.0
220
0.0
230
1.0
  0
SOLID
  5
2D8
330
2BB
100
AcDbEntity
  8
HATCH
  6
CONTINUOUS
 62
     2
100
AcDbTrace
 10
272.8104977059074
 20
594.137048724214
 30
0.0
 11
263.7501473002456
 21
578.3483935274905
 31
0.0
 12
610.6442895245196
 22
593.6337206921373
 32
0.0
 13
610.6442895245196
 23
593.6337206921373
 33
0.0
210
0.0
220
0.0
230
1.0
  0
SOLID
  5
2D9
330
2BB
100
AcDbEntity
  8
HATCH
  6
CONTINUOUS
 62
     2
100
AcDbTrace
 10
608.4892654042296
 20
599.4324835500206
 30
0.0
 11
272.8104977059074
 21
594.137048724214
 31
0.0
 12
610.6442895245196
 22
593.6337206921373
 32
0.0
 13
610.6442895245196
 23
593.6337206921373
 33
0.0
210
0.0
220
0.0
230
1.0
  0
SOLID
  5
2DA
330
2BB
100
AcDbEntity
  8
HATCH
  6
CONTINUOUS
 62
     2
100
AcDbTrace
 10
274.9854202127006
 20
599.9467004790309
 30
0.0
 11
272.8104977059074
 21
594.137048724214
 31
0.0
 12
608.4892654042296
 22
599.4324835500206
 32
0.0
 13
608.4892654042296
 23
599.4324835500206
 33
0.0
210
0.0
220
0.0
230
1.0
  0
SOLID
  5
2DB
330
2BB
100
AcDbEntity
  8
HATCH
  6
CONTINUOUS
 62
     2
100
AcDbTrace
 10
608.8576241615442
 20
605.6077642292213
 30
0.0
 11
274.9854202127006
 21
599.9467004790309
 31
0.0
 12
608.4892654042296
 22
599.4324835500206
 32
0.0
 13
608.4892654042296
 23
599.4324835500206
 33
0.0
210
0.0
220
0.0
230
1.0
  0
SOLID
  5
2DC
330
2BB
100
AcDbEntity
  8
HATCH
  6
CONTINUOUS
 62
     2
100
AcDbTrace
 10
274.6236339589045
 20
606.139555404618
 30
0.0
 11
274.9854202127006
 21
599.9467004790309
 31
0.0
 12
608.8576241615442
 22
605.6077642292213
 32
0.0
 13
608.8576241615442
 23
605.6077642292213
 33
0.0
210
0.0
220
0.0
230
1.0
  0
SOLID
  5
2DD
330
2BB
100
AcDbEntity
  8
HATCH
  6
CONTINUOUS
 62
     2
100
AcDbTrace
 10
357.1714182136991
 20
669.9061501500279
 30
0.0
 11
274.6236339589045
 21
606.139555404618
 31
0.0
 12
608.8576241615442
 22
605.6077642292213
 32
0.0
 13
608.8576241615442
 23
605.6077642292213
 33
0.0
210
0.0
220
0.0
230
1.0
  0
SOLID
  5
2DE
330
2BB
100
AcDbEntity
  8
HATCH
  6
CONTINUOUS
 62
     2
100
AcDbTrace
 10
525.8486898859112
 20
669.9538948238872
 30
0.0
 11
357.1714182136991
 21
669.9061501500279
 31
0.0
 12
608.8576241615442
 22
605.6077642292213
 32
0.0
 13
608.8576241615442
 23
605.6077642292213
 33
0.0
  0
SOLID
  5
2DF
330
2BB
100
AcDbEntity
  8
HATCH
  6
CONTINUOUS
 62
     2
100
AcDbTrace
 10
363.8058172170768
 20
671.0649131896484
 30
0.0
 11
357.1714182136991
 21
669.9061501500279
 31
0.0
 12
525.8486898859112
 22
669.9538948238872
 32
0.0
 13
525.8486898859112
 23
669.9538948238872
 33
0.0
210
0.0
220
0.0
230
1.0
  0
SOLID
  5
2E0
330
2BB
100
AcDbEntity
  8
HATCH
  6
CONTINUOUS
 62
     2
100
AcDbTrace
 10
519.2243133022225
 20
671.109431546631
 30
0.0
 11
363.8058172170768
 21
671.0649131896484
 31
0.0
 12
525.8486898859112
 22
669.9538948238872
 32
0.0
 13
525.8486898859112
 23
669.9538948238872
 33
0.0
210
0.0
220
0.0
230
1.0
  0
SOLID
  5
2E1
330
2BB
100
AcDbEntity
  8
HATCH
  6
CONTINUOUS
 62
     2
100
AcDbTrace
 10
350.69874488143
 20
671.7669246800937
 30
0.0
 11
274.6236339589045
 21
606.139555404618
 31
0.0
 12
357.1714182136991
 22
669.9061501500279
 32
0.0
 13
357.1714182136991
 23
669.9061501500279
 33
0.0
210
0.0
220
0.0
230
1.0
  0
SOLID
  5
2E2
330
2BB
100
AcDbEntity
  8
HATCH
  6
CONTINUOUS
 62
     2
100
AcDbTrace
 10
532.3122641321674
 20
671.8085749049969
 30
0.0
 11
525.8486898859112
 21
669.9538948238872
 31
0.0
 12
608.8576241615442
 22
605.6077642292213
 32
0.0
 13
608.8576241615442
 23
605.6077642292213
 33
0.0
210
0.0
220
0.0
230
1.0
  0
SOLID
  5
2E3
330
2BB
100
AcDbEntity
  8
HATCH
  6
CONTINUOUS
 62
     2
100
AcDbTrace
 10
441.5105640683597
 20
686.8013277929471
 30
0.0
 11
363.8058172170768
 21
671.0649131896484
 31
0.0
 12
519.2243133022225
 22
671.109431546631
 32
0.0
 13
519.2243133022225
 23
671.109431546631
 33
0.0
210
0.0
220
0.0
230
1.0
  0
ENDBLK
  5
2E5
330
2BB
100
AcDbEntity
  8
0
 62
     5
100
AcDbBlockEnd
  0
BLOCK
  5
2F5
330
2E6
100
AcDbEntity
  8
0
 62
     5
100
AcDbBlockBegin
  2
*U5
 70
     1
 10
0.0
 20
0.0
 30
0.0
  3
*U5
  1

  0
SOLID
  5
2E7
330
2E6
100
AcDbEntity
  8
HATCH
  6
CONTINUOUS
 62
     2
100
AcDbTrace
 10
815.9821199247135
 20
22.26738948233074
 30
0.0
 11
752.6676092180155
 21
7.061953280685415
 31
0.0
 12
787.340254646267
 22
2.108770672679554
 32
0.0
 13
787.340254646267
 23
2.108770672679554
 33
0.0
210
0.0
220
0.0
230
1.0
  0
SOLID
  5
2E8
330
2E6
100
AcDbEntity
  8
HATCH
  6
CONTINUOUS
 62
     2
100
AcDbTrace
 10
674.9974750580406
 20
56.43205603609402
 30
0.0
 11
752.6676092180155
 21
7.061953280685415
 31
0.0
 12
815.9821199247135
 22
22.26738948233074
 32
0.0
 13
815.9821199247135
 23
22.26738948233074
 33
0.0
210
0.0
220
0.0
230
1.0
  0
SOLID
  5
2E9
330
2E6
100
AcDbEntity
  8
HATCH
  6
CONTINUOUS
 62
     2
100
AcDbTrace
 10
823.0205818483371
 20
56.57753976896175
 30
0.0
 11
674.9974750580406
 21
56.43205603609402
 31
0.0
 12
815.9821199247135
 22
22.26738948233074
 32
0.0
 13
815.9821199247135
 23
22.26738948233074
 33
0.0
210
0.0
220
0.0
230
1.0
  0
SOLID
  5
2EA
330
2E6
100
AcDbEntity
  8
HATCH
  6
CONTINUOUS
 62
     2
100
AcDbTrace
 10
611.356527504212
 20
122.9142835932308
 30
0.0
 11
674.9974750580406
 21
56.43205603609402
 31
0.0
 12
823.0205818483371
 22
56.57753976896175
 32
0.0
 13
823.0205818483371
 23
56.57753976896175
 33
0.0
210
0.0
220
0.0
230
1.0
  0
SOLID
  5
2EB
330
2E6
100
AcDbEntity
  8
HATCH
  6
CONTINUOUS
 62
     2
100
AcDbTrace
 10
801.7009358721026
 20
149.2801615576166
 30
0.0
 11
611.356527504212
 21
122.9142835932308
 31
0.0
 12
823.0205818483371
 22
56.57753976896175
 32
0.0
 13
823.0205818483371
 23
56.57753976896175
 33
0.0
  0
SOLID
  5
2EC
330
2E6
100
AcDbEntity
  8
HATCH
  6
CONTINUOUS
 62
     2
100
AcDbTrace
 10
565.4237664025911
 20
202.6653854294407
 30
0.0
 11
611.356527504212
 21
122.9142835932308
 31
0.0
 12
801.7009358721026
 22
149.2801615576166
 32
0.0
 13
801.7009358721026
 23
149.2801615576166
 33
0.0
  0
SOLID
  5
2ED
330
2E6
100
AcDbEntity
  8
HATCH
  6
CONTINUOUS
 62
     2
100
AcDbTrace
 10
758.1809518284136
 20
233.8633417997867
 30
0.0
 11
565.4237664025911
 21
202.6653854294407
 31
0.0
 12
801.7009358721026
 22
149.2801615576166
 32
0.0
 13
801.7009358721026
 23
149.2801615576166
 33
0.0
  0
SOLID
  5
2EE
330
2E6
100
AcDbEntity
  8
HATCH
  6
CONTINUOUS
 62
     2
100
AcDbTrace
 10
539.8545045276948
 20
291.0750547743775
 30
0.0
 11
565.4237664025911
 21
202.6653854294407
 31
0.0
 12
758.1809518284136
 22
233.8633417997867
 32
0.0
 13
758.1809518284136
 23
233.8633417997867
 33
0.0
210
0.0
220
0.0
230
1.0
  0
SOLID
  5
2EF
330
2E6
100
AcDbEntity
  8
HATCH
  6
CONTINUOUS
 62
     2
100
AcDbTrace
 10
537.3160693285608
 20
297.3019301529223
 30
0.0
 11
539.8545045276948
 21
291.0750547743775
 31
0.0
 12
758.1809518284136
 22
233.8633417997867
 32
0.0
 13
758.1809518284136
 23
233.8633417997867
 33
0.0
210
0.0
220
0.0
230
1.0
  0
SOLID
  5
2F0
330
2E6
100
AcDbEntity
  8
HATCH
  6
CONTINUOUS
 62
     2
100
AcDbTrace
 10
532.3122641321675
 20
301.7940970906795
 30
0.0
 11
537.3160693285608
 21
297.3019301529223
 31
0.0
 12
758.1809518284136
 22
233.8633417997867
 32
0.0
 13
758.1809518284136
 23
233.8633417997867
 33
0.0
  0
SOLID
  5
2F1
330
2E6
100
AcDbEntity
  8
HATCH
  6
CONTINUOUS
 62
     2
100
AcDbTrace
 10
695.1482177089535
 20
305.1036240877439
 30
0.0
 11
532.3122641321675
 21
301.7940970906795
 31
0.0
 12
758.1809518284136
 22
233.8633417997867
 32
0.0
 13
758.1809518284136
 23
233.8633417997867
 33
0.0
210
0.0
220
0.0
230
1.0
  0
SOLID
  5
2F2
330
2E6
100
AcDbEntity
  8
HATCH
  6
CONTINUOUS
 62
     2
100
AcDbTrace
 10
616.4953364873895
 20
358.6015461650443
 30
0.0
 11
532.3122641321675
 21
301.7940970906795
 31
0.0
 12
695.1482177089535
 22
305.1036240877439
 32
0.0
 13
695.1482177089535
 23
305.1036240877439
 33
0.0
210
0.0
220
0.0
230
1.0
  0
SOLID
  5
2F3
330
2E6
100
AcDbEntity
  8
HATCH
  6
CONTINUOUS
 62
     2
100
AcDbTrace
 10
613.7378527518709
 20
360.4202240880872
 30
0.0
 11
532.3122641321675
 21
301.7940970906795
 31
0.0
 12
616.4953364873895
 22
358.6015461650443
 32
0.0
 13
616.4953364873895
 23
358.6015461650443
 33
0.0
210
0.0
220
0.0
230
1.0
  0
SOLID
  5
2F4
330
2E6
100
AcDbEntity
  8
HATCH
  6
CONTINUOUS
 62
     2
100
AcDbTrace
 10
611.4452958612619
 20
362.7983512593574
 30
0.0
 11
532.3122641321675
 21
301.7940970906795
 31
0.0
 12
613.7378527518709
 22
360.4202240880872
 32
0.0
 13
613.7378527518709
 23
360.4202240880872
 33
0.0
210
0.0
220
0.0
230
1.0
  0
ENDBLK
  5
2F6
330
2E6
100
AcDbEntity
  8
0
 62
     5
100
AcDbBlockEnd
  0
BLOCK
  5
308
330
2F7
100
AcDbEntity
  8
0
 62
     5
100
AcDbBlockBegin
  2
*U6
 70
     1
 10
0.0
 20
0.0
 30
0.0
  3
*U6
  1

  0
SOLID
  5
2F8
330
2F7
100
AcDbEntity
  8
HATCH
  6
CONTINUOUS
 62
     2
100
AcDbTrace
 10
11.70438785604177
 20
533.7468893203386
 30
0.0
 11
-0.0000005698585852
 21
486.8013359978383
 31
0.0
 12
219.0818978172714
 22
486.8013359978383
 32
0.0
 13
219.0818978172714
 23
486.8013359978383
 33
0.0
210
0.0
220
0.0
230
1.0
  0
SOLID
  5
2F9
330
2F7
100
AcDbEntity
  8
HATCH
  6
CONTINUOUS
 62
     2
100
AcDbTrace
 10
219.0818978172714
 20
536.8013359978383
 30
0.0
 11
11.70438785604177
 21
533.7468893203386
 31
0.0
 12
219.0818978172714
 22
486.8013359978383
 32
0.0
 13
219.0818978172714
 23
486.8013359978383
 33
0.0
210
0.0
220
0.0
230
1.0
  0
SOLID
  5
2FA
330
2F7
100
AcDbEntity
  8
HATCH
  6
CONTINUOUS
 62
     2
100
AcDbTrace
 10
11.70438785604177
 20
533.7468893203386
 30
0.0
 11
219.0818978172714
 21
536.8013359978383
 31
0.0
 12
207.2380523777773
 22
536.8013359978383
 32
0.0
 13
207.2380523777773
 23
536.8013359978383
 33
0.0
210
0.0
220
0.0
230
1.0
  0
SOLID
  5
2FB
330
2F7
100
AcDbEntity
  8
HATCH
  6
CONTINUOUS
 62
     2
100
AcDbTrace
 10
190.3349672832071
 20
540.5482573108397
 30
0.0
 11
11.70438785604177
 21
533.7468893203386
 31
0.0
 12
207.2380523777773
 22
536.8013359978383
 32
0.0
 13
207.2380523777773
 23
536.8013359978383
 33
0.0
210
0.0
220
0.0
230
1.0
  0
SOLID
  5
2FC
330
2F7
100
AcDbEntity
  8
HATCH
  6
CONTINUOUS
 62
     2
100
AcDbTrace
 10
176.5986086784529
 20
551.0870502835525
 30
0.0
 11
11.70438785604177
 21
533.7468893203386
 31
0.0
 12
190.3349672832071
 22
540.5482573108397
 32
0.0
 13
190.3349672832071
 23
540.5482573108397
 33
0.0
210
0.0
220
0.0
230
1.0
  0
SOLID
  5
2FD
330
2F7
100
AcDbEntity
  8
HATCH
  6
CONTINUOUS
 62
     2
100
AcDbTrace
 10
44.07769896525588
 20
569.7030628237317
 30
0.0
 11
11.70438785604177
 21
533.7468893203386
 31
0.0
 12
176.5986086784529
 22
551.0870502835525
 32
0.0
 13
176.5986086784529
 23
551.0870502835525
 33
0.0
210
0.0
220
0.0
230
1.0
  0
SOLID
  5
2FE
330
2F7
100
AcDbEntity
  8
HATCH
  6
CONTINUOUS
 62
     2
100
AcDbTrace
 10
137.4539256444426
 20
579.5224415301478
 30
0.0
 11
44.07769896525588
 21
569.7030628237317
 31
0.0
 12
176.5986086784529
 22
551.0870502835525
 32
0.0
 13
176.5986086784529
 23
551.0870502835525
 33
0.0
210
0.0
220
0.0
230
1.0
  0
SOLID
  5
2FF
330
2F7
100
AcDbEntity
  8
HATCH
  6
CONTINUOUS
 62
     2
100
AcDbTrace
 10
89.54173660068859
 20
586.252956088162
 30
0.0
 11
44.07769896525588
 21
569.7030628237317
 31
0.0
 12
137.4539256444426
 22
579.5224415301478
 32
0.0
 13
137.4539256444426
 23
579.5224415301478
 33
0.0
210
0.0
220
0.0
230
1.0
  0
SOLID
  5
300
330
2F7
100
AcDbEntity
  8
HATCH
  6
CONTINUOUS
 62
     2
100
AcDbTrace
 10
44.07769896525585
 20
403.8996091719448
 30
0.0
 11
89.54173660068851
 21
387.3497159075144
 31
0.0
 12
137.4539256444426
 22
394.0802304655287
 32
0.0
 13
137.4539256444426
 23
394.0802304655287
 33
0.0
210
0.0
220
0.0
230
1.0
  0
SOLID
  5
301
330
2F7
100
AcDbEntity
  8
HATCH
  6
CONTINUOUS
 62
     2
100
AcDbTrace
 10
176.5986086784529
 20
422.5156217121239
 30
0.0
 11
44.07769896525585
 21
403.8996091719448
 31
0.0
 12
137.4539256444426
 22
394.0802304655287
 32
0.0
 13
137.4539256444426
 23
394.0802304655287
 33
0.0
210
0.0
220
0.0
230
1.0
  0
SOLID
  5
302
330
2F7
100
AcDbEntity
  8
HATCH
  6
CONTINUOUS
 62
     2
100
AcDbTrace
 10
190.3349672832071
 20
433.0544146848367
 30
0.0
 11
44.07769896525585
 21
403.8996091719448
 31
0.0
 12
176.5986086784529
 22
422.5156217121239
 32
0.0
 13
176.5986086784529
 23
422.5156217121239
 33
0.0
  0
SOLID
  5
303
330
2F7
100
AcDbEntity
  8
HATCH
  6
CONTINUOUS
 62
     2
100
AcDbTrace
 10
207.2380523777773
 20
436.8013359978381
 30
0.0
 11
44.07769896525585
 21
403.8996091719448
 31
0.0
 12
190.3349672832071
 22
433.0544146848367
 32
0.0
 13
190.3349672832071
 23
433.0544146848367
 33
0.0
210
0.0
220
0.0
230
1.0
  0
SOLID
  5
304
330
2F7
100
AcDbEntity
  8
HATCH
  6
CONTINUOUS
 62
     2
100
AcDbTrace
 10
11.70438785604177
 20
439.8557826753379
 30
0.0
 11
207.2380523777773
 21
436.8013359978381
 31
0.0
 12
219.0818978172714
 22
436.8013359978382
 32
0.0
 13
219.0818978172714
 23
436.8013359978382
 33
0.0
210
0.0
220
0.0
230
1.0
  0
SOLID
  5
305
330
2F7
100
AcDbEntity
  8
HATCH
  6
CONTINUOUS
 62
     2
100
AcDbTrace
 10
11.70438785604177
 20
439.8557826753379
 30
0.0
 11
44.07769896525585
 21
403.8996091719448
 31
0.0
 12
207.2380523777773
 22
436.8013359978381
 32
0.0
 13
207.2380523777773
 23
436.8013359978381
 33
0.0
  0
SOLID
  5
306
330
2F7
100
AcDbEntity
  8
HATCH
  6
CONTINUOUS
 62
     2
100
AcDbTrace
 10
11.70438785604177
 20
439.8557826753379
 30
0.0
 11
219.0818978172714
 21
486.8013359978383
 31
0.0
 12
-0.000000569858571
 22
486.8013359978383
 32
0.0
 13
-0.000000569858571
 23
486.8013359978383
 33
0.0
210
0.0
220
0.0
230
1.0
  0
SOLID
  5
307
330
2F7
100
AcDbEntity
  8
HATCH
  6
CONTINUOUS
 62
     2
100
AcDbTrace
 10
219.0818978172714
 20
486.8013359978383
 30
0.0
 11
11.70438785604177
 21
439.8557826753379
 31
0.0
 12
219.0818978172714
 22
436.8013359978382
 32
0.0
 13
219.0818978172714
 23
436.8013359978382
 33
0.0
210
0.0
220
0.0
230
1.0
  0
ENDBLK
  5
309
330
2F7
100
AcDbEntity
  8
0
 62
     5
100
AcDbBlockEnd
  0
BLOCK
  5
31E
330
311
100
AcDbEntity
  8
0
 62
     5
100
AcDbBlockBegin
  2
*U7
 70
     1
 10
0.0
 20
0.0
 30
0.0
  3
*U7
  1

  0
SOLID
  5
312
330
311
100
AcDbEntity
  8
HATCH
  6
CONTINUOUS
 62
     2
100
AcDbTrace
 10
66.89566786424274
 20
21.41964074481282
 30
0.0
 11
95.53753314268888
 21
1.261021935161515
 31
0.0
 12
130.2101785709401
 22
6.214204543166886
 32
0.0
 13
130.2101785709401
 23
6.214204543166886
 33
0.0
  0
SOLID
  5
313
330
311
100
AcDbEntity
  8
HATCH
  6
CONTINUOUS
 62
     2
100
AcDbTrace
 10
208.0490459484854
 20
55.72272181589875
 30
0.0
 11
66.89566786424274
 21
21.41964074481282
 31
0.0
 12
130.2101785709401
 22
6.214204543166886
 32
0.0
 13
130.2101785709401
 23
6.214204543166886
 33
0.0
210
0.0
220
0.0
230
1.0
  0
SOLID
  5
314
330
311
100
AcDbEntity
  8
HATCH
  6
CONTINUOUS
 62
     2
100
AcDbTrace
 10
59.85720594061934
 20
55.72979103144359
 30
0.0
 11
66.89566786424274
 21
21.41964074481282
 31
0.0
 12
208.0490459484854
 22
55.72272181589875
 32
0.0
 13
208.0490459484854
 23
55.72272181589875
 33
0.0
210
0.0
220
0.0
230
1.0
  0
SOLID
  5
315
330
311
100
AcDbEntity
  8
HATCH
  6
CONTINUOUS
 62
     2
100
AcDbTrace
 10
271.7827963489826
 20
122.4159869710146
 30
0.0
 11
59.85720594061934
 21
55.72979103144359
 31
0.0
 12
208.0490459484854
 22
55.72272181589875
 32
0.0
 13
208.0490459484854
 23
55.72272181589875
 33
0.0
210
0.0
220
0.0
230
1.0
  0
SOLID
  5
316
330
311
100
AcDbEntity
  8
HATCH
  6
CONTINUOUS
 62
     2
100
AcDbTrace
 10
81.23263311566104
 20
148.5848307003749
 30
0.0
 11
59.85720594061934
 21
55.72979103144359
 31
0.0
 12
271.7827963489826
 22
122.4159869710146
 32
0.0
 13
271.7827963489826
 23
122.4159869710146
 33
0.0
210
0.0
220
0.0
230
1.0
  0
SOLID
  5
317
330
311
100
AcDbEntity
  8
HATCH
  6
CONTINUOUS
 62
     2
100
AcDbTrace
 10
317.7096979238114
 20
202.4203760312372
 30
0.0
 11
81.23263311566104
 21
148.5848307003749
 31
0.0
 12
271.7827963489826
 22
122.4159869710146
 32
0.0
 13
271.7827963489826
 23
122.4159869710146
 33
0.0
210
0.0
220
0.0
230
1.0
  0
SOLID
  5
318
330
311
100
AcDbEntity
  8
HATCH
  6
CONTINUOUS
 62
     2
100
AcDbTrace
 10
124.8801768540409
 20
233.2834682599044
 30
0.0
 11
81.23263311566104
 21
148.5848307003749
 31
0.0
 12
317.7096979238114
 22
202.4203760312372
 32
0.0
 13
317.7096979238114
 23
202.4203760312372
 33
0.0
210
0.0
220
0.0
230
1.0
  0
SOLID
  5
319
330
311
100
AcDbEntity
  8
HATCH
  6
CONTINUOUS
 62
     2
100
AcDbTrace
 10
343.1622617334431
 20
291.0891391481326
 30
0.0
 11
124.8801768540409
 21
233.2834682599044
 31
0.0
 12
317.7096979238114
 22
202.4203760312372
 32
0.0
 13
317.7096979238114
 23
202.4203760312372
 33
0.0
  0
SOLID
  5
31A
330
311
100
AcDbEntity
  8
HATCH
  6
CONTINUOUS
 62
     2
100
AcDbTrace
 10
344.1863419901263
 20
294.6264366668902
 30
0.0
 11
124.8801768540409
 21
233.2834682599044
 31
0.0
 12
343.1622617334431
 22
291.0891391481326
 32
0.0
 13
343.1622617334431
 23
291.0891391481326
 33
0.0
210
0.0
220
0.0
230
1.0
  0
SOLID
  5
31B
330
311
100
AcDbEntity
  8
HATCH
  6
CONTINUOUS
 62
     2
100
AcDbTrace
 10
346.0414126182277
 20
297.8076199487984
 30
0.0
 11
124.8801768540409
 21
233.2834682599044
 31
0.0
 12
344.1863419901263
 22
294.6264366668902
 32
0.0
 13
344.1863419901263
 23
294.6264366668902
 33
0.0
210
0.0
220
0.0
230
1.0
  0
SOLID
  5
31C
330
311
100
AcDbEntity
  8
HATCH
  6
CONTINUOUS
 62
     2
100
AcDbTrace
 10
188.095236991304
 20
304.5773912174507
 30
0.0
 11
124.8801768540409
 21
233.2834682599044
 31
0.0
 12
346.0414126182277
 22
297.8076199487984
 32
0.0
 13
346.0414126182277
 23
297.8076199487984
 33
0.0
210
0.0
220
0.0
230
1.0
  0
SOLID
  5
31D
330
311
100
AcDbEntity
  8
HATCH
  6
CONTINUOUS
 62
     2
100
AcDbTrace
 10
266.9607211231657
 20
358.0489041143327
 30
0.0
 11
188.095236991304
 21
304.5773912174507
 31
0.0
 12
346.0414126182277
 22
297.8076199487984
 32
0.0
 13
346.0414126182277
 23
297.8076199487984
 33
0.0
210
0.0
220
0.0
230
1.0
  0
ENDBLK
  5
31F
330
311
100
AcDbEntity
  8
0
 62
     5
100
AcDbBlockEnd
  0
BLOCK
  5
339
330
32A
100
AcDbEntity
  8
0
 62
     5
100
AcDbBlockBegin
  2
*U8
 70
     1
 10
0.0
 20
0.0
 30
0.0
  3
*U8
  1

  0
SOLID
  5
32B
330
32A
100
AcDbEntity
  8
HATCH
  6
CONTINUOUS
 62
     2
100
AcDbTrace
 10
350.69874488143
 20
671.7669246800937
 30
0.0
 11
188.0952369913039
 21
669.0252807782258
 31
0.0
 12
266.9607211231656
 22
615.5537678813439
 32
0.0
 13
266.9607211231656
 23
615.5537678813439
 33
0.0
210
0.0
220
0.0
230
1.0
  0
SOLID
  5
32C
330
32A
100
AcDbEntity
  8
HATCH
  6
CONTINUOUS
 62
     2
100
AcDbTrace
 10
350.69874488143
 20
671.7669246800937
 30
0.0
 11
266.9607211231656
 21
615.5537678813439
 31
0.0
 12
271.7870161984778
 22
611.6564332448493
 32
0.0
 13
271.7870161984778
 23
611.6564332448493
 33
0.0
  0
SOLID
  5
32D
330
32A
100
AcDbEntity
  8
HATCH
  6
CONTINUOUS
 62
     2
100
AcDbTrace
 10
350.69874488143
 20
671.7669246800937
 30
0.0
 11
271.7870161984778
 21
611.6564332448493
 31
0.0
 12
274.6236339589047
 22
606.1395554046182
 32
0.0
 13
274.6236339589047
 23
606.1395554046182
 33
0.0
210
0.0
220
0.0
230
1.0
  0
SOLID
  5
32E
330
32A
100
AcDbEntity
  8
HATCH
  6
CONTINUOUS
 62
     2
100
AcDbTrace
 10
345.6926301090084
 20
676.2721213243427
 30
0.0
 11
188.0952369913039
 21
669.0252807782258
 31
0.0
 12
350.69874488143
 22
671.7669246800937
 32
0.0
 13
350.69874488143
 23
671.7669246800937
 33
0.0
210
0.0
220
0.0
230
1.0
  0
SOLID
  5
32F
330
32A
100
AcDbEntity
  8
HATCH
  6
CONTINUOUS
 62
     2
100
AcDbTrace
 10
343.1622617334431
 20
682.513532847544
 30
0.0
 11
188.0952369913039
 21
669.0252807782258
 31
0.0
 12
345.6926301090084
 22
676.2721213243427
 32
0.0
 13
345.6926301090084
 23
676.2721213243427
 33
0.0
210
0.0
220
0.0
230
1.0
  0
SOLID
  5
330
330
32A
100
AcDbEntity
  8
HATCH
  6
CONTINUOUS
 62
     2
100
AcDbTrace
 10
124.880176854041
 20
740.3192037357721
 30
0.0
 11
188.0952369913039
 21
669.0252807782258
 31
0.0
 12
343.1622617334431
 22
682.513532847544
 32
0.0
 13
343.1622617334431
 23
682.513532847544
 33
0.0
210
0.0
220
0.0
230
1.0
  0
SOLID
  5
331
330
32A
100
AcDbEntity
  8
HATCH
  6
CONTINUOUS
 62
     2
100
AcDbTrace
 10
317.7096979238112
 20
771.1822959644396
 30
0.0
 11
124.880176854041
 21
740.3192037357721
 31
0.0
 12
343.1622617334431
 22
682.513532847544
 32
0.0
 13
343.1622617334431
 23
682.513532847544
 33
0.0
210
0.0
220
0.0
230
1.0
  0
SOLID
  5
332
330
32A
100
AcDbEntity
  8
HATCH
  6
CONTINUOUS
 62
     2
100
AcDbTrace
 10
81.23263311566109
 20
825.0178412953014
 30
0.0
 11
124.880176854041
 21
740.3192037357721
 31
0.0
 12
317.7096979238112
 22
771.1822959644396
 32
0.0
 13
317.7096979238112
 23
771.1822959644396
 33
0.0
210
0.0
220
0.0
230
1.0
  0
SOLID
  5
333
330
32A
100
AcDbEntity
  8
HATCH
  6
CONTINUOUS
 62
     2
100
AcDbTrace
 10
271.7827963489823
 20
851.1866850246624
 30
0.0
 11
81.23263311566109
 21
825.0178412953014
 31
0.0
 12
317.7096979238112
 22
771.1822959644396
 32
0.0
 13
317.7096979238112
 23
771.1822959644396
 33
0.0
  0
SOLID
  5
334
330
32A
100
AcDbEntity
  8
HATCH
  6
CONTINUOUS
 62
     2
100
AcDbTrace
 10
59.85720594061939
 20
917.8728809642326
 30
0.0
 11
81.23263311566109
 21
825.0178412953014
 31
0.0
 12
271.7827963489823
 22
851.1866850246624
 32
0.0
 13
271.7827963489823
 23
851.1866850246624
 33
0.0
210
0.0
220
0.0
230
1.0
  0
SOLID
  5
335
330
32A
100
AcDbEntity
  8
HATCH
  6
CONTINUOUS
 62
     2
100
AcDbTrace
 10
208.0490459484848
 20
917.8799501797783
 30
0.0
 11
59.85720594061939
 21
917.8728809642326
 31
0.0
 12
271.7827963489823
 22
851.1866850246624
 32
0.0
 13
271.7827963489823
 23
851.1866850246624
 33
0.0
210
0.0
220
0.0
230
1.0
  0
SOLID
  5
336
330
32A
100
AcDbEntity
  8
HATCH
  6
CONTINUOUS
 62
     2
100
AcDbTrace
 10
66.89566786424236
 20
952.1830312508631
 30
0.0
 11
59.85720594061939
 21
917.8728809642326
 31
0.0
 12
208.0490459484848
 22
917.8799501797783
 32
0.0
 13
208.0490459484848
 23
917.8799501797783
 33
0.0
  0
SOLID
  5
337
330
32A
100
AcDbEntity
  8
HATCH
  6
CONTINUOUS
 62
     2
100
AcDbTrace
 10
130.2101785709392
 20
967.3884674525101
 30
0.0
 11
66.89566786424236
 21
952.1830312508631
 31
0.0
 12
208.0490459484848
 22
917.8799501797783
 32
0.0
 13
208.0490459484848
 23
917.8799501797783
 33
0.0
210
0.0
220
0.0
230
1.0
  0
SOLID
  5
338
330
32A
100
AcDbEntity
  8
HATCH
  6
CONTINUOUS
 62
     2
100
AcDbTrace
 10
95.53753314268803
 20
972.3416500605148
 30
0.0
 11
66.89566786424236
 21
952.1830312508631
 31
0.0
 12
130.2101785709392
 22
967.3884674525101
 32
0.0
 13
130.2101785709392
 23
967.3884674525101
 33
0.0
210
0.0
220
0.0
230
1.0
  0
ENDBLK
  5
33A
330
32A
100
AcDbEntity
  8
0
 62
     5
100
AcDbBlockEnd
  0
BLOCK
  5
34C
330
33E
100
AcDbEntity
  8
0
 62
     5
100
AcDbBlockBegin
  2
*U9
 70
     1
 10
0.0
 20
0.0
 30
0.0
  3
*U9
  1

  0
SOLID
  5
33F
330
33E
100
AcDbEntity
  8
HATCH
  6
CONTINUOUS
 62
     2
100
AcDbTrace
 10
673.3682282641744
 20
440.1774502969656
 30
0.0
 11
834.1866193424978
 21
421.9749437921548
 31
0.0
 12
995.8390818071396
 22
429.872255435733
 32
0.0
 13
995.8390818071396
 23
429.872255435733
 33
0.0
210
0.0
220
0.0
230
1.0
  0
SOLID
  5
340
330
33E
100
AcDbEntity
  8
HATCH
  6
CONTINUOUS
 62
     2
100
AcDbTrace
 10
669.5408314996333
 20
440.7367690553823
 30
0.0
 11
673.3682282641744
 21
440.1774502969656
 31
0.0
 12
995.8390818071396
 22
429.872255435733
 32
0.0
 13
995.8390818071396
 23
429.872255435733
 33
0.0
210
0.0
220
0.0
230
1.0
  0
SOLID
  5
341
330
33E
100
AcDbEntity
  8
HATCH
  6
CONTINUOUS
 62
     2
100
AcDbTrace
 10
665.6773064207682
 20
440.9237915987165
 30
0.0
 11
669.5408314996333
 21
440.7367690553823
 31
0.0
 12
995.8390818071396
 22
429.872255435733
 32
0.0
 13
995.8390818071396
 23
429.872255435733
 33
0.0
  0
SOLID
  5
342
330
33E
100
AcDbEntity
  8
HATCH
  6
CONTINUOUS
 62
     2
100
AcDbTrace
 10
1154.117374223464
 20
463.6637973042374
 30
0.0
 11
665.6773064207682
 21
440.9237915987165
 31
0.0
 12
995.8390818071396
 22
429.872255435733
 32
0.0
 13
995.8390818071396
 23
429.872255435733
 33
0.0
210
0.0
220
0.0
230
1.0
  0
SOLID
  5
343
330
33E
100
AcDbEntity
  8
HATCH
  6
CONTINUOUS
 62
     2
100
AcDbTrace
 10
1168.667301737638
 20
472.3175606736456
 30
0.0
 11
665.6773064207682
 21
440.9237915987165
 31
0.0
 12
1154.117374223464
 22
463.6637973042374
 32
0.0
 13
1154.117374223464
 23
463.6637973042374
 33
0.0
210
0.0
220
0.0
230
1.0
  0
SOLID
  5
344
330
33E
100
AcDbEntity
  8
HATCH
  6
CONTINUOUS
 62
     2
100
AcDbTrace
 10
1177.43133411319
 20
486.8013359978383
 30
0.0
 11
665.6773064207682
 21
440.9237915987165
 31
0.0
 12
1168.667301737638
 22
472.3175606736456
 32
0.0
 13
1168.667301737638
 23
472.3175606736456
 33
0.0
  0
SOLID
  5
345
330
33E
100
AcDbEntity
  8
HATCH
  6
CONTINUOUS
 62
     2
100
AcDbTrace
 10
1168.66730173774
 20
501.2851113219287
 30
0.0
 11
665.6773064207682
 21
440.9237915987165
 31
0.0
 12
1177.43133411319
 22
486.8013359978383
 32
0.0
 13
1177.43133411319
 23
486.8013359978383
 33
0.0
210
0.0
220
0.0
230
1.0
  0
SOLID
  5
346
330
33E
100
AcDbEntity
  8
HATCH
  6
CONTINUOUS
 62
     2
100
AcDbTrace
 10
1154.117374223742
 20
509.9388746913557
 30
0.0
 11
665.6773064207682
 21
440.9237915987165
 31
0.0
 12
1168.66730173774
 22
501.2851113219287
 32
0.0
 13
1168.66730173774
 23
501.2851113219287
 33
0.0
210
0.0
220
0.0
230
1.0
  0
SOLID
  5
347
330
33E
100
AcDbEntity
  8
HATCH
  6
CONTINUOUS
 62
     2
100
AcDbTrace
 10
665.6773064207682
 20
532.6788803969598
 30
0.0
 11
665.6773064207682
 21
440.9237915987165
 31
0.0
 12
1154.117374223742
 22
509.9388746913557
 32
0.0
 13
1154.117374223742
 23
509.9388746913557
 33
0.0
210
0.0
220
0.0
230
1.0
  0
SOLID
  5
348
330
33E
100
AcDbEntity
  8
HATCH
  6
CONTINUOUS
 62
     2
100
AcDbTrace
 10
669.5408314977414
 20
532.8659029401105
 30
0.0
 11
665.6773064207682
 21
532.6788803969598
 31
0.0
 12
1154.117374223742
 22
509.9388746913557
 32
0.0
 13
1154.117374223742
 23
509.9388746913557
 33
0.0
210
0.0
220
0.0
230
1.0
  0
SOLID
  5
349
330
33E
100
AcDbEntity
  8
HATCH
  6
CONTINUOUS
 62
     2
100
AcDbTrace
 10
673.3682282604434
 20
533.4252216979799
 30
0.0
 11
669.5408314977414
 21
532.8659029401105
 31
0.0
 12
1154.117374223742
 22
509.9388746913557
 32
0.0
 13
1154.117374223742
 23
509.9388746913557
 33
0.0
  0
SOLID
  5
34A
330
33E
100
AcDbEntity
  8
HATCH
  6
CONTINUOUS
 62
     2
100
AcDbTrace
 10
995.8390818060751
 20
543.7304165600823
 30
0.0
 11
673.3682282604434
 21
533.4252216979799
 31
0.0
 12
1154.117374223742
 22
509.9388746913557
 32
0.0
 13
1154.117374223742
 23
509.9388746913557
 33
0.0
210
0.0
220
0.0
230
1.0
  0
SOLID
  5
34B
330
33E
100
AcDbEntity
  8
HATCH
  6
CONTINUOUS
 62
     2
100
AcDbTrace
 10
834.1866193400614
 20
551.6277282034439
 30
0.0
 11
673.3682282604434
 21
533.4252216979799
 31
0.0
 12
995.8390818060751
 22
543.7304165600823
 32
0.0
 13
995.8390818060751
 23
543.7304165600823
 33
0.0
210
0.0
220
0.0
230
1.0
  0
ENDBLK
  5
34D
330
33E
100
AcDbEntity
  8
0
 62
     5
100
AcDbBlockEnd
  0
BLOCK
  5
3D2
330
34E
100
AcDbEntity
  8
0
 62
     5
100
AcDbBlockBegin
  2
*U10
 70
     1
 10
0.0
 20
0.0
 30
0.0
  3
*U10
  1

  0
SOLID
  5
34F
330
34E
100
AcDbEntity
  8
HATCH
  6
CONTINUOUS
 62
     5
100
AcDbTrace
 10
2060.640648597255
 20
1978.397086985751
 30
0.0
 11
2118.043163452019
 21
1966.979016862444
 31
0.0
 12
2175.445678306782
 22
1978.397086985751
 32
0.0
 13
2175.445678306782
 23
1978.397086985751
 33
0.0
210
0.0
220
0.0
230
1.0
  0
SOLID
  5
350
330
34E
100
AcDbEntity
  8
HATCH
  6
CONTINUOUS
 62
     5
100
AcDbTrace
 10
2224.109180630001
 20
2010.912999684462
 30
0.0
 11
2060.640648597255
 21
1978.397086985751
 31
0.0
 12
2175.445678306782
 22
1978.397086985751
 32
0.0
 13
2175.445678306782
 23
1978.397086985751
 33
0.0
210
0.0
220
0.0
230
1.0
  0
SOLID
  5
351
330
34E
100
AcDbEntity
  8
HATCH
  6
CONTINUOUS
 62
     5
100
AcDbTrace
 10
2011.977146274037
 20
2010.912999684462
 30
0.0
 11
2060.640648597255
 21
1978.397086985751
 31
0.0
 12
2224.109180630001
 22
2010.912999684462
 32
0.0
 13
2224.109180630001
 23
2010.912999684462
 33
0.0
210
0.0
220
0.0
230
1.0
  0
SOLID
  5
352
330
34E
100
AcDbEntity
  8
HATCH
  6
CONTINUOUS
 62
     5
100
AcDbTrace
 10
2118.043163452019
 20
2011.979016862444
 30
0.0
 11
2011.977146274037
 21
2010.912999684462
 31
0.0
 12
2224.109180630001
 22
2010.912999684462
 32
0.0
 13
2224.109180630001
 23
2010.912999684462
 33
0.0
210
0.0
220
0.0
230
1.0
  0
SOLID
  5
353
330
34E
100
AcDbEntity
  8
HATCH
  6
CONTINUOUS
 62
     5
100
AcDbTrace
 10
2033.854596522824
 20
2015.226548495263
 30
0.0
 11
2011.977146274037
 21
2010.912999684462
 31
0.0
 12
2118.043163452019
 22
2011.979016862444
 32
0.0
 13
2118.043163452019
 23
2011.979016862444
 33
0.0
210
0.0
220
0.0
230
1.0
  0
SOLID
  5
354
330
34E
100
AcDbEntity
  8
HATCH
  6
CONTINUOUS
 62
     5
100
AcDbTrace
 10
2029.611955835704
 20
2016.983907808143
 30
0.0
 11
2011.977146274037
 21
2010.912999684462
 31
0.0
 12
2033.854596522824
 22
2015.226548495263
 32
0.0
 13
2033.854596522824
 23
2015.226548495263
 33
0.0
210
0.0
220
0.0
230
1.0
  0
SOLID
  5
355
330
34E
100
AcDbEntity
  8
HATCH
  6
CONTINUOUS
 62
     5
100
AcDbTrace
 10
2038.097237209943
 20
2016.983907808143
 30
0.0
 11
2033.854596522824
 21
2015.226548495263
 31
0.0
 12
2118.043163452019
 22
2011.979016862444
 32
0.0
 13
2118.043163452019
 23
2011.979016862444
 33
0.0
210
0.0
220
0.0
230
1.0
  0
SOLID
  5
356
330
34E
100
AcDbEntity
  8
HATCH
  6
CONTINUOUS
 62
     5
100
AcDbTrace
 10
2204.437006524646
 20
2017.211464483474
 30
0.0
 11
2118.043163452019
 21
2011.979016862444
 31
0.0
 12
2224.109180630001
 22
2010.912999684462
 32
0.0
 13
2224.109180630001
 23
2010.912999684462
 33
0.0
210
0.0
220
0.0
230
1.0
  0
SOLID
  5
357
330
34E
100
AcDbEntity
  8
HATCH
  6
CONTINUOUS
 62
     5
100
AcDbTrace
 10
2200.194365837527
 20
2018.968823796356
 30
0.0
 11
2118.043163452019
 21
2011.979016862444
 31
0.0
 12
2204.437006524646
 22
2017.211464483474
 32
0.0
 13
2204.437006524646
 23
2017.211464483474
 33
0.0
210
0.0
220
0.0
230
1.0
  0
SOLID
  5
358
330
34E
100
AcDbEntity
  8
HATCH
  6
CONTINUOUS
 62
     5
100
AcDbTrace
 10
2208.679647211765
 20
2018.968823796356
 30
0.0
 11
2204.437006524646
 21
2017.211464483474
 31
0.0
 12
2224.109180630001
 22
2010.912999684462
 32
0.0
 13
2224.109180630001
 23
2010.912999684462
 33
0.0
  0
SOLID
  5
359
330
34E
100
AcDbEntity
  8
HATCH
  6
CONTINUOUS
 62
     5
100
AcDbTrace
 10
2027.854596522824
 20
2021.226548495263
 30
0.0
 11
2011.977146274037
 21
2010.912999684462
 31
0.0
 12
2029.611955835704
 22
2016.983907808143
 32
0.0
 13
2029.611955835704
 23
2016.983907808143
 33
0.0
210
0.0
220
0.0
230
1.0
  0
SOLID
  5
35A
330
34E
100
AcDbEntity
  8
HATCH
  6
CONTINUOUS
 62
     5
100
AcDbTrace
 10
2039.854596522824
 20
2021.226548495263
 30
0.0
 11
2038.097237209943
 21
2016.983907808143
 31
0.0
 12
2118.043163452019
 22
2011.979016862444
 32
0.0
 13
2118.043163452019
 23
2011.979016862444
 33
0.0
  0
SOLID
  5
35B
330
34E
100
AcDbEntity
  8
HATCH
  6
CONTINUOUS
 62
     5
100
AcDbTrace
 10
2198.437006524646
 20
2023.211464483475
 30
0.0
 11
2118.043163452019
 21
2011.979016862444
 31
0.0
 12
2200.194365837527
 22
2018.968823796356
 32
0.0
 13
2200.194365837527
 23
2018.968823796356
 33
0.0
210
0.0
220
0.0
230
1.0
  0
SOLID
  5
35C
330
34E
100
AcDbEntity
  8
HATCH
  6
CONTINUOUS
 62
     5
100
AcDbTrace
 10
2210.437006524646
 20
2023.211464483475
 30
0.0
 11
2208.679647211765
 21
2018.968823796356
 31
0.0
 12
2224.109180630001
 22
2010.912999684462
 32
0.0
 13
2224.109180630001
 23
2010.912999684462
 33
0.0
  0
SOLID
  5
35D
330
34E
100
AcDbEntity
  8
HATCH
  6
CONTINUOUS
 62
     5
100
AcDbTrace
 10
2029.611955835704
 20
2025.469189182382
 30
0.0
 11
2011.977146274037
 21
2010.912999684462
 31
0.0
 12
2027.854596522824
 22
2021.226548495263
 32
0.0
 13
2027.854596522824
 23
2021.226548495263
 33
0.0
  0
SOLID
  5
35E
330
34E
100
AcDbEntity
  8
HATCH
  6
CONTINUOUS
 62
     5
100
AcDbTrace
 10
2038.097237209943
 20
2025.469189182382
 30
0.0
 11
2039.854596522824
 21
2021.226548495263
 31
0.0
 12
2118.043163452019
 22
2011.979016862444
 32
0.0
 13
2118.043163452019
 23
2011.979016862444
 33
0.0
210
0.0
220
0.0
230
1.0
  0
SOLID
  5
35F
330
34E
100
AcDbEntity
  8
HATCH
  6
CONTINUOUS
 62
     5
100
AcDbTrace
 10
2065.543163452019
 20
2026.046349465078
 30
0.0
 11
2038.097237209943
 21
2025.469189182382
 31
0.0
 12
2118.043163452019
 22
2011.979016862444
 32
0.0
 13
2118.043163452019
 23
2011.979016862444
 33
0.0
210
0.0
220
0.0
230
1.0
  0
SOLID
  5
360
330
34E
100
AcDbEntity
  8
HATCH
  6
CONTINUOUS
 62
     5
100
AcDbTrace
 10
2170.543163452019
 20
2026.046349465078
 30
0.0
 11
2118.043163452019
 21
2011.979016862444
 31
0.0
 12
2198.437006524646
 22
2023.211464483475
 32
0.0
 13
2198.437006524646
 23
2023.211464483475
 33
0.0
  0
SOLID
  5
361
330
34E
100
AcDbEntity
  8
HATCH
  6
CONTINUOUS
 62
     5
100
AcDbTrace
 10
2033.854596522824
 20
2027.226548495263
 30
0.0
 11
2038.097237209943
 21
2025.469189182382
 31
0.0
 12
2065.543163452019
 22
2026.046349465078
 32
0.0
 13
2065.543163452019
 23
2026.046349465078
 33
0.0
210
0.0
220
0.0
230
1.0
  0
SOLID
  5
362
330
34E
100
AcDbEntity
  8
HATCH
  6
CONTINUOUS
 62
     5
100
AcDbTrace
 10
2200.194365837527
 20
2027.454105170594
 30
0.0
 11
2170.543163452019
 21
2026.046349465078
 31
0.0
 12
2198.437006524646
 22
2023.211464483475
 32
0.0
 13
2198.437006524646
 23
2023.211464483475
 33
0.0
210
0.0
220
0.0
230
1.0
  0
SOLID
  5
363
330
34E
100
AcDbEntity
  8
HATCH
  6
CONTINUOUS
 62
     5
100
AcDbTrace
 10
2208.679647211765
 20
2027.454105170594
 30
0.0
 11
2210.437006524646
 21
2023.211464483475
 31
0.0
 12
2224.109180630001
 22
2010.912999684462
 32
0.0
 13
2224.109180630001
 23
2010.912999684462
 33
0.0
210
0.0
220
0.0
230
1.0
  0
SOLID
  5
364
330
34E
100
AcDbEntity
  8
HATCH
  6
CONTINUOUS
 62
     5
100
AcDbTrace
 10
2204.437006524646
 20
2029.211464483475
 30
0.0
 11
2170.543163452019
 21
2026.046349465078
 31
0.0
 12
2200.194365837527
 22
2027.454105170594
 32
0.0
 13
2200.194365837527
 23
2027.454105170594
 33
0.0
210
0.0
220
0.0
230
1.0
  0
SOLID
  5
365
330
34E
100
AcDbEntity
  8
HATCH
  6
CONTINUOUS
 62
     5
100
AcDbTrace
 10
2256.625093328711
 20
2059.576502007681
 30
0.0
 11
2204.437006524646
 21
2029.211464483475
 31
0.0
 12
2208.679647211765
 22
2027.454105170594
 32
0.0
 13
2208.679647211765
 23
2027.454105170594
 33
0.0
210
0.0
220
0.0
230
1.0
  0
SOLID
  5
366
330
34E
100
AcDbEntity
  8
HATCH
  6
CONTINUOUS
 62
     5
100
AcDbTrace
 10
2256.625093328711
 20
2059.576502007681
 30
0.0
 11
2208.679647211765
 21
2027.454105170594
 31
0.0
 12
2224.109180630001
 22
2010.912999684462
 32
0.0
 13
2224.109180630001
 23
2010.912999684462
 33
0.0
  0
SOLID
  5
367
330
34E
100
AcDbEntity
  8
HATCH
  6
CONTINUOUS
 62
     5
100
AcDbTrace
 10
1979.461233575326
 20
2059.576502007681
 30
0.0
 11
2029.611955835704
 21
2025.469189182382
 31
0.0
 12
2033.854596522824
 22
2027.226548495263
 32
0.0
 13
2033.854596522824
 23
2027.226548495263
 33
0.0
210
0.0
220
0.0
230
1.0
  0
SOLID
  5
368
330
34E
100
AcDbEntity
  8
HATCH
  6
CONTINUOUS
 62
     5
100
AcDbTrace
 10
1979.461233575326
 20
2059.576502007681
 30
0.0
 11
2011.977146274037
 21
2010.912999684462
 31
0.0
 12
2029.611955835704
 22
2025.469189182382
 32
0.0
 13
2029.611955835704
 23
2025.469189182382
 33
0.0
  0
SOLID
  5
369
330
34E
100
AcDbEntity
  8
HATCH
  6
CONTINUOUS
 62
     5
100
AcDbTrace
 10
2027.110496054653
 20
2064.479016862443
 30
0.0
 11
1979.461233575326
 21
2059.576502007681
 31
0.0
 12
2033.854596522824
 22
2027.226548495263
 32
0.0
 13
2033.854596522824
 23
2027.226548495263
 33
0.0
210
0.0
220
0.0
230
1.0
  0
SOLID
  5
36A
330
34E
100
AcDbEntity
  8
HATCH
  6
CONTINUOUS
 62
     5
100
AcDbTrace
 10
2027.110496054653
 20
2064.479016862443
 30
0.0
 11
2033.854596522824
 21
2027.226548495263
 31
0.0
 12
2065.543163452019
 22
2026.046349465078
 32
0.0
 13
2065.543163452019
 23
2026.046349465078
 33
0.0
210
0.0
220
0.0
230
1.0
  0
SOLID
  5
36B
330
34E
100
AcDbEntity
  8
HATCH
  6
CONTINUOUS
 62
     5
100
AcDbTrace
 10
2208.975830849385
 20
2064.479016862443
 30
0.0
 11
2204.437006524646
 21
2029.211464483475
 31
0.0
 12
2256.625093328711
 22
2059.576502007681
 32
0.0
 13
2256.625093328711
 23
2059.576502007681
 33
0.0
210
0.0
220
0.0
230
1.0
  0
SOLID
  5
36C
330
34E
100
AcDbEntity
  8
HATCH
  6
CONTINUOUS
 62
     5
100
AcDbTrace
 10
2208.975830849385
 20
2064.479016862443
 30
0.0
 11
2170.543163452019
 21
2026.046349465078
 31
0.0
 12
2204.437006524646
 22
2029.211464483475
 32
0.0
 13
2204.437006524646
 23
2029.211464483475
 33
0.0
210
0.0
220
0.0
230
1.0
  0
SOLID
  5
36D
330
34E
100
AcDbEntity
  8
HATCH
  6
CONTINUOUS
 62
     5
100
AcDbTrace
 10
1874.207959908344
 20
2108.206600696813
 30
0.0
 11
1679.475310034067
 21
2107.979016862445
 31
0.0
 12
1873.056881775266
 22
2107.979016862445
 32
0.0
 13
1873.056881775266
 23
2107.979016862445
 33
0.0
210
0.0
220
0.0
230
1.0
  0
SOLID
  5
36E
330
34E
100
AcDbEntity
  8
HATCH
  6
CONTINUOUS
 62
     5
100
AcDbTrace
 10
2851.396181777193
 20
2108.206955372533
 30
0.0
 11
2850.05268236669
 21
2107.979016862445
 31
0.0
 12
2850.24915296511
 22
2107.979016862445
 32
0.0
 13
2850.24915296511
 23
2107.979016862445
 33
0.0
210
0.0
220
0.0
230
1.0
  0
SOLID
  5
36F
330
34E
100
AcDbEntity
  8
HATCH
  6
CONTINUOUS
 62
     5
100
AcDbTrace
 10
2851.396181777193
 20
2108.206955372533
 30
0.0
 11
2849.49462527373
 21
2107.979016862445
 31
0.0
 12
2850.05268236669
 22
2107.979016862445
 32
0.0
 13
2850.05268236669
 23
2107.979016862445
 33
0.0
  0
SOLID
  5
370
330
34E
100
AcDbEntity
  8
HATCH
  6
CONTINUOUS
 62
     5
100
AcDbTrace
 10
2851.396181777193
 20
2108.206955372533
 30
0.0
 11
2848.639773396898
 21
2107.979016862445
 31
0.0
 12
2849.49462527373
 22
2107.979016862445
 32
0.0
 13
2849.49462527373
 23
2107.979016862445
 33
0.0
210
0.0
220
0.0
230
1.0
  0
SOLID
  5
371
330
34E
100
AcDbEntity
  8
HATCH
  6
CONTINUOUS
 62
     5
100
AcDbTrace
 10
2851.396181777193
 20
2108.206955372533
 30
0.0
 11
2847.549235702672
 21
2107.979016862445
 31
0.0
 12
2848.639773396898
 22
2107.979016862445
 32
0.0
 13
2848.639773396898
 23
2107.979016862445
 33
0.0
210
0.0
220
0.0
230
1.0
  0
SOLID
  5
372
330
34E
100
AcDbEntity
  8
HATCH
  6
CONTINUOUS
 62
     5
100
AcDbTrace
 10
2851.396181777193
 20
2108.206955372533
 30
0.0
 11
2844.884777853973
 21
2107.979016862445
 31
0.0
 12
2847.549235702672
 22
2107.979016862445
 32
0.0
 13
2847.549235702672
 23
2107.979016862445
 33
0.0
210
0.0
220
0.0
230
1.0
  0
SOLID
  5
373
330
34E
100
AcDbEntity
  8
HATCH
  6
CONTINUOUS
 62
     5
100
AcDbTrace
 10
2851.396181777193
 20
2108.206955372533
 30
0.0
 11
2841.813391917051
 21
2107.979016862445
 31
0.0
 12
2844.884777853973
 22
2107.979016862445
 32
0.0
 13
2844.884777853973
 23
2107.979016862445
 33
0.0
210
0.0
220
0.0
230
1.0
  0
SOLID
  5
374
330
34E
100
AcDbEntity
  8
HATCH
  6
CONTINUOUS
 62
     5
100
AcDbTrace
 10
2851.396181777193
 20
2108.206955372533
 30
0.0
 11
2834.943811519067
 21
2107.979016862445
 31
0.0
 12
2841.813391917051
 22
2107.979016862445
 32
0.0
 13
2841.813391917051
 23
2107.979016862445
 33
0.0
210
0.0
220
0.0
230
1.0
  0
SOLID
  5
375
330
34E
100
AcDbEntity
  8
HATCH
  6
CONTINUOUS
 62
     5
100
AcDbTrace
 10
2851.396181777193
 20
2108.206955372533
 30
0.0
 11
2827.599596932396
 21
2107.979016862445
 31
0.0
 12
2834.943811519067
 22
2107.979016862445
 32
0.0
 13
2834.943811519067
 23
2107.979016862445
 33
0.0
210
0.0
220
0.0
230
1.0
  0
SOLID
  5
376
330
34E
100
AcDbEntity
  8
HATCH
  6
CONTINUOUS
 62
     5
100
AcDbTrace
 10
2851.396181777193
 20
2108.206955372533
 30
0.0
 11
2812.184637451281
 21
2107.979016862445
 31
0.0
 12
2827.599596932396
 22
2107.979016862445
 32
0.0
 13
2827.599596932396
 23
2107.979016862445
 33
0.0
210
0.0
220
0.0
230
1.0
  0
SOLID
  5
377
330
34E
100
AcDbEntity
  8
HATCH
  6
CONTINUOUS
 62
     5
100
AcDbTrace
 10
2851.396181777193
 20
2108.206955372533
 30
0.0
 11
2796.184180362415
 21
2107.979016862445
 31
0.0
 12
2812.184637451281
 22
2107.979016862445
 32
0.0
 13
2812.184637451281
 23
2107.979016862445
 33
0.0
210
0.0
220
0.0
230
1.0
  0
SOLID
  5
378
330
34E
100
AcDbEntity
  8
HATCH
  6
CONTINUOUS
 62
     5
100
AcDbTrace
 10
2851.396181777193
 20
2108.206955372533
 30
0.0
 11
2779.781101247194
 21
2107.979016862445
 31
0.0
 12
2796.184180362415
 22
2107.979016862445
 32
0.0
 13
2796.184180362415
 23
2107.979016862445
 33
0.0
210
0.0
220
0.0
230
1.0
  0
SOLID
  5
379
330
34E
100
AcDbEntity
  8
HATCH
  6
CONTINUOUS
 62
     5
100
AcDbTrace
 10
2851.396181777193
 20
2108.206955372533
 30
0.0
 11
2763.137152424754
 21
2107.979016862445
 31
0.0
 12
2779.781101247194
 22
2107.979016862445
 32
0.0
 13
2779.781101247194
 23
2107.979016862445
 33
0.0
210
0.0
220
0.0
230
1.0
  0
SOLID
  5
37A
330
34E
100
AcDbEntity
  8
HATCH
  6
CONTINUOUS
 62
     5
100
AcDbTrace
 10
2851.396181777193
 20
2108.206955372533
 30
0.0
 11
2729.75081408884
 21
2107.979016862445
 31
0.0
 12
2763.137152424754
 22
2107.979016862445
 32
0.0
 13
2763.137152424754
 23
2107.979016862445
 33
0.0
  0
SOLID
  5
37B
330
34E
100
AcDbEntity
  8
HATCH
  6
CONTINUOUS
 62
     5
100
AcDbTrace
 10
2851.396181777193
 20
2108.206955372533
 30
0.0
 11
2662.592009009048
 21
2107.979016862445
 31
0.0
 12
2729.75081408884
 22
2107.979016862445
 32
0.0
 13
2729.75081408884
 23
2107.979016862445
 33
0.0
210
0.0
220
0.0
230
1.0
  0
SOLID
  5
37C
330
34E
100
AcDbEntity
  8
HATCH
  6
CONTINUOUS
 62
     5
100
AcDbTrace
 10
2851.396181777193
 20
2108.206955372533
 30
0.0
 11
2594.925261120983
 21
2107.979016862445
 31
0.0
 12
2662.592009009048
 22
2107.979016862445
 32
0.0
 13
2662.592009009048
 23
2107.979016862445
 33
0.0
210
0.0
220
0.0
230
1.0
  0
SOLID
  5
37D
330
34E
100
AcDbEntity
  8
HATCH
  6
CONTINUOUS
 62
     5
100
AcDbTrace
 10
2851.396181777193
 20
2108.206955372533
 30
0.0
 11
2458.821010073853
 21
2107.979016862445
 31
0.0
 12
2594.925261120983
 22
2107.979016862445
 32
0.0
 13
2594.925261120983
 23
2107.979016862445
 33
0.0
210
0.0
220
0.0
230
1.0
  0
SOLID
  5
37E
330
34E
100
AcDbEntity
  8
HATCH
  6
CONTINUOUS
 62
     5
100
AcDbTrace
 10
2851.396181777193
 20
2108.206955372533
 30
0.0
 11
2390.700529554864
 21
2107.979016862445
 31
0.0
 12
2458.821010073853
 22
2107.979016862445
 32
0.0
 13
2458.821010073853
 23
2107.979016862445
 33
0.0
210
0.0
220
0.0
230
1.0
  0
SOLID
  5
37F
330
34E
100
AcDbEntity
  8
HATCH
  6
CONTINUOUS
 62
     5
100
AcDbTrace
 10
2851.396181777193
 20
2108.206955372533
 30
0.0
 11
2322.831294938779
 21
2107.979016862445
 31
0.0
 12
2390.700529554864
 22
2107.979016862445
 32
0.0
 13
2390.700529554864
 23
2107.979016862445
 33
0.0
  0
SOLID
  5
380
330
34E
100
AcDbEntity
  8
HATCH
  6
CONTINUOUS
 62
     5
100
AcDbTrace
 10
2851.396181777193
 20
2108.206955372533
 30
0.0
 11
2279.431864803787
 21
2107.979016862445
 31
0.0
 12
2322.831294938779
 22
2107.979016862445
 32
0.0
 13
2322.831294938779
 23
2107.979016862445
 33
0.0
210
0.0
220
0.0
230
1.0
  0
SOLID
  5
381
330
34E
100
AcDbEntity
  8
HATCH
  6
CONTINUOUS
 62
     5
100
AcDbTrace
 10
1875.185173637949
 20
2108.855686282113
 30
0.0
 11
1679.475310034067
 21
2107.979016862445
 31
0.0
 12
1874.207959908344
 22
2108.206600696813
 32
0.0
 13
1874.207959908344
 23
2108.206600696813
 33
0.0
210
0.0
220
0.0
230
1.0
  0
SOLID
  5
382
330
34E
100
AcDbEntity
  8
HATCH
  6
CONTINUOUS
 62
     5
100
AcDbTrace
 10
2852.369008982423
 20
2108.856233202752
 30
0.0
 11
2279.431864803787
 21
2107.979016862445
 31
0.0
 12
2851.396181777193
 22
2108.206955372533
 32
0.0
 13
2851.396181777193
 23
2108.206955372533
 33
0.0
210
0.0
220
0.0
230
1.0
  0
SOLID
  5
383
330
34E
100
AcDbEntity
  8
HATCH
  6
CONTINUOUS
 62
     5
100
AcDbTrace
 10
2277.310544460223
 20
2108.857696518885
 30
0.0
 11
2279.431864803787
 21
2107.979016862445
 31
0.0
 12
2852.369008982423
 22
2108.856233202752
 32
0.0
 13
2852.369008982423
 23
2108.856233202752
 33
0.0
210
0.0
220
0.0
230
1.0
  0
SOLID
  5
384
330
34E
100
AcDbEntity
  8
HATCH
  6
CONTINUOUS
 62
     5
100
AcDbTrace
 10
1677.353989690507
 20
2108.857696518885
 30
0.0
 11
1679.475310034067
 21
2107.979016862445
 31
0.0
 12
1875.185173637949
 22
2108.855686282113
 32
0.0
 13
1875.185173637949
 23
2108.855686282113
 33
0.0
210
0.0
220
0.0
230
1.0
  0
SOLID
  5
385
330
34E
100
AcDbEntity
  8
HATCH
  6
CONTINUOUS
 62
     5
100
AcDbTrace
 10
1875.839427319016
 20
2109.829128910559
 30
0.0
 11
1677.353989690507
 21
2108.857696518885
 31
0.0
 12
1875.185173637949
 22
2108.855686282113
 32
0.0
 13
1875.185173637949
 23
2108.855686282113
 33
0.0
  0
SOLID
  5
386
330
34E
100
AcDbEntity
  8
HATCH
  6
CONTINUOUS
 62
     5
100
AcDbTrace
 10
2853.020396019815
 20
2109.830012413894
 30
0.0
 11
2277.310544460223
 21
2108.857696518885
 31
0.0
 12
2852.369008982423
 22
2108.856233202752
 32
0.0
 13
2852.369008982423
 23
2108.856233202752
 33
0.0
  0
SOLID
  5
387
330
34E
100
AcDbEntity
  8
HATCH
  6
CONTINUOUS
 62
     5
100
AcDbTrace
 10
2853.249152965111
 20
2110.979016862445
 30
0.0
 11
2277.310544460223
 21
2108.857696518885
 31
0.0
 12
2853.020396019815
 22
2109.830012413894
 32
0.0
 13
2853.020396019815
 23
2109.830012413894
 33
0.0
210
0.0
220
0.0
230
1.0
  0
SOLID
  5
388
330
34E
100
AcDbEntity
  8
HATCH
  6
CONTINUOUS
 62
     5
100
AcDbTrace
 10
1676.475310034068
 20
2110.979016862446
 30
0.0
 11
1677.353989690507
 21
2108.857696518885
 31
0.0
 12
1875.839427319016
 22
2109.829128910559
 32
0.0
 13
1875.839427319016
 23
2109.829128910559
 33
0.0
210
0.0
220
0.0
230
1.0
  0
SOLID
  5
389
330
34E
100
AcDbEntity
  8
HATCH
  6
CONTINUOUS
 62
     5
100
AcDbTrace
 10
2276.431864803777
 20
2110.979016862446
 30
0.0
 11
2277.310544460223
 21
2108.857696518885
 31
0.0
 12
2853.249152965111
 22
2110.979016862445
 32
0.0
 13
2853.249152965111
 23
2110.979016862445
 33
0.0
  0
SOLID
  5
38A
330
34E
100
AcDbEntity
  8
HATCH
  6
CONTINUOUS
 62
     5
100
AcDbTrace
 10
1876.06948657065
 20
2110.979016862446
 30
0.0
 11
1676.475310034068
 21
2110.979016862446
 31
0.0
 12
1875.839427319016
 22
2109.829128910559
 32
0.0
 13
1875.839427319016
 23
2109.829128910559
 33
0.0
210
0.0
220
0.0
230
1.0
  0
SOLID
  5
38B
330
34E
100
AcDbEntity
  8
HATCH
  6
CONTINUOUS
 62
     5
100
AcDbTrace
 10
2013.043163452019
 20
2116.979016862444
 30
0.0
 11
1979.461233575326
 21
2059.576502007681
 31
0.0
 12
2027.110496054653
 22
2064.479016862443
 32
0.0
 13
2027.110496054653
 23
2064.479016862443
 33
0.0
210
0.0
220
0.0
230
1.0
  0
SOLID
  5
38C
330
34E
100
AcDbEntity
  8
HATCH
  6
CONTINUOUS
 62
     5
100
AcDbTrace
 10
2268.043163452019
 20
2116.979016862444
 30
0.0
 11
2208.975830849385
 21
2064.479016862443
 31
0.0
 12
2256.625093328711
 22
2059.576502007681
 32
0.0
 13
2256.625093328711
 23
2059.576502007681
 33
0.0
210
0.0
220
0.0
230
1.0
  0
SOLID
  5
38D
330
34E
100
AcDbEntity
  8
HATCH
  6
CONTINUOUS
 62
     5
100
AcDbTrace
 10
1968.043163452019
 20
2116.979016862444
 30
0.0
 11
1979.461233575326
 21
2059.576502007681
 31
0.0
 12
2013.043163452019
 22
2116.979016862444
 32
0.0
 13
2013.043163452019
 23
2116.979016862444
 33
0.0
210
0.0
220
0.0
230
1.0
  0
SOLID
  5
38E
330
34E
100
AcDbEntity
  8
HATCH
  6
CONTINUOUS
 62
     5
100
AcDbTrace
 10
2223.043163452019
 20
2116.979016862444
 30
0.0
 11
2208.975830849385
 21
2064.479016862443
 31
0.0
 12
2268.043163452019
 22
2116.979016862444
 32
0.0
 13
2268.043163452019
 23
2116.979016862444
 33
0.0
210
0.0
220
0.0
230
1.0
  0
SOLID
  5
38F
330
34E
100
AcDbEntity
  8
HATCH
  6
CONTINUOUS
 62
     5
100
AcDbTrace
 10
2853.249152965111
 20
2122.979016862446
 30
0.0
 11
2276.431864803777
 21
2110.979016862446
 31
0.0
 12
2853.249152965111
 22
2110.979016862445
 32
0.0
 13
2853.249152965111
 23
2110.979016862445
 33
0.0
210
0.0
220
0.0
230
1.0
  0
SOLID
  5
390
330
34E
100
AcDbEntity
  8
HATCH
  6
CONTINUOUS
 62
     5
100
AcDbTrace
 10
1876.06948657065
 20
2122.979016862446
 30
0.0
 11
1676.475310034068
 21
2110.979016862446
 31
0.0
 12
1876.06948657065
 22
2110.979016862446
 32
0.0
 13
1876.06948657065
 23
2110.979016862446
 33
0.0
210
0.0
220
0.0
230
1.0
  0
SOLID
  5
391
330
34E
100
AcDbEntity
  8
HATCH
  6
CONTINUOUS
 62
     5
100
AcDbTrace
 10
1676.475310034068
 20
2122.979016862446
 30
0.0
 11
1676.475310034068
 21
2110.979016862446
 31
0.0
 12
1876.06948657065
 22
2122.979016862446
 32
0.0
 13
1876.06948657065
 23
2122.979016862446
 33
0.0
210
0.0
220
0.0
230
1.0
  0
SOLID
  5
392
330
34E
100
AcDbEntity
  8
HATCH
  6
CONTINUOUS
 62
     5
100
AcDbTrace
 10
2276.431864803778
 20
2122.979016862446
 30
0.0
 11
2276.431864803777
 21
2110.979016862446
 31
0.0
 12
2853.249152965111
 22
2122.979016862446
 32
0.0
 13
2853.249152965111
 23
2122.979016862446
 33
0.0
210
0.0
220
0.0
230
1.0
  0
SOLID
  5
393
330
34E
100
AcDbEntity
  8
HATCH
  6
CONTINUOUS
 62
     5
100
AcDbTrace
 10
2853.021047386309
 20
2124.126449351737
 30
0.0
 11
2276.431864803778
 21
2122.979016862446
 31
0.0
 12
2853.249152965111
 22
2122.979016862446
 32
0.0
 13
2853.249152965111
 23
2122.979016862446
 33
0.0
210
0.0
220
0.0
230
1.0
  0
SOLID
  5
394
330
34E
100
AcDbEntity
  8
HATCH
  6
CONTINUOUS
 62
     5
100
AcDbTrace
 10
1875.839427319016
 20
2124.128904814329
 30
0.0
 11
1676.475310034068
 21
2122.979016862446
 31
0.0
 12
1876.06948657065
 22
2122.979016862446
 32
0.0
 13
1876.06948657065
 23
2122.979016862446
 33
0.0
  0
SOLID
  5
395
330
34E
100
AcDbEntity
  8
HATCH
  6
CONTINUOUS
 62
     5
100
AcDbTrace
 10
2852.371419707509
 20
2125.099390384325
 30
0.0
 11
2276.431864803778
 21
2122.979016862446
 31
0.0
 12
2853.021047386309
 22
2124.126449351737
 32
0.0
 13
2853.021047386309
 23
2124.126449351737
 33
0.0
210
0.0
220
0.0
230
1.0
  0
SOLID
  5
396
330
34E
100
AcDbEntity
  8
HATCH
  6
CONTINUOUS
 62
     5
100
AcDbTrace
 10
1677.353989690507
 20
2125.100337206005
 30
0.0
 11
1676.475310034068
 21
2122.979016862446
 31
0.0
 12
1875.839427319016
 22
2124.128904814329
 32
0.0
 13
1875.839427319016
 23
2124.128904814329
 33
0.0
210
0.0
220
0.0
230
1.0
  0
SOLID
  5
397
330
34E
100
AcDbEntity
  8
HATCH
  6
CONTINUOUS
 62
     5
100
AcDbTrace
 10
2277.310544460222
 20
2125.100337206009
 30
0.0
 11
2276.431864803778
 21
2122.979016862446
 31
0.0
 12
2852.371419707509
 22
2125.099390384325
 32
0.0
 13
2852.371419707509
 23
2125.099390384325
 33
0.0
210
0.0
220
0.0
230
1.0
  0
SOLID
  5
398
330
34E
100
AcDbEntity
  8
HATCH
  6
CONTINUOUS
 62
     5
100
AcDbTrace
 10
1875.185173637949
 20
2125.102347442775
 30
0.0
 11
1677.353989690507
 21
2125.100337206005
 31
0.0
 12
1875.839427319016
 22
2124.128904814329
 32
0.0
 13
1875.839427319016
 23
2124.128904814329
 33
0.0
  0
SOLID
  5
399
330
34E
100
AcDbEntity
  8
HATCH
  6
CONTINUOUS
 62
     5
100
AcDbTrace
 10
2851.399057286958
 20
2125.749886770945
 30
0.0
 11
2277.310544460222
 21
2125.100337206009
 31
0.0
 12
2852.371419707509
 22
2125.099390384325
 32
0.0
 13
2852.371419707509
 23
2125.099390384325
 33
0.0
  0
SOLID
  5
39A
330
34E
100
AcDbEntity
  8
HATCH
  6
CONTINUOUS
 62
     5
100
AcDbTrace
 10
1874.207959908344
 20
2125.751433028076
 30
0.0
 11
1677.353989690507
 21
2125.100337206005
 31
0.0
 12
1875.185173637949
 22
2125.102347442775
 32
0.0
 13
1875.185173637949
 23
2125.102347442775
 33
0.0
210
0.0
220
0.0
230
1.0
  0
SOLID
  5
39B
330
34E
100
AcDbEntity
  8
HATCH
  6
CONTINUOUS
 62
     5
100
AcDbTrace
 10
2851.399057286958
 20
2125.749886770945
 30
0.0
 11
2849.801271073898
 21
2125.979016862446
 31
0.0
 12
2849.084436954878
 22
2125.979016862446
 32
0.0
 13
2849.084436954878
 23
2125.979016862446
 33
0.0
210
0.0
220
0.0
230
1.0
  0
SOLID
  5
39C
330
34E
100
AcDbEntity
  8
HATCH
  6
CONTINUOUS
 62
     5
100
AcDbTrace
 10
2851.399057286958
 20
2125.749886770945
 30
0.0
 11
2849.084436954878
 21
2125.979016862446
 31
0.0
 12
2848.106327296076
 22
2125.979016862446
 32
0.0
 13
2848.106327296076
 23
2125.979016862446
 33
0.0
210
0.0
220
0.0
230
1.0
  0
SOLID
  5
39D
330
34E
100
AcDbEntity
  8
HATCH
  6
CONTINUOUS
 62
     5
100
AcDbTrace
 10
2851.399057286958
 20
2125.749886770945
 30
0.0
 11
2848.106327296076
 21
2125.979016862446
 31
0.0
 12
2845.596058522307
 22
2125.979016862446
 32
0.0
 13
2845.596058522307
 23
2125.979016862446
 33
0.0
210
0.0
220
0.0
230
1.0
  0
SOLID
  5
39E
330
34E
100
AcDbEntity
  8
HATCH
  6
CONTINUOUS
 62
     5
100
AcDbTrace
 10
2851.399057286958
 20
2125.749886770945
 30
0.0
 11
2845.596058522307
 21
2125.979016862446
 31
0.0
 12
2842.62935731789
 22
2125.979016862446
 32
0.0
 13
2842.62935731789
 23
2125.979016862446
 33
0.0
  0
SOLID
  5
39F
330
34E
100
AcDbEntity
  8
HATCH
  6
CONTINUOUS
 62
     5
100
AcDbTrace
 10
2851.399057286958
 20
2125.749886770945
 30
0.0
 11
2842.62935731789
 21
2125.979016862446
 31
0.0
 12
2839.362791124041
 22
2125.979016862446
 32
0.0
 13
2839.362791124041
 23
2125.979016862446
 33
0.0
210
0.0
220
0.0
230
1.0
  0
SOLID
  5
3A0
330
34E
100
AcDbEntity
  8
HATCH
  6
CONTINUOUS
 62
     5
100
AcDbTrace
 10
2851.399057286958
 20
2125.749886770945
 30
0.0
 11
2839.362791124041
 21
2125.979016862446
 31
0.0
 12
2832.315752434071
 22
2125.979016862446
 32
0.0
 13
2832.315752434071
 23
2125.979016862446
 33
0.0
210
0.0
220
0.0
230
1.0
  0
SOLID
  5
3A1
330
34E
100
AcDbEntity
  8
HATCH
  6
CONTINUOUS
 62
     5
100
AcDbTrace
 10
2851.399057286958
 20
2125.749886770945
 30
0.0
 11
2832.315752434071
 21
2125.979016862446
 31
0.0
 12
2824.903359674376
 22
2125.979016862446
 32
0.0
 13
2824.903359674376
 23
2125.979016862446
 33
0.0
210
0.0
220
0.0
230
1.0
  0
SOLID
  5
3A2
330
34E
100
AcDbEntity
  8
HATCH
  6
CONTINUOUS
 62
     5
100
AcDbTrace
 10
2851.399057286958
 20
2125.749886770945
 30
0.0
 11
2824.903359674376
 21
2125.979016862446
 31
0.0
 12
2809.456651967646
 22
2125.979016862446
 32
0.0
 13
2809.456651967646
 23
2125.979016862446
 33
0.0
210
0.0
220
0.0
230
1.0
  0
SOLID
  5
3A3
330
34E
100
AcDbEntity
  8
HATCH
  6
CONTINUOUS
 62
     5
100
AcDbTrace
 10
2851.399057286958
 20
2125.749886770945
 30
0.0
 11
2809.456651967646
 21
2125.979016862446
 31
0.0
 12
2793.473189274067
 22
2125.979016862446
 32
0.0
 13
2793.473189274067
 23
2125.979016862446
 33
0.0
210
0.0
220
0.0
230
1.0
  0
SOLID
  5
3A4
330
34E
100
AcDbEntity
  8
HATCH
  6
CONTINUOUS
 62
     5
100
AcDbTrace
 10
2851.399057286958
 20
2125.749886770945
 30
0.0
 11
2793.473189274067
 21
2125.979016862446
 31
0.0
 12
2777.116291604849
 22
2125.979016862446
 32
0.0
 13
2777.116291604849
 23
2125.979016862446
 33
0.0
210
0.0
220
0.0
230
1.0
  0
SOLID
  5
3A5
330
34E
100
AcDbEntity
  8
HATCH
  6
CONTINUOUS
 62
     5
100
AcDbTrace
 10
2851.399057286958
 20
2125.749886770945
 30
0.0
 11
2777.116291604849
 21
2125.979016862446
 31
0.0
 12
2760.552321719018
 22
2125.979016862446
 32
0.0
 13
2760.552321719018
 23
2125.979016862446
 33
0.0
210
0.0
220
0.0
230
1.0
  0
SOLID
  5
3A6
330
34E
100
AcDbEntity
  8
HATCH
  6
CONTINUOUS
 62
     5
100
AcDbTrace
 10
2851.399057286958
 20
2125.749886770945
 30
0.0
 11
2760.552321719018
 21
2125.979016862446
 31
0.0
 12
2727.364616402786
 22
2125.979016862446
 32
0.0
 13
2727.364616402786
 23
2125.979016862446
 33
0.0
210
0.0
220
0.0
230
1.0
  0
SOLID
  5
3A7
330
34E
100
AcDbEntity
  8
HATCH
  6
CONTINUOUS
 62
     5
100
AcDbTrace
 10
2851.399057286958
 20
2125.749886770945
 30
0.0
 11
2727.364616402786
 21
2125.979016862446
 31
0.0
 12
2660.583068071136
 22
2125.979016862446
 32
0.0
 13
2660.583068071136
 23
2125.979016862446
 33
0.0
210
0.0
220
0.0
230
1.0
  0
SOLID
  5
3A8
330
34E
100
AcDbEntity
  8
HATCH
  6
CONTINUOUS
 62
     5
100
AcDbTrace
 10
2851.399057286958
 20
2125.749886770945
 30
0.0
 11
2660.583068071136
 21
2125.979016862446
 31
0.0
 12
2593.309161772887
 22
2125.979016862446
 32
0.0
 13
2593.309161772887
 23
2125.979016862446
 33
0.0
  0
SOLID
  5
3A9
330
34E
100
AcDbEntity
  8
HATCH
  6
CONTINUOUS
 62
     5
100
AcDbTrace
 10
2851.399057286958
 20
2125.749886770945
 30
0.0
 11
2593.309161772887
 21
2125.979016862446
 31
0.0
 12
2458.009196969799
 22
2125.979016862446
 32
0.0
 13
2458.009196969799
 23
2125.979016862446
 33
0.0
  0
SOLID
  5
3AA
330
34E
100
AcDbEntity
  8
HATCH
  6
CONTINUOUS
 62
     5
100
AcDbTrace
 10
2851.399057286958
 20
2125.749886770945
 30
0.0
 11
2458.009196969799
 21
2125.979016862446
 31
0.0
 12
2390.295329515213
 22
2125.979016862446
 32
0.0
 13
2390.295329515213
 23
2125.979016862446
 33
0.0
210
0.0
220
0.0
230
1.0
  0
SOLID
  5
3AB
330
34E
100
AcDbEntity
  8
HATCH
  6
CONTINUOUS
 62
     5
100
AcDbTrace
 10
2851.399057286958
 20
2125.749886770945
 30
0.0
 11
2390.295329515213
 21
2125.979016862446
 31
0.0
 12
2322.831294938779
 22
2125.979016862446
 32
0.0
 13
2322.831294938779
 23
2125.979016862446
 33
0.0
210
0.0
220
0.0
230
1.0
  0
SOLID
  5
3AC
330
34E
100
AcDbEntity
  8
HATCH
  6
CONTINUOUS
 62
     5
100
AcDbTrace
 10
2851.399057286958
 20
2125.749886770945
 30
0.0
 11
2322.831294938779
 21
2125.979016862446
 31
0.0
 12
2279.43186480379
 22
2125.979016862446
 32
0.0
 13
2279.43186480379
 23
2125.979016862446
 33
0.0
210
0.0
220
0.0
230
1.0
  0
SOLID
  5
3AD
330
34E
100
AcDbEntity
  8
HATCH
  6
CONTINUOUS
 62
     5
100
AcDbTrace
 10
2279.43186480379
 20
2125.979016862446
 30
0.0
 11
2277.310544460222
 21
2125.100337206009
 31
0.0
 12
2851.399057286958
 22
2125.749886770945
 32
0.0
 13
2851.399057286958
 23
2125.749886770945
 33
0.0
  0
SOLID
  5
3AE
330
34E
100
AcDbEntity
  8
HATCH
  6
CONTINUOUS
 62
     5
100
AcDbTrace
 10
1874.207959908344
 20
2125.751433028076
 30
0.0
 11
1873.056881775266
 21
2125.979016862446
 31
0.0
 12
1679.475310034067
 22
2125.979016862446
 32
0.0
 13
1679.475310034067
 23
2125.979016862446
 33
0.0
210
0.0
220
0.0
230
1.0
  0
SOLID
  5
3AF
330
34E
100
AcDbEntity
  8
HATCH
  6
CONTINUOUS
 62
     5
100
AcDbTrace
 10
1679.475310034067
 20
2125.979016862446
 30
0.0
 11
1677.353989690507
 21
2125.100337206005
 31
0.0
 12
1874.207959908344
 22
2125.751433028076
 32
0.0
 13
1874.207959908344
 23
2125.751433028076
 33
0.0
210
0.0
220
0.0
230
1.0
  0
SOLID
  5
3B0
330
34E
100
AcDbEntity
  8
HATCH
  6
CONTINUOUS
 62
     5
100
AcDbTrace
 10
2027.110496054653
 20
2169.479016862444
 30
0.0
 11
1968.043163452019
 21
2116.979016862444
 31
0.0
 12
2013.043163452019
 22
2116.979016862444
 32
0.0
 13
2013.043163452019
 23
2116.979016862444
 33
0.0
210
0.0
220
0.0
230
1.0
  0
SOLID
  5
3B1
330
34E
100
AcDbEntity
  8
HATCH
  6
CONTINUOUS
 62
     5
100
AcDbTrace
 10
2208.975830849385
 20
2169.479016862444
 30
0.0
 11
2223.043163452019
 21
2116.979016862444
 31
0.0
 12
2268.043163452019
 22
2116.979016862444
 32
0.0
 13
2268.043163452019
 23
2116.979016862444
 33
0.0
210
0.0
220
0.0
230
1.0
  0
SOLID
  5
3B2
330
34E
100
AcDbEntity
  8
HATCH
  6
CONTINUOUS
 62
     5
100
AcDbTrace
 10
2256.625093328711
 20
2174.381531717207
 30
0.0
 11
2208.975830849385
 21
2169.479016862444
 31
0.0
 12
2268.043163452019
 22
2116.979016862444
 32
0.0
 13
2268.043163452019
 23
2116.979016862444
 33
0.0
210
0.0
220
0.0
230
1.0
  0
SOLID
  5
3B3
330
34E
100
AcDbEntity
  8
HATCH
  6
CONTINUOUS
 62
     5
100
AcDbTrace
 10
1979.461233575326
 20
2174.381531717207
 30
0.0
 11
1968.043163452019
 21
2116.979016862444
 31
0.0
 12
2027.110496054653
 22
2169.479016862444
 32
0.0
 13
2027.110496054653
 23
2169.479016862444
 33
0.0
210
0.0
220
0.0
230
1.0
  0
SOLID
  5
3B4
330
34E
100
AcDbEntity
  8
HATCH
  6
CONTINUOUS
 62
     5
100
AcDbTrace
 10
2204.437006524646
 20
2204.746569241412
 30
0.0
 11
2208.975830849385
 21
2169.479016862444
 31
0.0
 12
2256.625093328711
 22
2174.381531717207
 32
0.0
 13
2256.625093328711
 23
2174.381531717207
 33
0.0
  0
SOLID
  5
3B5
330
34E
100
AcDbEntity
  8
HATCH
  6
CONTINUOUS
 62
     5
100
AcDbTrace
 10
2200.194365837527
 20
2206.503928554293
 30
0.0
 11
2208.975830849385
 21
2169.479016862444
 31
0.0
 12
2204.437006524646
 22
2204.746569241412
 32
0.0
 13
2204.437006524646
 23
2204.746569241412
 33
0.0
  0
SOLID
  5
3B6
330
34E
100
AcDbEntity
  8
HATCH
  6
CONTINUOUS
 62
     5
100
AcDbTrace
 10
2208.679647211765
 20
2206.503928554293
 30
0.0
 11
2204.437006524646
 21
2204.746569241412
 31
0.0
 12
2256.625093328711
 22
2174.381531717207
 32
0.0
 13
2256.625093328711
 23
2174.381531717207
 33
0.0
210
0.0
220
0.0
230
1.0
  0
SOLID
  5
3B7
330
34E
100
AcDbEntity
  8
HATCH
  6
CONTINUOUS
 62
     5
100
AcDbTrace
 10
2033.854596522824
 20
2206.731485229628
 30
0.0
 11
1979.461233575326
 21
2174.381531717207
 31
0.0
 12
2027.110496054653
 22
2169.479016862444
 32
0.0
 13
2027.110496054653
 23
2169.479016862444
 33
0.0
210
0.0
220
0.0
230
1.0
  0
SOLID
  5
3B8
330
34E
100
AcDbEntity
  8
HATCH
  6
CONTINUOUS
 62
     5
100
AcDbTrace
 10
2065.543163452019
 20
2207.91168425981
 30
0.0
 11
2033.854596522824
 21
2206.731485229628
 31
0.0
 12
2027.110496054653
 22
2169.479016862444
 32
0.0
 13
2027.110496054653
 23
2169.479016862444
 33
0.0
  0
SOLID
  5
3B9
330
34E
100
AcDbEntity
  8
HATCH
  6
CONTINUOUS
 62
     5
100
AcDbTrace
 10
2170.543163452019
 20
2207.91168425981
 30
0.0
 11
2208.975830849385
 21
2169.479016862444
 31
0.0
 12
2200.194365837527
 22
2206.503928554293
 32
0.0
 13
2200.194365837527
 23
2206.503928554293
 33
0.0
210
0.0
220
0.0
230
1.0
  0
SOLID
  5
3BA
330
34E
100
AcDbEntity
  8
HATCH
  6
CONTINUOUS
 62
     5
100
AcDbTrace
 10
2029.611955835704
 20
2208.488844542509
 30
0.0
 11
1979.461233575326
 21
2174.381531717207
 31
0.0
 12
2033.854596522824
 22
2206.731485229628
 32
0.0
 13
2033.854596522824
 23
2206.731485229628
 33
0.0
210
0.0
220
0.0
230
1.0
  0
SOLID
  5
3BB
330
34E
100
AcDbEntity
  8
HATCH
  6
CONTINUOUS
 62
     5
100
AcDbTrace
 10
2038.097237209943
 20
2208.488844542509
 30
0.0
 11
2033.854596522824
 21
2206.731485229628
 31
0.0
 12
2065.543163452019
 22
2207.91168425981
 32
0.0
 13
2065.543163452019
 23
2207.91168425981
 33
0.0
210
0.0
220
0.0
230
1.0
  0
SOLID
  5
3BC
330
34E
100
AcDbEntity
  8
HATCH
  6
CONTINUOUS
 62
     5
100
AcDbTrace
 10
2198.437006524646
 20
2210.746569241412
 30
0.0
 11
2170.543163452019
 21
2207.91168425981
 31
0.0
 12
2200.194365837527
 22
2206.503928554293
 32
0.0
 13
2200.194365837527
 23
2206.503928554293
 33
0.0
  0
SOLID
  5
3BD
330
34E
100
AcDbEntity
  8
HATCH
  6
CONTINUOUS
 62
     5
100
AcDbTrace
 10
2210.437006524646
 20
2210.746569241412
 30
0.0
 11
2208.679647211765
 21
2206.503928554293
 31
0.0
 12
2256.625093328711
 22
2174.381531717207
 32
0.0
 13
2256.625093328711
 23
2174.381531717207
 33
0.0
210
0.0
220
0.0
230
1.0
  0
SOLID
  5
3BE
330
34E
100
AcDbEntity
  8
HATCH
  6
CONTINUOUS
 62
     5
100
AcDbTrace
 10
2027.854596522824
 20
2212.731485229628
 30
0.0
 11
1979.461233575326
 21
2174.381531717207
 31
0.0
 12
2029.611955835704
 22
2208.488844542509
 32
0.0
 13
2029.611955835704
 23
2208.488844542509
 33
0.0
210
0.0
220
0.0
230
1.0
  0
SOLID
  5
3BF
330
34E
100
AcDbEntity
  8
HATCH
  6
CONTINUOUS
 62
     5
100
AcDbTrace
 10
2039.854596522824
 20
2212.731485229628
 30
0.0
 11
2038.097237209943
 21
2208.488844542509
 31
0.0
 12
2065.543163452019
 22
2207.91168425981
 32
0.0
 13
2065.543163452019
 23
2207.91168425981
 33
0.0
210
0.0
220
0.0
230
1.0
  0
SOLID
  5
3C0
330
34E
100
AcDbEntity
  8
HATCH
  6
CONTINUOUS
 62
     5
100
AcDbTrace
 10
2200.194365837527
 20
2214.989209928531
 30
0.0
 11
2170.543163452019
 21
2207.91168425981
 31
0.0
 12
2198.437006524646
 22
2210.746569241412
 32
0.0
 13
2198.437006524646
 23
2210.746569241412
 33
0.0
210
0.0
220
0.0
230
1.0
  0
SOLID
  5
3C1
330
34E
100
AcDbEntity
  8
HATCH
  6
CONTINUOUS
 62
     5
100
AcDbTrace
 10
2208.679647211765
 20
2214.989209928531
 30
0.0
 11
2210.437006524646
 21
2210.746569241412
 31
0.0
 12
2256.625093328711
 22
2174.381531717207
 32
0.0
 13
2256.625093328711
 23
2174.381531717207
 33
0.0
210
0.0
220
0.0
230
1.0
  0
SOLID
  5
3C2
330
34E
100
AcDbEntity
  8
HATCH
  6
CONTINUOUS
 62
     5
100
AcDbTrace
 10
2204.437006524646
 20
2216.746569241412
 30
0.0
 11
2170.543163452019
 21
2207.91168425981
 31
0.0
 12
2200.194365837527
 22
2214.989209928531
 32
0.0
 13
2200.194365837527
 23
2214.989209928531
 33
0.0
210
0.0
220
0.0
230
1.0
  0
SOLID
  5
3C3
330
34E
100
AcDbEntity
  8
HATCH
  6
CONTINUOUS
 62
     5
100
AcDbTrace
 10
2029.611955835704
 20
2216.974125916747
 30
0.0
 11
1979.461233575326
 21
2174.381531717207
 31
0.0
 12
2027.854596522824
 22
2212.731485229628
 32
0.0
 13
2027.854596522824
 23
2212.731485229628
 33
0.0
210
0.0
220
0.0
230
1.0
  0
SOLID
  5
3C4
330
34E
100
AcDbEntity
  8
HATCH
  6
CONTINUOUS
 62
     5
100
AcDbTrace
 10
2038.097237209943
 20
2216.974125916747
 30
0.0
 11
2039.854596522824
 21
2212.731485229628
 31
0.0
 12
2065.543163452019
 22
2207.91168425981
 32
0.0
 13
2065.543163452019
 23
2207.91168425981
 33
0.0
210
0.0
220
0.0
230
1.0
  0
SOLID
  5
3C5
330
34E
100
AcDbEntity
  8
HATCH
  6
CONTINUOUS
 62
     5
100
AcDbTrace
 10
2033.854596522824
 20
2218.731485229628
 30
0.0
 11
2038.097237209943
 21
2216.974125916747
 31
0.0
 12
2065.543163452019
 22
2207.91168425981
 32
0.0
 13
2065.543163452019
 23
2207.91168425981
 33
0.0
210
0.0
220
0.0
230
1.0
  0
SOLID
  5
3C6
330
34E
100
AcDbEntity
  8
HATCH
  6
CONTINUOUS
 62
     5
100
AcDbTrace
 10
2118.043163452019
 20
2221.979016862444
 30
0.0
 11
2033.854596522824
 21
2218.731485229628
 31
0.0
 12
2065.543163452019
 22
2207.91168425981
 32
0.0
 13
2065.543163452019
 23
2207.91168425981
 33
0.0
210
0.0
220
0.0
230
1.0
  0
SOLID
  5
3C7
330
34E
100
AcDbEntity
  8
HATCH
  6
CONTINUOUS
 62
     5
100
AcDbTrace
 10
2118.043163452019
 20
2221.979016862444
 30
0.0
 11
2170.543163452019
 21
2207.91168425981
 31
0.0
 12
2204.437006524646
 22
2216.746569241412
 32
0.0
 13
2204.437006524646
 23
2216.746569241412
 33
0.0
210
0.0
220
0.0
230
1.0
  0
SOLID
  5
3C8
330
34E
100
AcDbEntity
  8
HATCH
  6
CONTINUOUS
 62
     5
100
AcDbTrace
 10
2224.109180630001
 20
2223.045034040426
 30
0.0
 11
2118.043163452019
 21
2221.979016862444
 31
0.0
 12
2204.437006524646
 22
2216.746569241412
 32
0.0
 13
2204.437006524646
 23
2216.746569241412
 33
0.0
210
0.0
220
0.0
230
1.0
  0
SOLID
  5
3C9
330
34E
100
AcDbEntity
  8
HATCH
  6
CONTINUOUS
 62
     5
100
AcDbTrace
 10
2224.109180630001
 20
2223.045034040426
 30
0.0
 11
2204.437006524646
 21
2216.746569241412
 31
0.0
 12
2208.679647211765
 22
2214.989209928531
 32
0.0
 13
2208.679647211765
 23
2214.989209928531
 33
0.0
210
0.0
220
0.0
230
1.0
  0
SOLID
  5
3CA
330
34E
100
AcDbEntity
  8
HATCH
  6
CONTINUOUS
 62
     5
100
AcDbTrace
 10
2224.109180630001
 20
2223.045034040426
 30
0.0
 11
2208.679647211765
 21
2214.989209928531
 31
0.0
 12
2256.625093328711
 22
2174.381531717207
 32
0.0
 13
2256.625093328711
 23
2174.381531717207
 33
0.0
210
0.0
220
0.0
230
1.0
  0
SOLID
  5
3CB
330
34E
100
AcDbEntity
  8
HATCH
  6
CONTINUOUS
 62
     5
100
AcDbTrace
 10
2011.977146274037
 20
2223.045034040426
 30
0.0
 11
2118.043163452019
 21
2221.979016862444
 31
0.0
 12
2224.109180630001
 22
2223.045034040426
 32
0.0
 13
2224.109180630001
 23
2223.045034040426
 33
0.0
210
0.0
220
0.0
230
1.0
  0
SOLID
  5
3CC
330
34E
100
AcDbEntity
  8
HATCH
  6
CONTINUOUS
 62
     5
100
AcDbTrace
 10
2011.977146274037
 20
2223.045034040426
 30
0.0
 11
2033.854596522824
 21
2218.731485229628
 31
0.0
 12
2118.043163452019
 22
2221.979016862444
 32
0.0
 13
2118.043163452019
 23
2221.979016862444
 33
0.0
210
0.0
220
0.0
230
1.0
  0
SOLID
  5
3CD
330
34E
100
AcDbEntity
  8
HATCH
  6
CONTINUOUS
 62
     5
100
AcDbTrace
 10
2011.977146274037
 20
2223.045034040426
 30
0.0
 11
2029.611955835704
 21
2216.974125916747
 31
0.0
 12
2033.854596522824
 22
2218.731485229628
 32
0.0
 13
2033.854596522824
 23
2218.731485229628
 33
0.0
  0
SOLID
  5
3CE
330
34E
100
AcDbEntity
  8
HATCH
  6
CONTINUOUS
 62
     5
100
AcDbTrace
 10
2011.977146274037
 20
2223.045034040426
 30
0.0
 11
1979.461233575326
 21
2174.381531717207
 31
0.0
 12
2029.611955835704
 22
2216.974125916747
 32
0.0
 13
2029.611955835704
 23
2216.974125916747
 33
0.0
210
0.0
220
0.0
230
1.0
  0
SOLID
  5
3CF
330
34E
100
AcDbEntity
  8
HATCH
  6
CONTINUOUS
 62
     5
100
AcDbTrace
 10
2175.445678306782
 20
2255.560946739137
 30
0.0
 11
2011.977146274037
 21
2223.045034040426
 31
0.0
 12
2224.109180630001
 22
2223.045034040426
 32
0.0
 13
2224.109180630001
 23
2223.045034040426
 33
0.0
210
0.0
220
0.0
230
1.0
  0
SOLID
  5
3D0
330
34E
100
AcDbEntity
  8
HATCH
  6
CONTINUOUS
 62
     5
100
AcDbTrace
 10
2060.640648597255
 20
2255.560946739137
 30
0.0
 11
2011.977146274037
 21
2223.045034040426
 31
0.0
 12
2175.445678306782
 22
2255.560946739137
 32
0.0
 13
2175.445678306782
 23
2255.560946739137
 33
0.0
210
0.0
220
0.0
230
1.0
  0
SOLID
  5
3D1
330
34E
100
AcDbEntity
  8
HATCH
  6
CONTINUOUS
 62
     5
100
AcDbTrace
 10
2118.043163452019
 20
2266.979016862444
 30
0.0
 11
2060.640648597255
 21
2255.560946739137
 31
0.0
 12
2175.445678306782
 22
2255.560946739137
 32
0.0
 13
2175.445678306782
 23
2255.560946739137
 33
0.0
210
0.0
220
0.0
230
1.0
  0
ENDBLK
  5
3D3
330
34E
100
AcDbEntity
  8
0
 62
     5
100
AcDbBlockEnd
  0
BLOCK
  5
3FE
330
3D5
100
AcDbEntity
  8
0
 62
     5
100
AcDbBlockBegin
  2
*U11
 70
     1
 10
0.0
 20
0.0
 30
0.0
  3
*U11
  1

  0
SOLID
  5
3D6
330
3D5
100
AcDbEntity
  8
HATCH
  6
CONTINUOUS
 62
     2
100
AcDbTrace
 10
3367.253160061416
 20
1780.063805351078
 30
0.0
 11
3444.9579069127
 21
1764.327390747779
 31
0.0
 12
3522.671656146562
 22
1780.019286994095
 32
0.0
 13
3522.671656146562
 23
1780.019286994095
 33
0.0
210
0.0
220
0.0
230
1.0
  0
SOLID
  5
3D7
330
3D5
100
AcDbEntity
  8
HATCH
  6
CONTINUOUS
 62
     2
100
AcDbTrace
 10
3357.561427608962
 20
1780.73898941342
 30
0.0
 11
3367.253160061416
 21
1780.063805351078
 31
0.0
 12
3522.671656146562
 22
1780.019286994095
 32
0.0
 13
3522.671656146562
 23
1780.019286994095
 33
0.0
210
0.0
220
0.0
230
1.0
  0
SOLID
  5
3D8
330
3D5
100
AcDbEntity
  8
HATCH
  6
CONTINUOUS
 62
     2
100
AcDbTrace
 10
3529.296032730251
 20
1781.174823716839
 30
0.0
 11
3357.561427608962
 21
1780.73898941342
 31
0.0
 12
3522.671656146562
 22
1780.019286994095
 32
0.0
 13
3522.671656146562
 23
1780.019286994095
 33
0.0
210
0.0
220
0.0
230
1.0
  0
SOLID
  5
3D9
330
3D5
100
AcDbEntity
  8
HATCH
  6
CONTINUOUS
 62
     2
100
AcDbTrace
 10
3270.408063967505
 20
1835.574950659383
 30
0.0
 11
3357.561427608962
 21
1780.73898941342
 31
0.0
 12
3529.296032730251
 22
1781.174823716839
 32
0.0
 13
3529.296032730251
 23
1781.174823716839
 33
0.0
210
0.0
220
0.0
230
1.0
  0
SOLID
  5
3DA
330
3D5
100
AcDbEntity
  8
HATCH
  6
CONTINUOUS
 62
     2
100
AcDbTrace
 10
3270.408063967505
 20
1835.574950659383
 30
0.0
 11
3349.488755462568
 21
1775.333666493848
 31
0.0
 12
3357.561427608962
 22
1780.73898941342
 32
0.0
 13
3357.561427608962
 23
1780.73898941342
 33
0.0
210
0.0
220
0.0
230
1.0
  0
SOLID
  5
3DB
330
3D5
100
AcDbEntity
  8
HATCH
  6
CONTINUOUS
 62
     2
100
AcDbTrace
 10
3614.892638705601
 20
1840.324397804407
 30
0.0
 11
3270.408063967505
 21
1835.574950659383
 31
0.0
 12
3529.296032730251
 22
1781.174823716839
 32
0.0
 13
3529.296032730251
 23
1781.174823716839
 33
0.0
210
0.0
220
0.0
230
1.0
  0
SOLID
  5
3DC
330
3D5
100
AcDbEntity
  8
HATCH
  6
CONTINUOUS
 62
     2
100
AcDbTrace
 10
3614.892638705601
 20
1840.324397804407
 30
0.0
 11
3529.296032730251
 21
1781.174823716839
 31
0.0
 12
3535.759606976507
 22
1779.320143635729
 32
0.0
 13
3535.759606976507
 23
1779.320143635729
 33
0.0
210
0.0
220
0.0
230
1.0
  0
SOLID
  5
3DD
330
3D5
100
AcDbEntity
  8
HATCH
  6
CONTINUOUS
 62
     2
100
AcDbTrace
 10
3278.070976803245
 20
1844.989163136108
 30
0.0
 11
3270.408063967505
 21
1835.574950659383
 31
0.0
 12
3614.892638705601
 22
1840.324397804407
 32
0.0
 13
3614.892638705601
 23
1840.324397804407
 33
0.0
210
0.0
220
0.0
230
1.0
  0
SOLID
  5
3DE
330
3D5
100
AcDbEntity
  8
HATCH
  6
CONTINUOUS
 62
     2
100
AcDbTrace
 10
3611.788660140671
 20
1848.783581038599
 30
0.0
 11
3278.070976803245
 21
1844.989163136108
 31
0.0
 12
3614.892638705601
 22
1840.324397804407
 32
0.0
 13
3614.892638705601
 23
1840.324397804407
 33
0.0
210
0.0
220
0.0
230
1.0
  0
SOLID
  5
3DF
330
3D5
100
AcDbEntity
  8
HATCH
  6
CONTINUOUS
 62
     2
100
AcDbTrace
 10
3276.257840550247
 20
1856.991669816512
 30
0.0
 11
3278.070976803245
 21
1844.989163136108
 31
0.0
 12
3611.788660140671
 22
1848.783581038599
 32
0.0
 13
3611.788660140671
 23
1848.783581038599
 33
0.0
210
0.0
220
0.0
230
1.0
  0
SOLID
  5
3E0
330
3D5
100
AcDbEntity
  8
HATCH
  6
CONTINUOUS
 62
     2
100
AcDbTrace
 10
3614.09163236886
 20
1857.494997848588
 30
0.0
 11
3276.257840550247
 21
1856.991669816512
 31
0.0
 12
3611.788660140671
 22
1848.783581038599
 32
0.0
 13
3611.788660140671
 23
1848.783581038599
 33
0.0
  0
SOLID
  5
3E1
330
3D5
100
AcDbEntity
  8
HATCH
  6
CONTINUOUS
 62
     2
100
AcDbTrace
 10
3267.197490144585
 20
1872.780325013236
 30
0.0
 11
3276.257840550247
 21
1856.991669816512
 31
0.0
 12
3614.09163236886
 22
1857.494997848588
 32
0.0
 13
3614.09163236886
 23
1857.494997848588
 33
0.0
  0
SOLID
  5
3E2
330
3D5
100
AcDbEntity
  8
HATCH
  6
CONTINUOUS
 62
     2
100
AcDbTrace
 10
3623.804089807545
 20
1874.691836069155
 30
0.0
 11
3267.197490144585
 21
1872.780325013236
 31
0.0
 12
3614.09163236886
 22
1857.494997848588
 32
0.0
 13
3614.09163236886
 23
1857.494997848588
 33
0.0
210
0.0
220
0.0
230
1.0
  0
SOLID
  5
3E3
330
3D5
100
AcDbEntity
  8
HATCH
  6
CONTINUOUS
 62
     2
100
AcDbTrace
 10
3259.610233097089
 20
1889.327382542888
 30
0.0
 11
3267.197490144585
 21
1872.780325013236
 31
0.0
 12
3623.804089807545
 22
1874.691836069155
 32
0.0
 13
3623.804089807545
 23
1874.691836069155
 33
0.0
210
0.0
220
0.0
230
1.0
  0
SOLID
  5
3E4
330
3D5
100
AcDbEntity
  8
HATCH
  6
CONTINUOUS
 62
     2
100
AcDbTrace
 10
3631.773073600003
 20
1892.762762210286
 30
0.0
 11
3259.610233097089
 21
1889.327382542888
 31
0.0
 12
3623.804089807545
 22
1874.691836069155
 32
0.0
 13
3623.804089807545
 23
1874.691836069155
 33
0.0
210
0.0
220
0.0
230
1.0
  0
SOLID
  5
3E5
330
3D5
100
AcDbEntity
  8
HATCH
  6
CONTINUOUS
 62
     2
100
AcDbTrace
 10
3244.889920436609
 20
1907.493630446442
 30
0.0
 11
3259.610233097089
 21
1889.327382542888
 31
0.0
 12
3631.773073600003
 22
1892.762762210286
 32
0.0
 13
3631.773073600003
 23
1892.762762210286
 33
0.0
210
0.0
220
0.0
230
1.0
  0
SOLID
  5
3E6
330
3D5
100
AcDbEntity
  8
HATCH
  6
CONTINUOUS
 62
     2
100
AcDbTrace
 10
3646.458782445822
 20
1911.408273806437
 30
0.0
 11
3244.889920436609
 21
1907.493630446442
 31
0.0
 12
3631.773073600003
 22
1892.762762210286
 32
0.0
 13
3631.773073600003
 23
1892.762762210286
 33
0.0
210
0.0
220
0.0
230
1.0
  0
SOLID
  5
3E7
330
3D5
100
AcDbEntity
  8
HATCH
  6
CONTINUOUS
 62
     2
100
AcDbTrace
 10
3222.529240661611
 20
1914.327382542888
 30
0.0
 11
3244.889920436609
 21
1907.493630446442
 31
0.0
 12
3646.458782445822
 22
1911.408273806437
 32
0.0
 13
3646.458782445822
 23
1911.408273806437
 33
0.0
210
0.0
220
0.0
230
1.0
  0
SOLID
  5
3E8
330
3D5
100
AcDbEntity
  8
HATCH
  6
CONTINUOUS
 62
     2
100
AcDbTrace
 10
3669.124649265108
 20
1918.449838143767
 30
0.0
 11
3222.529240661611
 21
1914.327382542888
 31
0.0
 12
3646.458782445822
 22
1911.408273806437
 32
0.0
 13
3646.458782445822
 23
1911.408273806437
 33
0.0
210
0.0
220
0.0
230
1.0
  0
SOLID
  5
3E9
330
3D5
100
AcDbEntity
  8
HATCH
  6
CONTINUOUS
 62
     2
100
AcDbTrace
 10
3669.124649265108
 20
2010.20492694201
 30
0.0
 11
3222.529240661611
 21
1914.327382542888
 31
0.0
 12
3669.124649265108
 22
1918.449838143767
 32
0.0
 13
3669.124649265108
 23
1918.449838143767
 33
0.0
  0
SOLID
  5
3EA
330
3D5
100
AcDbEntity
  8
HATCH
  6
CONTINUOUS
 62
     2
100
AcDbTrace
 10
3222.529240661611
 20
2014.327382542888
 30
0.0
 11
3222.529240661611
 21
1914.327382542888
 31
0.0
 12
3669.124649265108
 22
2010.20492694201
 32
0.0
 13
3669.124649265108
 23
2010.20492694201
 33
0.0
  0
SOLID
  5
3EB
330
3D5
100
AcDbEntity
  8
HATCH
  6
CONTINUOUS
 62
     2
100
AcDbTrace
 10
3646.458782445822
 20
2017.246491279339
 30
0.0
 11
3222.529240661611
 21
2014.327382542888
 31
0.0
 12
3669.124649265108
 22
2010.20492694201
 32
0.0
 13
3669.124649265108
 23
2010.20492694201
 33
0.0
210
0.0
220
0.0
230
1.0
  0
SOLID
  5
3EC
330
3D5
100
AcDbEntity
  8
HATCH
  6
CONTINUOUS
 62
     2
100
AcDbTrace
 10
3244.889920436609
 20
2021.161134639334
 30
0.0
 11
3222.529240661611
 21
2014.327382542888
 31
0.0
 12
3646.458782445822
 22
2017.246491279339
 32
0.0
 13
3646.458782445822
 23
2017.246491279339
 33
0.0
210
0.0
220
0.0
230
1.0
  0
SOLID
  5
3ED
330
3D5
100
AcDbEntity
  8
HATCH
  6
CONTINUOUS
 62
     2
100
AcDbTrace
 10
3631.773073600003
 20
2035.89200287549
 30
0.0
 11
3244.889920436609
 21
2021.161134639334
 31
0.0
 12
3646.458782445822
 22
2017.246491279339
 32
0.0
 13
3646.458782445822
 23
2017.246491279339
 33
0.0
210
0.0
220
0.0
230
1.0
  0
SOLID
  5
3EE
330
3D5
100
AcDbEntity
  8
HATCH
  6
CONTINUOUS
 62
     2
100
AcDbTrace
 10
3259.610233097089
 20
2039.327382542888
 30
0.0
 11
3244.889920436609
 21
2021.161134639334
 31
0.0
 12
3631.773073600003
 22
2035.89200287549
 32
0.0
 13
3631.773073600003
 23
2035.89200287549
 33
0.0
210
0.0
220
0.0
230
1.0
  0
SOLID
  5
3EF
330
3D5
100
AcDbEntity
  8
HATCH
  6
CONTINUOUS
 62
     2
100
AcDbTrace
 10
3623.804089807546
 20
2053.96292901662
 30
0.0
 11
3259.610233097089
 21
2039.327382542888
 31
0.0
 12
3631.773073600003
 22
2035.89200287549
 32
0.0
 13
3631.773073600003
 23
2035.89200287549
 33
0.0
210
0.0
220
0.0
230
1.0
  0
SOLID
  5
3F0
330
3D5
100
AcDbEntity
  8
HATCH
  6
CONTINUOUS
 62
     2
100
AcDbTrace
 10
3267.197490144585
 20
2055.87444007254
 30
0.0
 11
3259.610233097089
 21
2039.327382542888
 31
0.0
 12
3623.804089807546
 22
2053.96292901662
 32
0.0
 13
3623.804089807546
 23
2053.96292901662
 33
0.0
210
0.0
220
0.0
230
1.0
  0
SOLID
  5
3F1
330
3D5
100
AcDbEntity
  8
HATCH
  6
CONTINUOUS
 62
     2
100
AcDbTrace
 10
3614.091632368859
 20
2071.159767237187
 30
0.0
 11
3267.197490144585
 21
2055.87444007254
 31
0.0
 12
3623.804089807546
 22
2053.96292901662
 32
0.0
 13
3623.804089807546
 23
2053.96292901662
 33
0.0
210
0.0
220
0.0
230
1.0
  0
SOLID
  5
3F2
330
3D5
100
AcDbEntity
  8
HATCH
  6
CONTINUOUS
 62
     2
100
AcDbTrace
 10
3276.257840550247
 20
2071.663095269264
 30
0.0
 11
3267.197490144585
 21
2055.87444007254
 31
0.0
 12
3614.091632368859
 22
2071.159767237187
 32
0.0
 13
3614.091632368859
 23
2071.159767237187
 33
0.0
210
0.0
220
0.0
230
1.0
  0
SOLID
  5
3F3
330
3D5
100
AcDbEntity
  8
HATCH
  6
CONTINUOUS
 62
     2
100
AcDbTrace
 10
3611.936608248569
 20
2076.958530095071
 30
0.0
 11
3276.257840550247
 21
2071.663095269264
 31
0.0
 12
3614.091632368859
 22
2071.159767237187
 32
0.0
 13
3614.091632368859
 23
2071.159767237187
 33
0.0
210
0.0
220
0.0
230
1.0
  0
SOLID
  5
3F4
330
3D5
100
AcDbEntity
  8
HATCH
  6
CONTINUOUS
 62
     2
100
AcDbTrace
 10
3278.432763057041
 20
2077.472747024081
 30
0.0
 11
3276.257840550247
 21
2071.663095269264
 31
0.0
 12
3611.936608248569
 22
2076.958530095071
 32
0.0
 13
3611.936608248569
 23
2076.958530095071
 33
0.0
210
0.0
220
0.0
230
1.0
  0
SOLID
  5
3F5
330
3D5
100
AcDbEntity
  8
HATCH
  6
CONTINUOUS
 62
     2
100
AcDbTrace
 10
3612.304967005884
 20
2083.133810774271
 30
0.0
 11
3278.432763057041
 21
2077.472747024081
 31
0.0
 12
3611.936608248569
 22
2076.958530095071
 32
0.0
 13
3611.936608248569
 23
2076.958530095071
 33
0.0
210
0.0
220
0.0
230
1.0
  0
SOLID
  5
3F6
330
3D5
100
AcDbEntity
  8
HATCH
  6
CONTINUOUS
 62
     2
100
AcDbTrace
 10
3278.070976803245
 20
2083.665601949668
 30
0.0
 11
3278.432763057041
 21
2077.472747024081
 31
0.0
 12
3612.304967005884
 22
2083.133810774271
 32
0.0
 13
3612.304967005884
 23
2083.133810774271
 33
0.0
210
0.0
220
0.0
230
1.0
  0
SOLID
  5
3F7
330
3D5
100
AcDbEntity
  8
HATCH
  6
CONTINUOUS
 62
     2
100
AcDbTrace
 10
3360.618761058039
 20
2147.432196695077
 30
0.0
 11
3278.070976803245
 21
2083.665601949668
 31
0.0
 12
3612.304967005884
 22
2083.133810774271
 32
0.0
 13
3612.304967005884
 23
2083.133810774271
 33
0.0
210
0.0
220
0.0
230
1.0
  0
SOLID
  5
3F8
330
3D5
100
AcDbEntity
  8
HATCH
  6
CONTINUOUS
 62
     2
100
AcDbTrace
 10
3529.29603273025
 20
2147.479941368937
 30
0.0
 11
3360.618761058039
 21
2147.432196695077
 31
0.0
 12
3612.304967005884
 22
2083.133810774271
 32
0.0
 13
3612.304967005884
 23
2083.133810774271
 33
0.0
  0
SOLID
  5
3F9
330
3D5
100
AcDbEntity
  8
HATCH
  6
CONTINUOUS
 62
     2
100
AcDbTrace
 10
3367.253160061417
 20
2148.590959734698
 30
0.0
 11
3360.618761058039
 21
2147.432196695077
 31
0.0
 12
3529.29603273025
 22
2147.479941368937
 32
0.0
 13
3529.29603273025
 23
2147.479941368937
 33
0.0
210
0.0
220
0.0
230
1.0
  0
SOLID
  5
3FA
330
3D5
100
AcDbEntity
  8
HATCH
  6
CONTINUOUS
 62
     2
100
AcDbTrace
 10
3522.671656146561
 20
2148.635478091681
 30
0.0
 11
3367.253160061417
 21
2148.590959734698
 31
0.0
 12
3529.29603273025
 22
2147.479941368937
 32
0.0
 13
3529.29603273025
 23
2147.479941368937
 33
0.0
210
0.0
220
0.0
230
1.0
  0
SOLID
  5
3FB
330
3D5
100
AcDbEntity
  8
HATCH
  6
CONTINUOUS
 62
     2
100
AcDbTrace
 10
3354.146087725769
 20
2149.292971225143
 30
0.0
 11
3278.070976803245
 21
2083.665601949668
 31
0.0
 12
3360.618761058039
 22
2147.432196695077
 32
0.0
 13
3360.618761058039
 23
2147.432196695077
 33
0.0
210
0.0
220
0.0
230
1.0
  0
SOLID
  5
3FC
330
3D5
100
AcDbEntity
  8
HATCH
  6
CONTINUOUS
 62
     2
100
AcDbTrace
 10
3535.759606976506
 20
2149.334621450047
 30
0.0
 11
3529.29603273025
 21
2147.479941368937
 31
0.0
 12
3612.304967005884
 22
2083.133810774271
 32
0.0
 13
3612.304967005884
 23
2083.133810774271
 33
0.0
210
0.0
220
0.0
230
1.0
  0
SOLID
  5
3FD
330
3D5
100
AcDbEntity
  8
HATCH
  6
CONTINUOUS
 62
     2
100
AcDbTrace
 10
3444.9579069127
 20
2164.327374337997
 30
0.0
 11
3367.253160061417
 21
2148.590959734698
 31
0.0
 12
3522.671656146561
 22
2148.635478091681
 32
0.0
 13
3522.671656146561
 23
2148.635478091681
 33
0.0
210
0.0
220
0.0
230
1.0
  0
ENDBLK
  5
3FF
330
3D5
100
AcDbEntity
  8
0
 62
     5
100
AcDbBlockEnd
  0
BLOCK
  5
40F
330
400
100
AcDbEntity
  8
0
 62
     5
100
AcDbBlockBegin
  2
*U12
 70
     1
 10
0.0
 20
0.0
 30
0.0
  3
*U12
  1

  0
SOLID
  5
401
330
400
100
AcDbEntity
  8
HATCH
  6
CONTINUOUS
 62
     2
100
AcDbTrace
 10
3535.759606976506
 20
2149.334621450047
 30
0.0
 11
3619.942679331728
 21
2092.527172375682
 31
0.0
 12
3698.595560553295
 22
2146.025094452984
 32
0.0
 13
3698.595560553295
 23
2146.025094452984
 33
0.0
210
0.0
220
0.0
230
1.0
  0
SOLID
  5
402
330
400
100
AcDbEntity
  8
HATCH
  6
CONTINUOUS
 62
     2
100
AcDbTrace
 10
3535.759606976506
 20
2149.334621450047
 30
0.0
 11
3615.13405526982
 21
2088.635268693392
 31
0.0
 12
3619.942679331728
 22
2092.527172375682
 32
0.0
 13
3619.942679331728
 23
2092.527172375682
 33
0.0
210
0.0
220
0.0
230
1.0
  0
SOLID
  5
403
330
400
100
AcDbEntity
  8
HATCH
  6
CONTINUOUS
 62
     2
100
AcDbTrace
 10
3535.759606976506
 20
2149.334621450047
 30
0.0
 11
3612.304967005884
 21
2083.133810774271
 31
0.0
 12
3615.13405526982
 22
2088.635268693392
 32
0.0
 13
3615.13405526982
 23
2088.635268693392
 33
0.0
210
0.0
220
0.0
230
1.0
  0
SOLID
  5
404
330
400
100
AcDbEntity
  8
HATCH
  6
CONTINUOUS
 62
     2
100
AcDbTrace
 10
3540.763412172901
 20
2153.826788387804
 30
0.0
 11
3535.759606976506
 21
2149.334621450047
 31
0.0
 12
3698.595560553295
 22
2146.025094452984
 32
0.0
 13
3698.595560553295
 23
2146.025094452984
 33
0.0
210
0.0
220
0.0
230
1.0
  0
SOLID
  5
405
330
400
100
AcDbEntity
  8
HATCH
  6
CONTINUOUS
 62
     2
100
AcDbTrace
 10
3543.301847372035
 20
2160.053663766349
 30
0.0
 11
3540.763412172901
 21
2153.826788387804
 31
0.0
 12
3698.595560553295
 22
2146.025094452984
 32
0.0
 13
3698.595560553295
 23
2146.025094452984
 33
0.0
210
0.0
220
0.0
230
1.0
  0
SOLID
  5
406
330
400
100
AcDbEntity
  8
HATCH
  6
CONTINUOUS
 62
     2
100
AcDbTrace
 10
3761.628294672755
 20
2217.265376740944
 30
0.0
 11
3543.301847372035
 21
2160.053663766349
 31
0.0
 12
3698.595560553295
 22
2146.025094452984
 32
0.0
 13
3698.595560553295
 23
2146.025094452984
 33
0.0
210
0.0
220
0.0
230
1.0
  0
SOLID
  5
407
330
400
100
AcDbEntity
  8
HATCH
  6
CONTINUOUS
 62
     2
100
AcDbTrace
 10
3568.871109246932
 20
2248.463333111287
 30
0.0
 11
3543.301847372035
 21
2160.053663766349
 31
0.0
 12
3761.628294672755
 22
2217.265376740944
 32
0.0
 13
3761.628294672755
 23
2217.265376740944
 33
0.0
210
0.0
220
0.0
230
1.0
  0
SOLID
  5
408
330
400
100
AcDbEntity
  8
HATCH
  6
CONTINUOUS
 62
     2
100
AcDbTrace
 10
3805.148278716445
 20
2301.848556983116
 30
0.0
 11
3568.871109246932
 21
2248.463333111287
 31
0.0
 12
3761.628294672755
 22
2217.265376740944
 32
0.0
 13
3761.628294672755
 23
2217.265376740944
 33
0.0
210
0.0
220
0.0
230
1.0
  0
SOLID
  5
409
330
400
100
AcDbEntity
  8
HATCH
  6
CONTINUOUS
 62
     2
100
AcDbTrace
 10
3614.803870348554
 20
2328.214434947497
 30
0.0
 11
3568.871109246932
 21
2248.463333111287
 31
0.0
 12
3805.148278716445
 22
2301.848556983116
 32
0.0
 13
3805.148278716445
 23
2301.848556983116
 33
0.0
210
0.0
220
0.0
230
1.0
  0
SOLID
  5
40A
330
400
100
AcDbEntity
  8
HATCH
  6
CONTINUOUS
 62
     2
100
AcDbTrace
 10
3826.467924692678
 20
2394.551178771775
 30
0.0
 11
3614.803870348554
 21
2328.214434947497
 31
0.0
 12
3805.148278716445
 22
2301.848556983116
 32
0.0
 13
3805.148278716445
 23
2301.848556983116
 33
0.0
  0
SOLID
  5
40B
330
400
100
AcDbEntity
  8
HATCH
  6
CONTINUOUS
 62
     2
100
AcDbTrace
 10
3678.444817902383
 20
2394.696662504634
 30
0.0
 11
3614.803870348554
 21
2328.214434947497
 31
0.0
 12
3826.467924692678
 22
2394.551178771775
 32
0.0
 13
3826.467924692678
 23
2394.551178771775
 33
0.0
210
0.0
220
0.0
230
1.0
  0
SOLID
  5
40C
330
400
100
AcDbEntity
  8
HATCH
  6
CONTINUOUS
 62
     2
100
AcDbTrace
 10
3819.42946276905
 20
2428.8613290584
 30
0.0
 11
3678.444817902383
 21
2394.696662504634
 31
0.0
 12
3826.467924692678
 22
2394.551178771775
 32
0.0
 13
3826.467924692678
 23
2394.551178771775
 33
0.0
210
0.0
220
0.0
230
1.0
  0
SOLID
  5
40D
330
400
100
AcDbEntity
  8
HATCH
  6
CONTINUOUS
 62
     2
100
AcDbTrace
 10
3756.114952062358
 20
2444.066765260043
 30
0.0
 11
3678.444817902383
 21
2394.696662504634
 31
0.0
 12
3819.42946276905
 22
2428.8613290584
 32
0.0
 13
3819.42946276905
 23
2428.8613290584
 33
0.0
210
0.0
220
0.0
230
1.0
  0
SOLID
  5
40E
330
400
100
AcDbEntity
  8
HATCH
  6
CONTINUOUS
 62
     2
100
AcDbTrace
 10
3790.787597490606
 20
2449.019947868046
 30
0.0
 11
3756.114952062358
 21
2444.066765260043
 31
0.0
 12
3819.42946276905
 22
2428.8613290584
 32
0.0
 13
3819.42946276905
 23
2428.8613290584
 33
0.0
210
0.0
220
0.0
230
1.0
  0
ENDBLK
  5
410
330
400
100
AcDbEntity
  8
0
 62
     5
100
AcDbBlockEnd
  0
BLOCK
  5
420
330
411
100
AcDbEntity
  8
0
 62
     5
100
AcDbBlockBegin
  2
*U13
 70
     1
 10
0.0
 20
0.0
 30
0.0
  3
*U13
  1

  0
SOLID
  5
412
330
411
100
AcDbEntity
  8
HATCH
  6
CONTINUOUS
 62
     2
100
AcDbTrace
 10
3354.146087725769
 20
2149.292971225143
 30
0.0
 11
3191.542579835644
 21
2146.551327323276
 31
0.0
 12
3270.408063967505
 22
2093.079814426394
 32
0.0
 13
3270.408063967505
 23
2093.079814426394
 33
0.0
210
0.0
220
0.0
230
1.0
  0
SOLID
  5
413
330
411
100
AcDbEntity
  8
HATCH
  6
CONTINUOUS
 62
     2
100
AcDbTrace
 10
3354.146087725769
 20
2149.292971225143
 30
0.0
 11
3270.408063967505
 21
2093.079814426394
 31
0.0
 12
3275.234359042818
 22
2089.182479789899
 32
0.0
 13
3275.234359042818
 23
2089.182479789899
 33
0.0
210
0.0
220
0.0
230
1.0
  0
SOLID
  5
414
330
411
100
AcDbEntity
  8
HATCH
  6
CONTINUOUS
 62
     2
100
AcDbTrace
 10
3354.146087725769
 20
2149.292971225143
 30
0.0
 11
3275.234359042818
 21
2089.182479789899
 31
0.0
 12
3278.070976803245
 22
2083.665601949668
 32
0.0
 13
3278.070976803245
 23
2083.665601949668
 33
0.0
210
0.0
220
0.0
230
1.0
  0
SOLID
  5
415
330
411
100
AcDbEntity
  8
HATCH
  6
CONTINUOUS
 62
     2
100
AcDbTrace
 10
3349.139972953347
 20
2153.798167869392
 30
0.0
 11
3191.542579835644
 21
2146.551327323276
 31
0.0
 12
3354.146087725769
 22
2149.292971225143
 32
0.0
 13
3354.146087725769
 23
2149.292971225143
 33
0.0
210
0.0
220
0.0
230
1.0
  0
SOLID
  5
416
330
411
100
AcDbEntity
  8
HATCH
  6
CONTINUOUS
 62
     2
100
AcDbTrace
 10
3346.609604577782
 20
2160.039579392594
 30
0.0
 11
3191.542579835644
 21
2146.551327323276
 31
0.0
 12
3349.139972953347
 22
2153.798167869392
 32
0.0
 13
3349.139972953347
 23
2153.798167869392
 33
0.0
210
0.0
220
0.0
230
1.0
  0
SOLID
  5
417
330
411
100
AcDbEntity
  8
HATCH
  6
CONTINUOUS
 62
     2
100
AcDbTrace
 10
3128.32751969838
 20
2217.845250280823
 30
0.0
 11
3191.542579835644
 21
2146.551327323276
 31
0.0
 12
3346.609604577782
 22
2160.039579392594
 32
0.0
 13
3346.609604577782
 23
2160.039579392594
 33
0.0
210
0.0
220
0.0
230
1.0
  0
SOLID
  5
418
330
411
100
AcDbEntity
  8
HATCH
  6
CONTINUOUS
 62
     2
100
AcDbTrace
 10
3321.157040768151
 20
2248.708342509488
 30
0.0
 11
3128.32751969838
 21
2217.845250280823
 31
0.0
 12
3346.609604577782
 22
2160.039579392594
 32
0.0
 13
3346.609604577782
 23
2160.039579392594
 33
0.0
  0
SOLID
  5
419
330
411
100
AcDbEntity
  8
HATCH
  6
CONTINUOUS
 62
     2
100
AcDbTrace
 10
3084.67997596
 20
2302.543887840353
 30
0.0
 11
3128.32751969838
 21
2217.845250280823
 31
0.0
 12
3321.157040768151
 22
2248.708342509488
 32
0.0
 13
3321.157040768151
 23
2248.708342509488
 33
0.0
  0
SOLID
  5
41A
330
411
100
AcDbEntity
  8
HATCH
  6
CONTINUOUS
 62
     2
100
AcDbTrace
 10
3275.230139193323
 20
2328.712731569711
 30
0.0
 11
3084.67997596
 21
2302.543887840353
 31
0.0
 12
3321.157040768151
 22
2248.708342509488
 32
0.0
 13
3321.157040768151
 23
2248.708342509488
 33
0.0
210
0.0
220
0.0
230
1.0
  0
SOLID
  5
41B
330
411
100
AcDbEntity
  8
HATCH
  6
CONTINUOUS
 62
     2
100
AcDbTrace
 10
3063.304548784959
 20
2395.398927509284
 30
0.0
 11
3084.67997596
 21
2302.543887840353
 31
0.0
 12
3275.230139193323
 22
2328.712731569711
 32
0.0
 13
3275.230139193323
 23
2328.712731569711
 33
0.0
  0
SOLID
  5
41C
330
411
100
AcDbEntity
  8
HATCH
  6
CONTINUOUS
 62
     2
100
AcDbTrace
 10
3211.496388792826
 20
2395.405996724826
 30
0.0
 11
3063.304548784959
 21
2395.398927509284
 31
0.0
 12
3275.230139193323
 22
2328.712731569711
 32
0.0
 13
3275.230139193323
 23
2328.712731569711
 33
0.0
210
0.0
220
0.0
230
1.0
  0
SOLID
  5
41D
330
411
100
AcDbEntity
  8
HATCH
  6
CONTINUOUS
 62
     2
100
AcDbTrace
 10
3070.343010708583
 20
2429.709077795915
 30
0.0
 11
3063.304548784959
 21
2395.398927509284
 31
0.0
 12
3211.496388792826
 22
2395.405996724826
 32
0.0
 13
3211.496388792826
 23
2395.405996724826
 33
0.0
  0
SOLID
  5
41E
330
411
100
AcDbEntity
  8
HATCH
  6
CONTINUOUS
 62
     2
100
AcDbTrace
 10
3133.657521415281
 20
2444.914513997559
 30
0.0
 11
3070.343010708583
 21
2429.709077795915
 31
0.0
 12
3211.496388792826
 22
2395.405996724826
 32
0.0
 13
3211.496388792826
 23
2395.405996724826
 33
0.0
210
0.0
220
0.0
230
1.0
  0
SOLID
  5
41F
330
411
100
AcDbEntity
  8
HATCH
  6
CONTINUOUS
 62
     2
100
AcDbTrace
 10
3098.98487598703
 20
2449.867696605565
 30
0.0
 11
3070.343010708583
 21
2429.709077795915
 31
0.0
 12
3133.657521415281
 22
2444.914513997559
 32
0.0
 13
3133.657521415281
 23
2444.914513997559
 33
0.0
210
0.0
220
0.0
230
1.0
  0
ENDBLK
  5
421
330
411
100
AcDbEntity
  8
0
 62
     5
100
AcDbBlockEnd
  0
BLOCK
  5
431
330
422
100
AcDbEntity
  8
0
 62
     5
100
AcDbBlockBegin
  2
*U14
 70
     1
 10
0.0
 20
0.0
 30
0.0
  3
*U14
  1

  0
SOLID
  5
423
330
422
100
AcDbEntity
  8
HATCH
  6
CONTINUOUS
 62
     2
100
AcDbTrace
 10
3819.42946276905
 20
1499.793436027377
 30
0.0
 11
3756.114952062356
 21
1484.587999825735
 31
0.0
 12
3790.787597490605
 22
1479.634817217729
 32
0.0
 13
3790.787597490605
 23
1479.634817217729
 33
0.0
210
0.0
220
0.0
230
1.0
  0
SOLID
  5
424
330
422
100
AcDbEntity
  8
HATCH
  6
CONTINUOUS
 62
     2
100
AcDbTrace
 10
3678.444817902381
 20
1533.958102581143
 30
0.0
 11
3756.114952062356
 21
1484.587999825735
 31
0.0
 12
3819.42946276905
 22
1499.793436027377
 32
0.0
 13
3819.42946276905
 23
1499.793436027377
 33
0.0
210
0.0
220
0.0
230
1.0
  0
SOLID
  5
425
330
422
100
AcDbEntity
  8
HATCH
  6
CONTINUOUS
 62
     2
100
AcDbTrace
 10
3826.467924692678
 20
1534.103586314004
 30
0.0
 11
3678.444817902381
 21
1533.958102581143
 31
0.0
 12
3819.42946276905
 22
1499.793436027377
 32
0.0
 13
3819.42946276905
 23
1499.793436027377
 33
0.0
210
0.0
220
0.0
230
1.0
  0
SOLID
  5
426
330
422
100
AcDbEntity
  8
HATCH
  6
CONTINUOUS
 62
     2
100
AcDbTrace
 10
3614.803870348552
 20
1600.44033013828
 30
0.0
 11
3678.444817902381
 21
1533.958102581143
 31
0.0
 12
3826.467924692678
 22
1534.103586314004
 32
0.0
 13
3826.467924692678
 23
1534.103586314004
 33
0.0
210
0.0
220
0.0
230
1.0
  0
SOLID
  5
427
330
422
100
AcDbEntity
  8
HATCH
  6
CONTINUOUS
 62
     2
100
AcDbTrace
 10
3805.148278716444
 20
1626.806208102661
 30
0.0
 11
3614.803870348552
 21
1600.44033013828
 31
0.0
 12
3826.467924692678
 22
1534.103586314004
 32
0.0
 13
3826.467924692678
 23
1534.103586314004
 33
0.0
210
0.0
220
0.0
230
1.0
  0
SOLID
  5
428
330
422
100
AcDbEntity
  8
HATCH
  6
CONTINUOUS
 62
     2
100
AcDbTrace
 10
3568.871109246931
 20
1680.19143197449
 30
0.0
 11
3614.803870348552
 21
1600.44033013828
 31
0.0
 12
3805.148278716444
 22
1626.806208102661
 32
0.0
 13
3805.148278716444
 23
1626.806208102661
 33
0.0
210
0.0
220
0.0
230
1.0
  0
SOLID
  5
429
330
422
100
AcDbEntity
  8
HATCH
  6
CONTINUOUS
 62
     2
100
AcDbTrace
 10
3761.628294672755
 20
1711.389388344833
 30
0.0
 11
3568.871109246931
 21
1680.19143197449
 31
0.0
 12
3805.148278716444
 22
1626.806208102661
 32
0.0
 13
3805.148278716444
 23
1626.806208102661
 33
0.0
210
0.0
220
0.0
230
1.0
  0
SOLID
  5
42A
330
422
100
AcDbEntity
  8
HATCH
  6
CONTINUOUS
 62
     2
100
AcDbTrace
 10
3543.301847372035
 20
1768.601101319427
 30
0.0
 11
3568.871109246931
 21
1680.19143197449
 31
0.0
 12
3761.628294672755
 22
1711.389388344833
 32
0.0
 13
3761.628294672755
 23
1711.389388344833
 33
0.0
210
0.0
220
0.0
230
1.0
  0
SOLID
  5
42B
330
422
100
AcDbEntity
  8
HATCH
  6
CONTINUOUS
 62
     2
100
AcDbTrace
 10
3540.763412172901
 20
1774.827976697972
 30
0.0
 11
3543.301847372035
 21
1768.601101319427
 31
0.0
 12
3761.628294672755
 22
1711.389388344833
 32
0.0
 13
3761.628294672755
 23
1711.389388344833
 33
0.0
210
0.0
220
0.0
230
1.0
  0
SOLID
  5
42C
330
422
100
AcDbEntity
  8
HATCH
  6
CONTINUOUS
 62
     2
100
AcDbTrace
 10
3535.759606976507
 20
1779.32014363573
 30
0.0
 11
3540.763412172901
 21
1774.827976697972
 31
0.0
 12
3761.628294672755
 22
1711.389388344833
 32
0.0
 13
3761.628294672755
 23
1711.389388344833
 33
0.0
210
0.0
220
0.0
230
1.0
  0
SOLID
  5
42D
330
422
100
AcDbEntity
  8
HATCH
  6
CONTINUOUS
 62
     2
100
AcDbTrace
 10
3698.595560553294
 20
1782.629670632792
 30
0.0
 11
3535.759606976507
 21
1779.32014363573
 31
0.0
 12
3761.628294672755
 22
1711.389388344833
 32
0.0
 13
3761.628294672755
 23
1711.389388344833
 33
0.0
210
0.0
220
0.0
230
1.0
  0
SOLID
  5
42E
330
422
100
AcDbEntity
  8
HATCH
  6
CONTINUOUS
 62
     2
100
AcDbTrace
 10
3619.942679331729
 20
1836.127592710094
 30
0.0
 11
3535.759606976507
 21
1779.32014363573
 31
0.0
 12
3698.595560553294
 22
1782.629670632792
 32
0.0
 13
3698.595560553294
 23
1782.629670632792
 33
0.0
210
0.0
220
0.0
230
1.0
  0
SOLID
  5
42F
330
422
100
AcDbEntity
  8
HATCH
  6
CONTINUOUS
 62
     2
100
AcDbTrace
 10
3617.185195596211
 20
1837.946270633137
 30
0.0
 11
3535.759606976507
 21
1779.32014363573
 31
0.0
 12
3619.942679331729
 22
1836.127592710094
 32
0.0
 13
3619.942679331729
 23
1836.127592710094
 33
0.0
  0
SOLID
  5
430
330
422
100
AcDbEntity
  8
HATCH
  6
CONTINUOUS
 62
     2
100
AcDbTrace
 10
3614.892638705602
 20
1840.324397804407
 30
0.0
 11
3535.759606976507
 21
1779.32014363573
 31
0.0
 12
3617.185195596211
 22
1837.946270633137
 32
0.0
 13
3617.185195596211
 23
1837.946270633137
 33
0.0
210
0.0
220
0.0
230
1.0
  0
ENDBLK
  5
432
330
422
100
AcDbEntity
  8
0
 62
     5
100
AcDbBlockEnd
  0
BLOCK
  5
44E
330
441
100
AcDbEntity
  8
0
 62
     5
100
AcDbBlockBegin
  2
*U15
 70
     1
 10
0.0
 20
0.0
 30
0.0
  3
*U15
  1

  0
SOLID
  5
442
330
441
100
AcDbEntity
  8
HATCH
  6
CONTINUOUS
 62
     2
100
AcDbTrace
 10
3070.343010708581
 20
1498.945687289864
 30
0.0
 11
3098.98487598703
 21
1478.787068480211
 31
0.0
 12
3133.657521415284
 22
1483.740251088219
 32
0.0
 13
3133.657521415284
 23
1483.740251088219
 33
0.0
210
0.0
220
0.0
230
1.0
  0
SOLID
  5
443
330
441
100
AcDbEntity
  8
HATCH
  6
CONTINUOUS
 62
     2
100
AcDbTrace
 10
3211.496388792828
 20
1533.248768360951
 30
0.0
 11
3070.343010708581
 21
1498.945687289864
 31
0.0
 12
3133.657521415284
 22
1483.740251088219
 32
0.0
 13
3133.657521415284
 23
1483.740251088219
 33
0.0
210
0.0
220
0.0
230
1.0
  0
SOLID
  5
444
330
441
100
AcDbEntity
  8
HATCH
  6
CONTINUOUS
 62
     2
100
AcDbTrace
 10
3063.30454878496
 20
1533.255837576498
 30
0.0
 11
3070.343010708581
 21
1498.945687289864
 31
0.0
 12
3211.496388792828
 22
1533.248768360951
 32
0.0
 13
3211.496388792828
 23
1533.248768360951
 33
0.0
  0
SOLID
  5
445
330
441
100
AcDbEntity
  8
HATCH
  6
CONTINUOUS
 62
     2
100
AcDbTrace
 10
3275.230139193324
 20
1599.942033516066
 30
0.0
 11
3063.30454878496
 21
1533.255837576498
 31
0.0
 12
3211.496388792828
 22
1533.248768360951
 32
0.0
 13
3211.496388792828
 23
1533.248768360951
 33
0.0
  0
SOLID
  5
446
330
441
100
AcDbEntity
  8
HATCH
  6
CONTINUOUS
 62
     2
100
AcDbTrace
 10
3084.679975960002
 20
1626.110877245428
 30
0.0
 11
3063.30454878496
 21
1533.255837576498
 31
0.0
 12
3275.230139193324
 22
1599.942033516066
 32
0.0
 13
3275.230139193324
 23
1599.942033516066
 33
0.0
210
0.0
220
0.0
230
1.0
  0
SOLID
  5
447
330
441
100
AcDbEntity
  8
HATCH
  6
CONTINUOUS
 62
     2
100
AcDbTrace
 10
3321.157040768151
 20
1679.946422576288
 30
0.0
 11
3084.679975960002
 21
1626.110877245428
 31
0.0
 12
3275.230139193324
 22
1599.942033516066
 32
0.0
 13
3275.230139193324
 23
1599.942033516066
 33
0.0
210
0.0
220
0.0
230
1.0
  0
SOLID
  5
448
330
441
100
AcDbEntity
  8
HATCH
  6
CONTINUOUS
 62
     2
100
AcDbTrace
 10
3128.327519698382
 20
1710.809514804956
 30
0.0
 11
3084.679975960002
 21
1626.110877245428
 31
0.0
 12
3321.157040768151
 22
1679.946422576288
 32
0.0
 13
3321.157040768151
 23
1679.946422576288
 33
0.0
210
0.0
220
0.0
230
1.0
  0
SOLID
  5
449
330
441
100
AcDbEntity
  8
HATCH
  6
CONTINUOUS
 62
     2
100
AcDbTrace
 10
3346.609604577782
 20
1768.615185693183
 30
0.0
 11
3128.327519698382
 21
1710.809514804956
 31
0.0
 12
3321.157040768151
 22
1679.946422576288
 32
0.0
 13
3321.157040768151
 23
1679.946422576288
 33
0.0
210
0.0
220
0.0
230
1.0
  0
SOLID
  5
44A
330
441
100
AcDbEntity
  8
HATCH
  6
CONTINUOUS
 62
     2
100
AcDbTrace
 10
3347.633684834466
 20
1772.15248321194
 30
0.0
 11
3128.327519698382
 21
1710.809514804956
 31
0.0
 12
3346.609604577782
 22
1768.615185693183
 32
0.0
 13
3346.609604577782
 23
1768.615185693183
 33
0.0
  0
SOLID
  5
44B
330
441
100
AcDbEntity
  8
HATCH
  6
CONTINUOUS
 62
     2
100
AcDbTrace
 10
3349.488755462567
 20
1775.333666493849
 30
0.0
 11
3128.327519698382
 21
1710.809514804956
 31
0.0
 12
3347.633684834466
 22
1772.15248321194
 32
0.0
 13
3347.633684834466
 23
1772.15248321194
 33
0.0
210
0.0
220
0.0
230
1.0
  0
SOLID
  5
44C
330
441
100
AcDbEntity
  8
HATCH
  6
CONTINUOUS
 62
     2
100
AcDbTrace
 10
3191.542579835645
 20
1782.103437762502
 30
0.0
 11
3128.327519698382
 21
1710.809514804956
 31
0.0
 12
3349.488755462567
 22
1775.333666493849
 32
0.0
 13
3349.488755462567
 23
1775.333666493849
 33
0.0
210
0.0
220
0.0
230
1.0
  0
SOLID
  5
44D
330
441
100
AcDbEntity
  8
HATCH
  6
CONTINUOUS
 62
     2
100
AcDbTrace
 10
3270.408063967505
 20
1835.574950659383
 30
0.0
 11
3191.542579835645
 21
1782.103437762502
 31
0.0
 12
3349.488755462567
 22
1775.333666493849
 32
0.0
 13
3349.488755462567
 23
1775.333666493849
 33
0.0
210
0.0
220
0.0
230
1.0
  0
ENDBLK
  5
44F
330
441
100
AcDbEntity
  8
0
 62
     5
100
AcDbBlockEnd
  0
BLOCK
  5
461
330
450
100
AcDbEntity
  8
0
 62
     5
100
AcDbBlockBegin
  2
*U16
 70
     1
 10
0.0
 20
0.0
 30
0.0
  3
*U16
  1

  0
SOLID
  5
451
330
450
100
AcDbEntity
  8
HATCH
  6
CONTINUOUS
 62
     2
100
AcDbTrace
 10
3015.151730700381
 20
2011.272935865388
 30
0.0
 11
3003.447342274481
 21
1964.327382542888
 31
0.0
 12
3222.529240661611
 22
1964.327382542888
 32
0.0
 13
3222.529240661611
 23
1964.327382542888
 33
0.0
210
0.0
220
0.0
230
1.0
  0
SOLID
  5
452
330
450
100
AcDbEntity
  8
HATCH
  6
CONTINUOUS
 62
     2
100
AcDbTrace
 10
3222.52924066161
 20
2014.327382542888
 30
0.0
 11
3015.151730700381
 21
2011.272935865388
 31
0.0
 12
3222.529240661611
 22
1964.327382542888
 32
0.0
 13
3222.529240661611
 23
1964.327382542888
 33
0.0
210
0.0
220
0.0
230
1.0
  0
SOLID
  5
453
330
450
100
AcDbEntity
  8
HATCH
  6
CONTINUOUS
 62
     2
100
AcDbTrace
 10
3210.685395222116
 20
2014.327382542888
 30
0.0
 11
3015.151730700381
 21
2011.272935865388
 31
0.0
 12
3222.52924066161
 22
2014.327382542888
 32
0.0
 13
3222.52924066161
 23
2014.327382542888
 33
0.0
210
0.0
220
0.0
230
1.0
  0
SOLID
  5
454
330
450
100
AcDbEntity
  8
HATCH
  6
CONTINUOUS
 62
     2
100
AcDbTrace
 10
3193.782310127545
 20
2018.074303855889
 30
0.0
 11
3015.151730700381
 21
2011.272935865388
 31
0.0
 12
3210.685395222116
 22
2014.327382542888
 32
0.0
 13
3210.685395222116
 23
2014.327382542888
 33
0.0
210
0.0
220
0.0
230
1.0
  0
SOLID
  5
455
330
450
100
AcDbEntity
  8
HATCH
  6
CONTINUOUS
 62
     2
100
AcDbTrace
 10
3180.045951522792
 20
2028.613096828602
 30
0.0
 11
3015.151730700381
 21
2011.272935865388
 31
0.0
 12
3193.782310127545
 22
2018.074303855889
 32
0.0
 13
3193.782310127545
 23
2018.074303855889
 33
0.0
210
0.0
220
0.0
230
1.0
  0
SOLID
  5
456
330
450
100
AcDbEntity
  8
HATCH
  6
CONTINUOUS
 62
     2
100
AcDbTrace
 10
3047.525041809596
 20
2047.229109368781
 30
0.0
 11
3015.151730700381
 21
2011.272935865388
 31
0.0
 12
3180.045951522792
 22
2028.613096828602
 32
0.0
 13
3180.045951522792
 23
2028.613096828602
 33
0.0
210
0.0
220
0.0
230
1.0
  0
SOLID
  5
457
330
450
100
AcDbEntity
  8
HATCH
  6
CONTINUOUS
 62
     2
100
AcDbTrace
 10
3140.901268488782
 20
2057.048488075197
 30
0.0
 11
3047.525041809596
 21
2047.229109368781
 31
0.0
 12
3180.045951522792
 22
2028.613096828602
 32
0.0
 13
3180.045951522792
 23
2028.613096828602
 33
0.0
210
0.0
220
0.0
230
1.0
  0
SOLID
  5
458
330
450
100
AcDbEntity
  8
HATCH
  6
CONTINUOUS
 62
     2
100
AcDbTrace
 10
3092.989079445028
 20
2063.779002633211
 30
0.0
 11
3047.525041809596
 21
2047.229109368781
 31
0.0
 12
3140.901268488782
 22
2057.048488075197
 32
0.0
 13
3140.901268488782
 23
2057.048488075197
 33
0.0
210
0.0
220
0.0
230
1.0
  0
SOLID
  5
459
330
450
100
AcDbEntity
  8
HATCH
  6
CONTINUOUS
 62
     2
100
AcDbTrace
 10
3047.525041809595
 20
1881.425655716994
 30
0.0
 11
3092.989079445027
 21
1864.875762452564
 31
0.0
 12
3140.901268488782
 22
1871.606277010578
 32
0.0
 13
3140.901268488782
 23
1871.606277010578
 33
0.0
210
0.0
220
0.0
230
1.0
  0
SOLID
  5
45A
330
450
100
AcDbEntity
  8
HATCH
  6
CONTINUOUS
 62
     2
100
AcDbTrace
 10
3180.045951522792
 20
1900.041668257173
 30
0.0
 11
3047.525041809595
 21
1881.425655716994
 31
0.0
 12
3140.901268488782
 22
1871.606277010578
 32
0.0
 13
3140.901268488782
 23
1871.606277010578
 33
0.0
210
0.0
220
0.0
230
1.0
  0
SOLID
  5
45B
330
450
100
AcDbEntity
  8
HATCH
  6
CONTINUOUS
 62
     2
100
AcDbTrace
 10
3193.782310127546
 20
1910.580461229886
 30
0.0
 11
3047.525041809595
 21
1881.425655716994
 31
0.0
 12
3180.045951522792
 22
1900.041668257173
 32
0.0
 13
3180.045951522792
 23
1900.041668257173
 33
0.0
  0
SOLID
  5
45C
330
450
100
AcDbEntity
  8
HATCH
  6
CONTINUOUS
 62
     2
100
AcDbTrace
 10
3210.685395222116
 20
1914.327382542888
 30
0.0
 11
3047.525041809595
 21
1881.425655716994
 31
0.0
 12
3193.782310127546
 22
1910.580461229886
 32
0.0
 13
3193.782310127546
 23
1910.580461229886
 33
0.0
210
0.0
220
0.0
230
1.0
  0
SOLID
  5
45D
330
450
100
AcDbEntity
  8
HATCH
  6
CONTINUOUS
 62
     2
100
AcDbTrace
 10
3015.151730700381
 20
1917.381829220388
 30
0.0
 11
3210.685395222116
 21
1914.327382542888
 31
0.0
 12
3222.529240661611
 22
1914.327382542888
 32
0.0
 13
3222.529240661611
 23
1914.327382542888
 33
0.0
210
0.0
220
0.0
230
1.0
  0
SOLID
  5
45E
330
450
100
AcDbEntity
  8
HATCH
  6
CONTINUOUS
 62
     2
100
AcDbTrace
 10
3015.151730700381
 20
1917.381829220388
 30
0.0
 11
3047.525041809595
 21
1881.425655716994
 31
0.0
 12
3210.685395222116
 22
1914.327382542888
 32
0.0
 13
3210.685395222116
 23
1914.327382542888
 33
0.0
210
0.0
220
0.0
230
1.0
  0
SOLID
  5
45F
330
450
100
AcDbEntity
  8
HATCH
  6
CONTINUOUS
 62
     2
100
AcDbTrace
 10
3015.151730700381
 20
1917.381829220388
 30
0.0
 11
3222.529240661612
 21
1964.327382542888
 31
0.0
 12
3003.447342274481
 22
1964.327382542888
 32
0.0
 13
3003.447342274481
 23
1964.327382542888
 33
0.0
210
0.0
220
0.0
230
1.0
  0
SOLID
  5
460
330
450
100
AcDbEntity
  8
HATCH
  6
CONTINUOUS
 62
     2
100
AcDbTrace
 10
3222.529240661612
 20
1964.327382542888
 30
0.0
 11
3015.151730700381
 21
1917.381829220388
 31
0.0
 12
3222.529240661611
 22
1914.327382542888
 32
0.0
 13
3222.529240661611
 23
1914.327382542888
 33
0.0
  0
ENDBLK
  5
462
330
450
100
AcDbEntity
  8
0
 62
     5
100
AcDbBlockEnd
  0
BLOCK
  5
477
330
469
100
AcDbEntity
  8
0
 62
     5
100
AcDbBlockBegin
  2
*U17
 70
     1
 10
0.0
 20
0.0
 30
0.0
  3
*U17
  1

  0
SOLID
  5
46A
330
469
100
AcDbEntity
  8
HATCH
  6
CONTINUOUS
 62
     2
100
AcDbTrace
 10
3676.815571115244
 20
1917.703496840697
 30
0.0
 11
3837.633962191342
 21
1899.50099033706
 31
0.0
 12
3999.286424653618
 22
1907.398301981061
 32
0.0
 13
3999.286424653618
 23
1907.398301981061
 33
0.0
210
0.0
220
0.0
230
1.0
  0
SOLID
  5
46B
330
469
100
AcDbEntity
  8
HATCH
  6
CONTINUOUS
 62
     2
100
AcDbTrace
 10
3672.988174347386
 20
1918.262815600101
 30
0.0
 11
3676.815571115244
 21
1917.703496840697
 31
0.0
 12
3999.286424653618
 22
1907.398301981061
 32
0.0
 13
3999.286424653618
 23
1907.398301981061
 33
0.0
  0
SOLID
  5
46C
330
469
100
AcDbEntity
  8
HATCH
  6
CONTINUOUS
 62
     2
100
AcDbTrace
 10
3669.124649265108
 20
1918.449838143766
 30
0.0
 11
3672.988174347386
 21
1918.262815600101
 31
0.0
 12
3999.286424653618
 22
1907.398301981061
 32
0.0
 13
3999.286424653618
 23
1907.398301981061
 33
0.0
  0
SOLID
  5
46D
330
469
100
AcDbEntity
  8
HATCH
  6
CONTINUOUS
 62
     2
100
AcDbTrace
 10
4157.564717067617
 20
1941.189843849231
 30
0.0
 11
3669.124649265108
 21
1918.449838143766
 31
0.0
 12
3999.286424653618
 22
1907.398301981061
 32
0.0
 13
3999.286424653618
 23
1907.398301981061
 33
0.0
210
0.0
220
0.0
230
1.0
  0
SOLID
  5
46E
330
469
100
AcDbEntity
  8
HATCH
  6
CONTINUOUS
 62
     2
100
AcDbTrace
 10
4172.114644581909
 20
1949.843607218627
 30
0.0
 11
3669.124649265108
 21
1918.449838143766
 31
0.0
 12
4157.564717067617
 22
1941.189843849231
 32
0.0
 13
4157.564717067617
 23
1941.189843849231
 33
0.0
210
0.0
220
0.0
230
1.0
  0
SOLID
  5
46F
330
469
100
AcDbEntity
  8
HATCH
  6
CONTINUOUS
 62
     2
100
AcDbTrace
 10
4180.87867695753
 20
1964.327382542888
 30
0.0
 11
3669.124649265108
 21
1918.449838143766
 31
0.0
 12
4172.114644581909
 22
1949.843607218627
 32
0.0
 13
4172.114644581909
 23
1949.843607218627
 33
0.0
210
0.0
220
0.0
230
1.0
  0
SOLID
  5
470
330
469
100
AcDbEntity
  8
HATCH
  6
CONTINUOUS
 62
     2
100
AcDbTrace
 10
4172.11464458164
 20
1978.811157867416
 30
0.0
 11
3669.124649265108
 21
1918.449838143766
 31
0.0
 12
4180.87867695753
 22
1964.327382542888
 32
0.0
 13
4180.87867695753
 23
1964.327382542888
 33
0.0
  0
SOLID
  5
471
330
469
100
AcDbEntity
  8
HATCH
  6
CONTINUOUS
 62
     2
100
AcDbTrace
 10
4157.564717066891
 20
1987.464921236762
 30
0.0
 11
3669.124649265108
 21
1918.449838143766
 31
0.0
 12
4172.11464458164
 22
1978.811157867416
 32
0.0
 13
4172.11464458164
 23
1978.811157867416
 33
0.0
210
0.0
220
0.0
230
1.0
  0
SOLID
  5
472
330
469
100
AcDbEntity
  8
HATCH
  6
CONTINUOUS
 62
     2
100
AcDbTrace
 10
3669.124649265108
 20
2010.20492694201
 30
0.0
 11
3669.124649265108
 21
1918.449838143766
 31
0.0
 12
4157.564717066891
 22
1987.464921236762
 32
0.0
 13
4157.564717066891
 23
1987.464921236762
 33
0.0
210
0.0
220
0.0
230
1.0
  0
SOLID
  5
473
330
469
100
AcDbEntity
  8
HATCH
  6
CONTINUOUS
 62
     2
100
AcDbTrace
 10
3672.988174354403
 20
2010.391949486356
 30
0.0
 11
3669.124649265108
 21
2010.20492694201
 31
0.0
 12
4157.564717066891
 22
1987.464921236762
 32
0.0
 13
4157.564717066891
 23
1987.464921236762
 33
0.0
210
0.0
220
0.0
230
1.0
  0
SOLID
  5
474
330
469
100
AcDbEntity
  8
HATCH
  6
CONTINUOUS
 62
     2
100
AcDbTrace
 10
3676.815571129081
 20
2010.951268247791
 30
0.0
 11
3672.988174354403
 21
2010.391949486356
 31
0.0
 12
4157.564717066891
 22
1987.464921236762
 32
0.0
 13
4157.564717066891
 23
1987.464921236762
 33
0.0
210
0.0
220
0.0
230
1.0
  0
SOLID
  5
475
330
469
100
AcDbEntity
  8
HATCH
  6
CONTINUOUS
 62
     2
100
AcDbTrace
 10
3999.286424657777
 20
2021.256463104173
 30
0.0
 11
3676.815571129081
 21
2010.951268247791
 31
0.0
 12
4157.564717066891
 22
1987.464921236762
 32
0.0
 13
4157.564717066891
 23
1987.464921236762
 33
0.0
210
0.0
220
0.0
230
1.0
  0
SOLID
  5
476
330
469
100
AcDbEntity
  8
HATCH
  6
CONTINUOUS
 62
     2
100
AcDbTrace
 10
3837.633962200484
 20
2029.153774749008
 30
0.0
 11
3676.815571129081
 21
2010.951268247791
 31
0.0
 12
3999.286424657777
 22
2021.256463104173
 32
0.0
 13
3999.286424657777
 23
2021.256463104173
 33
0.0
210
0.0
220
0.0
230
1.0
  0
ENDBLK
  5
478
330
469
100
AcDbEntity
  8
0
 62
     5
100
AcDbBlockEnd
  0
ENDSEC
  0
SECTION
  2
ENTITIES
  0
INSERT
  5
15E
330
1F
100
AcDbEntity
  8
0
100
AcDbBlockReference
  2
AAKM
 10
0.0
 20
0.0
 30
0.0
  0
MTEXT
  5
191
330
1F
100
AcDbEntity
  8
TEKST
100
AcDbMText
 10
1726.084929271339
 20
3175.68211224081
 30
0.0
 40
75.18097186823435
 41
868.6785999999997
 71
     1
 72
     1
  1
{\FIMPACT.TTF;Hoogte: 65 cm\PMax. valhoogte: 52 cm}
1001
ACAD
1000
MTEXTBEGIN
1070
    73
1070
     1
1070
    44
1040
1.0
1070
    74
1070
     0
1000
MTEXTEND
1000
MTEXTBEGIN
1070
    73
1070
     1
1070
    44
1040
1.0
1070
    74
1070
     0
1000
MTEXTEND
  0
INSERT
  5
26F
330
1F
100
AcDbEntity
  8
HATCH
  6
CONTINUOUS
 62
     5
100
AcDbBlockReference
  2
*U10
 10
0.0
 20
0.0
 30
0.0
1001
ACAD
1002
{
1000
R14_HATCH_DATA
1000
26F
1011
1.0
1021
0.0
1031
0.0
1011
0.0
1021
1.0
1031
0.0
1011
0.0
1021
0.0
1031
1.0
1040
0.0
1010
0.0
1020
0.0
1030
1.0
1000
SOLID
1070
     1
1070
     1
1071
        8
1071
        5
1071
       10
1070
     4
1070
     3
1070
     0
1070
     0
1071
       18
1071
       14
1040
0.0
1040
0.0
1040
0.0
1040
0.0
1040
1.171933420160778
1040
1.171933420160778
1040
2.343866840321569
1040
2.343866840321569
1040
3.515800260482314
1040
3.515800260482314
1040
4.117759217918468
1040
4.117759217918468
1040
4.719718175354461
1040
4.719718175354461
1040
4.724430566551651
1040
4.724430566551651
1040
4.724430566551651
1040
4.724430566551651
1040
2853.249152965111
1040
2122.979016862446
1040
2853.249152965111
1040
2123.369661335832
1040
2853.172851412813
1040
2123.756571035135
1040
2852.876234774807
1040
2124.479364911981
1040
2852.658755505816
1040
2124.808338786109
1040
2852.109937579722
1040
2125.364406499925
1040
2851.783845921121
1040
2125.586184029191
1040
2851.23981181859
1040
2125.817829405874
1040
2851.047775794576
1040
2125.877717122385
1040
2850.654633978463
1040
2125.958252799481
1040
2850.454518092412
1040
2125.978697976365
1040
2850.252294559019
1040
2125.979015628743
1040
2850.250723762174
1040
2125.979016862446
1040
2850.24915296511
1040
2125.979016862446
1070
     4
1070
     3
1070
     0
1070
     0
1071
       50
1071
       46
1040
-1086.314417252274
1040
-1086.314417252274
1040
-1086.314417252274
1040
-1086.314417252274
1040
-1081.852148648902
1040
-1081.852148648902
1040
-1081.852148648902
1040
-1076.664389273515
1040
-1076.664389273515
1040
-1076.664389273515
1040
-1070.817255511381
1040
-1070.817255511381
1040
-1070.817255511381
1040
-1062.631268244395
1040
-1062.631268244395
1040
-1062.631268244395
1040
-1053.160767524256
1040
-1053.160767524256
1040
-1053.160767524256
1040
-1039.902066516062
1040
-1039.902066516062
1040
-1039.902066516062
1040
-1021.339885104591
1040
-1021.339885104591
1040
-1021.339885104591
1040
-995.3528311285321
1040
-995.3528311285321
1040
-995.3528311285321
1040
-959.3078823620212
1040
-959.3078823620212
1040
-959.3078823620212
1040
-928.9590672805998
1040
-928.9590672805998
1040
-928.9590672805998
1040
-886.4707261666092
1040
-886.4707261666092
1040
-886.4707261666092
1040
-826.9870486070225
1040
-826.9870486070225
1040
-826.9870486070225
1040
-743.7099000236011
1040
-743.7099000236011
1040
-743.7099000236011
1040
-628.6595896016592
1040
-628.6595896016592
1040
-628.6595896016592
1040
-546.8044543310432
1040
-546.8044543310432
1040
-546.8044543310432
1040
-546.8044543310432
1040
2849.801271073898
1040
2125.979016862446
1040
2849.401099564391
1040
2125.979016862446
1040
2848.762635416944
1040
2125.979016862446
1040
2847.977064374607
1040
2125.979016862446
1040
2847.063772526412
1040
2125.979016862446
1040
2845.960440612357
1040
2125.979016862446
1040
2844.774165608231
1040
2125.979016862446
1040
2843.437112725498
1040
2125.979016862446
1040
2841.976033239533
1040
2125.979016862446
1040
2840.444501209184
1040
2125.979016862446
1040
2838.300356366696
1040
2125.979016862446
1040
2836.017912298413
1040
2125.979016862446
1040
2833.691971725306
1040
2125.979016862446
1040
2831.001053555736
1040
2125.979016862446
1040
2828.227846755408
1040
2125.979016862446
1040
2825.409005258009
1040
2125.979016862446
1040
2821.462627161645
1040
2125.979016862446
1040
2817.42553206673
1040
2125.979016862446
1040
2813.332364403898
1040
2125.979016862446
1040
2807.601929675927
1040
2125.979016862446
1040
2801.758227187661
1040
2125.979016862446
1040
2795.836002198231
1040
2125.979016862446
1040
2787.544887213024
1040
2125.979016862446
1040
2779.094762240098
1040
2125.979016862446
1040
2770.582439419313
1040
2125.979016862446
1040
2758.775551257159
1040
2125.979016862446
1040
2746.916603275635
1040
2125.979016862446
1040
2735.107741300383
1040
2125.979016862446
1040
2725.165017543705
1040
2125.979016862446
1040
2715.185526528754
1040
2125.979016862446
1040
2705.181952942463
1040
2125.979016862446
1040
2691.176949921652
1040
2125.979016862446
1040
2677.124708253427
1040
2125.979016862446
1040
2663.041953458307
1040
2125.979016862446
1040
2643.326096745141
1040
2125.979016862446
1040
2623.549899285876
1040
2125.979016862446
1040
2603.734090593758
1040
2125.979016862446
1040
2575.991958424793
1040
2125.979016862446
1040
2548.170081017357
1040
2125.979016862446
1040
2520.30921125053
1040
2125.979016862446
1040
2481.818439534352
1040
2125.979016862446
1040
2443.247190842167
1040
2125.979016862446
1040
2404.759052518848
1040
2125.979016862446
1040
2377.375799425356
1040
2125.979016862446
1040
2350.036157444779
1040
2125.979016862446
1040
2322.831294938779
1040
2125.979016862446
1070
     1
1040
2322.831294938779
1040
2125.979016862446
1040
2279.43186480379
1040
2125.979016862446
1070
     2
1040
2279.431864803778
1040
2122.979016862446
1040
2.999999999999999
1040
1.570796326790803
1040
3.141592653589793
1070
     1
1070
     1
1040
2276.431864803778
1040
2122.979016862446
1040
2276.431864803778
1040
2110.979016862446
1070
     2
1040
2279.431864803787
1040
2110.979016862454
1040
3.000000000009548
1040
3.141592653592673
1040
4.71238898038484
1070
     1
1070
     1
1040
2279.431864803787
1040
2107.979016862445
1040
2322.831294938779
1040
2107.979016862445
1070
     4
1070
     3
1070
     0
1070
     0
1071
       53
1071
       49
1040
0.0
1040
0.0
1040
0.0
1040
0.0
1040
81.85513527088041
1040
81.85513527088041
1040
81.85513527088041
1040
196.9054456927533
1040
196.9054456927533
1040
196.9054456927533
1040
280.1825942761353
1040
280.1825942761353
1040
280.1825942761353
1040
339.6662718356939
1040
339.6662718356939
1040
339.6662718356939
1040
382.1546129496644
1040
382.1546129496644
1040
382.1546129496644
1040
412.5034280310718
1040
412.5034280310718
1040
412.5034280310718
1040
448.5483767975757
1040
448.5483767975757
1040
448.5483767975757
1040
474.5354307736026
1040
474.5354307736026
1040
474.5354307736026
1040
493.0976121850504
1040
493.0976121850504
1040
493.0976121850504
1040
506.3563131932273
1040
506.3563131932273
1040
506.3563131932273
1040
515.8268139133537
1040
515.8268139133537
1040
515.8268139133537
1040
524.0128011803398
1040
524.0128011803398
1040
524.0128011803398
1040
529.8599349424724
1040
529.8599349424724
1040
529.8599349424724
1040
535.0476943178591
1040
535.0476943178591
1040
535.0476943178591
1040
539.6972942486495
1040
539.6972942486495
1040
539.6972942486495
1040
542.7420497473088
1040
542.7420497473088
1040
542.7420497473088
1040
542.7420497473088
1040
2322.831294938779
1040
2107.979016862445
1040
2350.03615744487
1040
2107.979016862445
1040
2377.37579942553
1040
2107.979016862445
1040
2404.759052519114
1040
2107.979016862445
1040
2443.247190842407
1040
2107.979016862445
1040
2481.818439534576
1040
2107.979016862445
1040
2520.309211250728
1040
2107.979016862445
1040
2548.17008101754
1040
2107.979016862445
1040
2575.99195842496
1040
2107.979016862445
1040
2603.734090593915
1040
2107.979016862445
1040
2623.549899286021
1040
2107.979016862445
1040
2643.326096745274
1040
2107.979016862445
1040
2663.041953458438
1040
2107.979016862445
1040
2677.12470825355
1040
2107.979016862445
1040
2691.176949921764
1040
2107.979016862445
1040
2705.181952942568
1040
2107.979016862445
1040
2715.185526528856
1040
2107.979016862445
1040
2725.165017543799
1040
2107.979016862445
1040
2735.107741300474
1040
2107.979016862445
1040
2746.916603275722
1040
2107.979016862445
1040
2758.77555125725
1040
2107.979016862445
1040
2770.582439419396
1040
2107.979016862445
1040
2779.094762240171
1040
2107.979016862445
1040
2787.544887213082
1040
2107.979016862445
1040
2795.836002198283
1040
2107.979016862445
1040
2801.758227187706
1040
2107.979016862445
1040
2807.601929675963
1040
2107.979016862445
1040
2813.332364403928
1040
2107.979016862445
1040
2817.425532066753
1040
2107.979016862445
1040
2821.462627161664
1040
2107.979016862445
1040
2825.409005258016
1040
2107.979016862445
1040
2828.227846755416
1040
2107.979016862445
1040
2831.001053555739
1040
2107.979016862445
1040
2833.691971725309
1040
2107.979016862445
1040
2836.017912298418
1040
2107.979016862445
1040
2838.300356366696
1040
2107.979016862445
1040
2840.444501209184
1040
2107.979016862445
1040
2841.976033239533
1040
2107.979016862445
1040
2843.437112725498
1040
2107.979016862445
1040
2844.774165608231
1040
2107.979016862445
1040
2845.960440612357
1040
2107.979016862445
1040
2847.063772526412
1040
2107.979016862445
1040
2847.977064374607
1040
2107.979016862445
1040
2848.795614620847
1040
2107.979016862445
1040
2849.454447264291
1040
2107.979016862445
1040
2849.850403435599
1040
2107.979016862445
1040
2850.109692352443
1040
2107.979016862445
1040
2850.247863177671
1040
2107.979016862445
1040
2850.24915296511
1040
2107.979016862445
1070
     4
1070
     3
1070
     0
1070
     0
1071
       18
1071
       14
1040
-0.0047123911969002
1040
-0.0047123911969002
1040
-0.0047123911969002
1040
-0.0047123911969002
1040
0.0
1040
0.0
1040
1.187048368610014
1040
1.187048368610014
1040
2.358981788770818
1040
2.358981788770818
1040
3.145499721517851
1040
3.145499721517851
1040
3.932017654264911
1040
3.932017654264911
1040
4.718535587011971
1040
4.718535587011971
1040
4.718535587011971
1040
4.718535587011971
1040
2850.24915296511
1040
2107.979016862445
1040
2850.250723762174
1040
2107.979016862445
1040
2850.252294559019
1040
2107.979018096146
1040
2850.64954765553
1040
2107.979642100628
1040
2851.04122560091
1040
2108.058539879219
1040
2851.766706135377
1040
2108.361836035677
1040
2852.094245952505
1040
2108.581469162721
1040
2852.555857363261
1040
2109.043080573476
1040
2852.716142854334
1040
2109.251968692347
1040
2852.978315498587
1040
2109.706065032542
1040
2853.079075170537
1040
2109.949320399111
1040
2853.214785717415
1040
2110.455799055164
1040
2853.249152965111
1040
2110.716844218196
1040
2853.249152965111
1040
2110.979016862446
1070
     1
1040
2853.249152965111
1040
2110.979016862445
1040
2853.249152965111
1040
2122.979016862447
1071
        1
1005
15E
1071
        7
1070
     1
1070
     1
1071
        2
1040
2268.043163452019
1040
2116.979016862444
1040
1.0
1040
1968.043163452019
1040
2116.979016862444
1040
1.0
1071
        1
1005
15E
1071
       22
1070
     1
1070
     1
1071
        2
1040
2013.043163452019
1040
2116.979016862444
1040
-1.0
1040
2223.043163452019
1040
2116.979016862444
1040
-1.0
1071
        1
1005
15E
1071
       22
1070
     1
1070
     1
1071
        2
1040
2210.437006524646
1040
2023.211464483475
1040
-1.0
1040
2198.437006524646
1040
2023.211464483475
1040
-1.0
1071
        1
1005
15E
1071
       22
1070
     1
1070
     1
1071
        2
1040
2198.437006524646
1040
2210.746569241412
1040
-1.0
1040
2210.437006524646
1040
2210.746569241412
1040
-1.0
1071
        1
1005
15E
1071
       22
1070
     1
1070
     1
1071
        2
1040
2039.854596522824
1040
2021.226548495263
1040
-1.0
1040
2027.854596522824
1040
2021.226548495263
1040
-1.0
1071
        1
1005
15E
1071
       22
1070
     1
1070
     1
1071
        2
1040
2027.854596522824
1040
2212.731485229628
1040
-1.0
1040
2039.854596522824
1040
2212.731485229628
1040
-1.0
1071
        1
1005
15E
1071
        5
1071
        8
1070
     4
1070
     3
1070
     0
1070
     0
1071
       22
1071
       18
1040
17.81009623120778
1040
17.81009623120778
1040
17.81009623120778
1040
17.81009623120778
1040
18.36472236098785
1040
18.36472236098785
1040
18.91934849076791
1040
18.91934849076791
1040
19.47512927903884
1040
19.47512927903884
1040
20.0309100673098
1040
20.0309100673098
1040
20.58813597116455
1040
20.58813597116455
1040
21.14536187501931
1040
21.14536187501931
1040
21.70386357547303
1040
21.70386357547303
1040
22.26236527592673
1040
22.26236527592673
1040
22.26236527592673
1040
22.26236527592673
1040
1876.06948657065
1040
2122.979016862446
1040
1876.06948657065
1040
2123.163892239038
1040
1876.051194883816
1040
2123.365791627138
1040
1875.972343267705
1040
2123.761163758869
1040
1875.911785042162
1040
2123.954636842282
1040
1875.769854410474
1040
2124.29647903878
1040
1875.675340165162
1040
2124.476300930705
1040
1875.4504658779
1040
2124.811937553601
1040
1875.320109410602
1040
2124.967754679551
1040
1875.057444475258
1040
2125.229765723081
1040
1874.900869593841
1040
2125.360030512399
1040
1874.563778867916
1040
2125.584645269737
1040
1874.383265544148
1040
2125.678999020738
1040
1874.039543670793
1040
2125.821026229008
1040
1873.844624622925
1040
2125.881711505102
1040
1873.446377078758
1040
2125.960705747257
1040
1873.243049008749
1040
2125.979016862446
1040
1873.056881775266
1040
2125.979016862446
1070
     1
1040
1873.056881775266
1040
2125.979016862446
1040
1679.475310034067
1040
2125.979016862446
1070
     2
1040
1679.475310034067
1040
2122.979016862446
1040
3.0
1040
1.570796326795199
1040
3.141592653589793
1070
     1
1070
     1
1040
1676.475310034068
1040
2122.979016862446
1040
1676.475310034068
1040
2110.979016862446
1070
     2
1040
1679.475310034067
1040
2110.979016862445
1040
3.0
1040
3.141592653589489
1040
4.712388980384689
1070
     1
1070
     1
1040
1679.475310034067
1040
2107.979016862445
1040
1873.056881775266
1040
2107.979016862445
1070
     4
1070
     3
1070
     0
1070
     0
1071
       22
1071
       18
1040
13.35782718648888
1040
13.35782718648888
1040
13.35782718648888
1040
13.35782718648888
1040
13.91632888694259
1040
13.91632888694259
1040
14.4748305873963
1040
14.4748305873963
1040
15.03205649125106
1040
15.03205649125106
1040
15.58928239510581
1040
15.58928239510581
1040
16.14506318337675
1040
16.14506318337675
1040
16.70084397164771
1040
16.70084397164771
1040
17.25547010142775
1040
17.25547010142775
1040
17.81009623120778
1040
17.81009623120778
1040
17.81009623120778
1040
17.81009623120778
1040
1873.056881775266
1040
2107.979016862445
1040
1873.243049008749
1040
2107.979016862445
1040
1873.446377078758
1040
2107.997327977633
1040
1873.844624622925
1040
2108.076322219788
1040
1874.039543670793
1040
2108.13700749588
1040
1874.383265544148
1040
2108.279034704153
1040
1874.563778867916
1040
2108.373388455154
1040
1874.900869593841
1040
2108.59800321249
1040
1875.057444475258
1040
2108.728268001808
1040
1875.320109410602
1040
2108.990279045339
1040
1875.4504658779
1040
2109.146096171289
1040
1875.675340165162
1040
2109.481732794185
1040
1875.769854410474
1040
2109.66155468611
1040
1875.911785042162
1040
2110.003396882607
1040
1875.972343267705
1040
2110.196869966022
1040
1876.051194883816
1040
2110.592242097752
1040
1876.06948657065
1040
2110.794141485852
1040
1876.06948657065
1040
2110.979016862446
1070
     1
1040
1876.06948657065
1040
2110.979016862446
1040
1876.069486570649
1040
2122.979016862446
1071
        1
1005
15E
1070
     0
1070
     1
1040
2.049145149772206
1071
        8
1040
2354.717649698495
1040
2113.065082271075
1040
0.0
1040
2237.844830320487
1040
2102.819356187054
1040
0.0
1040
2237.844830320487
1040
2102.819356187054
1040
0.0
1040
2237.844830320487
1040
2102.819356187054
1040
0.0
1040
2237.844830320487
1040
2102.819356187054
1040
0.0
1040
2237.844830320487
1040
2102.819356187054
1040
0.0
1040
2237.844830320487
1040
2102.819356187054
1040
0.0
1040
1825.714352914934
1040
2117.163372704686
1040
0.0
1002
}
  0
INSERT
  5
2A1
330
1F
100
AcDbEntity
  8
HATCH
 62
     5
100
AcDbBlockReference
  2
2
 10
-1326.972031822461
 20
152.6516343195555
 30
0.0
  0
ENDSEC
  0
SECTION
  2
OBJECTS
  0
DICTIONARY
  5
C
330
0
100
AcDbDictionary
  3
ACAD_GROUP
350
D
  3
ACAD_LAYOUT
350
1A
  3
ACAD_MLINESTYLE
350
17
  3
ACAD_PLOTSETTINGS
350
19
1001
ACAD
1000
TREAT_AS_HARD
1070
     0
1000
TREAT_AS_HARD
1070
     0
  0
DICTIONARY
  5
10C
330
1F
100
AcDbDictionary
  3
ACAD_LAYOUTSELFREF
350
2A4
  3
ACAD_SORTENTS
350
2A2
1001
ACAD
1000
TREAT_AS_HARD
1070
     1
1000
TREAT_AS_HARD
1070
     0
  0
DICTIONARY
  5
10E
330
50
100
AcDbDictionary
  3
ACAD_LAYOUTSELFREF
350
2A5
1001
ACAD
1000
TREAT_AS_HARD
1070
     1
1000
TREAT_AS_HARD
1070
     0
  0
DICTIONARY
  5
D
102
{ACAD_REACTORS
330
C
102
}
330
C
100
AcDbDictionary
1001
ACAD
1000
TREAT_AS_HARD
1070
     0
1000
TREAT_AS_HARD
1070
     0
  0
DICTIONARY
  5
1A
102
{ACAD_REACTORS
330
C
102
}
330
C
100
AcDbDictionary
1001
ACAD
1000
TREAT_AS_HARD
1070
     0
1000
TREAT_AS_HARD
1070
     0
  0
DICTIONARY
  5
17
102
{ACAD_REACTORS
330
C
102
}
330
C
100
AcDbDictionary
  3
STANDARD
350
18
1001
ACAD
1000
TREAT_AS_HARD
1070
     0
1000
TREAT_AS_HARD
1070
     0
  0
DICTIONARY
  5
19
102
{ACAD_REACTORS
330
C
102
}
330
C
100
AcDbDictionary
1001
ACAD
1000
TREAT_AS_HARD
1070
     0
1000
TREAT_AS_HARD
1070
     0
  0
XRECORD
  5
2A4
102
{ACAD_REACTORS
330
10C
102
}
330
10C
100
AcDbXrecord
340
1F
  0
SORTENTSTABLE
  5
2A2
102
{ACAD_REACTORS
330
10C
102
}
330
10C
100
AcDbSortentsTable
330
1F
331
15E
  5
2A1
331
2A1
  5
15E
  0
XRECORD
  5
2A5
102
{ACAD_REACTORS
330
10E
102
}
330
10E
100
AcDbXrecord
340
50
  0
MLINESTYLE
  5
18
102
{ACAD_REACTORS
330
17
102
}
330
17
100
AcDbMlineStyle
  2
STANDARD
 70
     0
  3

 62
   256
 51
90.0
 52
90.0
 71
     2
 49
0.5
 62
   256
  6
BYLAYER
 49
-0.5
 62
   256
  6
BYLAYER
  0
ENDSEC
  0
EOF
