  0
SECTION
  2
HEADER
  9
$ACADVER
  1
AC1012
  9
$DWGCODEPAGE
  3
ANSI_1252
  9
$INSBASE
 10
0.0
 20
0.0
 30
0.0
  9
$EXTMIN
 10
-310.6601736717773
 20
-310.6601743676208
 30
0.0
  9
$EXTMAX
 10
5607.660169887864
 20
4507.66016919202
 30
0.0
  9
$LIMMIN
 10
0.0
 20
0.0
  9
$LIMMAX
 10
420.0
 20
297.0
  9
$ORTHOMODE
 70
     0
  9
$REGENMODE
 70
     1
  9
$FILLMODE
 70
     1
  9
$QTEXTMODE
 70
     0
  9
$MIRRTEXT
 70
     1
  9
$DRAGMODE
 70
     2
  9
$LTSCALE
 40
1.0
  9
$OSMODE
 70
   511
  9
$ATTMODE
 70
     1
  9
$TEXTSIZE
 40
2.5
  9
$TRACEWID
 40
1.0
  9
$TEXTSTYLE
  7
STANDARD
  9
$CLAYER
  8
HATCH
  9
$CELTYPE
  6
BYLAYER
  9
$CECOLOR
 62
     1
  9
$CELTSCALE
 40
1.0
  9
$DELOBJ
 70
     1
  9
$DISPSILH
 70
     0
  9
$DIMSCALE
 40
1.0
  9
$DIMASZ
 40
2.5
  9
$DIMEXO
 40
0.625
  9
$DIMDLI
 40
3.75
  9
$DIMRND
 40
0.0
  9
$DIMDLE
 40
0.0
  9
$DIMEXE
 40
1.25
  9
$DIMTP
 40
0.0
  9
$DIMTM
 40
0.0
  9
$DIMTXT
 40
2.5
  9
$DIMCEN
 40
2.5
  9
$DIMTSZ
 40
0.0
  9
$DIMTOL
 70
     0
  9
$DIMLIM
 70
     0
  9
$DIMTIH
 70
     0
  9
$DIMTOH
 70
     0
  9
$DIMSE1
 70
     0
  9
$DIMSE2
 70
     0
  9
$DIMTAD
 70
     1
  9
$DIMZIN
 70
     8
  9
$DIMBLK
  1

  9
$DIMASO
 70
     1
  9
$DIMSHO
 70
     1
  9
$DIMPOST
  1

  9
$DIMAPOST
  1

  9
$DIMALT
 70
     0
  9
$DIMALTD
 70
     3
  9
$DIMALTF
 40
0.03937007874016
  9
$DIMLFAC
 40
1.0
  9
$DIMTOFL
 70
     1
  9
$DIMTVP
 40
0.0
  9
$DIMTIX
 70
     0
  9
$DIMSOXD
 70
     0
  9
$DIMSAH
 70
     0
  9
$DIMBLK1
  1

  9
$DIMBLK2
  1

  9
$DIMSTYLE
  2
ISO-25
  9
$DIMCLRD
 70
     0
  9
$DIMCLRE
 70
     0
  9
$DIMCLRT
 70
     0
  9
$DIMTFAC
 40
1.0
  9
$DIMGAP
 40
0.625
  9
$DIMJUST
 70
     0
  9
$DIMSD1
 70
     0
  9
$DIMSD2
 70
     0
  9
$DIMTOLJ
 70
     0
  9
$DIMTZIN
 70
     8
  9
$DIMALTZ
 70
     0
  9
$DIMALTTZ
 70
     0
  9
$DIMFIT
 70
     3
  9
$DIMUPT
 70
     0
  9
$DIMUNIT
 70
     2
  9
$DIMDEC
 70
     2
  9
$DIMTDEC
 70
     2
  9
$DIMALTU
 70
     2
  9
$DIMALTTD
 70
     3
  9
$DIMTXSTY
  7
STANDARD
  9
$DIMAUNIT
 70
     0
  9
$LUNITS
 70
     2
  9
$LUPREC
 70
     4
  9
$SKETCHINC
 40
1.0
  9
$FILLETRAD
 40
10.0
  9
$AUNITS
 70
     0
  9
$AUPREC
 70
     0
  9
$MENU
  1
.
  9
$ELEVATION
 40
0.0
  9
$PELEVATION
 40
0.0
  9
$THICKNESS
 40
0.0
  9
$LIMCHECK
 70
     0
  9
$BLIPMODE
 70
     0
  9
$CHAMFERA
 40
10.0
  9
$CHAMFERB
 40
10.0
  9
$CHAMFERC
 40
20.0
  9
$CHAMFERD
 40
0.0
  9
$SKPOLY
 70
     0
  9
$TDCREATE
 40
2452627.342803703
  9
$TDUPDATE
 40
2452780.619150694
  9
$TDINDWG
 40
0.0026679398
  9
$TDUSRTIMER
 40
0.0026673611
  9
$USRTIMER
 70
     1
  9
$ANGBASE
 50
0.0
  9
$ANGDIR
 70
     0
  9
$PDMODE
 70
     0
  9
$PDSIZE
 40
0.0
  9
$PLINEWID
 40
0.0
  9
$COORDS
 70
     2
  9
$SPLFRAME
 70
     0
  9
$SPLINETYPE
 70
     6
  9
$SPLINESEGS
 70
     8
  9
$ATTDIA
 70
     0
  9
$ATTREQ
 70
     1
  9
$HANDLING
 70
-16383
  9
$HANDSEED
  5
295
  9
$SURFTAB1
 70
     6
  9
$SURFTAB2
 70
     6
  9
$SURFTYPE
 70
     6
  9
$SURFU
 70
     6
  9
$SURFV
 70
     6
  9
$UCSNAME
  2

  9
$UCSORG
 10
0.0
 20
0.0
 30
0.0
  9
$UCSXDIR
 10
1.0
 20
0.0
 30
0.0
  9
$UCSYDIR
 10
0.0
 20
1.0
 30
0.0
  9
$PUCSNAME
  2

  9
$PUCSORG
 10
0.0
 20
0.0
 30
0.0
  9
$PUCSXDIR
 10
1.0
 20
0.0
 30
0.0
  9
$PUCSYDIR
 10
0.0
 20
1.0
 30
0.0
  9
$USERI1
 70
     0
  9
$USERI2
 70
     0
  9
$USERI3
 70
     0
  9
$USERI4
 70
     0
  9
$USERI5
 70
     0
  9
$USERR1
 40
0.0
  9
$USERR2
 40
0.0
  9
$USERR3
 40
0.0
  9
$USERR4
 40
0.0
  9
$USERR5
 40
0.0
  9
$WORLDVIEW
 70
     1
  9
$SHADEDGE
 70
     3
  9
$SHADEDIF
 70
    70
  9
$TILEMODE
 70
     1
  9
$MAXACTVP
 70
    64
  9
$PINSBASE
 10
0.0
 20
0.0
 30
0.0
  9
$PLIMCHECK
 70
     0
  9
$PEXTMIN
 10
0.0
 20
0.0
 30
0.0
  9
$PEXTMAX
 10
0.0
 20
0.0
 30
0.0
  9
$PLIMMIN
 10
0.0
 20
0.0
  9
$PLIMMAX
 10
12.0
 20
9.0
  9
$UNITMODE
 70
     0
  9
$VISRETAIN
 70
     1
  9
$PLINEGEN
 70
     0
  9
$PSLTSCALE
 70
     1
  9
$TREEDEPTH
 70
  3020
  9
$PICKSTYLE
 70
     1
  9
$CMLSTYLE
  2
STANDARD
  9
$CMLJUST
 70
     0
  9
$CMLSCALE
 40
20.0
  9
$SAVEIMAGES
 70
     1
  0
ENDSEC
  0
SECTION
  2
CLASSES
  0
CLASS
  1
ACDBDICTIONARYWDFLT
  2
AcDbDictionaryWithDefault
  3
AutoCAD 2000
 90
    32768
280
     0
281
     0
  0
CLASS
  1
ACDBPLACEHOLDER
  2
AcDbPlaceHolder
  3
AutoCAD 2000
 90
    32768
280
     0
281
     0
  0
CLASS
  1
LAYOUT
  2
AcDbLayout
  3
AutoCAD 2000
 90
    32768
280
     0
281
     0
  0
CLASS
  1
LONG_TRANSACTION
  2
AcDbLongTransaction
  3
AutoCAD 2000
 90
    32768
280
     0
281
     0
  0
CLASS
  1
LWPOLYLINE
  2
AcDbPolyline
  3
AutoCAD 2000
 90
    32768
280
     0
281
     1
  0
CLASS
  1
HATCH
  2
AcDbHatch
  3
AutoCAD 2000
 90
    32768
280
     0
281
     1
  0
CLASS
  1
XRECORD
  2
AcDbXrecord
  3
AutoCAD 2000
 90
    32768
280
     0
281
     0
  0
CLASS
  1
LONG_TRANSACTION
  2
AcDbLongTransaction
  3
AutoCAD 2000
 90
    32768
280
     0
281
     0
  0
CLASS
  1
LWPOLYLINE
  2
AcDbPolyline
  3
AutoCAD 2000
 90
    32768
280
     0
281
     1
  0
CLASS
  1
HATCH
  2
AcDbHatch
  3
AutoCAD 2000
 90
    32768
280
     0
281
     1
  0
CLASS
  1
XRECORD
  2
AcDbXrecord
  3
AutoCAD 2000
 90
    32768
280
     0
281
     0
  0
CLASS
  1
LONG_TRANSACTION
  2
AcDbLongTransaction
  3
AutoCAD 2000
 90
    32768
280
     0
281
     0
  0
CLASS
  1
LWPOLYLINE
  2
AcDbPolyline
  3
AutoCAD 2000
 90
    32768
280
     0
281
     1
  0
CLASS
  1
HATCH
  2
AcDbHatch
  3
AutoCAD 2000
 90
    32768
280
     0
281
     1
  0
CLASS
  1
XRECORD
  2
AcDbXrecord
  3
AutoCAD 2000
 90
    32768
280
     0
281
     0
  0
CLASS
  1
DICTIONARYVAR
  2
AcDbDictionaryVar
  3
AutoCAD 2000
 90
    32768
280
     0
281
     0
  0
CLASS
  1
SORTENTSTABLE
  2
AcDbSortentsTable
  3
AutoCAD 2000
 90
    32768
280
     0
281
     0
  0
CLASS
  1
LONG_TRANSACTION
  2
AcDbLongTransaction
  3
AutoCAD 2000
 90
    32768
280
     0
281
     0
  0
CLASS
  1
LWPOLYLINE
  2
AcDbPolyline
  3
AutoCAD 2000
 90
    32768
280
     0
281
     1
  0
CLASS
  1
HATCH
  2
AcDbHatch
  3
AutoCAD 2000
 90
    32768
280
     0
281
     1
  0
CLASS
  1
XRECORD
  2
AcDbXrecord
  3
AutoCAD 2000
 90
    32768
280
     0
281
     0
  0
ENDSEC
  0
SECTION
  2
TABLES
  0
TABLE
  2
VPORT
  5
8
330
0
100
AcDbSymbolTable
 70
     2
  0
VPORT
  5
254
330
8
100
AcDbSymbolTableRecord
100
AcDbViewportTableRecord
  2
*ACTIVE
 70
     0
 10
0.0
 20
0.0
 11
1.0
 21
1.0
 12
2379.948276166032
 22
2560.098220434221
 13
0.0
 23
0.0
 14
10.0
 24
10.0
 15
10.0
 25
10.0
 16
0.0
 26
0.0
 36
1.0
 17
0.0
 27
0.0
 37
0.0
 40
5619.845218477397
 41
1.659090909090909
 42
50.0
 43
0.0
 44
0.0
 50
0.0
 51
0.0
 71
     0
 72
   100
 73
     1
 74
     3
 75
     0
 76
     0
 77
     0
 78
     0
  0
ENDTAB
  0
TABLE
  2
LTYPE
  5
5
330
0
100
AcDbSymbolTable
 70
     1
  0
LTYPE
  5
14
330
5
100
AcDbSymbolTableRecord
100
AcDbLinetypeTableRecord
  2
BYBLOCK
 70
     0
  3

 72
    65
 73
     0
 40
0.0
  0
LTYPE
  5
15
330
5
100
AcDbSymbolTableRecord
100
AcDbLinetypeTableRecord
  2
BYLAYER
 70
     0
  3

 72
    65
 73
     0
 40
0.0
  0
LTYPE
  5
16
330
5
100
AcDbSymbolTableRecord
100
AcDbLinetypeTableRecord
  2
CONTINUOUS
 70
     0
  3
Solid line
 72
    65
 73
     0
 40
0.0
  0
ENDTAB
  0
TABLE
  2
LAYER
  5
2
330
0
100
AcDbSymbolTable
 70
     5
  0
LAYER
  5
10
330
2
100
AcDbSymbolTableRecord
100
AcDbLayerTableRecord
  2
0
 70
     0
 62
     7
  6
CONTINUOUS
  0
LAYER
  5
5D
330
2
100
AcDbSymbolTableRecord
100
AcDbLayerTableRecord
  2
SAFETY
 70
     0
 62
     7
  6
CONTINUOUS
  0
LAYER
  5
5E
330
2
100
AcDbSymbolTableRecord
100
AcDbLayerTableRecord
  2
OBJECT
 70
     0
 62
     7
  6
CONTINUOUS
  0
LAYER
  5
121
330
2
100
AcDbSymbolTableRecord
100
AcDbLayerTableRecord
  2
TEKST
 70
     0
 62
     7
  6
CONTINUOUS
  0
LAYER
  5
140
330
2
100
AcDbSymbolTableRecord
100
AcDbLayerTableRecord
  2
HATCH
 70
     0
 62
     7
  6
CONTINUOUS
  0
ENDTAB
  0
TABLE
  2
STYLE
  5
3
330
0
100
AcDbSymbolTable
 70
     1
  0
STYLE
  5
11
330
3
100
AcDbSymbolTableRecord
100
AcDbTextStyleTableRecord
  2
STANDARD
 70
     0
 40
0.0
 41
1.0
 50
0.0
 71
     0
 42
2.5
  3
txt
  4

  0
ENDTAB
  0
TABLE
  2
VIEW
  5
6
330
0
100
AcDbSymbolTable
 70
     0
  0
ENDTAB
  0
TABLE
  2
UCS
  5
7
330
0
100
AcDbSymbolTable
 70
     0
  0
ENDTAB
  0
TABLE
  2
APPID
  5
9
330
0
100
AcDbSymbolTable
 70
     2
  0
APPID
  5
12
330
9
100
AcDbSymbolTableRecord
100
AcDbRegAppTableRecord
  2
ACAD
 70
     0
  0
APPID
  5
11A
330
9
100
AcDbSymbolTableRecord
100
AcDbRegAppTableRecord
  2
CONTENTBLOCKICON
 70
     0
  0
ENDTAB
  0
TABLE
  2
DIMSTYLE
  5
A
330
0
100
AcDbSymbolTable
 70
     2
  0
DIMSTYLE
105
27
330
A
100
AcDbSymbolTableRecord
100
AcDbDimStyleTableRecord
  2
ISO-25
 70
     0
  3

  4

  5

  6

  7

 40
1.0
 41
2.5
 42
0.625
 43
3.75
 44
1.25
 45
0.0
 46
0.0
 47
0.0
 48
0.0
140
2.5
141
2.5
142
0.0
143
0.03937007874016
144
1.0
145
0.0
146
1.0
147
0.625
 71
     0
 72
     0
 73
     0
 74
     0
 75
     0
 76
     0
 77
     1
 78
     8
170
     0
171
     3
172
     1
173
     0
174
     0
175
     0
176
     0
177
     0
178
     0
270
     2
271
     2
272
     2
273
     2
274
     3
340
11
275
     0
280
     0
281
     0
282
     0
283
     0
284
     8
285
     0
286
     0
287
     3
288
     0
  0
DIMSTYLE
105
5F
330
A
100
AcDbSymbolTableRecord
100
AcDbDimStyleTableRecord
  2
SAF
 70
     0
  3

  4

  5

  6

  7

 40
50.0
 41
2.5
 42
2.0
 43
0.5
 44
1.0
 45
0.0
 46
0.0
 47
0.0
 48
0.0
140
2.5
141
0.09
142
0.0
143
25.4
144
1.0
145
0.0
146
1.0
147
0.5
 71
     0
 72
     0
 73
     0
 74
     0
 75
     0
 76
     0
 77
     1
 78
     8
170
     0
171
     2
172
     1
173
     0
174
     0
175
     0
176
     1
177
     1
178
     2
270
     2
271
     0
272
     0
273
     2
274
     2
340
11
275
     0
280
     0
281
     0
282
     0
283
     1
284
     0
285
     0
286
     0
287
     3
288
     0
  0
ENDTAB
  0
TABLE
  2
BLOCK_RECORD
  5
1
330
0
100
AcDbSymbolTable
 70
     6
  0
BLOCK_RECORD
  5
1F
102
{ACAD_XDICTIONARY
360
C6
102
}
330
1
100
AcDbSymbolTableRecord
100
AcDbBlockTableRecord
  2
*MODEL_SPACE
  0
BLOCK_RECORD
  5
50
102
{ACAD_XDICTIONARY
360
C8
102
}
330
1
100
AcDbSymbolTableRecord
100
AcDbBlockTableRecord
  2
*PAPER_SPACE
  0
BLOCK_RECORD
  5
D2
330
1
100
AcDbSymbolTableRecord
100
AcDbBlockTableRecord
  2
TDKB0
1001
ACAD
1000
DesignCenter Data
1002
{
1070
     1
1070
     4
1002
}
1001
CONTENTBLOCKICON
1071
        0
1004
28000000200000002000000001000800000000000004000000000000000000000000000000000000000000004000000080000000FF000000002000004020000080200000FF200000004000004040000080400000FF400000006000004060000080600000FF600000008000004080000080800000FF80000000A0000040A000
1004
0080A00000FFA0000000C0000040C0000080C00000FFC0000000FF000040FF000080FF0000FFFF0000000020004000200080002000FF002000002020004020200080202000FF202000004020004040200080402000FF402000006020004060200080602000FF602000008020004080200080802000FF80200000A0200040A0
1004
200080A02000FFA0200000C0200040C0200080C02000FFC0200000FF200040FF200080FF2000FFFF2000000040004000400080004000FF004000002040004020400080204000FF204000004040004040400080404000FF404000006040004060400080604000FF604000008040004080400080804000FF80400000A0400040
1004
A0400080A04000FFA0400000C0400040C0400080C04000FFC0400000FF400040FF400080FF4000FFFF4000000060004000600080006000FF006000002060004020600080206000FF206000004060004040600080406000FF406000006060004060600080606000FF606000008060004080600080806000FF80600000A06000
1004
40A0600080A06000FFA0600000C0600040C0600080C06000FFC0600000FF600040FF600080FF6000FFFF6000000080004000800080008000FF008000002080004020800080208000FF208000004080004040800080408000FF408000006080004060800080608000FF608000008080004080800080808000FF80800000A080
1004
0040A0800080A08000FFA0800000C0800040C0800080C08000FFC0800000FF800040FF800080FF8000FFFF80000000A0004000A0008000A000FF00A0000020A0004020A0008020A000FF20A0000040A0004040A0008040A000FF40A0000060A0004060A0008060A000FF60A0000080A0004080A0008080A000FF80A00000A0
1004
A00040A0A00080A0A000FFA0A00000C0A00040C0A00080C0A000FFC0A00000FFA00040FFA00080FFA000FFFFA0000000C0004000C0008000C000FF00C0000020C0004020C0008020C000FF20C0000040C0004040C0008040C000FF40C0000060C0004060C0008060C000FF60C0000080C0004080C0008080C000FF80C00000
1004
A0C00040A0C00080A0C000FFA0C00000C0C00040C0C00080C0C000FFC0C00000FFC00040FFC00080FFC000FFFFC0000000FF004000FF008000FF00FF00FF000020FF004020FF008020FF00FF20FF000040FF004040FF008040FF00FF40FF000060FF004060FF008060FF00FF60FF000080FF004080FF008080FF00FF80FF00
1004
00A0FF0040A0FF0080A0FF00FFA0FF0000C0FF0040C0FF0080C0FF00FFC0FF0000FFFF0040FFFF0080FFFF00FFFFFF0000000000000000000000000000000000000000000000000000000000000000000000000000000000000000000000000000000000000000000000000000000000000000000000000000000000000000
1004
00000000000000000000000000000000000000000000000000000000000000000000000000000000000000000000000000000000000000000000FFFFFFFFFFFFFFFFFFFFFFFFFFFF000000000000000000000000000000FFFFFF0000000000000000000000000000FFFFFF00000000000000000000FFFF0000000000000000
1004
000000000000000000000000FFFF00000000000000FF000000000000000000000000000000000000000000000000FF000000000000FF00000000000000000000000000000000000000000000000000FF00000000FF0000000000000000000000000000000000000000000000000000FF00000000FF00000000000000000000
1004
00000000000000000000000000000000FF00000000FF0000000000000000000000000000000000000000000000000000FF000000FF00000000000000FFFFFFFFFFFFFFFFFFFFFFFFFFFF00000000000000FF0000FF00000000000000FFFFFFFFFFFFFFFFFFFFFFFFFFFF00000000000000FF0000FF00000000000000FFFFFF
1004
FF00FFFF00FF00000000FF00000000000000FF0000FF00000000000000FFFF0000FFFFFF00FF00000000FF00000000000000FF0000FF00000000000000FFFF00FFFF00FF00FF00000000FF00000000000000FF0000FF00000000000000FFFFFF0000FFFF00FF00000000FF00000000000000FF0000FF00000000000000FFFF
1004
FFFFFFFFFF00FFFFFFFFFFFF00000000000000FF0000FF00000000000000FFFFFFFFFFFFFFFFFFFFFFFFFFFF00000000000000FF000000FF0000000000000000000000000000000000000000000000000000FF00000000FF0000000000000000000000000000000000000000000000000000FF00000000FF00000000000000
1004
00000000000000000000000000000000000000FF0000000000FF00000000000000000000000000000000000000000000000000FF0000000000FF000000000000000000000000000000000000000000000000FF00000000000000FF00000000000000000000000000000000000000000000FF000000000000000000FFFFFFFF
1004
0000000000000000000000000000FFFFFFFF0000000000000000000000000000FFFFFFFFFFFFFFFFFFFFFFFFFFFF000000000000000000000000000000000000000000000000000000000000000000000000000000000000000000000000000000000000000000000000000000000000000000000000000000000000000000
1004
0000000000000000000000000000000000000000000000000000000000000000000000000000000000000000000000000000000000000000
  0
BLOCK_RECORD
  5
22C
330
1
100
AcDbSymbolTableRecord
100
AcDbBlockTableRecord
  2
TBKB0
1001
CONTENTBLOCKICON
1071
        0
1004
28000000200000002000000001000800000000000004000000000000000000000000000000000000000000004000000080000000FF000000002000004020000080200000FF200000004000004040000080400000FF400000006000004060000080600000FF600000008000004080000080800000FF80000000A0000040A000
1004
0080A00000FFA0000000C0000040C0000080C00000FFC0000000FF000040FF000080FF0000FFFF0000000020004000200080002000FF002000002020004020200080202000FF202000004020004040200080402000FF402000006020004060200080602000FF602000008020004080200080802000FF80200000A0200040A0
1004
200080A02000FFA0200000C0200040C0200080C02000FFC0200000FF200040FF200080FF2000FFFF2000000040004000400080004000FF004000002040004020400080204000FF204000004040004040400080404000FF404000006040004060400080604000FF604000008040004080400080804000FF80400000A0400040
1004
A0400080A04000FFA0400000C0400040C0400080C04000FFC0400000FF400040FF400080FF4000FFFF4000000060004000600080006000FF006000002060004020600080206000FF206000004060004040600080406000FF406000006060004060600080606000FF606000008060004080600080806000FF80600000A06000
1004
40A0600080A06000FFA0600000C0600040C0600080C06000FFC0600000FF600040FF600080FF6000FFFF6000000080004000800080008000FF008000002080004020800080208000FF208000004080004040800080408000FF408000006080004060800080608000FF608000008080004080800080808000FF80800000A080
1004
0040A0800080A08000FFA0800000C0800040C0800080C08000FFC0800000FF800040FF800080FF8000FFFF80000000A0004000A0008000A000FF00A0000020A0004020A0008020A000FF20A0000040A0004040A0008040A000FF40A0000060A0004060A0008060A000FF60A0000080A0004080A0008080A000FF80A00000A0
1004
A00040A0A00080A0A000FFA0A00000C0A00040C0A00080C0A000FFC0A00000FFA00040FFA00080FFA000FFFFA0000000C0004000C0008000C000FF00C0000020C0004020C0008020C000FF20C0000040C0004040C0008040C000FF40C0000060C0004060C0008060C000FF60C0000080C0004080C0008080C000FF80C00000
1004
A0C00040A0C00080A0C000FFA0C00000C0C00040C0C00080C0C000FFC0C00000FFC00040FFC00080FFC000FFFFC0000000FF004000FF008000FF00FF00FF000020FF004020FF008020FF00FF20FF000040FF004040FF008040FF00FF40FF000060FF004060FF008060FF00FF60FF000080FF004080FF008080FF00FF80FF00
1004
00A0FF0040A0FF0080A0FF00FFA0FF0000C0FF0040C0FF0080C0FF00FFC0FF0000FFFF0040FFFF0080FFFF00FFFFFF0000000000000000000000000000000000000000000000000000000000000000000000000000000000000000000000000000000000000000000000000000000000000000000000000000000000000000
1004
00000000000000000000000000000000000000000000000000000000000000000000000000000000000000000000000000000000000000000000FFFFFFFFFFFFFFFFFFFFFFFFFFFF000000000000000000000000000000FFFFFF0000000000000000000000000000FFFFFF00000000000000000000FFFF0000000000000000
1004
000000000000000000000000FFFF00000000000000FF000000000000000000000000000000000000000000000000FF000000000000FF00000000000000000000000000000000000000000000000000FF00000000FF0000000000000000000000000000000000000000000000000000FF00000000FF00000000000000000000
1004
00000000000000000000000000000000FF00000000FF0000000000000000000000000000000000000000000000000000FF000000FF000000000000001C1C1C1C1C1C1C1C1CFCFCFCFCE000000000000000FF0000FF000000000000001C1C1C1C1C1C1C1C1CFCFCFCFC4900000000000000FF0000FF000000000000001C1C1C
1004
1C001C1C001C000000004900000000000000FF0000FF000000000000001C1C00001C1C1C001C000000004900000000000000FF0000FF000000000000001C1C001C1C1C1C001C000000004900000000000000FF0000FF000000000000001C1C1C00001C1C001C000000004900000000000000FF0000FF000000000000001C1C
1004
1C1C1C1C1C001CFCFCFCFC4900000000000000FF0000FF000000000000001C1C1C1C1C1C1C1C1CFCFCFCFCE000000000000000FF000000FF0000000000000000000000000000000000000000000000000000FF00000000FF0000000000000000000000000000000000000000000000000000FF00000000FF00000000000000
1004
00000000000000000000000000000000000000FF0000000000FF00000000000000000000000000000000000000000000000000FF0000000000FF000000000000000000000000000000000000000000000000FF00000000000000FF00000000000000000000000000000000000000000000FF000000000000000000FFFFFFFF
1004
0000000000000000000000000000FFFFFFFF0000000000000000000000000000FFFFFFFFFFFFFFFFFFFFFFFFFFFF000000000000000000000000000000000000000000000000000000000000000000000000000000000000000000000000000000000000000000000000000000000000000000000000000000000000000000
1004
0000000000000000000000000000000000000000000000000000000000000000000000000000000000000000000000000000000000000000
  0
BLOCK_RECORD
  5
262
330
1
100
AcDbSymbolTableRecord
100
AcDbBlockTableRecord
  2
*U2
  0
BLOCK_RECORD
  5
271
330
1
100
AcDbSymbolTableRecord
100
AcDbBlockTableRecord
  2
*U3
  0
BLOCK_RECORD
  5
278
330
1
100
AcDbSymbolTableRecord
100
AcDbBlockTableRecord
  2
*U4
  0
BLOCK_RECORD
  5
285
330
1
100
AcDbSymbolTableRecord
100
AcDbBlockTableRecord
  2
*U5
  0
ENDTAB
  0
ENDSEC
  0
SECTION
  2
BLOCKS
  0
BLOCK
  5
20
330
1F
100
AcDbEntity
  8
0
100
AcDbBlockBegin
  2
*MODEL_SPACE
 70
     0
 10
0.0
 20
0.0
 30
0.0
  3
*MODEL_SPACE
  1

  0
ENDBLK
  5
21
330
1F
100
AcDbEntity
  8
0
100
AcDbBlockEnd
  0
BLOCK
  5
52
330
50
100
AcDbEntity
 67
     1
  8
0
100
AcDbBlockBegin
  2
*PAPER_SPACE
 70
     0
 10
0.0
 20
0.0
 30
0.0
  3
*PAPER_SPACE
  1

  0
ENDBLK
  5
53
330
50
100
AcDbEntity
 67
     1
  8
0
100
AcDbBlockEnd
  0
BLOCK
  5
D3
330
D2
100
AcDbEntity
  8
0
100
AcDbBlockBegin
  2
TDKB0
 70
     0
 10
0.0
 20
0.0
 30
0.0
  3
TDKB0
  1

  0
LINE
  5
D5
330
D2
100
AcDbEntity
  8
OBJECT
100
AcDbLine
 10
2498.499998108044
 20
2498.499997412197
 30
0.0
 11
2848.499998108044
 21
2848.499997412197
 31
0.0
  0
LINE
  5
D6
330
D2
100
AcDbEntity
  8
OBJECT
100
AcDbLine
 10
2848.499998108044
 20
1348.499997412198
 30
0.0
 11
2498.499998108044
 21
1698.499997412198
 31
0.0
  0
POLYLINE
  5
D7
330
D2
100
AcDbEntity
  8
SAFETY
 48
20.0
100
AcDb2dPolyline
 66
     1
 10
0.0
 20
0.0
 30
0.0
 70
     1
  0
VERTEX
  5
258
330
D7
100
AcDbEntity
  8
SAFETY
 48
20.0
100
AcDbVertex
100
AcDb2dVertex
 10
1499.999998108043
 20
4196.999997412199
 30
0.0
  0
VERTEX
  5
259
330
D7
100
AcDbEntity
  8
SAFETY
 48
20.0
100
AcDbVertex
100
AcDb2dVertex
 10
3796.999998108043
 20
4196.999997412199
 30
0.0
 42
-0.4142135623730951
  0
VERTEX
  5
25A
330
D7
100
AcDbEntity
  8
SAFETY
 48
20.0
100
AcDbVertex
100
AcDb2dVertex
 10
5296.999998108043
 20
2696.9999974122
 30
0.0
  0
VERTEX
  5
25B
330
D7
100
AcDbEntity
  8
SAFETY
 48
20.0
100
AcDbVertex
100
AcDb2dVertex
 10
5296.999998108043
 20
1499.999997412199
 30
0.0
 42
-0.4142135623730951
  0
VERTEX
  5
25C
330
D7
100
AcDbEntity
  8
SAFETY
 48
20.0
100
AcDbVertex
100
AcDb2dVertex
 10
3796.999998108043
 20
-0.0000025877998269
 30
0.0
  0
VERTEX
  5
25D
330
D7
100
AcDbEntity
  8
SAFETY
 48
20.0
100
AcDbVertex
100
AcDb2dVertex
 10
1499.999998108043
 20
-0.0000025877998269
 30
0.0
 42
-0.4142135623730951
  0
VERTEX
  5
25E
330
D7
100
AcDbEntity
  8
SAFETY
 48
20.0
100
AcDbVertex
100
AcDb2dVertex
 10
-0.0000018919563445
 20
1499.999997412199
 30
0.0
  0
VERTEX
  5
25F
330
D7
100
AcDbEntity
  8
SAFETY
 48
20.0
100
AcDbVertex
100
AcDb2dVertex
 10
-0.0000018919563445
 20
2696.9999974122
 30
0.0
 42
-0.4142135623730951
  0
SEQEND
  5
260
330
D7
100
AcDbEntity
  8
SAFETY
 48
20.0
  0
LINE
  5
D8
330
D2
100
AcDbEntity
  8
OBJECT
100
AcDbLine
 10
2848.499998108044
 20
1348.4999974122
 30
0.0
 11
1348.499998108042
 21
1348.4999974122
 31
0.0
  0
LINE
  5
D9
330
D2
100
AcDbEntity
  8
OBJECT
100
AcDbLine
 10
1348.499998108042
 20
2848.499997412199
 30
0.0
 11
2848.499998108044
 21
2848.499997412199
 31
0.0
  0
LINE
  5
DA
330
D2
100
AcDbEntity
  8
OBJECT
100
AcDbLine
 10
2498.499998108044
 20
1698.4999974122
 30
0.0
 11
2498.499998108044
 21
2498.4999974122
 31
0.0
  0
LINE
  5
DB
330
D2
100
AcDbEntity
  8
OBJECT
100
AcDbLine
 10
1698.499998108044
 20
2498.499997412197
 30
0.0
 11
2098.499998108044
 21
2098.499997412198
 31
0.0
  0
LINE
  5
DC
330
D2
100
AcDbEntity
  8
OBJECT
100
AcDbLine
 10
1698.499998108044
 20
1698.4999974122
 30
0.0
 11
1698.499998108044
 21
2498.4999974122
 31
0.0
  0
LINE
  5
DD
330
D2
100
AcDbEntity
  8
OBJECT
100
AcDbLine
 10
1348.499998108042
 20
1348.4999974122
 30
0.0
 11
1348.499998108042
 21
2848.499997412199
 31
0.0
  0
LINE
  5
DE
330
D2
100
AcDbEntity
  8
OBJECT
100
AcDbLine
 10
2098.499998108044
 20
2098.4999974122
 30
0.0
 11
2498.499998108044
 21
2498.4999974122
 31
0.0
  0
LINE
  5
DF
330
D2
100
AcDbEntity
  8
OBJECT
100
AcDbLine
 10
2098.499998108044
 20
2098.499997412198
 30
0.0
 11
1698.499998108044
 21
1698.499997412198
 31
0.0
  0
LINE
  5
E0
330
D2
100
AcDbEntity
  8
OBJECT
100
AcDbLine
 10
1698.499998108044
 20
1698.4999974122
 30
0.0
 11
2498.499998108044
 21
1698.4999974122
 31
0.0
  0
LINE
  5
E1
330
D2
100
AcDbEntity
  8
OBJECT
100
AcDbLine
 10
1698.499998108044
 20
1698.4999974122
 30
0.0
 11
1348.499998108042
 21
1348.4999974122
 31
0.0
  0
LINE
  5
E2
330
D2
100
AcDbEntity
  8
OBJECT
100
AcDbLine
 10
2498.499998108044
 20
1698.4999974122
 30
0.0
 11
2098.499998108044
 21
2098.4999974122
 31
0.0
  0
LINE
  5
E3
330
D2
100
AcDbEntity
  8
OBJECT
100
AcDbLine
 10
1698.499998108044
 20
2498.4999974122
 30
0.0
 11
2498.499998108044
 21
2498.4999974122
 31
0.0
  0
LINE
  5
E4
330
D2
100
AcDbEntity
  8
OBJECT
100
AcDbLine
 10
1348.499998108042
 20
2848.499997412199
 30
0.0
 11
1698.499998108044
 21
2498.4999974122
 31
0.0
  0
LINE
  5
E5
330
D2
100
AcDbEntity
  8
OBJECT
100
AcDbLine
 10
2848.499998108044
 20
2848.499997412199
 30
0.0
 11
2848.499998108044
 21
1348.4999974122
 31
0.0
  0
LINE
  5
E6
330
D2
100
AcDbEntity
  8
OBJECT
100
AcDbLine
 10
3796.999998108043
 20
1596.9999974122
 30
0.0
 11
3796.999998108043
 21
2599.9999974122
 31
0.0
  0
LINE
  5
E7
330
D2
100
AcDbEntity
  8
OBJECT
100
AcDbLine
 10
2848.499998108044
 20
1499.999997412199
 30
0.0
 11
3699.999998108043
 21
1499.999997412199
 31
0.0
  0
LINE
  5
E8
330
D2
100
AcDbEntity
  8
OBJECT
100
AcDbLine
 10
2848.499998108044
 20
1565.9999974122
 30
0.0
 11
3699.999998108046
 21
1565.9999974122
 31
0.0
  0
LINE
  5
E9
330
D2
100
AcDbEntity
  8
OBJECT
100
AcDbLine
 10
2848.499998108044
 20
1530.9999974122
 30
0.0
 11
3699.999998108046
 21
1530.9999974122
 31
0.0
  0
LINE
  5
EA
330
D2
100
AcDbEntity
  8
OBJECT
100
AcDbLine
 10
3699.999998108043
 20
1596.9999974122
 30
0.0
 11
3796.999998108043
 21
1596.9999974122
 31
0.0
  0
LINE
  5
EB
330
D2
100
AcDbEntity
  8
OBJECT
100
AcDbLine
 10
3796.999998108043
 20
1499.999997412199
 30
0.0
 11
3699.999998108043
 21
1499.999997412199
 31
0.0
  0
LINE
  5
EC
330
D2
100
AcDbEntity
  8
OBJECT
100
AcDbLine
 10
3699.999998108043
 20
1499.999997412199
 30
0.0
 11
3699.999998108043
 21
1596.9999974122
 31
0.0
  0
LINE
  5
ED
330
D2
100
AcDbEntity
  8
OBJECT
100
AcDbLine
 10
3796.999998108043
 20
1596.9999974122
 30
0.0
 11
3796.999998108043
 21
1499.999997412199
 31
0.0
  0
LINE
  5
EE
330
D2
100
AcDbEntity
  8
OBJECT
100
AcDbLine
 10
3699.999998108043
 20
2696.999997412198
 30
0.0
 11
2848.499998108044
 21
2696.999997412198
 31
0.0
  0
LINE
  5
EF
330
D2
100
AcDbEntity
  8
OBJECT
100
AcDbLine
 10
2848.499998108044
 20
2665.9999974122
 30
0.0
 11
3699.999998108043
 21
2665.9999974122
 31
0.0
  0
LINE
  5
F0
330
D2
100
AcDbEntity
  8
OBJECT
100
AcDbLine
 10
2848.499998108044
 20
2630.9999974122
 30
0.0
 11
3699.999998108043
 21
2630.9999974122
 31
0.0
  0
LINE
  5
F1
330
D2
100
AcDbEntity
  8
OBJECT
100
AcDbLine
 10
3699.999998108043
 20
2696.9999974122
 30
0.0
 11
3796.999998108043
 21
2696.9999974122
 31
0.0
  0
LINE
  5
F2
330
D2
100
AcDbEntity
  8
OBJECT
100
AcDbLine
 10
3796.999998108043
 20
2599.9999974122
 30
0.0
 11
3699.999998108043
 21
2599.9999974122
 31
0.0
  0
LINE
  5
F3
330
D2
100
AcDbEntity
  8
OBJECT
100
AcDbLine
 10
3699.999998108043
 20
2599.9999974122
 30
0.0
 11
3699.999998108043
 21
2696.9999974122
 31
0.0
  0
LINE
  5
F4
330
D2
100
AcDbEntity
  8
OBJECT
100
AcDbLine
 10
3796.999998108043
 20
2696.9999974122
 30
0.0
 11
3796.999998108043
 21
2599.9999974122
 31
0.0
  0
ENDBLK
  5
D4
330
D2
100
AcDbEntity
  8
0
100
AcDbBlockEnd
  0
BLOCK
  5
22D
330
22C
100
AcDbEntity
  8
0
 62
     1
100
AcDbBlockBegin
  2
TBKB0
 70
     0
 10
0.0
 20
0.0
 30
0.0
  3
TBKB0
  1

  0
INSERT
  5
22F
330
22C
100
AcDbEntity
  8
HATCH
  6
CONTINUOUS
 62
     3
100
AcDbBlockReference
  2
*U2
 10
0.0
 20
0.0
 30
0.0
1001
ACAD
1002
{
1000
R14_HATCH_DATA
1000
22F
1011
1.0
1021
0.0
1031
0.0
1011
0.0
1021
1.0
1031
0.0
1011
0.0
1021
0.0
1031
1.0
1040
0.0
1010
0.0
1020
0.0
1030
1.0
1000
SOLID
1070
     1
1070
     0
1071
        8
1071
        7
1070
     0
1070
     1
1071
        4
1040
2848.499998108045
1040
2848.499997412199
1040
1348.499998108041
1040
2848.499997412199
1040
1698.499998108044
1040
2498.499997412201
1040
2498.499998108047
1040
2498.499997412199
1071
        0
1071
        7
1070
     0
1070
     1
1071
        4
1040
2848.499998108043
1040
2848.499997412197
1040
2498.499998108044
1040
2498.499997412197
1040
2498.499998108044
1040
1698.499997412197
1040
2848.499998108044
1040
1348.499997412197
1071
        0
1071
        7
1070
     0
1070
     1
1071
        3
1040
2498.499998108044
1040
2498.499997412201
1040
2098.499998108044
1040
2098.4999974122
1040
2498.499998108044
1040
1698.499997412199
1071
        0
1071
        7
1070
     0
1070
     1
1071
        3
1040
2498.499998108044
1040
2498.4999974122
1040
1698.49999810804
1040
2498.499997412199
1040
2098.499998108043
1040
2098.499997412199
1071
        0
1071
        7
1070
     0
1070
     1
1071
        3
1040
2098.499998108044
1040
2098.499997412198
1040
1698.499998108044
1040
2498.499997412196
1040
1698.499998108044
1040
1698.499997412197
1071
        0
1071
        7
1070
     0
1070
     1
1071
        3
1040
2098.499998108044
1040
2098.499997412199
1040
1698.499998108046
1040
1698.4999974122
1040
2498.499998108044
1040
1698.4999974122
1071
        0
1071
        7
1070
     0
1070
     1
1071
        4
1040
2498.499998108041
1040
1698.4999974122
1040
1698.499998108044
1040
1698.499997412199
1040
1348.499998108041
1040
1348.499997412199
1040
2848.49999810804
1040
1348.499997412199
1071
        0
1071
        7
1070
     0
1070
     1
1071
        4
1040
1698.499998108044
1040
2498.4999974122
1040
1348.499998108042
1040
2848.499997412199
1040
1348.499998108042
1040
1348.4999974122
1040
1698.499998108044
1040
1698.4999974122
1071
        0
1070
     0
1070
     1
1040
5.013971013829704
1071
        8
1040
2211.55446089826
1040
2694.500646558288
1040
0.0
1040
2512.601433313685
1040
2333.494720522845
1040
0.0
1040
2352.043048025458
1040
2213.159411844364
1040
0.0
1040
2156.362526390039
1040
2393.662387440792
1040
0.0
1040
1865.350432185907
1040
2062.740294864321
1040
0.0
1040
1995.804141101805
1040
1862.181455452657
1040
0.0
1040
1860.333013949471
1040
1531.259362876186
1040
0.0
1040
1584.373257931511
1040
1832.097621993682
1040
0.0
1002
}
  0
INSERT
  5
230
330
22C
100
AcDbEntity
  8
HATCH
  6
CONTINUOUS
 62
     2
100
AcDbBlockReference
  2
*U3
 10
0.0
 20
0.0
 30
0.0
1001
ACAD
1002
{
1000
R14_HATCH_DATA
1000
230
1011
1.0
1021
0.0
1031
0.0
1011
0.0
1021
1.0
1031
0.0
1011
0.0
1021
0.0
1031
1.0
1040
0.0
1010
0.0
1020
0.0
1030
1.0
1000
SOLID
1070
     1
1070
     0
1071
        2
1071
        7
1070
     0
1070
     1
1071
        4
1040
3699.999998108043
1040
2665.9999974122
1040
2848.499998108043
1040
2665.9999974122
1040
2848.499998108044
1040
2630.9999974122
1040
3699.999998108043
1040
2630.9999974122
1071
        0
1071
        7
1070
     0
1070
     1
1071
        4
1040
3699.999998108043
1040
1565.999997412199
1040
2848.499998108043
1040
1565.9999974122
1040
2848.499998108044
1040
1530.9999974122
1040
3699.999998108043
1040
1530.9999974122
1071
        0
1070
     0
1070
     1
1040
5.013971013829704
1071
        3
1040
3756.928961035868
1040
2644.360924126667
1040
0.0
1040
3215.044410688104
1040
2639.346951883505
1040
0.0
1040
3215.044410688104
1040
1546.301279605671
1040
0.0
1002
}
  0
INSERT
  5
231
330
22C
100
AcDbEntity
  8
HATCH
  6
CONTINUOUS
 62
   251
100
AcDbBlockReference
  2
*U4
 10
0.0
 20
0.0
 30
0.0
1001
ACAD
1002
{
1000
R14_HATCH_DATA
1000
231
1011
1.0
1021
0.0
1031
0.0
1011
0.0
1021
1.0
1031
0.0
1011
0.0
1021
0.0
1031
1.0
1040
0.0
1010
0.0
1020
0.0
1030
1.0
1000
SOLID
1070
     1
1070
     0
1071
        3
1071
        7
1070
     0
1070
     1
1071
        4
1040
3699.999998108042
1040
2696.999997412197
1040
2848.499998108044
1040
2696.999997412198
1040
2848.499998108044
1040
2665.9999974122
1040
3699.999998108043
1040
2665.9999974122
1071
        0
1071
        7
1070
     0
1070
     1
1071
        8
1040
3796.999998108042
1040
2599.9999974122
1040
3699.999998108043
1040
2599.999997412199
1040
3699.999998108042
1040
2630.9999974122
1040
2848.499998108044
1040
2630.9999974122
1040
2848.499998108043
1040
1565.9999974122
1040
3699.999998108043
1040
1565.9999974122
1040
3699.999998108042
1040
1596.999997412199
1040
3796.999998108043
1040
1596.999997412199
1071
        0
1071
        7
1070
     0
1070
     1
1071
        4
1040
3699.999998108043
1040
1530.9999974122
1040
2848.499998108043
1040
1530.999997412199
1040
2848.499998108043
1040
1499.999997412199
1040
3699.999998108042
1040
1499.999997412199
1071
        0
1070
     0
1070
     1
1040
5.013971013829704
1071
        3
1040
3079.57328353577
1040
2679.458729828802
1040
0.0
1040
3079.57328353577
1040
2403.690331927115
1040
0.0
1040
3240.131668823996
1040
1516.2174461467
1040
0.0
1002
}
  0
INSERT
  5
232
330
22C
100
AcDbEntity
  8
HATCH
  6
CONTINUOUS
 62
     1
100
AcDbBlockReference
  2
*U5
 10
0.0
 20
0.0
 30
0.0
1001
ACAD
1002
{
1000
R14_HATCH_DATA
1000
232
1011
1.0
1021
0.0
1031
0.0
1011
0.0
1021
1.0
1031
0.0
1011
0.0
1021
0.0
1031
1.0
1040
0.0
1010
0.0
1020
0.0
1030
1.0
1000
SOLID
1070
     1
1070
     0
1071
        2
1071
        7
1070
     0
1070
     1
1071
        4
1040
3796.999998108043
1040
2696.9999974122
1040
3699.999998108043
1040
2696.9999974122
1040
3699.999998108042
1040
2599.9999974122
1040
3796.999998108043
1040
2599.9999974122
1071
        0
1071
        7
1070
     0
1070
     1
1071
        4
1040
3796.999998108042
1040
1596.999997412199
1040
3699.999998108042
1040
1596.9999974122
1040
3699.999998108043
1040
1499.999997412199
1040
3796.999998108043
1040
1499.999997412199
1071
        0
1070
     0
1070
     1
1040
5.013971013829704
1071
        2
1040
3716.789364713811
1040
2644.360924126667
1040
0.0
1040
3716.789364713811
1040
1541.287307362508
1040
0.0
1002
}
  0
LINE
  5
233
330
22C
100
AcDbEntity
  8
OBJECT
100
AcDbLine
 10
2498.499998108044
 20
2498.499997412197
 30
0.0
 11
2848.499998108044
 21
2848.499997412197
 31
0.0
  0
LINE
  5
234
330
22C
100
AcDbEntity
  8
OBJECT
100
AcDbLine
 10
2848.499998108044
 20
1348.499997412198
 30
0.0
 11
2498.499998108044
 21
1698.499997412198
 31
0.0
  0
POLYLINE
  5
235
330
22C
100
AcDbEntity
  8
SAFETY
 48
20.0
100
AcDb2dPolyline
 66
     1
 10
0.0
 20
0.0
 30
0.0
 70
     1
  0
VERTEX
  5
28C
330
235
100
AcDbEntity
  8
SAFETY
 48
20.0
100
AcDbVertex
100
AcDb2dVertex
 10
1499.999998108043
 20
4196.999997412199
 30
0.0
  0
VERTEX
  5
28D
330
235
100
AcDbEntity
  8
SAFETY
 48
20.0
100
AcDbVertex
100
AcDb2dVertex
 10
3796.999998108043
 20
4196.999997412199
 30
0.0
 42
-0.4142135623730951
  0
VERTEX
  5
28E
330
235
100
AcDbEntity
  8
SAFETY
 48
20.0
100
AcDbVertex
100
AcDb2dVertex
 10
5296.999998108043
 20
2696.9999974122
 30
0.0
  0
VERTEX
  5
28F
330
235
100
AcDbEntity
  8
SAFETY
 48
20.0
100
AcDbVertex
100
AcDb2dVertex
 10
5296.999998108043
 20
1499.999997412199
 30
0.0
 42
-0.4142135623730951
  0
VERTEX
  5
290
330
235
100
AcDbEntity
  8
SAFETY
 48
20.0
100
AcDbVertex
100
AcDb2dVertex
 10
3796.999998108043
 20
-0.0000025877998269
 30
0.0
  0
VERTEX
  5
291
330
235
100
AcDbEntity
  8
SAFETY
 48
20.0
100
AcDbVertex
100
AcDb2dVertex
 10
1499.999998108043
 20
-0.0000025877998269
 30
0.0
 42
-0.4142135623730951
  0
VERTEX
  5
292
330
235
100
AcDbEntity
  8
SAFETY
 48
20.0
100
AcDbVertex
100
AcDb2dVertex
 10
-0.0000018919563445
 20
1499.999997412199
 30
0.0
  0
VERTEX
  5
293
330
235
100
AcDbEntity
  8
SAFETY
 48
20.0
100
AcDbVertex
100
AcDb2dVertex
 10
-0.0000018919563445
 20
2696.9999974122
 30
0.0
 42
-0.4142135623730951
  0
SEQEND
  5
294
330
235
100
AcDbEntity
  8
SAFETY
 48
20.0
  0
LINE
  5
236
330
22C
100
AcDbEntity
  8
OBJECT
100
AcDbLine
 10
2848.499998108044
 20
1348.4999974122
 30
0.0
 11
1348.499998108042
 21
1348.4999974122
 31
0.0
  0
LINE
  5
237
330
22C
100
AcDbEntity
  8
OBJECT
100
AcDbLine
 10
1348.499998108042
 20
2848.499997412199
 30
0.0
 11
2848.499998108044
 21
2848.499997412199
 31
0.0
  0
LINE
  5
238
330
22C
100
AcDbEntity
  8
OBJECT
100
AcDbLine
 10
2498.499998108044
 20
1698.4999974122
 30
0.0
 11
2498.499998108044
 21
2498.4999974122
 31
0.0
  0
LINE
  5
239
330
22C
100
AcDbEntity
  8
OBJECT
100
AcDbLine
 10
1698.499998108044
 20
2498.499997412197
 30
0.0
 11
2098.499998108044
 21
2098.499997412198
 31
0.0
  0
LINE
  5
23A
330
22C
100
AcDbEntity
  8
OBJECT
100
AcDbLine
 10
1698.499998108044
 20
1698.4999974122
 30
0.0
 11
1698.499998108044
 21
2498.4999974122
 31
0.0
  0
LINE
  5
23B
330
22C
100
AcDbEntity
  8
OBJECT
100
AcDbLine
 10
1348.499998108042
 20
1348.4999974122
 30
0.0
 11
1348.499998108042
 21
2848.499997412199
 31
0.0
  0
LINE
  5
23C
330
22C
100
AcDbEntity
  8
OBJECT
100
AcDbLine
 10
2098.499998108044
 20
2098.4999974122
 30
0.0
 11
2498.499998108044
 21
2498.4999974122
 31
0.0
  0
LINE
  5
23D
330
22C
100
AcDbEntity
  8
OBJECT
100
AcDbLine
 10
2098.499998108044
 20
2098.499997412198
 30
0.0
 11
1698.499998108044
 21
1698.499997412198
 31
0.0
  0
LINE
  5
23E
330
22C
100
AcDbEntity
  8
OBJECT
100
AcDbLine
 10
1698.499998108044
 20
1698.4999974122
 30
0.0
 11
2498.499998108044
 21
1698.4999974122
 31
0.0
  0
LINE
  5
23F
330
22C
100
AcDbEntity
  8
OBJECT
100
AcDbLine
 10
1698.499998108044
 20
1698.4999974122
 30
0.0
 11
1348.499998108042
 21
1348.4999974122
 31
0.0
  0
LINE
  5
240
330
22C
100
AcDbEntity
  8
OBJECT
100
AcDbLine
 10
2498.499998108044
 20
1698.4999974122
 30
0.0
 11
2098.499998108044
 21
2098.4999974122
 31
0.0
  0
LINE
  5
241
330
22C
100
AcDbEntity
  8
OBJECT
100
AcDbLine
 10
1698.499998108044
 20
2498.4999974122
 30
0.0
 11
2498.499998108044
 21
2498.4999974122
 31
0.0
  0
LINE
  5
242
330
22C
100
AcDbEntity
  8
OBJECT
100
AcDbLine
 10
1348.499998108042
 20
2848.499997412199
 30
0.0
 11
1698.499998108044
 21
2498.4999974122
 31
0.0
  0
LINE
  5
243
330
22C
100
AcDbEntity
  8
OBJECT
100
AcDbLine
 10
2848.499998108044
 20
2848.499997412199
 30
0.0
 11
2848.499998108044
 21
1348.4999974122
 31
0.0
  0
LINE
  5
244
330
22C
100
AcDbEntity
  8
OBJECT
100
AcDbLine
 10
3796.999998108043
 20
1596.9999974122
 30
0.0
 11
3796.999998108043
 21
2599.9999974122
 31
0.0
  0
LINE
  5
245
330
22C
100
AcDbEntity
  8
OBJECT
100
AcDbLine
 10
2848.499998108044
 20
1499.999997412199
 30
0.0
 11
3699.999998108043
 21
1499.999997412199
 31
0.0
  0
LINE
  5
246
330
22C
100
AcDbEntity
  8
OBJECT
100
AcDbLine
 10
2848.499998108044
 20
1565.9999974122
 30
0.0
 11
3699.999998108046
 21
1565.9999974122
 31
0.0
  0
LINE
  5
247
330
22C
100
AcDbEntity
  8
OBJECT
100
AcDbLine
 10
2848.499998108044
 20
1530.9999974122
 30
0.0
 11
3699.999998108046
 21
1530.9999974122
 31
0.0
  0
LINE
  5
248
330
22C
100
AcDbEntity
  8
OBJECT
100
AcDbLine
 10
3699.999998108043
 20
1596.9999974122
 30
0.0
 11
3796.999998108043
 21
1596.9999974122
 31
0.0
  0
LINE
  5
249
330
22C
100
AcDbEntity
  8
OBJECT
100
AcDbLine
 10
3796.999998108043
 20
1499.999997412199
 30
0.0
 11
3699.999998108043
 21
1499.999997412199
 31
0.0
  0
LINE
  5
24A
330
22C
100
AcDbEntity
  8
OBJECT
100
AcDbLine
 10
3699.999998108043
 20
1499.999997412199
 30
0.0
 11
3699.999998108043
 21
1596.9999974122
 31
0.0
  0
LINE
  5
24B
330
22C
100
AcDbEntity
  8
OBJECT
100
AcDbLine
 10
3796.999998108043
 20
1596.9999974122
 30
0.0
 11
3796.999998108043
 21
1499.999997412199
 31
0.0
  0
LINE
  5
24C
330
22C
100
AcDbEntity
  8
OBJECT
100
AcDbLine
 10
3699.999998108043
 20
2696.999997412198
 30
0.0
 11
2848.499998108044
 21
2696.999997412198
 31
0.0
  0
LINE
  5
24D
330
22C
100
AcDbEntity
  8
OBJECT
100
AcDbLine
 10
2848.499998108044
 20
2665.9999974122
 30
0.0
 11
3699.999998108043
 21
2665.9999974122
 31
0.0
  0
LINE
  5
24E
330
22C
100
AcDbEntity
  8
OBJECT
100
AcDbLine
 10
2848.499998108044
 20
2630.9999974122
 30
0.0
 11
3699.999998108043
 21
2630.9999974122
 31
0.0
  0
LINE
  5
24F
330
22C
100
AcDbEntity
  8
OBJECT
100
AcDbLine
 10
3699.999998108043
 20
2696.9999974122
 30
0.0
 11
3796.999998108043
 21
2696.9999974122
 31
0.0
  0
LINE
  5
250
330
22C
100
AcDbEntity
  8
OBJECT
100
AcDbLine
 10
3796.999998108043
 20
2599.9999974122
 30
0.0
 11
3699.999998108043
 21
2599.9999974122
 31
0.0
  0
LINE
  5
251
330
22C
100
AcDbEntity
  8
OBJECT
100
AcDbLine
 10
3699.999998108043
 20
2599.9999974122
 30
0.0
 11
3699.999998108043
 21
2696.9999974122
 31
0.0
  0
LINE
  5
252
330
22C
100
AcDbEntity
  8
OBJECT
100
AcDbLine
 10
3796.999998108043
 20
2696.9999974122
 30
0.0
 11
3796.999998108043
 21
2599.9999974122
 31
0.0
  0
ENDBLK
  5
22E
330
22C
100
AcDbEntity
  8
0
 62
     1
100
AcDbBlockEnd
  0
BLOCK
  5
26F
330
262
100
AcDbEntity
  8
0
 62
     1
100
AcDbBlockBegin
  2
*U2
 70
     1
 10
0.0
 20
0.0
 30
0.0
  3
*U2
  1

  0
SOLID
  5
263
330
262
100
AcDbEntity
  8
HATCH
  6
CONTINUOUS
 62
     3
100
AcDbTrace
 10
2848.499998108045
 20
2848.499997412199
 30
0.0
 11
1348.499998108041
 21
2848.499997412199
 31
0.0
 12
2498.499998108047
 22
2498.499997412199
 32
0.0
 13
2498.499998108047
 23
2498.499997412199
 33
0.0
210
0.0
220
0.0
230
1.0
  0
SOLID
  5
264
330
262
100
AcDbEntity
  8
HATCH
  6
CONTINUOUS
 62
     3
100
AcDbTrace
 10
1698.499998108044
 20
2498.499997412201
 30
0.0
 11
2498.499998108047
 21
2498.499997412199
 31
0.0
 12
1348.499998108041
 22
2848.499997412199
 32
0.0
 13
1348.499998108041
 23
2848.499997412199
 33
0.0
210
0.0
220
0.0
230
1.0
  0
SOLID
  5
265
330
262
100
AcDbEntity
  8
HATCH
  6
CONTINUOUS
 62
     3
100
AcDbTrace
 10
2848.499998108043
 20
2848.499997412197
 30
0.0
 11
2498.499998108044
 21
2498.499997412197
 31
0.0
 12
2848.499998108044
 22
1348.499997412197
 32
0.0
 13
2848.499998108044
 23
1348.499997412197
 33
0.0
210
0.0
220
0.0
230
1.0
  0
SOLID
  5
266
330
262
100
AcDbEntity
  8
HATCH
  6
CONTINUOUS
 62
     3
100
AcDbTrace
 10
2498.499998108044
 20
1698.499997412197
 30
0.0
 11
2848.499998108044
 21
1348.499997412197
 31
0.0
 12
2498.499998108044
 22
2498.499997412197
 32
0.0
 13
2498.499998108044
 23
2498.499997412197
 33
0.0
210
0.0
220
0.0
230
1.0
  0
SOLID
  5
267
330
262
100
AcDbEntity
  8
HATCH
  6
CONTINUOUS
 62
     3
100
AcDbTrace
 10
2498.499998108044
 20
2498.499997412201
 30
0.0
 11
2098.499998108044
 21
2098.4999974122
 31
0.0
 12
2498.499998108044
 22
1698.499997412199
 32
0.0
 13
2498.499998108044
 23
1698.499997412199
 33
0.0
210
0.0
220
0.0
230
1.0
  0
SOLID
  5
268
330
262
100
AcDbEntity
  8
HATCH
  6
CONTINUOUS
 62
     3
100
AcDbTrace
 10
2498.499998108044
 20
2498.4999974122
 30
0.0
 11
1698.49999810804
 21
2498.499997412199
 31
0.0
 12
2098.499998108043
 22
2098.499997412199
 32
0.0
 13
2098.499998108043
 23
2098.499997412199
 33
0.0
210
0.0
220
0.0
230
1.0
  0
SOLID
  5
269
330
262
100
AcDbEntity
  8
HATCH
  6
CONTINUOUS
 62
     3
100
AcDbTrace
 10
2098.499998108044
 20
2098.499997412198
 30
0.0
 11
1698.499998108044
 21
2498.499997412196
 31
0.0
 12
1698.499998108044
 22
1698.499997412197
 32
0.0
 13
1698.499998108044
 23
1698.499997412197
 33
0.0
210
0.0
220
0.0
230
1.0
  0
SOLID
  5
26A
330
262
100
AcDbEntity
  8
HATCH
  6
CONTINUOUS
 62
     3
100
AcDbTrace
 10
2098.499998108044
 20
2098.499997412199
 30
0.0
 11
1698.499998108046
 21
1698.4999974122
 31
0.0
 12
2498.499998108044
 22
1698.4999974122
 32
0.0
 13
2498.499998108044
 23
1698.4999974122
 33
0.0
210
0.0
220
0.0
230
1.0
  0
SOLID
  5
26B
330
262
100
AcDbEntity
  8
HATCH
  6
CONTINUOUS
 62
     3
100
AcDbTrace
 10
2498.499998108041
 20
1698.4999974122
 30
0.0
 11
1698.499998108044
 21
1698.499997412199
 31
0.0
 12
2848.49999810804
 22
1348.499997412199
 32
0.0
 13
2848.49999810804
 23
1348.499997412199
 33
0.0
210
0.0
220
0.0
230
1.0
  0
SOLID
  5
26C
330
262
100
AcDbEntity
  8
HATCH
  6
CONTINUOUS
 62
     3
100
AcDbTrace
 10
1348.499998108041
 20
1348.499997412199
 30
0.0
 11
2848.49999810804
 21
1348.499997412199
 31
0.0
 12
1698.499998108044
 22
1698.499997412199
 32
0.0
 13
1698.499998108044
 23
1698.499997412199
 33
0.0
210
0.0
220
0.0
230
1.0
  0
SOLID
  5
26D
330
262
100
AcDbEntity
  8
HATCH
  6
CONTINUOUS
 62
     3
100
AcDbTrace
 10
1698.499998108044
 20
2498.4999974122
 30
0.0
 11
1348.499998108042
 21
2848.499997412199
 31
0.0
 12
1698.499998108044
 22
1698.4999974122
 32
0.0
 13
1698.499998108044
 23
1698.4999974122
 33
0.0
  0
SOLID
  5
26E
330
262
100
AcDbEntity
  8
HATCH
  6
CONTINUOUS
 62
     3
100
AcDbTrace
 10
1348.499998108042
 20
1348.4999974122
 30
0.0
 11
1698.499998108044
 21
1698.4999974122
 31
0.0
 12
1348.499998108042
 22
2848.499997412199
 32
0.0
 13
1348.499998108042
 23
2848.499997412199
 33
0.0
210
0.0
220
0.0
230
1.0
  0
ENDBLK
  5
270
330
262
100
AcDbEntity
  8
0
 62
     1
100
AcDbBlockEnd
  0
BLOCK
  5
276
330
271
100
AcDbEntity
  8
0
 62
     1
100
AcDbBlockBegin
  2
*U3
 70
     1
 10
0.0
 20
0.0
 30
0.0
  3
*U3
  1

  0
SOLID
  5
272
330
271
100
AcDbEntity
  8
HATCH
  6
CONTINUOUS
 62
     2
100
AcDbTrace
 10
3699.999998108043
 20
1565.999997412199
 30
0.0
 11
2848.499998108044
 21
1530.9999974122
 31
0.0
 12
3699.999998108043
 22
1530.9999974122
 32
0.0
 13
3699.999998108043
 23
1530.9999974122
 33
0.0
  0
SOLID
  5
273
330
271
100
AcDbEntity
  8
HATCH
  6
CONTINUOUS
 62
     2
100
AcDbTrace
 10
2848.499998108043
 20
1565.9999974122
 30
0.0
 11
2848.499998108044
 21
1530.9999974122
 31
0.0
 12
3699.999998108043
 22
1565.999997412199
 32
0.0
 13
3699.999998108043
 23
1565.999997412199
 33
0.0
  0
SOLID
  5
274
330
271
100
AcDbEntity
  8
HATCH
  6
CONTINUOUS
 62
     2
100
AcDbTrace
 10
3699.999998108043
 20
2665.9999974122
 30
0.0
 11
2848.499998108044
 21
2630.9999974122
 31
0.0
 12
3699.999998108043
 22
2630.9999974122
 32
0.0
 13
3699.999998108043
 23
2630.9999974122
 33
0.0
210
0.0
220
0.0
230
1.0
  0
SOLID
  5
275
330
271
100
AcDbEntity
  8
HATCH
  6
CONTINUOUS
 62
     2
100
AcDbTrace
 10
2848.499998108043
 20
2665.9999974122
 30
0.0
 11
2848.499998108044
 21
2630.9999974122
 31
0.0
 12
3699.999998108043
 22
2665.9999974122
 32
0.0
 13
3699.999998108043
 23
2665.9999974122
 33
0.0
  0
ENDBLK
  5
277
330
271
100
AcDbEntity
  8
0
 62
     1
100
AcDbBlockEnd
  0
BLOCK
  5
283
330
278
100
AcDbEntity
  8
0
 62
     1
100
AcDbBlockBegin
  2
*U4
 70
     1
 10
0.0
 20
0.0
 30
0.0
  3
*U4
  1

  0
SOLID
  5
279
330
278
100
AcDbEntity
  8
HATCH
  6
CONTINUOUS
 62
   251
100
AcDbTrace
 10
2848.499998108043
 20
1530.999997412199
 30
0.0
 11
2848.499998108043
 21
1499.999997412199
 31
0.0
 12
3699.999998108042
 22
1499.999997412199
 32
0.0
 13
3699.999998108042
 23
1499.999997412199
 33
0.0
210
0.0
220
0.0
230
1.0
  0
SOLID
  5
27A
330
278
100
AcDbEntity
  8
HATCH
  6
CONTINUOUS
 62
   251
100
AcDbTrace
 10
3699.999998108043
 20
1530.9999974122
 30
0.0
 11
2848.499998108043
 21
1530.999997412199
 31
0.0
 12
3699.999998108042
 22
1499.999997412199
 32
0.0
 13
3699.999998108042
 23
1499.999997412199
 33
0.0
210
0.0
220
0.0
230
1.0
  0
SOLID
  5
27B
330
278
100
AcDbEntity
  8
HATCH
  6
CONTINUOUS
 62
   251
100
AcDbTrace
 10
3699.999998108042
 20
1596.999997412199
 30
0.0
 11
2848.499998108043
 21
1565.9999974122
 31
0.0
 12
3699.999998108043
 22
1565.9999974122
 32
0.0
 13
3699.999998108043
 23
1565.9999974122
 33
0.0
210
0.0
220
0.0
230
1.0
  0
SOLID
  5
27C
330
278
100
AcDbEntity
  8
HATCH
  6
CONTINUOUS
 62
   251
100
AcDbTrace
 10
3699.999998108043
 20
2599.999997412199
 30
0.0
 11
3699.999998108042
 21
1596.999997412199
 31
0.0
 12
3796.999998108043
 22
1596.999997412199
 32
0.0
 13
3796.999998108043
 23
1596.999997412199
 33
0.0
210
0.0
220
0.0
230
1.0
  0
SOLID
  5
27D
330
278
100
AcDbEntity
  8
HATCH
  6
CONTINUOUS
 62
   251
100
AcDbTrace
 10
3699.999998108043
 20
2599.999997412199
 30
0.0
 11
2848.499998108043
 21
1565.9999974122
 31
0.0
 12
3699.999998108042
 22
1596.999997412199
 32
0.0
 13
3699.999998108042
 23
1596.999997412199
 33
0.0
210
0.0
220
0.0
230
1.0
  0
SOLID
  5
27E
330
278
100
AcDbEntity
  8
HATCH
  6
CONTINUOUS
 62
   251
100
AcDbTrace
 10
3796.999998108042
 20
2599.9999974122
 30
0.0
 11
3699.999998108043
 21
2599.999997412199
 31
0.0
 12
3796.999998108043
 22
1596.999997412199
 32
0.0
 13
3796.999998108043
 23
1596.999997412199
 33
0.0
210
0.0
220
0.0
230
1.0
  0
SOLID
  5
27F
330
278
100
AcDbEntity
  8
HATCH
  6
CONTINUOUS
 62
   251
100
AcDbTrace
 10
3699.999998108042
 20
2630.9999974122
 30
0.0
 11
2848.499998108043
 21
1565.9999974122
 31
0.0
 12
3699.999998108043
 22
2599.999997412199
 32
0.0
 13
3699.999998108043
 23
2599.999997412199
 33
0.0
210
0.0
220
0.0
230
1.0
  0
SOLID
  5
280
330
278
100
AcDbEntity
  8
HATCH
  6
CONTINUOUS
 62
   251
100
AcDbTrace
 10
2848.499998108044
 20
2630.9999974122
 30
0.0
 11
2848.499998108043
 21
1565.9999974122
 31
0.0
 12
3699.999998108042
 22
2630.9999974122
 32
0.0
 13
3699.999998108042
 23
2630.9999974122
 33
0.0
210
0.0
220
0.0
230
1.0
  0
SOLID
  5
281
330
278
100
AcDbEntity
  8
HATCH
  6
CONTINUOUS
 62
   251
100
AcDbTrace
 10
3699.999998108042
 20
2696.999997412197
 30
0.0
 11
2848.499998108044
 21
2665.9999974122
 31
0.0
 12
3699.999998108043
 22
2665.9999974122
 32
0.0
 13
3699.999998108043
 23
2665.9999974122
 33
0.0
210
0.0
220
0.0
230
1.0
  0
SOLID
  5
282
330
278
100
AcDbEntity
  8
HATCH
  6
CONTINUOUS
 62
   251
100
AcDbTrace
 10
2848.499998108044
 20
2696.999997412198
 30
0.0
 11
2848.499998108044
 21
2665.9999974122
 31
0.0
 12
3699.999998108042
 22
2696.999997412197
 32
0.0
 13
3699.999998108042
 23
2696.999997412197
 33
0.0
210
0.0
220
0.0
230
1.0
  0
ENDBLK
  5
284
330
278
100
AcDbEntity
  8
0
 62
     1
100
AcDbBlockEnd
  0
BLOCK
  5
28A
330
285
100
AcDbEntity
  8
0
 62
     1
100
AcDbBlockBegin
  2
*U5
 70
     1
 10
0.0
 20
0.0
 30
0.0
  3
*U5
  1

  0
SOLID
  5
286
330
285
100
AcDbEntity
  8
HATCH
  6
CONTINUOUS
 62
     1
100
AcDbTrace
 10
3796.999998108042
 20
1596.999997412199
 30
0.0
 11
3699.999998108043
 21
1499.999997412199
 31
0.0
 12
3796.999998108043
 22
1499.999997412199
 32
0.0
 13
3796.999998108043
 23
1499.999997412199
 33
0.0
210
0.0
220
0.0
230
1.0
  0
SOLID
  5
287
330
285
100
AcDbEntity
  8
HATCH
  6
CONTINUOUS
 62
     1
100
AcDbTrace
 10
3699.999998108042
 20
1596.9999974122
 30
0.0
 11
3699.999998108043
 21
1499.999997412199
 31
0.0
 12
3796.999998108042
 22
1596.999997412199
 32
0.0
 13
3796.999998108042
 23
1596.999997412199
 33
0.0
210
0.0
220
0.0
230
1.0
  0
SOLID
  5
288
330
285
100
AcDbEntity
  8
HATCH
  6
CONTINUOUS
 62
     1
100
AcDbTrace
 10
3796.999998108043
 20
2599.9999974122
 30
0.0
 11
3796.999998108043
 21
2696.9999974122
 31
0.0
 12
3699.999998108043
 22
2696.9999974122
 32
0.0
 13
3699.999998108043
 23
2696.9999974122
 33
0.0
210
0.0
220
0.0
230
1.0
  0
SOLID
  5
289
330
285
100
AcDbEntity
  8
HATCH
  6
CONTINUOUS
 62
     1
100
AcDbTrace
 10
3699.999998108043
 20
2696.9999974122
 30
0.0
 11
3699.999998108042
 21
2599.9999974122
 31
0.0
 12
3796.999998108043
 22
2599.9999974122
 32
0.0
 13
3796.999998108043
 23
2599.9999974122
 33
0.0
210
0.0
220
0.0
230
1.0
  0
ENDBLK
  5
28B
330
285
100
AcDbEntity
  8
0
 62
     1
100
AcDbBlockEnd
  0
ENDSEC
  0
SECTION
  2
ENTITIES
  0
MTEXT
  5
128
330
1F
100
AcDbEntity
  8
TEKST
100
AcDbMText
 10
1864.552666833893
 20
3734.605135292985
 30
0.0
 40
100.0
 41
1657.8662
 71
     1
 72
     1
  1
{\FIMPACT.TTF;Hoogte: 310 cm\PMax. valhoogte: 20 cm}
1001
ACAD
1000
MTEXTBEGIN
1070
    73
1070
     1
1070
    44
1040
1.0
1070
    74
1070
     0
1000
MTEXTEND
1000
MTEXTBEGIN
1070
    73
1070
     1
1070
    44
1040
1.0
1070
    74
1070
     0
1000
MTEXTEND
1000
MTEXTBEGIN
1070
    73
1070
     1
1070
    44
1040
1.0
1070
    74
1070
     0
1000
MTEXTEND
  0
INSERT
  5
253
330
1F
100
AcDbEntity
  8
HATCH
 62
     1
100
AcDbBlockReference
  2
TBKB0
 10
0.0
 20
0.0
 30
0.0
  0
ENDSEC
  0
SECTION
  2
OBJECTS
  0
DICTIONARY
  5
C
330
0
100
AcDbDictionary
  3
ACAD_GROUP
350
D
  3
ACAD_LAYOUT
350
1A
  3
ACAD_MLINESTYLE
350
17
  3
ACAD_PLOTSETTINGS
350
19
1001
ACAD
1000
TREAT_AS_HARD
1070
     0
1000
TREAT_AS_HARD
1070
     0
  0
DICTIONARY
  5
C6
330
1F
100
AcDbDictionary
  3
ACAD_LAYOUTSELFREF
350
255
  3
ACAD_SORTENTS
350
22B
1001
ACAD
1000
TREAT_AS_HARD
1070
     1
1000
TREAT_AS_HARD
1070
     0
  0
DICTIONARY
  5
C8
330
50
100
AcDbDictionary
  3
ACAD_LAYOUTSELFREF
350
256
1001
ACAD
1000
TREAT_AS_HARD
1070
     1
1000
TREAT_AS_HARD
1070
     0
  0
DICTIONARY
  5
D
102
{ACAD_REACTORS
330
C
102
}
330
C
100
AcDbDictionary
1001
ACAD
1000
TREAT_AS_HARD
1070
     0
1000
TREAT_AS_HARD
1070
     0
  0
DICTIONARY
  5
1A
102
{ACAD_REACTORS
330
C
102
}
330
C
100
AcDbDictionary
1001
ACAD
1000
TREAT_AS_HARD
1070
     0
1000
TREAT_AS_HARD
1070
     0
  0
DICTIONARY
  5
17
102
{ACAD_REACTORS
330
C
102
}
330
C
100
AcDbDictionary
  3
STANDARD
350
18
1001
ACAD
1000
TREAT_AS_HARD
1070
     0
1000
TREAT_AS_HARD
1070
     0
  0
DICTIONARY
  5
19
102
{ACAD_REACTORS
330
C
102
}
330
C
100
AcDbDictionary
1001
ACAD
1000
TREAT_AS_HARD
1070
     0
1000
TREAT_AS_HARD
1070
     0
  0
XRECORD
  5
255
102
{ACAD_REACTORS
330
C6
102
}
330
C6
100
AcDbXrecord
340
1F
  0
SORTENTSTABLE
  5
22B
102
{ACAD_REACTORS
330
C6
102
}
330
C6
100
AcDbSortentsTable
330
1F
331
21A
  5
21A
331
20C
  5
20C
331
218
  5
218
331
229
  5
229
331
20A
  5
20A
331
227
  5
227
331
216
  5
216
331
225
  5
225
331
214
  5
214
331
223
  5
223
331
212
  5
212
331
210
  5
210
331
221
  5
221
331
1E0
  5
1E0
331
128
  5
180
331
21F
  5
21F
331
21D
  5
21D
331
20F
  5
20F
331
180
  5
128
331
21B
  5
21B
331
20D
  5
20D
331
219
  5
219
331
22A
  5
22A
331
20B
  5
20B
331
228
  5
228
331
217
  5
217
331
226
  5
226
331
215
  5
215
331
224
  5
224
331
213
  5
213
331
222
  5
222
331
211
  5
211
331
1AE
  5
1AE
331
220
  5
220
331
21E
  5
21E
331
21C
  5
21C
331
20E
  5
20E
  0
XRECORD
  5
256
102
{ACAD_REACTORS
330
C8
102
}
330
C8
100
AcDbXrecord
340
50
  0
MLINESTYLE
  5
18
102
{ACAD_REACTORS
330
17
102
}
330
17
100
AcDbMlineStyle
  2
STANDARD
 70
     0
  3

 62
   256
 51
90.0
 52
90.0
 71
     2
 49
0.5
 62
   256
  6
BYLAYER
 49
-0.5
 62
   256
  6
BYLAYER
  0
ENDSEC
  0
EOF
