  0
SECTION
  2
HEADER
  9
$ACADVER
  1
AC1012
  9
$DWGCODEPAGE
  3
ANSI_1252
  9
$INSBASE
 10
0.0
 20
0.0
 30
0.0
  9
$EXTMIN
 10
-0.0000031600520742
 20
0.000003669796115
 30
0.0
  9
$EXTMAX
 10
5799.999996839948
 20
5800.000003669797
 30
0.0
  9
$LIMMIN
 10
0.0
 20
0.0
  9
$LIMMAX
 10
420.0
 20
297.0
  9
$ORTHOMODE
 70
     0
  9
$REGENMODE
 70
     1
  9
$FILLMODE
 70
     1
  9
$QTEXTMODE
 70
     0
  9
$MIRRTEXT
 70
     1
  9
$DRAGMODE
 70
     2
  9
$LTSCALE
 40
1.0
  9
$OSMODE
 70
   511
  9
$ATTMODE
 70
     1
  9
$TEXTSIZE
 40
2.5
  9
$TRACEWID
 40
1.0
  9
$TEXTSTYLE
  7
STANDARD
  9
$CLAYER
  8
HATCH
  9
$CELTYPE
  6
BYLAYER
  9
$CECOLOR
 62
   256
  9
$CELTSCALE
 40
1.0
  9
$DELOBJ
 70
     1
  9
$DISPSILH
 70
     0
  9
$DIMSCALE
 40
1.0
  9
$DIMASZ
 40
2.5
  9
$DIMEXO
 40
0.625
  9
$DIMDLI
 40
3.75
  9
$DIMRND
 40
0.0
  9
$DIMDLE
 40
0.0
  9
$DIMEXE
 40
1.25
  9
$DIMTP
 40
0.0
  9
$DIMTM
 40
0.0
  9
$DIMTXT
 40
2.5
  9
$DIMCEN
 40
2.5
  9
$DIMTSZ
 40
0.0
  9
$DIMTOL
 70
     0
  9
$DIMLIM
 70
     0
  9
$DIMTIH
 70
     0
  9
$DIMTOH
 70
     0
  9
$DIMSE1
 70
     0
  9
$DIMSE2
 70
     0
  9
$DIMTAD
 70
     1
  9
$DIMZIN
 70
     8
  9
$DIMBLK
  1

  9
$DIMASO
 70
     1
  9
$DIMSHO
 70
     1
  9
$DIMPOST
  1

  9
$DIMAPOST
  1

  9
$DIMALT
 70
     0
  9
$DIMALTD
 70
     3
  9
$DIMALTF
 40
0.03937007874016
  9
$DIMLFAC
 40
1.0
  9
$DIMTOFL
 70
     1
  9
$DIMTVP
 40
0.0
  9
$DIMTIX
 70
     0
  9
$DIMSOXD
 70
     0
  9
$DIMSAH
 70
     0
  9
$DIMBLK1
  1

  9
$DIMBLK2
  1

  9
$DIMSTYLE
  2
ISO-25
  9
$DIMCLRD
 70
     0
  9
$DIMCLRE
 70
     0
  9
$DIMCLRT
 70
     0
  9
$DIMTFAC
 40
1.0
  9
$DIMGAP
 40
0.625
  9
$DIMJUST
 70
     0
  9
$DIMSD1
 70
     0
  9
$DIMSD2
 70
     0
  9
$DIMTOLJ
 70
     0
  9
$DIMTZIN
 70
     8
  9
$DIMALTZ
 70
     0
  9
$DIMALTTZ
 70
     0
  9
$DIMFIT
 70
     3
  9
$DIMUPT
 70
     0
  9
$DIMUNIT
 70
     2
  9
$DIMDEC
 70
     2
  9
$DIMTDEC
 70
     2
  9
$DIMALTU
 70
     2
  9
$DIMALTTD
 70
     3
  9
$DIMTXSTY
  7
STANDARD
  9
$DIMAUNIT
 70
     0
  9
$LUNITS
 70
     2
  9
$LUPREC
 70
     4
  9
$SKETCHINC
 40
1.0
  9
$FILLETRAD
 40
10.0
  9
$AUNITS
 70
     0
  9
$AUPREC
 70
     0
  9
$MENU
  1
.
  9
$ELEVATION
 40
0.0
  9
$PELEVATION
 40
0.0
  9
$THICKNESS
 40
0.0
  9
$LIMCHECK
 70
     0
  9
$BLIPMODE
 70
     0
  9
$CHAMFERA
 40
10.0
  9
$CHAMFERB
 40
10.0
  9
$CHAMFERC
 40
20.0
  9
$CHAMFERD
 40
0.0
  9
$SKPOLY
 70
     0
  9
$TDCREATE
 40
2452626.696698726
  9
$TDUPDATE
 40
2452795.658833101
  9
$TDINDWG
 40
0.0042325231
  9
$TDUSRTIMER
 40
0.0042319444
  9
$USRTIMER
 70
     1
  9
$ANGBASE
 50
0.0
  9
$ANGDIR
 70
     0
  9
$PDMODE
 70
     0
  9
$PDSIZE
 40
0.0
  9
$PLINEWID
 40
0.0
  9
$COORDS
 70
     2
  9
$SPLFRAME
 70
     0
  9
$SPLINETYPE
 70
     6
  9
$SPLINESEGS
 70
     8
  9
$ATTDIA
 70
     0
  9
$ATTREQ
 70
     1
  9
$HANDLING
 70
-16383
  9
$HANDSEED
  5
6CB
  9
$SURFTAB1
 70
     6
  9
$SURFTAB2
 70
     6
  9
$SURFTYPE
 70
     6
  9
$SURFU
 70
     6
  9
$SURFV
 70
     6
  9
$UCSNAME
  2

  9
$UCSORG
 10
0.0
 20
0.0
 30
0.0
  9
$UCSXDIR
 10
1.0
 20
0.0
 30
0.0
  9
$UCSYDIR
 10
0.0
 20
1.0
 30
0.0
  9
$PUCSNAME
  2

  9
$PUCSORG
 10
0.0
 20
0.0
 30
0.0
  9
$PUCSXDIR
 10
1.0
 20
0.0
 30
0.0
  9
$PUCSYDIR
 10
0.0
 20
1.0
 30
0.0
  9
$USERI1
 70
     0
  9
$USERI2
 70
     0
  9
$USERI3
 70
     0
  9
$USERI4
 70
     0
  9
$USERI5
 70
     0
  9
$USERR1
 40
0.0
  9
$USERR2
 40
0.0
  9
$USERR3
 40
0.0
  9
$USERR4
 40
0.0
  9
$USERR5
 40
0.0
  9
$WORLDVIEW
 70
     1
  9
$SHADEDGE
 70
     3
  9
$SHADEDIF
 70
    70
  9
$TILEMODE
 70
     1
  9
$MAXACTVP
 70
    64
  9
$PINSBASE
 10
0.0
 20
0.0
 30
0.0
  9
$PLIMCHECK
 70
     0
  9
$PEXTMIN
 10
0.0
 20
0.0
 30
0.0
  9
$PEXTMAX
 10
0.0
 20
0.0
 30
0.0
  9
$PLIMMIN
 10
0.0
 20
0.0
  9
$PLIMMAX
 10
12.0
 20
9.0
  9
$UNITMODE
 70
     0
  9
$VISRETAIN
 70
     1
  9
$PLINEGEN
 70
     0
  9
$PSLTSCALE
 70
     1
  9
$TREEDEPTH
 70
  3020
  9
$PICKSTYLE
 70
     1
  9
$CMLSTYLE
  2
STANDARD
  9
$CMLJUST
 70
     0
  9
$CMLSCALE
 40
20.0
  9
$SAVEIMAGES
 70
     1
  0
ENDSEC
  0
SECTION
  2
CLASSES
  0
CLASS
  1
ACDBDICTIONARYWDFLT
  2
AcDbDictionaryWithDefault
  3
AutoCAD 2000
 90
    32768
280
     0
281
     0
  0
CLASS
  1
ACDBPLACEHOLDER
  2
AcDbPlaceHolder
  3
AutoCAD 2000
 90
    32768
280
     0
281
     0
  0
CLASS
  1
LAYOUT
  2
AcDbLayout
  3
AutoCAD 2000
 90
    32768
280
     0
281
     0
  0
CLASS
  1
LONG_TRANSACTION
  2
AcDbLongTransaction
  3
AutoCAD 2000
 90
    32768
280
     0
281
     0
  0
CLASS
  1
LWPOLYLINE
  2
AcDbPolyline
  3
AutoCAD 2000
 90
    32768
280
     0
281
     1
  0
CLASS
  1
HATCH
  2
AcDbHatch
  3
AutoCAD 2000
 90
    32768
280
     0
281
     1
  0
CLASS
  1
XRECORD
  2
AcDbXrecord
  3
AutoCAD 2000
 90
    32768
280
     0
281
     0
  0
CLASS
  1
LONG_TRANSACTION
  2
AcDbLongTransaction
  3
AutoCAD 2000
 90
    32768
280
     0
281
     0
  0
CLASS
  1
LWPOLYLINE
  2
AcDbPolyline
  3
AutoCAD 2000
 90
    32768
280
     0
281
     1
  0
CLASS
  1
HATCH
  2
AcDbHatch
  3
AutoCAD 2000
 90
    32768
280
     0
281
     1
  0
CLASS
  1
XRECORD
  2
AcDbXrecord
  3
AutoCAD 2000
 90
    32768
280
     0
281
     0
  0
CLASS
  1
LONG_TRANSACTION
  2
AcDbLongTransaction
  3
AutoCAD 2000
 90
    32768
280
     0
281
     0
  0
CLASS
  1
LWPOLYLINE
  2
AcDbPolyline
  3
AutoCAD 2000
 90
    32768
280
     0
281
     1
  0
CLASS
  1
HATCH
  2
AcDbHatch
  3
AutoCAD 2000
 90
    32768
280
     0
281
     1
  0
CLASS
  1
XRECORD
  2
AcDbXrecord
  3
AutoCAD 2000
 90
    32768
280
     0
281
     0
  0
CLASS
  1
DICTIONARYVAR
  2
AcDbDictionaryVar
  3
AutoCAD 2000
 90
    32768
280
     0
281
     0
  0
CLASS
  1
SORTENTSTABLE
  2
AcDbSortentsTable
  3
AutoCAD 2000
 90
    32768
280
     0
281
     0
  0
CLASS
  1
LONG_TRANSACTION
  2
AcDbLongTransaction
  3
AutoCAD 2000
 90
    32768
280
     0
281
     0
  0
CLASS
  1
LWPOLYLINE
  2
AcDbPolyline
  3
AutoCAD 2000
 90
    32768
280
     0
281
     1
  0
CLASS
  1
HATCH
  2
AcDbHatch
  3
AutoCAD 2000
 90
    32768
280
     0
281
     1
  0
CLASS
  1
XRECORD
  2
AcDbXrecord
  3
AutoCAD 2000
 90
    32768
280
     0
281
     0
  0
ENDSEC
  0
SECTION
  2
TABLES
  0
TABLE
  2
VPORT
  5
8
330
0
100
AcDbSymbolTable
 70
     2
  0
VPORT
  5
4A7
330
8
100
AcDbSymbolTableRecord
100
AcDbViewportTableRecord
  2
*ACTIVE
 70
     0
 10
0.0
 20
0.0
 11
1.0
 21
1.0
 12
5338.145376134318
 22
2698.057329202261
 13
0.0
 23
0.0
 14
10.0
 24
10.0
 15
10.0
 25
10.0
 16
0.0
 26
0.0
 36
1.0
 17
0.0
 27
0.0
 37
0.0
 40
7313.309572413145
 41
1.911885245901639
 42
50.0
 43
0.0
 44
0.0
 50
0.0
 51
0.0
 71
     0
 72
   100
 73
     1
 74
     3
 75
     0
 76
     0
 77
     0
 78
     0
  0
ENDTAB
  0
TABLE
  2
LTYPE
  5
5
330
0
100
AcDbSymbolTable
 70
     1
  0
LTYPE
  5
14
330
5
100
AcDbSymbolTableRecord
100
AcDbLinetypeTableRecord
  2
BYBLOCK
 70
     0
  3

 72
    65
 73
     0
 40
0.0
  0
LTYPE
  5
15
330
5
100
AcDbSymbolTableRecord
100
AcDbLinetypeTableRecord
  2
BYLAYER
 70
     0
  3

 72
    65
 73
     0
 40
0.0
  0
LTYPE
  5
16
330
5
100
AcDbSymbolTableRecord
100
AcDbLinetypeTableRecord
  2
CONTINUOUS
 70
     0
  3
Solid line
 72
    65
 73
     0
 40
0.0
  0
ENDTAB
  0
TABLE
  2
LAYER
  5
2
330
0
100
AcDbSymbolTable
 70
     6
  0
LAYER
  5
10
330
2
100
AcDbSymbolTableRecord
100
AcDbLayerTableRecord
  2
0
 70
     0
 62
     7
  6
CONTINUOUS
  0
LAYER
  5
5D
330
2
100
AcDbSymbolTableRecord
100
AcDbLayerTableRecord
  2
OBJECT
 70
     0
 62
     7
  6
CONTINUOUS
  0
LAYER
  5
5E
330
2
100
AcDbSymbolTableRecord
100
AcDbLayerTableRecord
  2
SAFETY
 70
     0
 62
     7
  6
CONTINUOUS
  0
LAYER
  5
28E
330
2
100
AcDbSymbolTableRecord
100
AcDbLayerTableRecord
  2
TEKST
 70
     0
 62
     7
  6
CONTINUOUS
  0
LAYER
  5
2A4
330
2
100
AcDbSymbolTableRecord
100
AcDbLayerTableRecord
  2
LAYER1
 70
     0
 62
     6
  6
CONTINUOUS
  0
LAYER
  5
341
330
2
100
AcDbSymbolTableRecord
100
AcDbLayerTableRecord
  2
HATCH
 70
     0
 62
     7
  6
CONTINUOUS
  0
ENDTAB
  0
TABLE
  2
STYLE
  5
3
330
0
100
AcDbSymbolTable
 70
     1
  0
STYLE
  5
11
330
3
100
AcDbSymbolTableRecord
100
AcDbTextStyleTableRecord
  2
STANDARD
 70
     0
 40
0.0
 41
1.0
 50
0.0
 71
     0
 42
2.5
  3
txt
  4

  0
ENDTAB
  0
TABLE
  2
VIEW
  5
6
330
0
100
AcDbSymbolTable
 70
     0
  0
ENDTAB
  0
TABLE
  2
UCS
  5
7
330
0
100
AcDbSymbolTable
 70
     0
  0
ENDTAB
  0
TABLE
  2
APPID
  5
9
330
0
100
AcDbSymbolTable
 70
     2
  0
APPID
  5
12
330
9
100
AcDbSymbolTableRecord
100
AcDbRegAppTableRecord
  2
ACAD
 70
     0
  0
APPID
  5
287
330
9
100
AcDbSymbolTableRecord
100
AcDbRegAppTableRecord
  2
CONTENTBLOCKICON
 70
     0
  0
ENDTAB
  0
TABLE
  2
DIMSTYLE
  5
A
330
0
100
AcDbSymbolTable
 70
     1
  0
DIMSTYLE
105
27
330
A
100
AcDbSymbolTableRecord
100
AcDbDimStyleTableRecord
  2
ISO-25
 70
     0
  3

  4

  5

  6

  7

 40
1.0
 41
2.5
 42
0.625
 43
3.75
 44
1.25
 45
0.0
 46
0.0
 47
0.0
 48
0.0
140
2.5
141
2.5
142
0.0
143
0.03937007874016
144
1.0
145
0.0
146
1.0
147
0.625
 71
     0
 72
     0
 73
     0
 74
     0
 75
     0
 76
     0
 77
     1
 78
     8
170
     0
171
     3
172
     1
173
     0
174
     0
175
     0
176
     0
177
     0
178
     0
270
     2
271
     2
272
     2
273
     2
274
     3
340
11
275
     0
280
     0
281
     0
282
     0
283
     0
284
     8
285
     0
286
     0
287
     3
288
     0
  0
ENDTAB
  0
TABLE
  2
BLOCK_RECORD
  5
1
330
0
100
AcDbSymbolTable
 70
    17
  0
BLOCK_RECORD
  5
1F
102
{ACAD_XDICTIONARY
360
1B9
102
}
330
1
100
AcDbSymbolTableRecord
100
AcDbBlockTableRecord
  2
*MODEL_SPACE
  0
BLOCK_RECORD
  5
50
102
{ACAD_XDICTIONARY
360
1BB
102
}
330
1
100
AcDbSymbolTableRecord
100
AcDbBlockTableRecord
  2
*PAPER_SPACE
  0
BLOCK_RECORD
  5
1C5
330
1
100
AcDbSymbolTableRecord
100
AcDbBlockTableRecord
  2
TAKA
1001
ACAD
1000
DesignCenter Data
1002
{
1070
     1
1070
     4
1002
}
1001
CONTENTBLOCKICON
1071
        0
1004
28000000200000002000000001000800000000000004000000000000000000000000000000000000000000004000000080000000FF000000002000004020000080200000FF200000004000004040000080400000FF400000006000004060000080600000FF600000008000004080000080800000FF80000000A0000040A000
1004
0080A00000FFA0000000C0000040C0000080C00000FFC0000000FF000040FF000080FF0000FFFF0000000020004000200080002000FF002000002020004020200080202000FF202000004020004040200080402000FF402000006020004060200080602000FF602000008020004080200080802000FF80200000A0200040A0
1004
200080A02000FFA0200000C0200040C0200080C02000FFC0200000FF200040FF200080FF2000FFFF2000000040004000400080004000FF004000002040004020400080204000FF204000004040004040400080404000FF404000006040004060400080604000FF604000008040004080400080804000FF80400000A0400040
1004
A0400080A04000FFA0400000C0400040C0400080C04000FFC0400000FF400040FF400080FF4000FFFF4000000060004000600080006000FF006000002060004020600080206000FF206000004060004040600080406000FF406000006060004060600080606000FF606000008060004080600080806000FF80600000A06000
1004
40A0600080A06000FFA0600000C0600040C0600080C06000FFC0600000FF600040FF600080FF6000FFFF6000000080004000800080008000FF008000002080004020800080208000FF208000004080004040800080408000FF408000006080004060800080608000FF608000008080004080800080808000FF80800000A080
1004
0040A0800080A08000FFA0800000C0800040C0800080C08000FFC0800000FF800040FF800080FF8000FFFF80000000A0004000A0008000A000FF00A0000020A0004020A0008020A000FF20A0000040A0004040A0008040A000FF40A0000060A0004060A0008060A000FF60A0000080A0004080A0008080A000FF80A00000A0
1004
A00040A0A00080A0A000FFA0A00000C0A00040C0A00080C0A000FFC0A00000FFA00040FFA00080FFA000FFFFA0000000C0004000C0008000C000FF00C0000020C0004020C0008020C000FF20C0000040C0004040C0008040C000FF40C0000060C0004060C0008060C000FF60C0000080C0004080C0008080C000FF80C00000
1004
A0C00040A0C00080A0C000FFA0C00000C0C00040C0C00080C0C000FFC0C00000FFC00040FFC00080FFC000FFFFC0000000FF004000FF008000FF00FF00FF000020FF004020FF008020FF00FF20FF000040FF004040FF008040FF00FF40FF000060FF004060FF008060FF00FF60FF000080FF004080FF008080FF00FF80FF00
1004
00A0FF0040A0FF0080A0FF00FFA0FF0000C0FF0040C0FF0080C0FF00FFC0FF0000FFFF0040FFFF0080FFFF00FFFFFF0000000000000000000000000000000000000000000000000000000000000000000000000000000000000000000000FFFFFF0000000000000000000000000000000000000000000000000000FFFFFF00
1004
0000FFFFFFFF0000000000000000000000000000000000000000FFFF00000000000000000000FFFFFF000000000000000000000000000000FFFF000000000000000000000000000000FF00000000000000000000000000FF000000000000000000000000000000000000FF0000000000000000000000FF0000000000000000
1004
000000000000000000000000FF00000000000000000000FF000000000000000000000000000000000000000000FF0000000000000000FF00000000000000001C1C1C1C1C1C000000000000000000FF000000000000FF000000000000001C1C00FF1C00FF001C1C00000000000000FF000000000000FF0000000000001C00FF
1004
FF001C0000FFFF001C00000000000000FF00000000FF0000000000001C001C0000001C000000001C001C000000000000FF00000000FF0000000000001CFF001C0000001C00001C00FF001C0000000000FF00000000FF00000000001C00FF00001C03031C031C1C00FF001C0000000000FF00000000FF00000000001CFF0000
1004
00031C031C031C000000FF1C0000000000FF000000FF0000000000001C0000000003031C1C1C03001C1C1C1C000000000000FF0000FF0000000000001C1C1C1C1C1C1C1C1C1C1C1C1C1C1C1C000000000000FF000000FF00000000001CFF00000003031C1C1C03000000FF1C0000000000FF00000000FF00000000001C00FF
1004
00001C1C031C031C0000FF001C0000000000FF00000000FF0000000000001CFF001C1C00FF1C00001C00FF001C0000000000FF00000000FF0000000000001C001C000000001C0000001C001C000000000000FF0000000000FF0000000000001C00FFFF00001C00FFFF001C00000000000000FF0000000000FF000000000000
1004
001C0000FF001CFF00001C00000000000000FF00000000000000FF000000000000001C1C1C1C1C1C1C1C0000000000000000FF0000000000000000FF000000000000000000000000000000000000000000FF000000000000000000FF000000000000FFFFFFFFFFFF0000000000000000FF0000000000000000000000FF0000
1004
000000FFFFFFFFFFFF00000000000000FF00000000000000000000000000FF00000000FFFFFFFF0000000000000000FF000000000000000000000000000000FFFF0000000000000000000000FFFFFF000000000000000000000000000000000000FFFFFF0000000000FFFFFF00000000000000000000000000000000000000
1004
0000000000FFFFFFFFFF00000000000000000000000000000000000000000000000000000000000000000000000000000000000000000000
  0
BLOCK_RECORD
  5
4AB
330
1
100
AcDbSymbolTableRecord
100
AcDbBlockTableRecord
  2
*U1
  0
BLOCK_RECORD
  5
4B6
330
1
100
AcDbSymbolTableRecord
100
AcDbBlockTableRecord
  2
*U2
  0
BLOCK_RECORD
  5
4C1
330
1
100
AcDbSymbolTableRecord
100
AcDbBlockTableRecord
  2
*U3
  0
BLOCK_RECORD
  5
4CC
330
1
100
AcDbSymbolTableRecord
100
AcDbBlockTableRecord
  2
*U4
  0
BLOCK_RECORD
  5
4D7
330
1
100
AcDbSymbolTableRecord
100
AcDbBlockTableRecord
  2
*U5
  0
BLOCK_RECORD
  5
4E2
330
1
100
AcDbSymbolTableRecord
100
AcDbBlockTableRecord
  2
*U6
  0
BLOCK_RECORD
  5
4ED
330
1
100
AcDbSymbolTableRecord
100
AcDbBlockTableRecord
  2
*U7
  0
BLOCK_RECORD
  5
4F8
330
1
100
AcDbSymbolTableRecord
100
AcDbBlockTableRecord
  2
*U8
  0
BLOCK_RECORD
  5
503
330
1
100
AcDbSymbolTableRecord
100
AcDbBlockTableRecord
  2
*U9
  0
BLOCK_RECORD
  5
53C
330
1
100
AcDbSymbolTableRecord
100
AcDbBlockTableRecord
  2
*U10
  0
BLOCK_RECORD
  5
575
330
1
100
AcDbSymbolTableRecord
100
AcDbBlockTableRecord
  2
*U11
  0
BLOCK_RECORD
  5
5AE
330
1
100
AcDbSymbolTableRecord
100
AcDbBlockTableRecord
  2
*U12
  0
BLOCK_RECORD
  5
5E7
330
1
100
AcDbSymbolTableRecord
100
AcDbBlockTableRecord
  2
*U13
  0
BLOCK_RECORD
  5
620
330
1
100
AcDbSymbolTableRecord
100
AcDbBlockTableRecord
  2
*U14
  0
BLOCK_RECORD
  5
659
330
1
100
AcDbSymbolTableRecord
100
AcDbBlockTableRecord
  2
*U15
  0
BLOCK_RECORD
  5
692
330
1
100
AcDbSymbolTableRecord
100
AcDbBlockTableRecord
  2
*U16
  0
ENDTAB
  0
ENDSEC
  0
SECTION
  2
BLOCKS
  0
BLOCK
  5
20
330
1F
100
AcDbEntity
  8
0
100
AcDbBlockBegin
  2
*MODEL_SPACE
 70
     0
 10
0.0
 20
0.0
 30
0.0
  3
*MODEL_SPACE
  1

  0
ENDBLK
  5
21
330
1F
100
AcDbEntity
  8
0
100
AcDbBlockEnd
  0
BLOCK
  5
52
330
50
100
AcDbEntity
 67
     1
  8
0
100
AcDbBlockBegin
  2
*PAPER_SPACE
 70
     0
 10
0.0
 20
0.0
 30
0.0
  3
*PAPER_SPACE
  1

  0
ENDBLK
  5
53
330
50
100
AcDbEntity
 67
     1
  8
0
100
AcDbBlockEnd
  0
BLOCK
  5
1C6
330
1C5
100
AcDbEntity
  8
0
100
AcDbBlockBegin
  2
TAKA
 70
     0
 10
0.0
 20
0.0
 30
0.0
  3
TAKA
  1

  0
INSERT
  5
3F4
330
1C5
100
AcDbEntity
  8
HATCH
  6
CONTINUOUS
 62
     3
100
AcDbBlockReference
  2
*U1
 10
0.0
 20
0.0
 30
0.0
1001
ACAD
1002
{
1000
R14_HATCH_DATA
1000
3F4
1011
1.0
1021
0.0
1031
0.0
1011
0.0
1021
1.0
1031
0.0
1011
0.0
1021
0.0
1031
1.0
1040
0.0
1010
0.0
1020
0.0
1030
1.0
1000
SOLID
1070
     1
1070
     1
1071
        1
1071
        1
1071
        5
1070
     1
1040
2899.999996839948
1040
2900.000003669799
1040
2899.999996839952
1040
4424.180111137419
1070
     2
1040
2949.999996839956
1040
4424.180111137419
1040
50.0
1040
3.141592653589793
1040
4.745181742680871
1070
     0
1070
     2
1040
2899.999996839948
1040
2900.000003669802
1040
1574.999999999998
1040
4.745181742680871
1040
5.464994381486082
1070
     0
1070
     2
1040
3942.402747520617
1040
4013.113432469121
1040
50.0
1040
5.464994381486082
1040
7.068583470577034
1070
     0
1070
     1
1040
3977.758086579943
1040
3977.758093409794
1040
2899.999996839948
1040
2900.000003669802
1071
        5
1005
40B
1005
40A
1005
40C
1005
419
1005
408
1070
     0
1070
     1
1071
        1
1040
0.0
1040
0.0
1040
0.0
1002
}
  0
INSERT
  5
3F5
330
1C5
100
AcDbEntity
  8
HATCH
  6
CONTINUOUS
 62
     3
100
AcDbBlockReference
  2
*U2
 10
0.0
 20
0.0
 30
0.0
1001
ACAD
1002
{
1000
R14_HATCH_DATA
1000
3F5
1011
1.0
1021
0.0
1031
0.0
1011
0.0
1021
1.0
1031
0.0
1011
0.0
1021
0.0
1031
1.0
1040
0.0
1010
0.0
1020
0.0
1030
1.0
1000
SOLID
1070
     1
1070
     1
1071
        1
1071
        1
1071
        5
1070
     1
1040
2899.999996839948
1040
2900.000003669799
1040
1822.241907099956
1040
3977.758093409797
1070
     2
1040
1857.597246159286
1040
4013.113432469127
1040
50.0
1040
2.356194490192344
1040
3.959783579283422
1070
     0
1070
     2
1040
2899.999996839946
1040
2900.000003669802
1040
1574.999999999998
1040
3.959783579283422
1040
4.679596218088634
1070
     0
1070
     2
1040
2849.999996839949
1040
4424.18011113742
1040
50.0
1040
4.679596218088634
1040
6.283185307179586
1070
     0
1070
     1
1040
2899.999996839948
1040
4424.180111137419
1040
2899.999996839946
1040
2900.000003669801
1071
        5
1005
41F
1005
41E
1005
420
1005
42D
1005
41C
1070
     0
1070
     1
1071
        1
1040
2900.000001669382
1040
-1201.219327572621
1040
0.0
1002
}
  0
INSERT
  5
3F6
330
1C5
100
AcDbEntity
  8
HATCH
  6
CONTINUOUS
 62
     3
100
AcDbBlockReference
  2
*U3
 10
0.0
 20
0.0
 30
0.0
1001
ACAD
1002
{
1000
R14_HATCH_DATA
1000
3F6
1011
1.0
1021
0.0
1031
0.0
1011
0.0
1021
1.0
1031
0.0
1011
0.0
1021
0.0
1031
1.0
1040
0.0
1010
0.0
1020
0.0
1030
1.0
1000
SOLID
1070
     1
1070
     1
1071
        1
1071
        1
1071
        5
1070
     1
1040
2899.999996839948
1040
2900.000003669799
1040
1375.819889372328
1040
2900.000003669803
1070
     2
1040
1375.819889372328
1040
2950.000003669808
1040
50.0
1040
1.570796326794896
1040
3.174385415885974
1070
     0
1070
     2
1040
2899.999996839945
1040
2900.000003669799
1040
1574.999999999998
1040
3.174385415885974
1040
3.894198054691186
1070
     0
1070
     2
1040
1786.886568040626
1040
3942.402754350469
1040
50.0
1040
3.894198054691186
1040
5.497787143782137
1070
     0
1070
     1
1040
1822.241907099953
1040
3977.758093409795
1040
2899.999996839945
1040
2900.000003669799
1071
        5
1005
433
1005
432
1005
434
1005
441
1005
430
1070
     0
1070
     1
1071
        1
1040
5800.000000509746
1040
0.000006829850463
1040
0.0
1002
}
  0
INSERT
  5
3F7
330
1C5
100
AcDbEntity
  8
HATCH
  6
CONTINUOUS
 62
     3
100
AcDbBlockReference
  2
*U4
 10
0.0
 20
0.0
 30
0.0
1001
ACAD
1002
{
1000
R14_HATCH_DATA
1000
3F7
1011
1.0
1021
0.0
1031
0.0
1011
0.0
1021
1.0
1031
0.0
1011
0.0
1021
0.0
1031
1.0
1040
0.0
1010
0.0
1020
0.0
1030
1.0
1000
SOLID
1070
     1
1070
     1
1071
        1
1071
        1
1071
        5
1070
     1
1040
2899.999996839948
1040
2900.000003669799
1040
1822.241907099949
1040
1822.241913929808
1070
     2
1040
1786.886568040619
1040
1857.597252989139
1040
50.0
1040
0.7853981633974492
1040
2.388987252488526
1070
     0
1070
     2
1040
2899.999996839945
1040
2900.000003669797
1040
1574.999999999998
1040
2.388987252488526
1040
3.108799891293737
1070
     0
1070
     2
1040
1375.819889372326
1040
2850.000003669802
1040
50.0
1040
3.108799891293737
1040
4.712388980384689
1070
     0
1070
     1
1040
1375.819889372327
1040
2900.0000036698
1040
2899.999996839945
1040
2900.000003669797
1071
        5
1005
447
1005
446
1005
448
1005
455
1005
444
1070
     0
1070
     1
1071
        1
1040
7001.219328082368
1040
2900.000008499231
1040
0.0
1002
}
  0
INSERT
  5
3F8
330
1C5
100
AcDbEntity
  8
HATCH
  6
CONTINUOUS
 62
     3
100
AcDbBlockReference
  2
*U5
 10
0.0
 20
0.0
 30
0.0
1001
ACAD
1002
{
1000
R14_HATCH_DATA
1000
3F8
1011
1.0
1021
0.0
1031
0.0
1011
0.0
1021
1.0
1031
0.0
1011
0.0
1021
0.0
1031
1.0
1040
0.0
1010
0.0
1020
0.0
1030
1.0
1000
SOLID
1070
     1
1070
     1
1071
        1
1071
        1
1071
        5
1070
     1
1040
2899.999996839948
1040
2900.000003669799
1040
2899.999996839943
1040
1375.819896202179
1070
     2
1040
2849.999996839938
1040
1375.819896202179
1040
50.0
1040
6.283185307179586
1040
7.886774396270665
1070
     0
1070
     2
1040
2899.999996839948
1040
2900.000003669796
1040
1574.999999999998
1040
1.603589089091078
1040
2.323401727896289
1070
     0
1070
     2
1040
1857.597246159278
1040
1786.886574870478
1040
50.0
1040
2.323401727896289
1040
3.926990816987242
1070
     0
1070
     1
1040
1822.241907099952
1040
1822.241913929805
1040
2899.999996839948
1040
2900.000003669796
1071
        5
1005
45B
1005
45A
1005
45C
1005
469
1005
458
1070
     0
1070
     1
1071
        1
1040
5799.999993679898
1040
5800.000007339597
1040
0.0
1002
}
  0
INSERT
  5
3F9
330
1C5
100
AcDbEntity
  8
HATCH
  6
CONTINUOUS
 62
     3
100
AcDbBlockReference
  2
*U6
 10
0.0
 20
0.0
 30
0.0
1001
ACAD
1002
{
1000
R14_HATCH_DATA
1000
3F9
1011
1.0
1021
0.0
1031
0.0
1011
0.0
1021
1.0
1031
0.0
1011
0.0
1021
0.0
1031
1.0
1040
0.0
1010
0.0
1020
0.0
1030
1.0
1000
SOLID
1070
     1
1070
     1
1071
        1
1071
        1
1071
        5
1070
     1
1040
2899.999996839948
1040
2900.000003669799
1040
3977.758086579939
1040
1822.2419139298
1070
     2
1040
3942.402747520608
1040
1786.88657487047
1040
50.0
1040
5.497787143782138
1040
7.101376232873215
1070
     0
1070
     2
1040
2899.99999683995
1040
2900.000003669796
1040
1574.999999999998
1040
0.8181909256936297
1040
1.538003564498841
1070
     0
1070
     2
1040
2949.999996839945
1040
1375.819896202177
1040
50.0
1040
1.538003564498841
1040
3.141592653589793
1070
     0
1070
     1
1040
2899.999996839946
1040
1375.819896202179
1040
2899.99999683995
1040
2900.000003669796
1071
        5
1005
46F
1005
46E
1005
470
1005
47D
1005
46C
1070
     0
1070
     1
1071
        1
1040
2899.999992010516
1040
7001.21933491222
1040
0.0
1002
}
  0
INSERT
  5
3FA
330
1C5
100
AcDbEntity
  8
HATCH
  6
CONTINUOUS
 62
     3
100
AcDbBlockReference
  2
*U7
 10
0.0
 20
0.0
 30
0.0
1001
ACAD
1002
{
1000
R14_HATCH_DATA
1000
3FA
1011
1.0
1021
0.0
1031
0.0
1011
0.0
1021
1.0
1031
0.0
1011
0.0
1021
0.0
1031
1.0
1040
0.0
1010
0.0
1020
0.0
1030
1.0
1000
SOLID
1070
     1
1070
     1
1071
        1
1071
        1
1071
        5
1070
     1
1040
2899.999996839948
1040
2900.000003669799
1040
4424.180104307568
1040
2900.000003669794
1070
     2
1040
4424.180104307567
1040
2850.000003669789
1040
50.0
1040
4.71238898038469
1040
6.315978069475768
1070
     0
1070
     2
1040
2899.99999683995
1040
2900.000003669799
1040
1574.999999999998
1040
0.0327927622961823
1040
0.7526054011013939
1070
     0
1070
     2
1040
4013.113425639268
1040
1857.597252989128
1040
50.0
1040
0.7526054011013939
1040
2.356194490192345
1070
     0
1070
     1
1040
3977.758086579941
1040
1822.241913929802
1040
2899.99999683995
1040
2900.000003669799
1071
        5
1005
483
1005
482
1005
484
1005
491
1005
480
1070
     0
1070
     1
1071
        1
1040
-0.0000068298481892
1040
5800.00000050975
1040
0.0
1002
}
  0
INSERT
  5
3FB
330
1C5
100
AcDbEntity
  8
HATCH
  6
CONTINUOUS
 62
     3
100
AcDbBlockReference
  2
*U8
 10
0.0
 20
0.0
 30
0.0
1001
ACAD
1002
{
1000
R14_HATCH_DATA
1000
3FB
1011
1.0
1021
0.0
1031
0.0
1011
0.0
1021
1.0
1031
0.0
1011
0.0
1021
0.0
1031
1.0
1040
0.0
1010
0.0
1020
0.0
1030
1.0
1000
SOLID
1070
     1
1070
     1
1071
        1
1071
        1
1071
        5
1070
     1
1040
2899.999996839948
1040
2900.000003669799
1040
3977.758086579946
1040
3977.758093409789
1070
     2
1040
4013.113425639278
1040
3942.40275435046
1040
50.0
1040
3.926990816987242
1040
5.53057990607832
1070
     0
1070
     2
1040
2899.99999683995
1040
2900.000003669801
1040
1574.999999999998
1040
5.53057990607832
1040
6.250392544883531
1070
     0
1070
     2
1040
4424.180104307569
1040
2950.000003669796
1040
50.0
1040
6.250392544883531
1040
7.853981633974483
1070
     0
1070
     1
1040
4424.180104307568
1040
2900.000003669797
1040
2899.99999683995
1040
2900.000003669801
1071
        5
1005
497
1005
496
1005
498
1005
4A5
1005
494
1070
     0
1070
     1
1071
        1
1040
-1201.219334402473
1040
2899.999998840369
1040
0.0
1002
}
  0
INSERT
  5
3FC
330
1C5
100
AcDbEntity
  8
HATCH
  6
CONTINUOUS
 62
     5
100
AcDbBlockReference
  2
*U9
 10
0.0
 20
0.0
 30
0.0
1001
ACAD
1002
{
1000
R14_HATCH_DATA
1000
3FC
1011
1.0
1021
0.0
1031
0.0
1011
0.0
1021
1.0
1031
0.0
1011
0.0
1021
0.0
1031
1.0
1040
0.0
1010
0.0
1020
0.0
1030
1.0
1000
SOLID
1070
     1
1070
     1
1071
        7
1071
        7
1070
     1
1070
     1
1071
        5
1040
2899.999996839948
1040
2900.000003669802
1040
0.0
1040
3237.564805432315
1040
3237.564812262168
1040
0.4451196555290474
1040
3233.689627299998
1040
3311.765993673149
1040
0.1451788244240685
1040
2955.208330173284
1040
3427.116726920504
1040
0.4451197160639408
1040
2899.999996839948
1040
3377.388734161004
1040
0.0
1071
        5
1005
412
1005
40D
1005
409
1005
40B
1005
408
1071
       22
1070
     1
1070
     1
1071
        2
1040
3050.782401136141
1040
3307.476773211588
1040
-1.0
1040
3086.782401136141
1040
3307.476773211588
1040
-1.0
1071
        1
1005
411
1071
        6
1070
     1
1070
     1
1071
        2
1040
3058.782401136141
1040
3307.476773211588
1040
-1.0
1040
3078.782401136141
1040
3307.476773211588
1040
-1.0
1071
        1
1005
410
1071
       22
1070
     1
1070
     1
1071
        2
1040
2966.391198988051
1040
3342.432753686298
1040
-1.0
1040
3002.391198988051
1040
3342.432753686298
1040
-1.0
1071
        1
1005
40E
1071
        6
1070
     1
1070
     1
1071
        2
1040
2974.391198988051
1040
3342.432753686298
1040
-1.0
1040
2994.391198988051
1040
3342.432753686298
1040
-1.0
1071
        1
1005
40F
1071
       22
1070
     1
1070
     1
1071
        2
1040
3135.173603284233
1040
3272.520792736881
1040
-1.0
1040
3171.173603284232
1040
3272.520792736881
1040
-1.0
1071
        1
1005
413
1071
        6
1070
     1
1070
     1
1071
        2
1040
3163.173603284233
1040
3272.520792736881
1040
-1.0
1040
3143.173603284232
1040
3272.520792736881
1040
-1.0
1071
        1
1005
414
1070
     0
1070
     1
1040
3.799939705082904
1071
        7
1040
3004.713946633994
1040
3174.288188673548
1040
0.0
1040
3004.713946633994
1040
3174.288188673548
1040
0.0
1040
3004.713946633994
1040
3174.288188673548
1040
0.0
1040
3004.713946633994
1040
3174.288188673548
1040
0.0
1040
3004.713946633994
1040
3174.288188673548
1040
0.0
1040
3004.713946633994
1040
3174.288188673548
1040
0.0
1040
3004.713946633994
1040
3174.288188673548
1040
0.0
1002
}
  0
INSERT
  5
3FD
330
1C5
100
AcDbEntity
  8
HATCH
  6
CONTINUOUS
 62
     5
100
AcDbBlockReference
  2
*U10
 10
0.0
 20
0.0
 30
0.0
1001
ACAD
1002
{
1000
R14_HATCH_DATA
1000
3FD
1011
1.0
1021
0.0
1031
0.0
1011
0.0
1021
1.0
1031
0.0
1011
0.0
1021
0.0
1031
1.0
1040
0.0
1010
0.0
1020
0.0
1030
1.0
1000
SOLID
1070
     1
1070
     1
1071
        7
1071
        7
1070
     1
1070
     1
1071
        5
1040
2899.999996839946
1040
2900.0000036698
1040
0.0
1040
2899.999996839947
1040
3377.388734161005
1040
0.4451197160639198
1040
2844.791663506614
1040
3427.116726920505
1040
0.1451788195571538
1040
2566.310374230551
1040
3311.766000035216
1040
0.4451197160639414
1040
2562.43518824758
1040
3237.564812262169
1040
0.0
1071
        5
1005
426
1005
421
1005
41D
1005
41F
1005
41C
1071
       22
1070
     1
1070
     1
1071
        2
1040
2713.217592543768
1040
3307.476773211594
1040
-1.0
1040
2749.217592543768
1040
3307.476773211594
1040
-1.0
1071
        1
1005
425
1071
        6
1070
     1
1070
     1
1071
        2
1040
2721.217592543768
1040
3307.476773211594
1040
-1.0
1040
2741.217592543768
1040
3307.476773211594
1040
-1.0
1071
        1
1005
424
1071
       22
1070
     1
1070
     1
1071
        2
1040
2628.826390395678
1040
3272.520792736887
1040
-1.0
1040
2664.826390395678
1040
3272.520792736887
1040
-1.0
1071
        1
1005
422
1071
        6
1070
     1
1070
     1
1071
        2
1040
2636.826390395677
1040
3272.520792736887
1040
-1.0
1040
2656.826390395677
1040
3272.520792736887
1040
-1.0
1071
        1
1005
423
1071
       22
1070
     1
1070
     1
1071
        2
1040
2797.608794691859
1040
3342.432753686306
1040
-1.0
1040
2833.608794691859
1040
3342.432753686306
1040
-1.0
1071
        1
1005
427
1071
        6
1070
     1
1070
     1
1071
        2
1040
2805.60879469186
1040
3342.432753686306
1040
-1.0
1040
2825.608794691859
1040
3342.432753686306
1040
-1.0
1071
        1
1005
428
1070
     0
1070
     1
1040
3.799939705082904
1071
        7
1040
2780.092905208644
1040
3167.994983269499
1040
0.0
1040
2780.092905208644
1040
3167.994983269499
1040
0.0
1040
2780.092905208644
1040
3167.994983269499
1040
0.0
1040
2780.092905208644
1040
3167.994983269499
1040
0.0
1040
2780.092905208644
1040
3167.994983269499
1040
0.0
1040
2780.092905208644
1040
3167.994983269499
1040
0.0
1040
2780.092905208644
1040
3167.994983269499
1040
0.0
1002
}
  0
INSERT
  5
3FE
330
1C5
100
AcDbEntity
  8
HATCH
  6
CONTINUOUS
 62
     5
100
AcDbBlockReference
  2
*U11
 10
0.0
 20
0.0
 30
0.0
1001
ACAD
1002
{
1000
R14_HATCH_DATA
1000
3FE
1011
1.0
1021
0.0
1031
0.0
1011
0.0
1021
1.0
1031
0.0
1011
0.0
1021
0.0
1031
1.0
1040
0.0
1010
0.0
1020
0.0
1030
1.0
1000
SOLID
1070
     1
1070
     1
1071
        7
1071
        7
1070
     1
1070
     1
1071
        5
1040
2899.999996839945
1040
2900.000003669799
1040
0.0
1040
2562.435188247578
1040
3237.564812262167
1040
0.4451196398279079
1040
2488.234008486748
1040
3233.6896361661
1040
0.1451788256864167
1040
2372.883273589244
1040
2955.208337003136
1040
0.4451197160639351
1040
2422.611266348743
1040
2900.0000036698
1040
0.0
1071
        5
1005
43A
1005
435
1005
431
1005
433
1005
430
1071
       22
1070
     1
1070
     1
1071
        2
1040
2474.523227298158
1040
3068.782407965992
1040
-1.0
1040
2510.523227298159
1040
3068.782407965992
1040
-1.0
1071
        1
1005
439
1071
        6
1070
     1
1070
     1
1071
        2
1040
2482.523227298159
1040
3068.782407965992
1040
-1.0
1040
2502.523227298159
1040
3068.782407965992
1040
-1.0
1071
        1
1005
438
1071
       22
1070
     1
1070
     1
1071
        2
1040
2439.567246823449
1040
2984.391205817902
1040
-1.0
1040
2475.567246823449
1040
2984.391205817902
1040
-1.0
1071
        1
1005
436
1071
        6
1070
     1
1070
     1
1071
        2
1040
2447.567246823449
1040
2984.391205817902
1040
-1.0
1040
2467.567246823449
1040
2984.391205817902
1040
-1.0
1071
        1
1005
437
1071
       22
1070
     1
1070
     1
1071
        2
1040
2509.479207772866
1040
3153.173610114084
1040
-1.0
1040
2545.479207772866
1040
3153.173610114084
1040
-1.0
1071
        1
1005
43B
1071
        6
1070
     1
1070
     1
1071
        2
1040
2517.479207772866
1040
3153.173610114084
1040
-1.0
1040
2537.479207772866
1040
3153.173610114084
1040
-1.0
1071
        1
1005
43C
1070
     0
1070
     1
1040
3.799939705082904
1071
        7
1040
2625.711811836199
1040
3004.713953463845
1040
0.0
1040
2625.711811836199
1040
3004.713953463845
1040
0.0
1040
2625.711811836199
1040
3004.713953463845
1040
0.0
1040
2625.711811836199
1040
3004.713953463845
1040
0.0
1040
2625.711811836199
1040
3004.713953463845
1040
0.0
1040
2625.711811836199
1040
3004.713953463845
1040
0.0
1040
2625.711811836199
1040
3004.713953463845
1040
0.0
1002
}
  0
INSERT
  5
3FF
330
1C5
100
AcDbEntity
  8
HATCH
  6
CONTINUOUS
 62
     5
100
AcDbBlockReference
  2
*U12
 10
0.0
 20
0.0
 30
0.0
1001
ACAD
1002
{
1000
R14_HATCH_DATA
1000
3FF
1011
1.0
1021
0.0
1031
0.0
1011
0.0
1021
1.0
1031
0.0
1011
0.0
1021
0.0
1031
1.0
1040
0.0
1010
0.0
1020
0.0
1030
1.0
1000
SOLID
1070
     1
1070
     1
1071
        7
1071
        7
1070
     1
1070
     1
1071
        5
1040
2899.999996839946
1040
2900.000003669797
1040
0.0
1040
2422.611266348742
1040
2900.000003669798
1040
0.4451196442374806
1040
2372.883272340311
1040
2844.791682260982
1040
0.1451788253318935
1040
2488.234000474532
1040
2566.310381060403
1040
0.4451197160639374
1040
2562.435188247579
1040
2562.435195077432
1040
0.0
1071
        5
1005
44E
1005
449
1005
445
1005
447
1005
444
1071
       22
1070
     1
1070
     1
1071
        2
1040
2474.523227298153
1040
2731.21759937362
1040
-1.0
1040
2510.523227298153
1040
2731.21759937362
1040
-1.0
1071
        1
1005
44D
1071
        6
1070
     1
1070
     1
1071
        2
1040
2482.523227298153
1040
2731.21759937362
1040
-1.0
1040
2502.523227298153
1040
2731.21759937362
1040
-1.0
1071
        1
1005
44C
1071
       22
1070
     1
1070
     1
1071
        2
1040
2545.47920777286
1040
2646.826397225529
1040
-1.0
1040
2509.47920777286
1040
2646.826397225529
1040
-1.0
1071
        1
1005
44A
1071
        6
1070
     1
1070
     1
1071
        2
1040
2537.47920777286
1040
2646.826397225529
1040
-1.0
1040
2517.47920777286
1040
2646.826397225529
1040
-1.0
1071
        1
1005
44B
1071
       22
1070
     1
1070
     1
1071
        2
1040
2439.567246823442
1040
2815.608801521711
1040
-1.0
1040
2475.567246823442
1040
2815.608801521711
1040
-1.0
1071
        1
1005
44F
1071
        6
1070
     1
1070
     1
1071
        2
1040
2447.567246823442
1040
2815.608801521711
1040
-1.0
1040
2467.567246823442
1040
2815.608801521711
1040
-1.0
1071
        1
1005
450
1070
     0
1070
     1
1040
3.799939705082904
1071
        7
1040
2632.005017240248
1040
2780.092912038496
1040
0.0
1040
2632.005017240248
1040
2780.092912038496
1040
0.0
1040
2632.005017240248
1040
2780.092912038496
1040
0.0
1040
2632.005017240248
1040
2780.092912038496
1040
0.0
1040
2632.005017240248
1040
2780.092912038496
1040
0.0
1040
2632.005017240248
1040
2780.092912038496
1040
0.0
1040
2632.005017240248
1040
2780.092912038496
1040
0.0
1002
}
  0
INSERT
  5
400
330
1C5
100
AcDbEntity
  8
HATCH
  6
CONTINUOUS
 62
     5
100
AcDbBlockReference
  2
*U13
 10
0.0
 20
0.0
 30
0.0
1001
ACAD
1002
{
1000
R14_HATCH_DATA
1000
400
1011
1.0
1021
0.0
1031
0.0
1011
0.0
1021
1.0
1031
0.0
1011
0.0
1021
0.0
1031
1.0
1040
0.0
1010
0.0
1020
0.0
1030
1.0
1000
SOLID
1070
     1
1070
     1
1071
        7
1071
        7
1070
     1
1070
     1
1071
        5
1040
2899.999996839948
1040
2900.000003669796
1040
0.0
1040
2562.43518824758
1040
2562.43519507743
1040
0.4451197160639202
1040
2566.31037423055
1040
2488.234007304385
1040
0.1451788195571535
1040
2844.79166350661
1040
2372.883280419094
1040
0.4451197160639414
1040
2899.999996839946
1040
2422.611273178594
1040
0.0
1071
        5
1005
462
1005
45D
1005
459
1005
45B
1005
458
1071
       22
1070
     1
1070
     1
1071
        2
1040
2749.217592543754
1040
2492.523234128011
1040
-1.0
1040
2713.217592543754
1040
2492.523234128011
1040
-1.0
1071
        1
1005
461
1071
        6
1070
     1
1070
     1
1071
        2
1040
2741.217592543754
1040
2492.523234128011
1040
-1.0
1040
2721.217592543754
1040
2492.523234128011
1040
-1.0
1071
        1
1005
460
1071
       22
1070
     1
1070
     1
1071
        2
1040
2833.608794691844
1040
2457.5672536533
1040
-1.0
1040
2797.608794691844
1040
2457.5672536533
1040
-1.0
1071
        1
1005
45E
1071
        6
1070
     1
1070
     1
1071
        2
1040
2825.608794691844
1040
2457.5672536533
1040
-1.0
1040
2805.608794691844
1040
2457.5672536533
1040
-1.0
1071
        1
1005
45F
1071
       22
1070
     1
1070
     1
1071
        2
1040
2664.826390395663
1040
2527.479214602718
1040
-1.0
1040
2628.826390395662
1040
2527.479214602718
1040
-1.0
1071
        1
1005
463
1071
        6
1070
     1
1070
     1
1071
        2
1040
2636.826390395663
1040
2527.479214602718
1040
-1.0
1040
2656.826390395663
1040
2527.479214602718
1040
-1.0
1071
        1
1005
464
1070
     0
1070
     1
1040
3.799939705082904
1071
        7
1040
2795.286047045902
1040
2625.71181866605
1040
0.0
1040
2795.286047045902
1040
2625.71181866605
1040
0.0
1040
2795.286047045902
1040
2625.71181866605
1040
0.0
1040
2795.286047045902
1040
2625.71181866605
1040
0.0
1040
2795.286047045902
1040
2625.71181866605
1040
0.0
1040
2795.286047045902
1040
2625.71181866605
1040
0.0
1040
2795.286047045902
1040
2625.71181866605
1040
0.0
1002
}
  0
INSERT
  5
401
330
1C5
100
AcDbEntity
  8
HATCH
  6
CONTINUOUS
 62
     5
100
AcDbBlockReference
  2
*U14
 10
0.0
 20
0.0
 30
0.0
1001
ACAD
1002
{
1000
R14_HATCH_DATA
1000
401
1011
1.0
1021
0.0
1031
0.0
1011
0.0
1021
1.0
1031
0.0
1011
0.0
1021
0.0
1031
1.0
1040
0.0
1010
0.0
1020
0.0
1030
1.0
1000
SOLID
1070
     1
1070
     1
1071
        7
1071
        7
1070
     1
1070
     1
1071
        5
1040
2899.99999683995
1040
2900.000003669796
1040
0.0
1040
2899.999996839949
1040
2422.611273178592
1040
0.4451197160639138
1040
2955.208330173281
1040
2372.883280419094
1040
0.1451788195571533
1040
3233.689619449344
1040
2488.234007304382
1040
0.4451197160639421
1040
3237.564805432315
1040
2562.435195077429
1040
0.0
1071
        5
1005
476
1005
471
1005
46D
1005
46F
1005
46C
1071
       22
1070
     1
1070
     1
1071
        2
1040
3086.782401136127
1040
2492.523234128003
1040
-1.0
1040
3050.782401136127
1040
2492.523234128003
1040
-1.0
1071
        1
1005
475
1071
        6
1070
     1
1070
     1
1071
        2
1040
3078.782401136127
1040
2492.523234128003
1040
-1.0
1040
3058.782401136127
1040
2492.523234128003
1040
-1.0
1071
        1
1005
474
1071
       22
1070
     1
1070
     1
1071
        2
1040
3171.173603284218
1040
2527.47921460271
1040
-1.0
1040
3135.173603284218
1040
2527.47921460271
1040
-1.0
1071
        1
1005
472
1071
        6
1070
     1
1070
     1
1071
        2
1040
3163.173603284218
1040
2527.47921460271
1040
-1.0
1040
3143.173603284218
1040
2527.47921460271
1040
-1.0
1071
        1
1005
473
1071
       22
1070
     1
1070
     1
1071
        2
1040
3002.391198988036
1040
2457.567253653293
1040
-1.0
1040
2966.391198988036
1040
2457.567253653293
1040
-1.0
1071
        1
1005
477
1071
        6
1070
     1
1070
     1
1071
        2
1040
2994.391198988036
1040
2457.567253653293
1040
-1.0
1040
2974.391198988036
1040
2457.567253653293
1040
-1.0
1071
        1
1005
478
1070
     0
1070
     1
1040
3.799939705082904
1071
        7
1040
3019.907088471251
1040
2632.005024070099
1040
0.0
1040
3019.907088471251
1040
2632.005024070099
1040
0.0
1040
3019.907088471251
1040
2632.005024070099
1040
0.0
1040
3019.907088471251
1040
2632.005024070099
1040
0.0
1040
3019.907088471251
1040
2632.005024070099
1040
0.0
1040
3019.907088471251
1040
2632.005024070099
1040
0.0
1040
3019.907088471251
1040
2632.005024070099
1040
0.0
1002
}
  0
INSERT
  5
402
330
1C5
100
AcDbEntity
  8
HATCH
  6
CONTINUOUS
 62
     5
100
AcDbBlockReference
  2
*U15
 10
0.0
 20
0.0
 30
0.0
1001
ACAD
1002
{
1000
R14_HATCH_DATA
1000
402
1011
1.0
1021
0.0
1031
0.0
1011
0.0
1021
1.0
1031
0.0
1011
0.0
1021
0.0
1031
1.0
1040
0.0
1010
0.0
1020
0.0
1030
1.0
1000
SOLID
1070
     1
1070
     1
1071
        7
1071
        7
1070
     1
1070
     1
1071
        5
1040
2899.99999683995
1040
2900.000003669799
1040
0.0
1040
3237.564805432317
1040
2562.43519507743
1040
0.4451196488219369
1040
3311.765986138397
1040
2566.310372339916
1040
0.14517882496331
1040
3427.116720090652
1040
2844.791670336462
1040
0.4451197160639408
1040
3377.388727331152
1040
2900.000003669797
1040
0.0
1071
        5
1005
48A
1005
485
1005
481
1005
483
1005
480
1071
       22
1070
     1
1070
     1
1071
        2
1040
3325.476766381736
1040
2731.217599373605
1040
-1.0
1040
3289.476766381737
1040
2731.217599373605
1040
-1.0
1071
        1
1005
489
1071
        6
1070
     1
1070
     1
1071
        2
1040
3317.476766381736
1040
2731.217599373605
1040
-1.0
1040
3297.476766381736
1040
2731.217599373605
1040
-1.0
1071
        1
1005
488
1071
       22
1070
     1
1070
     1
1071
        2
1040
3360.432746856447
1040
2815.608801521695
1040
-1.0
1040
3324.432746856447
1040
2815.608801521695
1040
-1.0
1071
        1
1005
486
1071
        6
1070
     1
1070
     1
1071
        2
1040
3352.432746856447
1040
2815.608801521695
1040
-1.0
1040
3332.432746856447
1040
2815.608801521695
1040
-1.0
1071
        1
1005
487
1071
       22
1070
     1
1070
     1
1071
        2
1040
3290.520785907029
1040
2646.826397225513
1040
-1.0
1040
3254.520785907029
1040
2646.826397225513
1040
-1.0
1071
        1
1005
48B
1071
        6
1070
     1
1070
     1
1071
        2
1040
3282.520785907029
1040
2646.826397225513
1040
-1.0
1040
3262.520785907029
1040
2646.826397225513
1040
-1.0
1071
        1
1005
48C
1070
     0
1070
     1
1040
3.799939705082904
1071
        7
1040
3174.288181843697
1040
2795.286053875752
1040
0.0
1040
3174.288181843697
1040
2795.286053875752
1040
0.0
1040
3174.288181843697
1040
2795.286053875752
1040
0.0
1040
3174.288181843697
1040
2795.286053875752
1040
0.0
1040
3174.288181843697
1040
2795.286053875752
1040
0.0
1040
3174.288181843697
1040
2795.286053875752
1040
0.0
1040
3174.288181843697
1040
2795.286053875752
1040
0.0
1002
}
  0
INSERT
  5
403
330
1C5
100
AcDbEntity
  8
HATCH
  6
CONTINUOUS
 62
     5
100
AcDbBlockReference
  2
*U16
 10
0.0
 20
0.0
 30
0.0
1001
ACAD
1002
{
1000
R14_HATCH_DATA
1000
403
1011
1.0
1021
0.0
1031
0.0
1011
0.0
1021
1.0
1031
0.0
1011
0.0
1021
0.0
1031
1.0
1040
0.0
1010
0.0
1020
0.0
1030
1.0
1000
SOLID
1070
     1
1070
     0
1071
        7
1071
        7
1070
     1
1070
     1
1071
        5
1040
2899.99999683995
1040
2900.000003669801
1040
0.0
1040
3377.388727331153
1040
2900.000003669799
1040
0.4451196555290474
1040
3427.116721143244
1040
2955.208326953224
1040
0.1451788244240685
1040
3311.765993205364
1040
3233.689626279195
1040
0.4451197160639408
1040
3237.564805432317
1040
3237.564812262166
1040
0.0
1071
        0
1071
       22
1070
     1
1070
     1
1071
        2
1040
3294.748844320384
1040
3081.510330027336
1040
-1.0
1040
3320.204688443101
1040
3056.054485904621
1040
-1.0
1071
        0
1071
        6
1070
     1
1070
     1
1071
        2
1040
3300.405698569878
1040
3075.853475777844
1040
-1.0
1040
3314.547834193607
1040
3061.711340154113
1040
-1.0
1071
        0
1071
       22
1070
     1
1070
     1
1071
        2
1040
3259.792863845678
1040
3165.901532175427
1040
-1.0
1040
3285.248707968393
1040
3140.445688052711
1040
-1.0
1071
        0
1071
        6
1070
     1
1070
     1
1071
        2
1040
3265.44971809517
1040
3160.244677925934
1040
-1.0
1040
3279.591853718901
1040
3146.102542302203
1040
-1.0
1071
        0
1071
       22
1070
     1
1070
     1
1071
        2
1040
3329.704824795095
1040
2997.119127879246
1040
-1.0
1040
3355.160668917811
1040
2971.66328375653
1040
-1.0
1071
        0
1071
        6
1070
     1
1070
     1
1071
        2
1040
3335.361679044587
1040
2991.462273629753
1040
-1.0
1040
3349.503814668319
1040
2977.320138006022
1040
-1.0
1071
        0
1070
     0
1070
     1
1040
3.799939705082904
1071
        7
1040
3167.994976439647
1040
3019.907095301102
1040
0.0
1040
3167.994976439647
1040
3019.907095301102
1040
0.0
1040
3167.994976439647
1040
3019.907095301102
1040
0.0
1040
3167.994976439647
1040
3019.907095301102
1040
0.0
1040
3167.994976439647
1040
3019.907095301102
1040
0.0
1040
3167.994976439647
1040
3019.907095301102
1040
0.0
1040
3167.994976439647
1040
3019.907095301102
1040
0.0
1002
}
  0
CIRCLE
  5
404
330
1C5
100
AcDbEntity
  8
OBJECT
100
AcDbCircle
 10
3394.974743670537
 20
4094.974750500385
 30
0.0
 40
18.0
  0
CIRCLE
  5
405
330
1C5
100
AcDbEntity
  8
OBJECT
100
AcDbCircle
 10
3394.974743670537
 20
4094.974750500385
 30
0.0
 40
10.0
  0
MTEXT
  5
406
330
1C5
100
AcDbEntity
  8
TEKST
100
AcDbMText
 10
2106.964985508383
 20
5177.378649240917
 30
0.0
 40
100.0
 41
1657.8662
 71
     1
 72
     1
  1
{\FIMPACT.TTF;Hoogte: 265 cm\PMax. valhoogte:  42 cm}
1001
ACAD
1000
MTEXTBEGIN
1070
    73
1070
     1
1070
    44
1040
1.0
1070
    74
1070
     0
1000
MTEXTEND
1000
MTEXTBEGIN
1070
    73
1070
     1
1070
    44
1040
1.0
1070
    74
1070
     0
1000
MTEXTEND
1000
MTEXTBEGIN
1070
    73
1070
     1
1070
    44
1040
1.0
1070
    74
1070
     0
1000
MTEXTEND
  0
CIRCLE
  5
407
330
1C5
100
AcDbEntity
  8
SAFETY
100
AcDbCircle
 10
2899.999996839948
 20
2900.000003669796
 30
0.0
 40
2900.0
  0
LINE
  5
408
330
1C5
100
AcDbEntity
  8
OBJECT
100
AcDbLine
 10
2899.999996839948
 20
2900.000003669802
 30
0.0
 11
3977.758086579943
 21
3977.758093409794
 31
0.0
  0
ARC
  5
409
330
1C5
100
AcDbEntity
  8
OBJECT
100
AcDbCircle
 10
2949.999996839951
 20
3377.388734161004
 30
0.0
 40
50.0
100
AcDbArc
 50
84.02084320369372
 51
180.0
  0
ARC
  5
40A
330
1C5
100
AcDbEntity
  8
OBJECT
100
AcDbCircle
 10
2949.999996839956
 20
4424.180111137419
 30
0.0
 40
50.0
100
AcDbArc
 50
88.12111312185306
 51
180.0
  0
LINE
  5
40B
330
1C5
100
AcDbEntity
  8
OBJECT
100
AcDbLine
 10
2899.999996839948
 20
2900.000003669799
 30
0.0
 11
2899.999996839952
 21
4424.180111137419
 31
0.0
  0
ARC
  5
40C
330
1C5
100
AcDbEntity
  8
OBJECT
100
AcDbCircle
 10
2899.999996839948
 20
2900.000003669802
 30
0.0
 40
1574.999999999998
100
AcDbArc
 50
46.87888687813972
 51
88.12111312185306
  0
ARC
  5
40D
330
1C5
100
AcDbEntity
  8
OBJECT
100
AcDbCircle
 10
2899.999996839948
 20
2900.000003669802
 30
0.0
 40
530.0000000000018
100
AcDbArc
 50
50.97915679630209
 51
84.02084320369372
  0
CIRCLE
  5
40E
330
1C5
100
AcDbEntity
  8
OBJECT
100
AcDbCircle
 10
2984.391198988051
 20
3342.432753686298
 30
0.0
 40
18.0
  0
CIRCLE
  5
40F
330
1C5
100
AcDbEntity
  8
OBJECT
100
AcDbCircle
 10
2984.391198988051
 20
3342.432753686298
 30
0.0
 40
10.0
  0
CIRCLE
  5
410
330
1C5
100
AcDbEntity
  8
OBJECT
100
AcDbCircle
 10
3068.782401136141
 20
3307.476773211588
 30
0.0
 40
10.0
  0
CIRCLE
  5
411
330
1C5
100
AcDbEntity
  8
OBJECT
100
AcDbCircle
 10
3068.782401136141
 20
3307.476773211588
 30
0.0
 40
18.0
  0
ARC
  5
412
330
1C5
100
AcDbEntity
  8
OBJECT
100
AcDbCircle
 10
3202.209466372988
 20
3272.920151321496
 30
0.0
 40
50.0
100
AcDbArc
 50
315.0
 51
50.97915679630209
  0
CIRCLE
  5
413
330
1C5
100
AcDbEntity
  8
OBJECT
100
AcDbCircle
 10
3153.173603284233
 20
3272.520792736881
 30
0.0
 40
18.0
  0
CIRCLE
  5
414
330
1C5
100
AcDbEntity
  8
OBJECT
100
AcDbCircle
 10
3153.173603284233
 20
3272.520792736881
 30
0.0
 40
10.0
  0
CIRCLE
  5
415
330
1C5
100
AcDbEntity
  8
OBJECT
100
AcDbCircle
 10
3149.999996839954
 20
4196.446613076528
 30
0.0
 40
10.0
  0
CIRCLE
  5
416
330
1C5
100
AcDbEntity
  8
OBJECT
100
AcDbCircle
 10
3149.999996839954
 20
4196.446613076528
 30
0.0
 40
18.0
  0
CIRCLE
  5
417
330
1C5
100
AcDbEntity
  8
OBJECT
100
AcDbCircle
 10
3639.949490501122
 20
3993.502887924242
 30
0.0
 40
10.0
  0
CIRCLE
  5
418
330
1C5
100
AcDbEntity
  8
OBJECT
100
AcDbCircle
 10
3639.949490501122
 20
3993.502887924242
 30
0.0
 40
18.0
  0
ARC
  5
419
330
1C5
100
AcDbEntity
  8
OBJECT
100
AcDbCircle
 10
3942.402747520617
 20
4013.113432469121
 30
0.0
 40
50.0
100
AcDbArc
 50
315.0
 51
46.87888687813972
  0
CIRCLE
  5
41A
330
1C5
100
AcDbEntity
  8
OBJECT
100
AcDbCircle
 10
2405.025250009366
 20
4094.974750500389
 30
0.0
 40
18.0
  0
CIRCLE
  5
41B
330
1C5
100
AcDbEntity
  8
OBJECT
100
AcDbCircle
 10
2405.025250009366
 20
4094.974750500389
 30
0.0
 40
10.0
  0
LINE
  5
41C
330
1C5
100
AcDbEntity
  8
OBJECT
100
AcDbLine
 10
2899.999996839946
 20
2900.000003669801
 30
0.0
 11
2899.999996839948
 21
4424.180111137419
 31
0.0
  0
ARC
  5
41D
330
1C5
100
AcDbEntity
  8
OBJECT
100
AcDbCircle
 10
2597.790527306909
 20
3272.920151321497
 30
0.0
 40
50.0
100
AcDbArc
 50
129.0208432036937
 51
225.0
  0
ARC
  5
41E
330
1C5
100
AcDbEntity
  8
OBJECT
100
AcDbCircle
 10
1857.597246159286
 20
4013.113432469127
 30
0.0
 40
50.0
100
AcDbArc
 50
133.121113121853
 51
225.0
  0
LINE
  5
41F
330
1C5
100
AcDbEntity
  8
OBJECT
100
AcDbLine
 10
2899.999996839948
 20
2900.000003669799
 30
0.0
 11
1822.241907099956
 21
3977.758093409797
 31
0.0
  0
ARC
  5
420
330
1C5
100
AcDbEntity
  8
OBJECT
100
AcDbCircle
 10
2899.999996839946
 20
2900.000003669802
 30
0.0
 40
1574.999999999998
100
AcDbArc
 50
91.87888687813972
 51
133.121113121853
  0
ARC
  5
421
330
1C5
100
AcDbEntity
  8
OBJECT
100
AcDbCircle
 10
2899.999996839946
 20
2900.000003669802
 30
0.0
 40
530.0000000000018
100
AcDbArc
 50
95.9791567963021
 51
129.0208432036937
  0
CIRCLE
  5
422
330
1C5
100
AcDbEntity
  8
OBJECT
100
AcDbCircle
 10
2646.826390395677
 20
3272.520792736887
 30
0.0
 40
18.0
  0
CIRCLE
  5
423
330
1C5
100
AcDbEntity
  8
OBJECT
100
AcDbCircle
 10
2646.826390395677
 20
3272.520792736887
 30
0.0
 40
10.0
  0
CIRCLE
  5
424
330
1C5
100
AcDbEntity
  8
OBJECT
100
AcDbCircle
 10
2731.217592543768
 20
3307.476773211594
 30
0.0
 40
10.0
  0
CIRCLE
  5
425
330
1C5
100
AcDbEntity
  8
OBJECT
100
AcDbCircle
 10
2731.217592543768
 20
3307.476773211594
 30
0.0
 40
18.0
  0
ARC
  5
426
330
1C5
100
AcDbEntity
  8
OBJECT
100
AcDbCircle
 10
2849.999996839946
 20
3377.388734161005
 30
0.0
 40
50.0
100
AcDbArc
 50
0.0
 51
95.9791567963021
  0
CIRCLE
  5
427
330
1C5
100
AcDbEntity
  8
OBJECT
100
AcDbCircle
 10
2815.608794691859
 20
3342.432753686306
 30
0.0
 40
18.0
  0
CIRCLE
  5
428
330
1C5
100
AcDbEntity
  8
OBJECT
100
AcDbCircle
 10
2815.608794691859
 20
3342.432753686306
 30
0.0
 40
10.0
  0
CIRCLE
  5
429
330
1C5
100
AcDbEntity
  8
OBJECT
100
AcDbCircle
 10
2160.050503178784
 20
3993.502887924246
 30
0.0
 40
10.0
  0
CIRCLE
  5
42A
330
1C5
100
AcDbEntity
  8
OBJECT
100
AcDbCircle
 10
2160.050503178784
 20
3993.502887924246
 30
0.0
 40
18.0
  0
CIRCLE
  5
42B
330
1C5
100
AcDbEntity
  8
OBJECT
100
AcDbCircle
 10
2649.999996839952
 20
4196.446613076533
 30
0.0
 40
10.0
  0
CIRCLE
  5
42C
330
1C5
100
AcDbEntity
  8
OBJECT
100
AcDbCircle
 10
2649.999996839952
 20
4196.446613076533
 30
0.0
 40
18.0
  0
ARC
  5
42D
330
1C5
100
AcDbEntity
  8
OBJECT
100
AcDbCircle
 10
2849.999996839949
 20
4424.18011113742
 30
0.0
 40
50.0
100
AcDbArc
 50
0.0
 51
91.87888687813972
  0
CIRCLE
  5
42E
330
1C5
100
AcDbEntity
  8
OBJECT
100
AcDbCircle
 10
1705.025250009362
 20
3394.974750500389
 30
0.0
 40
18.0
  0
CIRCLE
  5
42F
330
1C5
100
AcDbEntity
  8
OBJECT
100
AcDbCircle
 10
1705.025250009362
 20
3394.974750500389
 30
0.0
 40
10.0
  0
LINE
  5
430
330
1C5
100
AcDbEntity
  8
OBJECT
100
AcDbLine
 10
2899.999996839945
 20
2900.000003669799
 30
0.0
 11
1822.241907099953
 21
3977.758093409795
 31
0.0
  0
ARC
  5
431
330
1C5
100
AcDbEntity
  8
OBJECT
100
AcDbCircle
 10
2422.611266348743
 20
2950.000003669802
 30
0.0
 40
50.0
100
AcDbArc
 50
174.0208432036937
 51
270.0
  0
ARC
  5
432
330
1C5
100
AcDbEntity
  8
OBJECT
100
AcDbCircle
 10
1375.819889372328
 20
2950.000003669808
 30
0.0
 40
50.0
100
AcDbArc
 50
178.121113121853
 51
270.0
  0
LINE
  5
433
330
1C5
100
AcDbEntity
  8
OBJECT
100
AcDbLine
 10
2899.999996839948
 20
2900.000003669799
 30
0.0
 11
1375.819889372328
 21
2900.000003669803
 31
0.0
  0
ARC
  5
434
330
1C5
100
AcDbEntity
  8
OBJECT
100
AcDbCircle
 10
2899.999996839945
 20
2900.000003669799
 30
0.0
 40
1574.999999999998
100
AcDbArc
 50
136.8788868781396
 51
178.121113121853
  0
ARC
  5
435
330
1C5
100
AcDbEntity
  8
OBJECT
100
AcDbCircle
 10
2899.999996839945
 20
2900.000003669799
 30
0.0
 40
530.0000000000018
100
AcDbArc
 50
140.979156796302
 51
174.0208432036937
  0
CIRCLE
  5
436
330
1C5
100
AcDbEntity
  8
OBJECT
100
AcDbCircle
 10
2457.567246823449
 20
2984.391205817902
 30
0.0
 40
18.0
  0
CIRCLE
  5
437
330
1C5
100
AcDbEntity
  8
OBJECT
100
AcDbCircle
 10
2457.567246823449
 20
2984.391205817902
 30
0.0
 40
10.0
  0
CIRCLE
  5
438
330
1C5
100
AcDbEntity
  8
OBJECT
100
AcDbCircle
 10
2492.523227298159
 20
3068.782407965992
 30
0.0
 40
10.0
  0
CIRCLE
  5
439
330
1C5
100
AcDbEntity
  8
OBJECT
100
AcDbCircle
 10
2492.523227298159
 20
3068.782407965992
 30
0.0
 40
18.0
  0
ARC
  5
43A
330
1C5
100
AcDbEntity
  8
OBJECT
100
AcDbCircle
 10
2527.079849188251
 20
3202.209473202839
 30
0.0
 40
50.0
100
AcDbArc
 50
45.0
 51
140.979156796302
  0
CIRCLE
  5
43B
330
1C5
100
AcDbEntity
  8
OBJECT
100
AcDbCircle
 10
2527.479207772866
 20
3153.173610114084
 30
0.0
 40
18.0
  0
CIRCLE
  5
43C
330
1C5
100
AcDbEntity
  8
OBJECT
100
AcDbCircle
 10
2527.479207772866
 20
3153.173610114084
 30
0.0
 40
10.0
  0
CIRCLE
  5
43D
330
1C5
100
AcDbEntity
  8
OBJECT
100
AcDbCircle
 10
1603.553387433219
 20
3150.000003669806
 30
0.0
 40
10.0
  0
CIRCLE
  5
43E
330
1C5
100
AcDbEntity
  8
OBJECT
100
AcDbCircle
 10
1603.553387433219
 20
3150.000003669806
 30
0.0
 40
18.0
  0
CIRCLE
  5
43F
330
1C5
100
AcDbEntity
  8
OBJECT
100
AcDbCircle
 10
1806.497112585505
 20
3639.949497330973
 30
0.0
 40
10.0
  0
CIRCLE
  5
440
330
1C5
100
AcDbEntity
  8
OBJECT
100
AcDbCircle
 10
1806.497112585505
 20
3639.949497330973
 30
0.0
 40
18.0
  0
ARC
  5
441
330
1C5
100
AcDbEntity
  8
OBJECT
100
AcDbCircle
 10
1786.886568040626
 20
3942.402754350469
 30
0.0
 40
50.0
100
AcDbArc
 50
45.0
 51
136.8788868781396
  0
CIRCLE
  5
442
330
1C5
100
AcDbEntity
  8
OBJECT
100
AcDbCircle
 10
1705.025250009358
 20
2405.025256839219
 30
0.0
 40
18.0
  0
CIRCLE
  5
443
330
1C5
100
AcDbEntity
  8
OBJECT
100
AcDbCircle
 10
1705.025250009358
 20
2405.025256839219
 30
0.0
 40
10.0
  0
LINE
  5
444
330
1C5
100
AcDbEntity
  8
OBJECT
100
AcDbLine
 10
2899.999996839945
 20
2900.000003669797
 30
0.0
 11
1375.819889372327
 21
2900.0000036698
 31
0.0
  0
ARC
  5
445
330
1C5
100
AcDbEntity
  8
OBJECT
100
AcDbCircle
 10
2527.07984918825
 20
2597.790534136761
 30
0.0
 40
50.0
100
AcDbArc
 50
219.0208432036936
 51
314.9999999999999
  0
ARC
  5
446
330
1C5
100
AcDbEntity
  8
OBJECT
100
AcDbCircle
 10
1786.886568040619
 20
1857.597252989139
 30
0.0
 40
50.0
100
AcDbArc
 50
223.121113121853
 51
314.9999999999999
  0
LINE
  5
447
330
1C5
100
AcDbEntity
  8
OBJECT
100
AcDbLine
 10
2899.999996839948
 20
2900.000003669799
 30
0.0
 11
1822.241907099949
 21
1822.241913929808
 31
0.0
  0
ARC
  5
448
330
1C5
100
AcDbEntity
  8
OBJECT
100
AcDbCircle
 10
2899.999996839945
 20
2900.000003669797
 30
0.0
 40
1574.999999999998
100
AcDbArc
 50
181.8788868781397
 51
223.121113121853
  0
ARC
  5
449
330
1C5
100
AcDbEntity
  8
OBJECT
100
AcDbCircle
 10
2899.999996839945
 20
2900.000003669797
 30
0.0
 40
530.0000000000018
100
AcDbArc
 50
185.979156796302
 51
219.0208432036936
  0
CIRCLE
  5
44A
330
1C5
100
AcDbEntity
  8
OBJECT
100
AcDbCircle
 10
2527.479207772859
 20
2646.826397225529
 30
0.0
 40
18.0
  0
CIRCLE
  5
44B
330
1C5
100
AcDbEntity
  8
OBJECT
100
AcDbCircle
 10
2527.479207772859
 20
2646.826397225529
 30
0.0
 40
10.0
  0
CIRCLE
  5
44C
330
1C5
100
AcDbEntity
  8
OBJECT
100
AcDbCircle
 10
2492.523227298153
 20
2731.21759937362
 30
0.0
 40
10.0
  0
CIRCLE
  5
44D
330
1C5
100
AcDbEntity
  8
OBJECT
100
AcDbCircle
 10
2492.523227298153
 20
2731.21759937362
 30
0.0
 40
18.0
  0
ARC
  5
44E
330
1C5
100
AcDbEntity
  8
OBJECT
100
AcDbCircle
 10
2422.611266348742
 20
2850.000003669798
 30
0.0
 40
50.0
100
AcDbArc
 50
90.0
 51
185.979156796302
  0
CIRCLE
  5
44F
330
1C5
100
AcDbEntity
  8
OBJECT
100
AcDbCircle
 10
2457.567246823442
 20
2815.608801521711
 30
0.0
 40
18.0
  0
CIRCLE
  5
450
330
1C5
100
AcDbEntity
  8
OBJECT
100
AcDbCircle
 10
2457.567246823442
 20
2815.608801521711
 30
0.0
 40
10.0
  0
CIRCLE
  5
451
330
1C5
100
AcDbEntity
  8
OBJECT
100
AcDbCircle
 10
1806.497112585501
 20
2160.050510008636
 30
0.0
 40
10.0
  0
CIRCLE
  5
452
330
1C5
100
AcDbEntity
  8
OBJECT
100
AcDbCircle
 10
1806.497112585501
 20
2160.050510008636
 30
0.0
 40
18.0
  0
CIRCLE
  5
453
330
1C5
100
AcDbEntity
  8
OBJECT
100
AcDbCircle
 10
1603.553387433214
 20
2650.000003669804
 30
0.0
 40
10.0
  0
CIRCLE
  5
454
330
1C5
100
AcDbEntity
  8
OBJECT
100
AcDbCircle
 10
1603.553387433214
 20
2650.000003669804
 30
0.0
 40
18.0
  0
ARC
  5
455
330
1C5
100
AcDbEntity
  8
OBJECT
100
AcDbCircle
 10
1375.819889372326
 20
2850.000003669802
 30
0.0
 40
50.0
100
AcDbArc
 50
90.0
 51
181.8788868781397
  0
CIRCLE
  5
456
330
1C5
100
AcDbEntity
  8
OBJECT
100
AcDbCircle
 10
2405.025250009358
 20
1705.025256839213
 30
0.0
 40
18.0
  0
CIRCLE
  5
457
330
1C5
100
AcDbEntity
  8
OBJECT
100
AcDbCircle
 10
2405.025250009358
 20
1705.025256839213
 30
0.0
 40
10.0
  0
LINE
  5
458
330
1C5
100
AcDbEntity
  8
OBJECT
100
AcDbLine
 10
2899.999996839948
 20
2900.000003669796
 30
0.0
 11
1822.241907099952
 21
1822.241913929805
 31
0.0
  0
ARC
  5
459
330
1C5
100
AcDbEntity
  8
OBJECT
100
AcDbCircle
 10
2849.999996839944
 20
2422.611273178594
 30
0.0
 40
50.0
100
AcDbArc
 50
264.0208432036936
 51
0.0
  0
ARC
  5
45A
330
1C5
100
AcDbEntity
  8
OBJECT
100
AcDbCircle
 10
2849.999996839938
 20
1375.819896202179
 30
0.0
 40
50.0
100
AcDbArc
 50
268.121113121853
 51
0.0
  0
LINE
  5
45B
330
1C5
100
AcDbEntity
  8
OBJECT
100
AcDbLine
 10
2899.999996839948
 20
2900.000003669799
 30
0.0
 11
2899.999996839943
 21
1375.819896202179
 31
0.0
  0
ARC
  5
45C
330
1C5
100
AcDbEntity
  8
OBJECT
100
AcDbCircle
 10
2899.999996839948
 20
2900.000003669796
 30
0.0
 40
1574.999999999998
100
AcDbArc
 50
226.8788868781397
 51
268.121113121853
  0
ARC
  5
45D
330
1C5
100
AcDbEntity
  8
OBJECT
100
AcDbCircle
 10
2899.999996839948
 20
2900.000003669796
 30
0.0
 40
530.0000000000018
100
AcDbArc
 50
230.979156796302
 51
264.0208432036936
  0
CIRCLE
  5
45E
330
1C5
100
AcDbEntity
  8
OBJECT
100
AcDbCircle
 10
2815.608794691844
 20
2457.5672536533
 30
0.0
 40
18.0
  0
CIRCLE
  5
45F
330
1C5
100
AcDbEntity
  8
OBJECT
100
AcDbCircle
 10
2815.608794691844
 20
2457.5672536533
 30
0.0
 40
10.0
  0
CIRCLE
  5
460
330
1C5
100
AcDbEntity
  8
OBJECT
100
AcDbCircle
 10
2731.217592543754
 20
2492.523234128011
 30
0.0
 40
10.0
  0
CIRCLE
  5
461
330
1C5
100
AcDbEntity
  8
OBJECT
100
AcDbCircle
 10
2731.217592543754
 20
2492.523234128011
 30
0.0
 40
18.0
  0
ARC
  5
462
330
1C5
100
AcDbEntity
  8
OBJECT
100
AcDbCircle
 10
2597.790527306907
 20
2527.079856018103
 30
0.0
 40
50.0
100
AcDbArc
 50
134.9999999999999
 51
230.979156796302
  0
CIRCLE
  5
463
330
1C5
100
AcDbEntity
  8
OBJECT
100
AcDbCircle
 10
2646.826390395662
 20
2527.479214602718
 30
0.0
 40
18.0
  0
CIRCLE
  5
464
330
1C5
100
AcDbEntity
  8
OBJECT
100
AcDbCircle
 10
2646.826390395662
 20
2527.479214602718
 30
0.0
 40
10.0
  0
CIRCLE
  5
465
330
1C5
100
AcDbEntity
  8
OBJECT
100
AcDbCircle
 10
2649.999996839941
 20
1603.553394263071
 30
0.0
 40
10.0
  0
CIRCLE
  5
466
330
1C5
100
AcDbEntity
  8
OBJECT
100
AcDbCircle
 10
2649.999996839941
 20
1603.553394263071
 30
0.0
 40
18.0
  0
CIRCLE
  5
467
330
1C5
100
AcDbEntity
  8
OBJECT
100
AcDbCircle
 10
2160.050503178772
 20
1806.497119415357
 30
0.0
 40
10.0
  0
CIRCLE
  5
468
330
1C5
100
AcDbEntity
  8
OBJECT
100
AcDbCircle
 10
2160.050503178772
 20
1806.497119415357
 30
0.0
 40
18.0
  0
ARC
  5
469
330
1C5
100
AcDbEntity
  8
OBJECT
100
AcDbCircle
 10
1857.597246159278
 20
1786.886574870478
 30
0.0
 40
50.0
100
AcDbArc
 50
134.9999999999999
 51
226.8788868781397
  0
CIRCLE
  5
46A
330
1C5
100
AcDbEntity
  8
OBJECT
100
AcDbCircle
 10
3394.974743670529
 20
1705.025256839209
 30
0.0
 40
18.0
  0
CIRCLE
  5
46B
330
1C5
100
AcDbEntity
  8
OBJECT
100
AcDbCircle
 10
3394.974743670529
 20
1705.025256839209
 30
0.0
 40
10.0
  0
LINE
  5
46C
330
1C5
100
AcDbEntity
  8
OBJECT
100
AcDbLine
 10
2899.99999683995
 20
2900.000003669796
 30
0.0
 11
2899.999996839946
 21
1375.819896202179
 31
0.0
  0
ARC
  5
46D
330
1C5
100
AcDbEntity
  8
OBJECT
100
AcDbCircle
 10
3202.209466372986
 20
2527.0798560181
 30
0.0
 40
50.0
100
AcDbArc
 50
309.0208432036936
 51
44.99999999999997
  0
ARC
  5
46E
330
1C5
100
AcDbEntity
  8
OBJECT
100
AcDbCircle
 10
3942.402747520608
 20
1786.88657487047
 30
0.0
 40
50.0
100
AcDbArc
 50
313.121113121853
 51
44.99999999999997
  0
LINE
  5
46F
330
1C5
100
AcDbEntity
  8
OBJECT
100
AcDbLine
 10
2899.999996839948
 20
2900.000003669799
 30
0.0
 11
3977.758086579939
 21
1822.2419139298
 31
0.0
  0
ARC
  5
470
330
1C5
100
AcDbEntity
  8
OBJECT
100
AcDbCircle
 10
2899.99999683995
 20
2900.000003669796
 30
0.0
 40
1574.999999999998
100
AcDbArc
 50
271.8788868781397
 51
313.121113121853
  0
ARC
  5
471
330
1C5
100
AcDbEntity
  8
OBJECT
100
AcDbCircle
 10
2899.99999683995
 20
2900.000003669796
 30
0.0
 40
530.0000000000018
100
AcDbArc
 50
275.979156796302
 51
309.0208432036936
  0
CIRCLE
  5
472
330
1C5
100
AcDbEntity
  8
OBJECT
100
AcDbCircle
 10
3153.173603284218
 20
2527.47921460271
 30
0.0
 40
18.0
  0
CIRCLE
  5
473
330
1C5
100
AcDbEntity
  8
OBJECT
100
AcDbCircle
 10
3153.173603284218
 20
2527.47921460271
 30
0.0
 40
10.0
  0
CIRCLE
  5
474
330
1C5
100
AcDbEntity
  8
OBJECT
100
AcDbCircle
 10
3068.782401136127
 20
2492.523234128003
 30
0.0
 40
10.0
  0
CIRCLE
  5
475
330
1C5
100
AcDbEntity
  8
OBJECT
100
AcDbCircle
 10
3068.782401136127
 20
2492.523234128003
 30
0.0
 40
18.0
  0
ARC
  5
476
330
1C5
100
AcDbEntity
  8
OBJECT
100
AcDbCircle
 10
2949.999996839949
 20
2422.611273178592
 30
0.0
 40
50.0
100
AcDbArc
 50
179.9999999999999
 51
275.979156796302
  0
CIRCLE
  5
477
330
1C5
100
AcDbEntity
  8
OBJECT
100
AcDbCircle
 10
2984.391198988036
 20
2457.567253653293
 30
0.0
 40
18.0
  0
CIRCLE
  5
478
330
1C5
100
AcDbEntity
  8
OBJECT
100
AcDbCircle
 10
2984.391198988036
 20
2457.567253653293
 30
0.0
 40
10.0
  0
CIRCLE
  5
479
330
1C5
100
AcDbEntity
  8
OBJECT
100
AcDbCircle
 10
3639.949490501111
 20
1806.497119415351
 30
0.0
 40
10.0
  0
CIRCLE
  5
47A
330
1C5
100
AcDbEntity
  8
OBJECT
100
AcDbCircle
 10
3639.949490501111
 20
1806.497119415351
 30
0.0
 40
18.0
  0
CIRCLE
  5
47B
330
1C5
100
AcDbEntity
  8
OBJECT
100
AcDbCircle
 10
3149.999996839943
 20
1603.553394263065
 30
0.0
 40
10.0
  0
CIRCLE
  5
47C
330
1C5
100
AcDbEntity
  8
OBJECT
100
AcDbCircle
 10
3149.999996839943
 20
1603.553394263065
 30
0.0
 40
18.0
  0
ARC
  5
47D
330
1C5
100
AcDbEntity
  8
OBJECT
100
AcDbCircle
 10
2949.999996839945
 20
1375.819896202177
 30
0.0
 40
50.0
100
AcDbArc
 50
179.9999999999999
 51
271.8788868781397
  0
CIRCLE
  5
47E
330
1C5
100
AcDbEntity
  8
OBJECT
100
AcDbCircle
 10
4094.974743670533
 20
2405.025256839208
 30
0.0
 40
18.0
  0
CIRCLE
  5
47F
330
1C5
100
AcDbEntity
  8
OBJECT
100
AcDbCircle
 10
4094.974743670533
 20
2405.025256839208
 30
0.0
 40
10.0
  0
LINE
  5
480
330
1C5
100
AcDbEntity
  8
OBJECT
100
AcDbLine
 10
2899.99999683995
 20
2900.000003669799
 30
0.0
 11
3977.758086579941
 21
1822.241913929802
 31
0.0
  0
ARC
  5
481
330
1C5
100
AcDbEntity
  8
OBJECT
100
AcDbCircle
 10
3377.388727331152
 20
2850.000003669795
 30
0.0
 40
50.0
100
AcDbArc
 50
354.0208432036937
 51
89.99999999999992
  0
ARC
  5
482
330
1C5
100
AcDbEntity
  8
OBJECT
100
AcDbCircle
 10
4424.180104307567
 20
2850.000003669789
 30
0.0
 40
50.0
100
AcDbArc
 50
358.1211131218529
 51
89.99999999999992
  0
LINE
  5
483
330
1C5
100
AcDbEntity
  8
OBJECT
100
AcDbLine
 10
2899.999996839948
 20
2900.000003669799
 30
0.0
 11
4424.180104307568
 21
2900.000003669794
 31
0.0
  0
ARC
  5
484
330
1C5
100
AcDbEntity
  8
OBJECT
100
AcDbCircle
 10
2899.99999683995
 20
2900.000003669799
 30
0.0
 40
1574.999999999998
100
AcDbArc
 50
316.8788868781396
 51
358.1211131218529
  0
ARC
  5
485
330
1C5
100
AcDbEntity
  8
OBJECT
100
AcDbCircle
 10
2899.99999683995
 20
2900.000003669799
 30
0.0
 40
530.0000000000018
100
AcDbArc
 50
320.979156796302
 51
354.0208432036937
  0
CIRCLE
  5
486
330
1C5
100
AcDbEntity
  8
OBJECT
100
AcDbCircle
 10
3342.432746856447
 20
2815.608801521695
 30
0.0
 40
18.0
  0
CIRCLE
  5
487
330
1C5
100
AcDbEntity
  8
OBJECT
100
AcDbCircle
 10
3342.432746856447
 20
2815.608801521695
 30
0.0
 40
10.0
  0
CIRCLE
  5
488
330
1C5
100
AcDbEntity
  8
OBJECT
100
AcDbCircle
 10
3307.476766381737
 20
2731.217599373605
 30
0.0
 40
10.0
  0
CIRCLE
  5
489
330
1C5
100
AcDbEntity
  8
OBJECT
100
AcDbCircle
 10
3307.476766381737
 20
2731.217599373605
 30
0.0
 40
18.0
  0
ARC
  5
48A
330
1C5
100
AcDbEntity
  8
OBJECT
100
AcDbCircle
 10
3272.920144491644
 20
2597.790534136758
 30
0.0
 40
50.0
100
AcDbArc
 50
224.9999999999999
 51
320.979156796302
  0
CIRCLE
  5
48B
330
1C5
100
AcDbEntity
  8
OBJECT
100
AcDbCircle
 10
3272.520785907029
 20
2646.826397225513
 30
0.0
 40
18.0
  0
CIRCLE
  5
48C
330
1C5
100
AcDbEntity
  8
OBJECT
100
AcDbCircle
 10
3272.520785907029
 20
2646.826397225513
 30
0.0
 40
10.0
  0
CIRCLE
  5
48D
330
1C5
100
AcDbEntity
  8
OBJECT
100
AcDbCircle
 10
4196.446606246676
 20
2650.000003669791
 30
0.0
 40
10.0
  0
CIRCLE
  5
48E
330
1C5
100
AcDbEntity
  8
OBJECT
100
AcDbCircle
 10
4196.446606246676
 20
2650.000003669791
 30
0.0
 40
18.0
  0
CIRCLE
  5
48F
330
1C5
100
AcDbEntity
  8
OBJECT
100
AcDbCircle
 10
3993.502881094389
 20
2160.050510008623
 30
0.0
 40
10.0
  0
CIRCLE
  5
490
330
1C5
100
AcDbEntity
  8
OBJECT
100
AcDbCircle
 10
3993.502881094389
 20
2160.050510008623
 30
0.0
 40
18.0
  0
ARC
  5
491
330
1C5
100
AcDbEntity
  8
OBJECT
100
AcDbCircle
 10
4013.113425639268
 20
1857.597252989128
 30
0.0
 40
50.0
100
AcDbArc
 50
224.9999999999999
 51
316.8788868781396
  0
CIRCLE
  5
492
330
1C5
100
AcDbEntity
  8
OBJECT
100
AcDbCircle
 10
4094.974743670538
 20
3394.974750500379
 30
0.0
 40
18.0
  0
CIRCLE
  5
493
330
1C5
100
AcDbEntity
  8
OBJECT
100
AcDbCircle
 10
4094.974743670538
 20
3394.974750500379
 30
0.0
 40
10.0
  0
LINE
  5
494
330
1C5
100
AcDbEntity
  8
OBJECT
100
AcDbLine
 10
2899.99999683995
 20
2900.000003669801
 30
0.0
 11
4424.180104307568
 21
2900.000003669797
 31
0.0
  0
ARC
  5
495
330
1C5
100
AcDbEntity
  8
OBJECT
100
AcDbCircle
 10
3272.920144491645
 20
3202.209473202837
 30
0.0
 40
50.0
100
AcDbArc
 50
39.02084320369365
 51
134.9999999999999
  0
ARC
  5
496
330
1C5
100
AcDbEntity
  8
OBJECT
100
AcDbCircle
 10
4013.113425639278
 20
3942.40275435046
 30
0.0
 40
50.0
100
AcDbArc
 50
43.121113121853
 51
134.9999999999999
  0
LINE
  5
497
330
1C5
100
AcDbEntity
  8
OBJECT
100
AcDbLine
 10
2899.999996839948
 20
2900.000003669799
 30
0.0
 11
3977.758086579946
 21
3977.758093409789
 31
0.0
  0
ARC
  5
498
330
1C5
100
AcDbEntity
  8
OBJECT
100
AcDbCircle
 10
2899.99999683995
 20
2900.000003669801
 30
0.0
 40
1574.999999999998
100
AcDbArc
 50
1.878886878139654
 51
43.121113121853
  0
ARC
  5
499
330
1C5
100
AcDbEntity
  8
OBJECT
100
AcDbCircle
 10
2899.99999683995
 20
2900.000003669801
 30
0.0
 40
530.0000000000018
100
AcDbArc
 50
5.979156796302028
 51
39.02084320369365
  0
CIRCLE
  5
49A
330
1C5
100
AcDbEntity
  8
OBJECT
100
AcDbCircle
 10
3272.520785907035
 20
3153.17361011407
 30
0.0
 40
18.0
  0
CIRCLE
  5
49B
330
1C5
100
AcDbEntity
  8
OBJECT
100
AcDbCircle
 10
3272.520785907035
 20
3153.17361011407
 30
0.0
 40
10.0
  0
CIRCLE
  5
49C
330
1C5
100
AcDbEntity
  8
OBJECT
100
AcDbCircle
 10
3307.476766381743
 20
3068.782407965978
 30
0.0
 40
10.0
  0
CIRCLE
  5
49D
330
1C5
100
AcDbEntity
  8
OBJECT
100
AcDbCircle
 10
3307.476766381743
 20
3068.782407965978
 30
0.0
 40
18.0
  0
ARC
  5
49E
330
1C5
100
AcDbEntity
  8
OBJECT
100
AcDbCircle
 10
3377.388727331153
 20
2950.000003669799
 30
0.0
 40
50.0
100
AcDbArc
 50
269.9999999999999
 51
5.979156796302028
  0
CIRCLE
  5
49F
330
1C5
100
AcDbEntity
  8
OBJECT
100
AcDbCircle
 10
3342.432746856453
 20
2984.391205817887
 30
0.0
 40
18.0
  0
CIRCLE
  5
4A0
330
1C5
100
AcDbEntity
  8
OBJECT
100
AcDbCircle
 10
3342.432746856453
 20
2984.391205817887
 30
0.0
 40
10.0
  0
CIRCLE
  5
4A1
330
1C5
100
AcDbEntity
  8
OBJECT
100
AcDbCircle
 10
3993.502881094395
 20
3639.949497330961
 30
0.0
 40
10.0
  0
CIRCLE
  5
4A2
330
1C5
100
AcDbEntity
  8
OBJECT
100
AcDbCircle
 10
3993.502881094395
 20
3639.949497330961
 30
0.0
 40
18.0
  0
CIRCLE
  5
4A3
330
1C5
100
AcDbEntity
  8
OBJECT
100
AcDbCircle
 10
4196.446606246682
 20
3150.000003669794
 30
0.0
 40
10.0
  0
CIRCLE
  5
4A4
330
1C5
100
AcDbEntity
  8
OBJECT
100
AcDbCircle
 10
4196.446606246682
 20
3150.000003669794
 30
0.0
 40
18.0
  0
ARC
  5
4A5
330
1C5
100
AcDbEntity
  8
OBJECT
100
AcDbCircle
 10
4424.180104307569
 20
2950.000003669796
 30
0.0
 40
50.0
100
AcDbArc
 50
269.9999999999999
 51
1.878886878139654
  0
ENDBLK
  5
1C7
330
1C5
100
AcDbEntity
  8
0
100
AcDbBlockEnd
  0
BLOCK
  5
4B4
330
4AB
100
AcDbEntity
  8
0
100
AcDbBlockBegin
  2
*U1
 70
     1
 10
0.0
 20
0.0
 30
0.0
  3
*U1
  1

  0
SOLID
  5
4AC
330
4AB
100
AcDbEntity
  8
HATCH
  6
CONTINUOUS
 62
     3
100
AcDbTrace
 10
-2899.999996839948
 20
2900.000003669799
 30
0.0
 11
-2899.999996839956
 21
4424.180111137419
 31
0.0
 12
-3977.758086579943
 22
3977.758093409794
 32
0.0
 13
-3977.758086579943
 23
3977.758093409794
 33
0.0
210
0.0
220
0.0
230
-1.0
  0
SOLID
  5
4AD
330
4AB
100
AcDbEntity
  8
HATCH
  6
CONTINUOUS
 62
     3
100
AcDbTrace
 10
-2915.229083802726
 20
4460.11037145595
 30
0.0
 11
-3977.758086579943
 21
3977.758093409794
 31
0.0
 12
-2899.999996839956
 22
4424.180111137419
 32
0.0
 13
-2899.999996839956
 23
4424.180111137419
 33
0.0
210
0.0
220
0.0
230
-1.0
  0
SOLID
  5
4AE
330
4AB
100
AcDbEntity
  8
HATCH
  6
CONTINUOUS
 62
     3
100
AcDbTrace
 10
-3977.758086579943
 20
3977.758093409794
 30
0.0
 11
-2915.229083802726
 21
4460.11037145595
 31
0.0
 12
-3992.396026638322
 22
4013.933214793477
 32
0.0
 13
-3992.396026638322
 23
4013.933214793477
 33
0.0
210
0.0
220
0.0
230
-1.0
  0
SOLID
  5
4AF
330
4AB
100
AcDbEntity
  8
HATCH
  6
CONTINUOUS
 62
     3
100
AcDbTrace
 10
-2951.639341102348
 20
4474.153229415042
 30
0.0
 11
-3992.396026638322
 21
4013.933214793477
 31
0.0
 12
-2915.229083802726
 22
4460.11037145595
 32
0.0
 13
-2915.229083802726
 23
4460.11037145595
 33
0.0
210
0.0
220
0.0
230
-1.0
  0
SOLID
  5
4B0
330
4AB
100
AcDbEntity
  8
HATCH
  6
CONTINUOUS
 62
     3
100
AcDbTrace
 10
-3992.396026638322
 20
4013.933214793477
 30
0.0
 11
-2951.639341102348
 21
4474.153229415042
 31
0.0
 12
-3976.579886887198
 22
4049.608954724834
 32
0.0
 13
-3976.579886887198
 23
4049.608954724834
 33
0.0
210
0.0
220
0.0
230
-1.0
  0
SOLID
  5
4B1
330
4AB
100
AcDbEntity
  8
HATCH
  6
CONTINUOUS
 62
     3
100
AcDbTrace
 10
-3232.552910635314
 20
4439.491335092686
 30
0.0
 11
-3976.579886887198
 21
4049.608954724834
 31
0.0
 12
-2951.639341102348
 22
4474.153229415042
 32
0.0
 13
-2951.639341102348
 23
4474.153229415042
 33
0.0
210
0.0
220
0.0
230
-1.0
  0
SOLID
  5
4B2
330
4AB
100
AcDbEntity
  8
HATCH
  6
CONTINUOUS
 62
     3
100
AcDbTrace
 10
-3976.579886887198
 20
4049.608954724834
 30
0.0
 11
-3232.552910635314
 21
4439.491335092686
 31
0.0
 12
-3753.434336419093
 22
4223.735184144771
 32
0.0
 13
-3753.434336419093
 23
4223.735184144771
 33
0.0
210
0.0
220
0.0
230
-1.0
  0
SOLID
  5
4B3
330
4AB
100
AcDbEntity
  8
HATCH
  6
CONTINUOUS
 62
     3
100
AcDbTrace
 10
-3502.726402815055
 20
4355.110267375039
 30
0.0
 11
-3753.434336419093
 21
4223.735184144771
 31
0.0
 12
-3232.552910635314
 22
4439.491335092686
 32
0.0
 13
-3232.552910635314
 23
4439.491335092686
 33
0.0
210
0.0
220
0.0
230
-1.0
  0
ENDBLK
  5
4B5
330
4AB
100
AcDbEntity
  8
0
100
AcDbBlockEnd
  0
BLOCK
  5
4BF
330
4B6
100
AcDbEntity
  8
0
100
AcDbBlockBegin
  2
*U2
 70
     1
 10
0.0
 20
0.0
 30
0.0
  3
*U2
  1

  0
SOLID
  5
4B7
330
4B6
100
AcDbEntity
  8
HATCH
  6
CONTINUOUS
 62
     3
100
AcDbTrace
 10
-2899.999996839948
 20
2900.000003669799
 30
0.0
 11
-1822.241907099958
 21
3977.7580934098
 31
0.0
 12
-2899.999996839948
 22
4424.180111137419
 32
0.0
 13
-2899.999996839948
 23
4424.180111137419
 33
0.0
210
0.0
220
0.0
230
-1.0
  0
SOLID
  5
4B8
330
4B6
100
AcDbEntity
  8
HATCH
  6
CONTINUOUS
 62
     3
100
AcDbTrace
 10
-1807.603967041582
 20
4013.933214793487
 30
0.0
 11
-2899.999996839948
 21
4424.180111137419
 31
0.0
 12
-1822.241907099958
 22
3977.7580934098
 32
0.0
 13
-1822.241907099958
 23
3977.7580934098
 33
0.0
210
0.0
220
0.0
230
-1.0
  0
SOLID
  5
4B9
330
4B6
100
AcDbEntity
  8
HATCH
  6
CONTINUOUS
 62
     3
100
AcDbTrace
 10
-2899.999996839948
 20
4424.180111137419
 30
0.0
 11
-1807.603967041582
 21
4013.933214793487
 31
0.0
 12
-2884.770909877181
 22
4460.11037145595
 32
0.0
 13
-2884.770909877181
 23
4460.11037145595
 33
0.0
210
0.0
220
0.0
230
-1.0
  0
SOLID
  5
4BA
330
4B6
100
AcDbEntity
  8
HATCH
  6
CONTINUOUS
 62
     3
100
AcDbTrace
 10
-1823.420106792779
 20
4049.608954724909
 30
0.0
 11
-2884.770909877181
 21
4460.11037145595
 31
0.0
 12
-1807.603967041582
 22
4013.933214793487
 32
0.0
 13
-1807.603967041582
 23
4013.933214793487
 33
0.0
210
0.0
220
0.0
230
-1.0
  0
SOLID
  5
4BB
330
4B6
100
AcDbEntity
  8
HATCH
  6
CONTINUOUS
 62
     3
100
AcDbTrace
 10
-2884.770909877181
 20
4460.11037145595
 30
0.0
 11
-1823.420106792779
 21
4049.608954724909
 31
0.0
 12
-2848.360652577657
 22
4474.153229415047
 32
0.0
 13
-2848.360652577657
 23
4474.153229415047
 33
0.0
210
0.0
220
0.0
230
-1.0
  0
SOLID
  5
4BC
330
4B6
100
AcDbEntity
  8
HATCH
  6
CONTINUOUS
 62
     3
100
AcDbTrace
 10
-2046.565657260967
 20
4223.73518414488
 30
0.0
 11
-2848.360652577657
 21
4474.153229415047
 31
0.0
 12
-1823.420106792779
 22
4049.608954724909
 32
0.0
 13
-1823.420106792779
 23
4049.608954724909
 33
0.0
210
0.0
220
0.0
230
-1.0
  0
SOLID
  5
4BD
330
4B6
100
AcDbEntity
  8
HATCH
  6
CONTINUOUS
 62
     3
100
AcDbTrace
 10
-2848.360652577657
 20
4474.153229415047
 30
0.0
 11
-2046.565657260967
 21
4223.73518414488
 31
0.0
 12
-2567.447083044773
 22
4439.491335092728
 32
0.0
 13
-2567.447083044773
 23
4439.491335092728
 33
0.0
210
0.0
220
0.0
230
-1.0
  0
SOLID
  5
4BE
330
4B6
100
AcDbEntity
  8
HATCH
  6
CONTINUOUS
 62
     3
100
AcDbTrace
 10
-2297.273590865022
 20
4355.110267375116
 30
0.0
 11
-2567.447083044773
 21
4439.491335092728
 31
0.0
 12
-2046.565657260967
 22
4223.73518414488
 32
0.0
 13
-2046.565657260967
 23
4223.73518414488
 33
0.0
210
0.0
220
0.0
230
-1.0
  0
ENDBLK
  5
4C0
330
4B6
100
AcDbEntity
  8
0
100
AcDbBlockEnd
  0
BLOCK
  5
4CA
330
4C1
100
AcDbEntity
  8
0
100
AcDbBlockBegin
  2
*U3
 70
     1
 10
0.0
 20
0.0
 30
0.0
  3
*U3
  1

  0
SOLID
  5
4C2
330
4C1
100
AcDbEntity
  8
HATCH
  6
CONTINUOUS
 62
     3
100
AcDbTrace
 10
-2899.999996839948
 20
2900.000003669799
 30
0.0
 11
-1375.819889372328
 21
2900.000003669807
 31
0.0
 12
-1822.241907099953
 22
3977.758093409795
 32
0.0
 13
-1822.241907099953
 23
3977.758093409795
 33
0.0
210
0.0
220
0.0
230
-1.0
  0
SOLID
  5
4C3
330
4C1
100
AcDbEntity
  8
HATCH
  6
CONTINUOUS
 62
     3
100
AcDbTrace
 10
-1339.889629053796
 20
2915.229090632578
 30
0.0
 11
-1822.241907099953
 21
3977.758093409795
 31
0.0
 12
-1375.819889372328
 22
2900.000003669807
 32
0.0
 13
-1375.819889372328
 23
2900.000003669807
 33
0.0
210
0.0
220
0.0
230
-1.0
  0
SOLID
  5
4C4
330
4C1
100
AcDbEntity
  8
HATCH
  6
CONTINUOUS
 62
     3
100
AcDbTrace
 10
-1822.241907099953
 20
3977.758093409795
 30
0.0
 11
-1339.889629053796
 21
2915.229090632578
 31
0.0
 12
-1786.066785716269
 22
3992.396033468173
 32
0.0
 13
-1786.066785716269
 23
3992.396033468173
 33
0.0
210
0.0
220
0.0
230
-1.0
  0
SOLID
  5
4C5
330
4C1
100
AcDbEntity
  8
HATCH
  6
CONTINUOUS
 62
     3
100
AcDbTrace
 10
-1325.846771094705
 20
2951.6393479322
 30
0.0
 11
-1786.066785716269
 21
3992.396033468173
 31
0.0
 12
-1339.889629053796
 22
2915.229090632578
 32
0.0
 13
-1339.889629053796
 23
2915.229090632578
 33
0.0
210
0.0
220
0.0
230
-1.0
  0
SOLID
  5
4C6
330
4C1
100
AcDbEntity
  8
HATCH
  6
CONTINUOUS
 62
     3
100
AcDbTrace
 10
-1786.066785716269
 20
3992.396033468173
 30
0.0
 11
-1325.846771094705
 21
2951.6393479322
 31
0.0
 12
-1750.391045784913
 22
3976.57989371705
 32
0.0
 13
-1750.391045784913
 23
3976.57989371705
 33
0.0
210
0.0
220
0.0
230
-1.0
  0
SOLID
  5
4C7
330
4C1
100
AcDbEntity
  8
HATCH
  6
CONTINUOUS
 62
     3
100
AcDbTrace
 10
-1360.508665417061
 20
3232.552917465166
 30
0.0
 11
-1750.391045784913
 21
3976.57989371705
 31
0.0
 12
-1325.846771094705
 22
2951.6393479322
 32
0.0
 13
-1325.846771094705
 23
2951.6393479322
 33
0.0
210
0.0
220
0.0
230
-1.0
  0
SOLID
  5
4C8
330
4C1
100
AcDbEntity
  8
HATCH
  6
CONTINUOUS
 62
     3
100
AcDbTrace
 10
-1750.391045784913
 20
3976.57989371705
 30
0.0
 11
-1360.508665417061
 21
3232.552917465166
 31
0.0
 12
-1576.264816364975
 22
3753.434343248945
 32
0.0
 13
-1576.264816364975
 23
3753.434343248945
 33
0.0
210
0.0
220
0.0
230
-1.0
  0
SOLID
  5
4C9
330
4C1
100
AcDbEntity
  8
HATCH
  6
CONTINUOUS
 62
     3
100
AcDbTrace
 10
-1444.889733134708
 20
3502.726409644906
 30
0.0
 11
-1576.264816364975
 21
3753.434343248945
 31
0.0
 12
-1360.508665417061
 22
3232.552917465166
 32
0.0
 13
-1360.508665417061
 23
3232.552917465166
 33
0.0
210
0.0
220
0.0
230
-1.0
  0
ENDBLK
  5
4CB
330
4C1
100
AcDbEntity
  8
0
100
AcDbBlockEnd
  0
BLOCK
  5
4D5
330
4CC
100
AcDbEntity
  8
0
100
AcDbBlockBegin
  2
*U4
 70
     1
 10
0.0
 20
0.0
 30
0.0
  3
*U4
  1

  0
SOLID
  5
4CD
330
4CC
100
AcDbEntity
  8
HATCH
  6
CONTINUOUS
 62
     3
100
AcDbTrace
 10
-2899.999996839948
 20
2900.000003669799
 30
0.0
 11
-1822.241907099947
 21
1822.241913929811
 31
0.0
 12
-1375.819889372327
 22
2900.0000036698
 32
0.0
 13
-1375.819889372327
 23
2900.0000036698
 33
0.0
210
0.0
220
0.0
230
-1.0
  0
SOLID
  5
4CE
330
4CC
100
AcDbEntity
  8
HATCH
  6
CONTINUOUS
 62
     3
100
AcDbTrace
 10
-1786.066785716259
 20
1807.603973871435
 30
0.0
 11
-1375.819889372327
 21
2900.0000036698
 31
0.0
 12
-1822.241907099947
 22
1822.241913929811
 32
0.0
 13
-1822.241907099947
 23
1822.241913929811
 33
0.0
210
0.0
220
0.0
230
-1.0
  0
SOLID
  5
4CF
330
4CC
100
AcDbEntity
  8
HATCH
  6
CONTINUOUS
 62
     3
100
AcDbTrace
 10
-1375.819889372327
 20
2900.0000036698
 30
0.0
 11
-1786.066785716259
 21
1807.603973871435
 31
0.0
 12
-1339.889629053797
 22
2884.770916707033
 32
0.0
 13
-1339.889629053797
 23
2884.770916707033
 33
0.0
210
0.0
220
0.0
230
-1.0
  0
SOLID
  5
4D0
330
4CC
100
AcDbEntity
  8
HATCH
  6
CONTINUOUS
 62
     3
100
AcDbTrace
 10
-1750.391045784837
 20
1823.420113622631
 30
0.0
 11
-1339.889629053797
 21
2884.770916707033
 31
0.0
 12
-1786.066785716259
 22
1807.603973871435
 32
0.0
 13
-1786.066785716259
 23
1807.603973871435
 33
0.0
210
0.0
220
0.0
230
-1.0
  0
SOLID
  5
4D1
330
4CC
100
AcDbEntity
  8
HATCH
  6
CONTINUOUS
 62
     3
100
AcDbTrace
 10
-1339.889629053797
 20
2884.770916707033
 30
0.0
 11
-1750.391045784837
 21
1823.420113622631
 31
0.0
 12
-1325.846771094699
 22
2848.360659407509
 32
0.0
 13
-1325.846771094699
 23
2848.360659407509
 33
0.0
210
0.0
220
0.0
230
-1.0
  0
SOLID
  5
4D2
330
4CC
100
AcDbEntity
  8
HATCH
  6
CONTINUOUS
 62
     3
100
AcDbTrace
 10
-1576.264816364868
 20
2046.565664090818
 30
0.0
 11
-1325.846771094699
 21
2848.360659407509
 31
0.0
 12
-1750.391045784837
 22
1823.420113622631
 32
0.0
 13
-1750.391045784837
 23
1823.420113622631
 33
0.0
210
0.0
220
0.0
230
-1.0
  0
SOLID
  5
4D3
330
4CC
100
AcDbEntity
  8
HATCH
  6
CONTINUOUS
 62
     3
100
AcDbTrace
 10
-1325.846771094699
 20
2848.360659407509
 30
0.0
 11
-1576.264816364868
 21
2046.565664090818
 31
0.0
 12
-1360.508665417019
 22
2567.447089874624
 32
0.0
 13
-1360.508665417019
 23
2567.447089874624
 33
0.0
210
0.0
220
0.0
230
-1.0
  0
SOLID
  5
4D4
330
4CC
100
AcDbEntity
  8
HATCH
  6
CONTINUOUS
 62
     3
100
AcDbTrace
 10
-1444.889733134633
 20
2297.273597694873
 30
0.0
 11
-1360.508665417019
 21
2567.447089874624
 31
0.0
 12
-1576.264816364868
 22
2046.565664090818
 32
0.0
 13
-1576.264816364868
 23
2046.565664090818
 33
0.0
210
0.0
220
0.0
230
-1.0
  0
ENDBLK
  5
4D6
330
4CC
100
AcDbEntity
  8
0
100
AcDbBlockEnd
  0
BLOCK
  5
4E0
330
4D7
100
AcDbEntity
  8
0
100
AcDbBlockBegin
  2
*U5
 70
     1
 10
0.0
 20
0.0
 30
0.0
  3
*U5
  1

  0
SOLID
  5
4D8
330
4D7
100
AcDbEntity
  8
HATCH
  6
CONTINUOUS
 62
     3
100
AcDbTrace
 10
-2899.999996839948
 20
2900.000003669799
 30
0.0
 11
-2899.999996839939
 21
1375.819896202179
 31
0.0
 12
-1822.241907099952
 22
1822.241913929805
 32
0.0
 13
-1822.241907099952
 23
1822.241913929805
 33
0.0
210
0.0
220
0.0
230
-1.0
  0
SOLID
  5
4D9
330
4D7
100
AcDbEntity
  8
HATCH
  6
CONTINUOUS
 62
     3
100
AcDbTrace
 10
-2884.770909877168
 20
1339.889635883648
 30
0.0
 11
-1822.241907099952
 21
1822.241913929805
 31
0.0
 12
-2899.999996839939
 22
1375.819896202179
 32
0.0
 13
-2899.999996839939
 23
1375.819896202179
 33
0.0
210
0.0
220
0.0
230
-1.0
  0
SOLID
  5
4DA
330
4D7
100
AcDbEntity
  8
HATCH
  6
CONTINUOUS
 62
     3
100
AcDbTrace
 10
-1822.241907099952
 20
1822.241913929805
 30
0.0
 11
-2884.770909877168
 21
1339.889635883648
 31
0.0
 12
-1807.603967041574
 22
1786.066792546121
 32
0.0
 13
-1807.603967041574
 23
1786.066792546121
 33
0.0
210
0.0
220
0.0
230
-1.0
  0
SOLID
  5
4DB
330
4D7
100
AcDbEntity
  8
HATCH
  6
CONTINUOUS
 62
     3
100
AcDbTrace
 10
-2848.360652577545
 20
1325.846777924557
 30
0.0
 11
-1807.603967041574
 21
1786.066792546121
 31
0.0
 12
-2884.770909877168
 22
1339.889635883648
 32
0.0
 13
-2884.770909877168
 23
1339.889635883648
 33
0.0
210
0.0
220
0.0
230
-1.0
  0
SOLID
  5
4DC
330
4D7
100
AcDbEntity
  8
HATCH
  6
CONTINUOUS
 62
     3
100
AcDbTrace
 10
-1807.603967041574
 20
1786.066792546121
 30
0.0
 11
-2848.360652577545
 21
1325.846777924557
 31
0.0
 12
-1823.420106792696
 22
1750.391052614764
 32
0.0
 13
-1823.420106792696
 23
1750.391052614764
 33
0.0
210
0.0
220
0.0
230
-1.0
  0
SOLID
  5
4DD
330
4D7
100
AcDbEntity
  8
HATCH
  6
CONTINUOUS
 62
     3
100
AcDbTrace
 10
-2567.44708304458
 20
1360.508672246912
 30
0.0
 11
-1823.420106792696
 21
1750.391052614764
 31
0.0
 12
-2848.360652577545
 22
1325.846777924557
 32
0.0
 13
-2848.360652577545
 23
1325.846777924557
 33
0.0
210
0.0
220
0.0
230
-1.0
  0
SOLID
  5
4DE
330
4D7
100
AcDbEntity
  8
HATCH
  6
CONTINUOUS
 62
     3
100
AcDbTrace
 10
-1823.420106792696
 20
1750.391052614764
 30
0.0
 11
-2567.44708304458
 21
1360.508672246912
 31
0.0
 12
-2046.565657260802
 22
1576.264823194826
 32
0.0
 13
-2046.565657260802
 23
1576.264823194826
 33
0.0
210
0.0
220
0.0
230
-1.0
  0
SOLID
  5
4DF
330
4D7
100
AcDbEntity
  8
HATCH
  6
CONTINUOUS
 62
     3
100
AcDbTrace
 10
-2297.27359086484
 20
1444.889739964559
 30
0.0
 11
-2046.565657260802
 21
1576.264823194826
 31
0.0
 12
-2567.44708304458
 22
1360.508672246912
 32
0.0
 13
-2567.44708304458
 23
1360.508672246912
 33
0.0
210
0.0
220
0.0
230
-1.0
  0
ENDBLK
  5
4E1
330
4D7
100
AcDbEntity
  8
0
100
AcDbBlockEnd
  0
BLOCK
  5
4EB
330
4E2
100
AcDbEntity
  8
0
100
AcDbBlockBegin
  2
*U6
 70
     1
 10
0.0
 20
0.0
 30
0.0
  3
*U6
  1

  0
SOLID
  5
4E3
330
4E2
100
AcDbEntity
  8
HATCH
  6
CONTINUOUS
 62
     3
100
AcDbTrace
 10
-2899.999996839948
 20
2900.000003669799
 30
0.0
 11
-3977.758086579935
 21
1822.241913929797
 31
0.0
 12
-2899.999996839946
 22
1375.819896202179
 32
0.0
 13
-2899.999996839946
 23
1375.819896202179
 33
0.0
210
0.0
220
0.0
230
-1.0
  0
SOLID
  5
4E4
330
4E2
100
AcDbEntity
  8
HATCH
  6
CONTINUOUS
 62
     3
100
AcDbTrace
 10
-3992.396026638312
 20
1786.06679254611
 30
0.0
 11
-2899.999996839946
 21
1375.819896202179
 31
0.0
 12
-3977.758086579935
 22
1822.241913929797
 32
0.0
 13
-3977.758086579935
 23
1822.241913929797
 33
0.0
210
0.0
220
0.0
230
-1.0
  0
SOLID
  5
4E5
330
4E2
100
AcDbEntity
  8
HATCH
  6
CONTINUOUS
 62
     3
100
AcDbTrace
 10
-2899.999996839946
 20
1375.819896202179
 30
0.0
 11
-3992.396026638312
 21
1786.06679254611
 31
0.0
 12
-2915.229083802714
 22
1339.889635883647
 32
0.0
 13
-2915.229083802714
 23
1339.889635883647
 33
0.0
210
0.0
220
0.0
230
-1.0
  0
SOLID
  5
4E6
330
4E2
100
AcDbEntity
  8
HATCH
  6
CONTINUOUS
 62
     3
100
AcDbTrace
 10
-3976.579886887116
 20
1750.391052614689
 30
0.0
 11
-2915.229083802714
 21
1339.889635883647
 31
0.0
 12
-3992.396026638312
 22
1786.06679254611
 32
0.0
 13
-3992.396026638312
 23
1786.06679254611
 33
0.0
210
0.0
220
0.0
230
-1.0
  0
SOLID
  5
4E7
330
4E2
100
AcDbEntity
  8
HATCH
  6
CONTINUOUS
 62
     3
100
AcDbTrace
 10
-2915.229083802714
 20
1339.889635883647
 30
0.0
 11
-3976.579886887116
 21
1750.391052614689
 31
0.0
 12
-2951.639341102237
 22
1325.84677792455
 32
0.0
 13
-2951.639341102237
 23
1325.84677792455
 33
0.0
210
0.0
220
0.0
230
-1.0
  0
SOLID
  5
4E8
330
4E2
100
AcDbEntity
  8
HATCH
  6
CONTINUOUS
 62
     3
100
AcDbTrace
 10
-3753.434336418929
 20
1576.264823194718
 30
0.0
 11
-2951.639341102237
 21
1325.84677792455
 31
0.0
 12
-3976.579886887116
 22
1750.391052614689
 32
0.0
 13
-3976.579886887116
 23
1750.391052614689
 33
0.0
210
0.0
220
0.0
230
-1.0
  0
SOLID
  5
4E9
330
4E2
100
AcDbEntity
  8
HATCH
  6
CONTINUOUS
 62
     3
100
AcDbTrace
 10
-2951.639341102237
 20
1325.84677792455
 30
0.0
 11
-3753.434336418929
 21
1576.264823194718
 31
0.0
 12
-3232.552910635122
 22
1360.508672246869
 32
0.0
 13
-3232.552910635122
 23
1360.508672246869
 33
0.0
210
0.0
220
0.0
230
-1.0
  0
SOLID
  5
4EA
330
4E2
100
AcDbEntity
  8
HATCH
  6
CONTINUOUS
 62
     3
100
AcDbTrace
 10
-3502.726402814874
 20
1444.889739964483
 30
0.0
 11
-3232.552910635122
 21
1360.508672246869
 31
0.0
 12
-3753.434336418929
 22
1576.264823194718
 32
0.0
 13
-3753.434336418929
 23
1576.264823194718
 33
0.0
210
0.0
220
0.0
230
-1.0
  0
ENDBLK
  5
4EC
330
4E2
100
AcDbEntity
  8
0
100
AcDbBlockEnd
  0
BLOCK
  5
4F6
330
4ED
100
AcDbEntity
  8
0
100
AcDbBlockBegin
  2
*U7
 70
     1
 10
0.0
 20
0.0
 30
0.0
  3
*U7
  1

  0
SOLID
  5
4EE
330
4ED
100
AcDbEntity
  8
HATCH
  6
CONTINUOUS
 62
     3
100
AcDbTrace
 10
-2899.999996839948
 20
2900.000003669799
 30
0.0
 11
-4424.180104307567
 21
2900.000003669789
 31
0.0
 12
-3977.758086579941
 22
1822.241913929802
 32
0.0
 13
-3977.758086579941
 23
1822.241913929802
 33
0.0
210
0.0
220
0.0
230
-1.0
  0
SOLID
  5
4EF
330
4ED
100
AcDbEntity
  8
HATCH
  6
CONTINUOUS
 62
     3
100
AcDbTrace
 10
-4460.110364626099
 20
2884.770916707018
 30
0.0
 11
-3977.758086579941
 21
1822.241913929802
 31
0.0
 12
-4424.180104307567
 22
2900.000003669789
 32
0.0
 13
-4424.180104307567
 23
2900.000003669789
 33
0.0
210
0.0
220
0.0
230
-1.0
  0
SOLID
  5
4F0
330
4ED
100
AcDbEntity
  8
HATCH
  6
CONTINUOUS
 62
     3
100
AcDbTrace
 10
-3977.758086579941
 20
1822.241913929802
 30
0.0
 11
-4460.110364626099
 21
2884.770916707018
 31
0.0
 12
-4013.933207963624
 22
1807.603973871424
 32
0.0
 13
-4013.933207963624
 23
1807.603973871424
 33
0.0
210
0.0
220
0.0
230
-1.0
  0
SOLID
  5
4F1
330
4ED
100
AcDbEntity
  8
HATCH
  6
CONTINUOUS
 62
     3
100
AcDbTrace
 10
-4474.153222585189
 20
2848.360659407396
 30
0.0
 11
-4013.933207963624
 21
1807.603973871424
 31
0.0
 12
-4460.110364626099
 22
2884.770916707018
 32
0.0
 13
-4460.110364626099
 23
2884.770916707018
 33
0.0
210
0.0
220
0.0
230
-1.0
  0
SOLID
  5
4F2
330
4ED
100
AcDbEntity
  8
HATCH
  6
CONTINUOUS
 62
     3
100
AcDbTrace
 10
-4013.933207963624
 20
1807.603973871424
 30
0.0
 11
-4474.153222585189
 21
2848.360659407396
 31
0.0
 12
-4049.608947894982
 22
1823.420113622547
 32
0.0
 13
-4049.608947894982
 23
1823.420113622547
 33
0.0
210
0.0
220
0.0
230
-1.0
  0
SOLID
  5
4F3
330
4ED
100
AcDbEntity
  8
HATCH
  6
CONTINUOUS
 62
     3
100
AcDbTrace
 10
-4439.491328262834
 20
2567.447089874431
 30
0.0
 11
-4049.608947894982
 21
1823.420113622547
 31
0.0
 12
-4474.153222585189
 22
2848.360659407396
 32
0.0
 13
-4474.153222585189
 23
2848.360659407396
 33
0.0
210
0.0
220
0.0
230
-1.0
  0
SOLID
  5
4F4
330
4ED
100
AcDbEntity
  8
HATCH
  6
CONTINUOUS
 62
     3
100
AcDbTrace
 10
-4049.608947894982
 20
1823.420113622547
 30
0.0
 11
-4439.491328262834
 21
2567.447089874431
 31
0.0
 12
-4223.735177314919
 22
2046.565664090651
 32
0.0
 13
-4223.735177314919
 23
2046.565664090651
 33
0.0
210
0.0
220
0.0
230
-1.0
  0
SOLID
  5
4F5
330
4ED
100
AcDbEntity
  8
HATCH
  6
CONTINUOUS
 62
     3
100
AcDbTrace
 10
-4355.110260545187
 20
2297.27359769469
 30
0.0
 11
-4223.735177314919
 21
2046.565664090651
 31
0.0
 12
-4439.491328262834
 22
2567.447089874431
 32
0.0
 13
-4439.491328262834
 23
2567.447089874431
 33
0.0
210
0.0
220
0.0
230
-1.0
  0
ENDBLK
  5
4F7
330
4ED
100
AcDbEntity
  8
0
100
AcDbBlockEnd
  0
BLOCK
  5
501
330
4F8
100
AcDbEntity
  8
0
100
AcDbBlockBegin
  2
*U8
 70
     1
 10
0.0
 20
0.0
 30
0.0
  3
*U8
  1

  0
SOLID
  5
4F9
330
4F8
100
AcDbEntity
  8
HATCH
  6
CONTINUOUS
 62
     3
100
AcDbTrace
 10
-2899.999996839948
 20
2900.000003669799
 30
0.0
 11
-3977.75808657995
 21
3977.758093409788
 31
0.0
 12
-4424.180104307568
 22
2900.000003669797
 32
0.0
 13
-4424.180104307568
 23
2900.000003669797
 33
0.0
210
0.0
220
0.0
230
-1.0
  0
SOLID
  5
4FA
330
4F8
100
AcDbEntity
  8
HATCH
  6
CONTINUOUS
 62
     3
100
AcDbTrace
 10
-4013.933207963637
 20
3992.396033468164
 30
0.0
 11
-4424.180104307568
 21
2900.000003669797
 31
0.0
 12
-3977.75808657995
 22
3977.758093409788
 32
0.0
 13
-3977.75808657995
 23
3977.758093409788
 33
0.0
210
0.0
220
0.0
230
-1.0
  0
SOLID
  5
4FB
330
4F8
100
AcDbEntity
  8
HATCH
  6
CONTINUOUS
 62
     3
100
AcDbTrace
 10
-4424.180104307568
 20
2900.000003669797
 30
0.0
 11
-4013.933207963637
 21
3992.396033468164
 31
0.0
 12
-4460.110364626099
 22
2915.229090632565
 32
0.0
 13
-4460.110364626099
 23
2915.229090632565
 33
0.0
210
0.0
220
0.0
230
-1.0
  0
SOLID
  5
4FC
330
4F8
100
AcDbEntity
  8
HATCH
  6
CONTINUOUS
 62
     3
100
AcDbTrace
 10
-4049.608947895058
 20
3976.579893716968
 30
0.0
 11
-4460.110364626099
 21
2915.229090632565
 31
0.0
 12
-4013.933207963637
 22
3992.396033468164
 32
0.0
 13
-4013.933207963637
 23
3992.396033468164
 33
0.0
210
0.0
220
0.0
230
-1.0
  0
SOLID
  5
4FD
330
4F8
100
AcDbEntity
  8
HATCH
  6
CONTINUOUS
 62
     3
100
AcDbTrace
 10
-4460.110364626099
 20
2915.229090632565
 30
0.0
 11
-4049.608947895058
 21
3976.579893716968
 31
0.0
 12
-4474.153222585196
 22
2951.639347932088
 32
0.0
 13
-4474.153222585196
 23
2951.639347932088
 33
0.0
210
0.0
220
0.0
230
-1.0
  0
SOLID
  5
4FE
330
4F8
100
AcDbEntity
  8
HATCH
  6
CONTINUOUS
 62
     3
100
AcDbTrace
 10
-4223.735177315028
 20
3753.434343248779
 30
0.0
 11
-4474.153222585196
 21
2951.639347932088
 31
0.0
 12
-4049.608947895058
 22
3976.579893716968
 32
0.0
 13
-4049.608947895058
 23
3976.579893716968
 33
0.0
210
0.0
220
0.0
230
-1.0
  0
SOLID
  5
4FF
330
4F8
100
AcDbEntity
  8
HATCH
  6
CONTINUOUS
 62
     3
100
AcDbTrace
 10
-4474.153222585196
 20
2951.639347932088
 30
0.0
 11
-4223.735177315028
 21
3753.434343248779
 31
0.0
 12
-4439.491328262877
 22
3232.552917464973
 32
0.0
 13
-4439.491328262877
 23
3232.552917464973
 33
0.0
210
0.0
220
0.0
230
-1.0
  0
SOLID
  5
500
330
4F8
100
AcDbEntity
  8
HATCH
  6
CONTINUOUS
 62
     3
100
AcDbTrace
 10
-4355.110260545263
 20
3502.726409644724
 30
0.0
 11
-4439.491328262877
 21
3232.552917464973
 31
0.0
 12
-4223.735177315028
 22
3753.434343248779
 32
0.0
 13
-4223.735177315028
 23
3753.434343248779
 33
0.0
210
0.0
220
0.0
230
-1.0
  0
ENDBLK
  5
502
330
4F8
100
AcDbEntity
  8
0
100
AcDbBlockEnd
  0
BLOCK
  5
53A
330
503
100
AcDbEntity
  8
0
100
AcDbBlockBegin
  2
*U9
 70
     1
 10
0.0
 20
0.0
 30
0.0
  3
*U9
  1

  0
SOLID
  5
504
330
503
100
AcDbEntity
  8
HATCH
  6
CONTINUOUS
 62
     5
100
AcDbTrace
 10
3153.173603284233
 20
3254.520792736881
 30
0.0
 11
2899.999996839948
 21
2900.000003669802
 31
0.0
 12
3237.564805432315
 22
3237.564812262168
 32
0.0
 13
3237.564805432315
 23
3237.564812262168
 33
0.0
210
0.0
220
0.0
230
1.0
  0
SOLID
  5
505
330
503
100
AcDbEntity
  8
HATCH
  6
CONTINUOUS
 62
     5
100
AcDbTrace
 10
3140.445681222875
 20
3259.792870675523
 30
0.0
 11
2899.999996839948
 21
2900.000003669802
 31
0.0
 12
3153.173603284233
 22
3254.520792736881
 32
0.0
 13
3153.173603284233
 23
3254.520792736881
 33
0.0
210
0.0
220
0.0
230
1.0
  0
SOLID
  5
506
330
503
100
AcDbEntity
  8
HATCH
  6
CONTINUOUS
 62
     5
100
AcDbTrace
 10
3165.90152534559
 20
3259.792870675523
 30
0.0
 11
3153.173603284233
 21
3254.520792736881
 31
0.0
 12
3237.564805432315
 22
3237.564812262168
 32
0.0
 13
3237.564805432315
 23
3237.564812262168
 33
0.0
210
0.0
220
0.0
230
1.0
  0
SOLID
  5
507
330
503
100
AcDbEntity
  8
HATCH
  6
CONTINUOUS
 62
     5
100
AcDbTrace
 10
3160.244671096098
 20
3265.449724925015
 30
0.0
 11
3146.102535472367
 21
3265.449724925015
 31
0.0
 12
3153.173603284233
 22
3262.520792736881
 32
0.0
 13
3153.173603284233
 23
3262.520792736881
 33
0.0
  0
SOLID
  5
508
330
503
100
AcDbEntity
  8
HATCH
  6
CONTINUOUS
 62
     5
100
AcDbTrace
 10
3135.173603284233
 20
3272.520792736881
 30
0.0
 11
2899.999996839948
 21
2900.000003669802
 31
0.0
 12
3140.445681222875
 22
3259.792870675523
 32
0.0
 13
3140.445681222875
 23
3259.792870675523
 33
0.0
  0
SOLID
  5
509
330
503
100
AcDbEntity
  8
HATCH
  6
CONTINUOUS
 62
     5
100
AcDbTrace
 10
3143.173603284232
 20
3272.520792736881
 30
0.0
 11
3146.102535472367
 21
3265.449724925015
 31
0.0
 12
3160.244671096098
 22
3265.449724925015
 32
0.0
 13
3160.244671096098
 23
3265.449724925015
 33
0.0
210
0.0
220
0.0
230
1.0
  0
SOLID
  5
50A
330
503
100
AcDbEntity
  8
HATCH
  6
CONTINUOUS
 62
     5
100
AcDbTrace
 10
3171.173603284232
 20
3272.520792736881
 30
0.0
 11
3165.90152534559
 21
3259.792870675523
 31
0.0
 12
3237.564805432315
 22
3237.564812262168
 32
0.0
 13
3237.564805432315
 23
3237.564812262168
 33
0.0
210
0.0
220
0.0
230
1.0
  0
SOLID
  5
50B
330
503
100
AcDbEntity
  8
HATCH
  6
CONTINUOUS
 62
     5
100
AcDbTrace
 10
3163.173603284233
 20
3272.520792736881
 30
0.0
 11
3143.173603284232
 21
3272.520792736881
 31
0.0
 12
3160.244671096098
 22
3265.449724925015
 32
0.0
 13
3160.244671096098
 23
3265.449724925015
 33
0.0
  0
SOLID
  5
50C
330
503
100
AcDbEntity
  8
HATCH
  6
CONTINUOUS
 62
     5
100
AcDbTrace
 10
3252.141418520908
 20
3275.527861945344
 30
0.0
 11
3171.173603284232
 21
3272.520792736881
 31
0.0
 12
3237.564805432315
 22
3237.564812262168
 32
0.0
 13
3237.564805432315
 23
3237.564812262168
 33
0.0
210
0.0
220
0.0
230
1.0
  0
SOLID
  5
50D
330
503
100
AcDbEntity
  8
HATCH
  6
CONTINUOUS
 62
     5
100
AcDbTrace
 10
3146.102535472367
 20
3279.591860548746
 30
0.0
 11
3143.173603284232
 21
3272.520792736881
 31
0.0
 12
3163.173603284233
 22
3272.520792736881
 32
0.0
 13
3163.173603284233
 23
3272.520792736881
 33
0.0
210
0.0
220
0.0
230
1.0
  0
SOLID
  5
50E
330
503
100
AcDbEntity
  8
HATCH
  6
CONTINUOUS
 62
     5
100
AcDbTrace
 10
3160.244671096098
 20
3279.591860548746
 30
0.0
 11
3146.102535472367
 21
3279.591860548746
 31
0.0
 12
3163.173603284233
 22
3272.520792736881
 32
0.0
 13
3163.173603284233
 23
3272.520792736881
 33
0.0
  0
SOLID
  5
50F
330
503
100
AcDbEntity
  8
HATCH
  6
CONTINUOUS
 62
     5
100
AcDbTrace
 10
3153.173603284233
 20
3282.52079273688
 30
0.0
 11
3146.102535472367
 21
3279.591860548746
 31
0.0
 12
3160.244671096098
 22
3279.591860548746
 32
0.0
 13
3160.244671096098
 23
3279.591860548746
 33
0.0
  0
SOLID
  5
510
330
503
100
AcDbEntity
  8
HATCH
  6
CONTINUOUS
 62
     5
100
AcDbTrace
 10
3140.445681222875
 20
3285.248714798238
 30
0.0
 11
2899.999996839948
 21
2900.000003669802
 31
0.0
 12
3135.173603284233
 22
3272.520792736881
 32
0.0
 13
3135.173603284233
 23
3272.520792736881
 33
0.0
210
0.0
220
0.0
230
1.0
  0
SOLID
  5
511
330
503
100
AcDbEntity
  8
HATCH
  6
CONTINUOUS
 62
     5
100
AcDbTrace
 10
3165.90152534559
 20
3285.248714798238
 30
0.0
 11
3171.173603284232
 21
3272.520792736881
 31
0.0
 12
3252.141418520908
 22
3275.527861945344
 32
0.0
 13
3252.141418520908
 23
3275.527861945344
 33
0.0
210
0.0
220
0.0
230
1.0
  0
SOLID
  5
512
330
503
100
AcDbEntity
  8
HATCH
  6
CONTINUOUS
 62
     5
100
AcDbTrace
 10
3068.782401136141
 20
3289.476773211588
 30
0.0
 11
2899.999996839948
 21
2900.000003669802
 31
0.0
 12
3140.445681222875
 22
3285.248714798238
 32
0.0
 13
3140.445681222875
 23
3285.248714798238
 33
0.0
  0
SOLID
  5
513
330
503
100
AcDbEntity
  8
HATCH
  6
CONTINUOUS
 62
     5
100
AcDbTrace
 10
3153.173603284233
 20
3290.520792736881
 30
0.0
 11
3068.782401136141
 21
3289.476773211588
 31
0.0
 12
3140.445681222875
 22
3285.248714798238
 32
0.0
 13
3140.445681222875
 23
3285.248714798238
 33
0.0
210
0.0
220
0.0
230
1.0
  0
SOLID
  5
514
330
503
100
AcDbEntity
  8
HATCH
  6
CONTINUOUS
 62
     5
100
AcDbTrace
 10
3153.173603284233
 20
3290.520792736881
 30
0.0
 11
3165.90152534559
 21
3285.248714798238
 31
0.0
 12
3252.141418520908
 22
3275.527861945344
 32
0.0
 13
3252.141418520908
 23
3275.527861945344
 33
0.0
  0
SOLID
  5
515
330
503
100
AcDbEntity
  8
HATCH
  6
CONTINUOUS
 62
     5
100
AcDbTrace
 10
3056.054479074783
 20
3294.74885115023
 30
0.0
 11
2899.999996839948
 21
2900.000003669802
 31
0.0
 12
3068.782401136141
 22
3289.476773211588
 32
0.0
 13
3068.782401136141
 23
3289.476773211588
 33
0.0
210
0.0
220
0.0
230
1.0
  0
SOLID
  5
516
330
503
100
AcDbEntity
  8
HATCH
  6
CONTINUOUS
 62
     5
100
AcDbTrace
 10
3081.510323197498
 20
3294.74885115023
 30
0.0
 11
3068.782401136141
 21
3289.476773211588
 31
0.0
 12
3153.173603284233
 22
3290.520792736881
 32
0.0
 13
3153.173603284233
 23
3290.520792736881
 33
0.0
210
0.0
220
0.0
230
1.0
  0
SOLID
  5
517
330
503
100
AcDbEntity
  8
HATCH
  6
CONTINUOUS
 62
     5
100
AcDbTrace
 10
3075.853468948006
 20
3300.405705399723
 30
0.0
 11
3061.711333324275
 21
3300.405705399723
 31
0.0
 12
3068.782401136141
 22
3297.476773211588
 32
0.0
 13
3068.782401136141
 23
3297.476773211588
 33
0.0
  0
SOLID
  5
518
330
503
100
AcDbEntity
  8
HATCH
  6
CONTINUOUS
 62
     5
100
AcDbTrace
 10
3058.782401136141
 20
3307.476773211588
 30
0.0
 11
3061.711333324275
 21
3300.405705399723
 31
0.0
 12
3075.853468948006
 22
3300.405705399723
 32
0.0
 13
3075.853468948006
 23
3300.405705399723
 33
0.0
210
0.0
220
0.0
230
1.0
  0
SOLID
  5
519
330
503
100
AcDbEntity
  8
HATCH
  6
CONTINUOUS
 62
     5
100
AcDbTrace
 10
3050.782401136141
 20
3307.476773211588
 30
0.0
 11
2899.999996839948
 21
2900.000003669802
 31
0.0
 12
3056.054479074783
 22
3294.74885115023
 32
0.0
 13
3056.054479074783
 23
3294.74885115023
 33
0.0
210
0.0
220
0.0
230
1.0
  0
SOLID
  5
51A
330
503
100
AcDbEntity
  8
HATCH
  6
CONTINUOUS
 62
     5
100
AcDbTrace
 10
3086.782401136141
 20
3307.476773211588
 30
0.0
 11
3081.510323197498
 21
3294.74885115023
 31
0.0
 12
3153.173603284233
 22
3290.520792736881
 32
0.0
 13
3153.173603284233
 23
3290.520792736881
 33
0.0
210
0.0
220
0.0
230
1.0
  0
SOLID
  5
51B
330
503
100
AcDbEntity
  8
HATCH
  6
CONTINUOUS
 62
     5
100
AcDbTrace
 10
3086.782401136141
 20
3307.476773211588
 30
0.0
 11
3153.173603284233
 21
3290.520792736881
 31
0.0
 12
3252.141418520908
 22
3275.527861945344
 32
0.0
 13
3252.141418520908
 23
3275.527861945344
 33
0.0
210
0.0
220
0.0
230
1.0
  0
SOLID
  5
51C
330
503
100
AcDbEntity
  8
HATCH
  6
CONTINUOUS
 62
     5
100
AcDbTrace
 10
3078.782401136141
 20
3307.476773211588
 30
0.0
 11
3058.782401136141
 21
3307.476773211588
 31
0.0
 12
3075.853468948006
 22
3300.405705399723
 32
0.0
 13
3075.853468948006
 23
3300.405705399723
 33
0.0
  0
SOLID
  5
51D
330
503
100
AcDbEntity
  8
HATCH
  6
CONTINUOUS
 62
     5
100
AcDbTrace
 10
3233.689627299998
 20
3311.765993673149
 30
0.0
 11
3086.782401136141
 21
3307.476773211588
 31
0.0
 12
3252.141418520908
 22
3275.527861945344
 32
0.0
 13
3252.141418520908
 23
3275.527861945344
 33
0.0
  0
SOLID
  5
51E
330
503
100
AcDbEntity
  8
HATCH
  6
CONTINUOUS
 62
     5
100
AcDbTrace
 10
3061.711333324275
 20
3314.547841023454
 30
0.0
 11
3058.782401136141
 21
3307.476773211588
 31
0.0
 12
3078.782401136141
 22
3307.476773211588
 32
0.0
 13
3078.782401136141
 23
3307.476773211588
 33
0.0
210
0.0
220
0.0
230
1.0
  0
SOLID
  5
51F
330
503
100
AcDbEntity
  8
HATCH
  6
CONTINUOUS
 62
     5
100
AcDbTrace
 10
3075.853468948006
 20
3314.547841023454
 30
0.0
 11
3061.711333324275
 21
3314.547841023454
 31
0.0
 12
3078.782401136141
 22
3307.476773211588
 32
0.0
 13
3078.782401136141
 23
3307.476773211588
 33
0.0
  0
SOLID
  5
520
330
503
100
AcDbEntity
  8
HATCH
  6
CONTINUOUS
 62
     5
100
AcDbTrace
 10
3068.782401136141
 20
3317.476773211588
 30
0.0
 11
3061.711333324275
 21
3314.547841023454
 31
0.0
 12
3075.853468948006
 22
3314.547841023454
 32
0.0
 13
3075.853468948006
 23
3314.547841023454
 33
0.0
  0
SOLID
  5
521
330
503
100
AcDbEntity
  8
HATCH
  6
CONTINUOUS
 62
     5
100
AcDbTrace
 10
3081.510323197498
 20
3320.204695272946
 30
0.0
 11
3086.782401136141
 21
3307.476773211588
 31
0.0
 12
3233.689627299998
 22
3311.765993673149
 32
0.0
 13
3233.689627299998
 23
3311.765993673149
 33
0.0
210
0.0
220
0.0
230
1.0
  0
SOLID
  5
522
330
503
100
AcDbEntity
  8
HATCH
  6
CONTINUOUS
 62
     5
100
AcDbTrace
 10
2984.391198988051
 20
3324.432753686298
 30
0.0
 11
3050.782401136141
 21
3307.476773211588
 31
0.0
 12
3056.054479074783
 22
3320.204695272946
 32
0.0
 13
3056.054479074783
 23
3320.204695272946
 33
0.0
210
0.0
220
0.0
230
1.0
  0
SOLID
  5
523
330
503
100
AcDbEntity
  8
HATCH
  6
CONTINUOUS
 62
     5
100
AcDbTrace
 10
2984.391198988051
 20
3324.432753686298
 30
0.0
 11
2899.999996839948
 21
2900.000003669802
 31
0.0
 12
3050.782401136141
 22
3307.476773211588
 32
0.0
 13
3050.782401136141
 23
3307.476773211588
 33
0.0
210
0.0
220
0.0
230
1.0
  0
SOLID
  5
524
330
503
100
AcDbEntity
  8
HATCH
  6
CONTINUOUS
 62
     5
100
AcDbTrace
 10
3068.782401136141
 20
3325.476773211589
 30
0.0
 11
2984.391198988051
 21
3324.432753686298
 31
0.0
 12
3056.054479074783
 22
3320.204695272946
 32
0.0
 13
3056.054479074783
 23
3320.204695272946
 33
0.0
210
0.0
220
0.0
230
1.0
  0
SOLID
  5
525
330
503
100
AcDbEntity
  8
HATCH
  6
CONTINUOUS
 62
     5
100
AcDbTrace
 10
3068.782401136141
 20
3325.476773211589
 30
0.0
 11
3081.510323197498
 21
3320.204695272946
 31
0.0
 12
3233.689627299998
 22
3311.765993673149
 32
0.0
 13
3233.689627299998
 23
3311.765993673149
 33
0.0
210
0.0
220
0.0
230
1.0
  0
SOLID
  5
526
330
503
100
AcDbEntity
  8
HATCH
  6
CONTINUOUS
 62
     5
100
AcDbTrace
 10
2971.663276926694
 20
3329.70483162494
 30
0.0
 11
2899.999996839948
 21
2900.000003669802
 31
0.0
 12
2984.391198988051
 22
3324.432753686298
 32
0.0
 13
2984.391198988051
 23
3324.432753686298
 33
0.0
210
0.0
220
0.0
230
1.0
  0
SOLID
  5
527
330
503
100
AcDbEntity
  8
HATCH
  6
CONTINUOUS
 62
     5
100
AcDbTrace
 10
2997.119121049409
 20
3329.70483162494
 30
0.0
 11
2984.391198988051
 21
3324.432753686298
 31
0.0
 12
3068.782401136141
 22
3325.476773211589
 32
0.0
 13
3068.782401136141
 23
3325.476773211589
 33
0.0
210
0.0
220
0.0
230
1.0
  0
SOLID
  5
528
330
503
100
AcDbEntity
  8
HATCH
  6
CONTINUOUS
 62
     5
100
AcDbTrace
 10
2991.462266799916
 20
3335.361685874433
 30
0.0
 11
2977.320131176186
 21
3335.361685874433
 31
0.0
 12
2984.391198988051
 22
3332.432753686298
 32
0.0
 13
2984.391198988051
 23
3332.432753686298
 33
0.0
  0
SOLID
  5
529
330
503
100
AcDbEntity
  8
HATCH
  6
CONTINUOUS
 62
     5
100
AcDbTrace
 10
2974.391198988051
 20
3342.432753686298
 30
0.0
 11
2977.320131176186
 21
3335.361685874433
 31
0.0
 12
2991.462266799916
 22
3335.361685874433
 32
0.0
 13
2991.462266799916
 23
3335.361685874433
 33
0.0
210
0.0
220
0.0
230
1.0
  0
SOLID
  5
52A
330
503
100
AcDbEntity
  8
HATCH
  6
CONTINUOUS
 62
     5
100
AcDbTrace
 10
2966.391198988051
 20
3342.432753686298
 30
0.0
 11
2899.999996839948
 21
2900.000003669802
 31
0.0
 12
2971.663276926694
 22
3329.70483162494
 32
0.0
 13
2971.663276926694
 23
3329.70483162494
 33
0.0
210
0.0
220
0.0
230
1.0
  0
SOLID
  5
52B
330
503
100
AcDbEntity
  8
HATCH
  6
CONTINUOUS
 62
     5
100
AcDbTrace
 10
2994.391198988051
 20
3342.432753686298
 30
0.0
 11
2974.391198988051
 21
3342.432753686298
 31
0.0
 12
2991.462266799916
 22
3335.361685874433
 32
0.0
 13
2991.462266799916
 23
3335.361685874433
 33
0.0
  0
SOLID
  5
52C
330
503
100
AcDbEntity
  8
HATCH
  6
CONTINUOUS
 62
     5
100
AcDbTrace
 10
3002.391198988051
 20
3342.432753686298
 30
0.0
 11
2997.119121049409
 21
3329.70483162494
 31
0.0
 12
3068.782401136141
 22
3325.476773211589
 32
0.0
 13
3068.782401136141
 23
3325.476773211589
 33
0.0
210
0.0
220
0.0
230
1.0
  0
SOLID
  5
52D
330
503
100
AcDbEntity
  8
HATCH
  6
CONTINUOUS
 62
     5
100
AcDbTrace
 10
3002.391198988051
 20
3342.432753686298
 30
0.0
 11
3068.782401136141
 21
3325.476773211589
 31
0.0
 12
3233.689627299998
 22
3311.765993673149
 32
0.0
 13
3233.689627299998
 23
3311.765993673149
 33
0.0
210
0.0
220
0.0
230
1.0
  0
SOLID
  5
52E
330
503
100
AcDbEntity
  8
HATCH
  6
CONTINUOUS
 62
     5
100
AcDbTrace
 10
2977.320131176186
 20
3349.503821498164
 30
0.0
 11
2974.391198988051
 21
3342.432753686298
 31
0.0
 12
2994.391198988051
 22
3342.432753686298
 32
0.0
 13
2994.391198988051
 23
3342.432753686298
 33
0.0
210
0.0
220
0.0
230
1.0
  0
SOLID
  5
52F
330
503
100
AcDbEntity
  8
HATCH
  6
CONTINUOUS
 62
     5
100
AcDbTrace
 10
2991.462266799916
 20
3349.503821498164
 30
0.0
 11
2977.320131176186
 21
3349.503821498164
 31
0.0
 12
2994.391198988051
 22
3342.432753686298
 32
0.0
 13
2994.391198988051
 23
3342.432753686298
 33
0.0
  0
SOLID
  5
530
330
503
100
AcDbEntity
  8
HATCH
  6
CONTINUOUS
 62
     5
100
AcDbTrace
 10
2984.391198988051
 20
3352.432753686298
 30
0.0
 11
2977.320131176186
 21
3349.503821498164
 31
0.0
 12
2991.462266799916
 22
3349.503821498164
 32
0.0
 13
2991.462266799916
 23
3349.503821498164
 33
0.0
  0
SOLID
  5
531
330
503
100
AcDbEntity
  8
HATCH
  6
CONTINUOUS
 62
     5
100
AcDbTrace
 10
2997.119121049409
 20
3355.160675747656
 30
0.0
 11
3002.391198988051
 21
3342.432753686298
 31
0.0
 12
3233.689627299998
 22
3311.765993673149
 32
0.0
 13
3233.689627299998
 23
3311.765993673149
 33
0.0
210
0.0
220
0.0
230
1.0
  0
SOLID
  5
532
330
503
100
AcDbEntity
  8
HATCH
  6
CONTINUOUS
 62
     5
100
AcDbTrace
 10
2984.391198988051
 20
3360.432753686298
 30
0.0
 11
2997.119121049409
 21
3355.160675747656
 31
0.0
 12
3233.689627299998
 22
3311.765993673149
 32
0.0
 13
3233.689627299998
 23
3311.765993673149
 33
0.0
210
0.0
220
0.0
230
1.0
  0
SOLID
  5
533
330
503
100
AcDbEntity
  8
HATCH
  6
CONTINUOUS
 62
     5
100
AcDbTrace
 10
2899.999996839948
 20
3377.388734161004
 30
0.0
 11
2971.663276926694
 21
3355.160675747656
 31
0.0
 12
2984.391198988051
 22
3360.432753686298
 32
0.0
 13
2984.391198988051
 23
3360.432753686298
 33
0.0
210
0.0
220
0.0
230
1.0
  0
SOLID
  5
534
330
503
100
AcDbEntity
  8
HATCH
  6
CONTINUOUS
 62
     5
100
AcDbTrace
 10
2899.999996839948
 20
3377.388734161004
 30
0.0
 11
2966.391198988051
 21
3342.432753686298
 31
0.0
 12
2971.663276926694
 22
3355.160675747656
 32
0.0
 13
2971.663276926694
 23
3355.160675747656
 33
0.0
210
0.0
220
0.0
230
1.0
  0
SOLID
  5
535
330
503
100
AcDbEntity
  8
HATCH
  6
CONTINUOUS
 62
     5
100
AcDbTrace
 10
2899.999996839948
 20
3377.388734161004
 30
0.0
 11
2899.999996839948
 21
2900.000003669802
 31
0.0
 12
2966.391198988051
 22
3342.432753686298
 32
0.0
 13
2966.391198988051
 23
3342.432753686298
 33
0.0
210
0.0
220
0.0
230
1.0
  0
SOLID
  5
536
330
503
100
AcDbEntity
  8
HATCH
  6
CONTINUOUS
 62
     5
100
AcDbTrace
 10
3102.822220661294
 20
3389.656153967299
 30
0.0
 11
2899.999996839948
 21
3377.388734161004
 31
0.0
 12
2984.391198988051
 22
3360.432753686298
 32
0.0
 13
2984.391198988051
 23
3360.432753686298
 33
0.0
210
0.0
220
0.0
230
1.0
  0
SOLID
  5
537
330
503
100
AcDbEntity
  8
HATCH
  6
CONTINUOUS
 62
     5
100
AcDbTrace
 10
3102.822220661294
 20
3389.656153967299
 30
0.0
 11
2984.391198988051
 21
3360.432753686298
 31
0.0
 12
3233.689627299998
 22
3311.765993673149
 32
0.0
 13
3233.689627299998
 23
3311.765993673149
 33
0.0
210
0.0
220
0.0
230
1.0
  0
SOLID
  5
538
330
503
100
AcDbEntity
  8
HATCH
  6
CONTINUOUS
 62
     5
100
AcDbTrace
 10
2916.536708497847
 20
3414.539889369603
 30
0.0
 11
2899.999996839948
 21
3377.388734161004
 31
0.0
 12
3102.822220661294
 22
3389.656153967299
 32
0.0
 13
3102.822220661294
 23
3389.656153967299
 33
0.0
210
0.0
220
0.0
230
1.0
  0
SOLID
  5
539
330
503
100
AcDbEntity
  8
HATCH
  6
CONTINUOUS
 62
     5
100
AcDbTrace
 10
2955.208330173284
 20
3427.116726920504
 30
0.0
 11
2916.536708497847
 21
3414.539889369603
 31
0.0
 12
3102.822220661294
 22
3389.656153967299
 32
0.0
 13
3102.822220661294
 23
3389.656153967299
 33
0.0
210
0.0
220
0.0
230
1.0
  0
ENDBLK
  5
53B
330
503
100
AcDbEntity
  8
0
100
AcDbBlockEnd
  0
BLOCK
  5
573
330
53C
100
AcDbEntity
  8
0
100
AcDbBlockBegin
  2
*U10
 70
     1
 10
0.0
 20
0.0
 30
0.0
  3
*U10
  1

  0
SOLID
  5
53D
330
53C
100
AcDbEntity
  8
HATCH
  6
CONTINUOUS
 62
     5
100
AcDbTrace
 10
2646.826390395677
 20
3254.520792736887
 30
0.0
 11
2562.43518824758
 21
3237.564812262169
 31
0.0
 12
2899.999996839946
 22
2900.0000036698
 32
0.0
 13
2899.999996839946
 23
2900.0000036698
 33
0.0
  0
SOLID
  5
53E
330
53C
100
AcDbEntity
  8
HATCH
  6
CONTINUOUS
 62
     5
100
AcDbTrace
 10
2634.09846833432
 20
3259.79287067553
 30
0.0
 11
2562.43518824758
 21
3237.564812262169
 31
0.0
 12
2646.826390395677
 22
3254.520792736887
 32
0.0
 13
2646.826390395677
 23
3254.520792736887
 33
0.0
210
0.0
220
0.0
230
1.0
  0
SOLID
  5
53F
330
53C
100
AcDbEntity
  8
HATCH
  6
CONTINUOUS
 62
     5
100
AcDbTrace
 10
2659.554312457035
 20
3259.79287067553
 30
0.0
 11
2646.826390395677
 21
3254.520792736887
 31
0.0
 12
2899.999996839946
 22
2900.0000036698
 32
0.0
 13
2899.999996839946
 23
2900.0000036698
 33
0.0
210
0.0
220
0.0
230
1.0
  0
SOLID
  5
540
330
53C
100
AcDbEntity
  8
HATCH
  6
CONTINUOUS
 62
     5
100
AcDbTrace
 10
2653.897458207543
 20
3265.449724925022
 30
0.0
 11
2639.755322583812
 21
3265.449724925022
 31
0.0
 12
2646.826390395677
 22
3262.520792736887
 32
0.0
 13
2646.826390395677
 23
3262.520792736887
 33
0.0
  0
SOLID
  5
541
330
53C
100
AcDbEntity
  8
HATCH
  6
CONTINUOUS
 62
     5
100
AcDbTrace
 10
2636.826390395677
 20
3272.520792736887
 30
0.0
 11
2639.755322583812
 21
3265.449724925022
 31
0.0
 12
2653.897458207543
 22
3265.449724925022
 32
0.0
 13
2653.897458207543
 23
3265.449724925022
 33
0.0
210
0.0
220
0.0
230
1.0
  0
SOLID
  5
542
330
53C
100
AcDbEntity
  8
HATCH
  6
CONTINUOUS
 62
     5
100
AcDbTrace
 10
2628.826390395678
 20
3272.520792736887
 30
0.0
 11
2562.43518824758
 21
3237.564812262169
 31
0.0
 12
2634.09846833432
 22
3259.79287067553
 32
0.0
 13
2634.09846833432
 23
3259.79287067553
 33
0.0
210
0.0
220
0.0
230
1.0
  0
SOLID
  5
543
330
53C
100
AcDbEntity
  8
HATCH
  6
CONTINUOUS
 62
     5
100
AcDbTrace
 10
2656.826390395677
 20
3272.520792736887
 30
0.0
 11
2636.826390395677
 21
3272.520792736887
 31
0.0
 12
2653.897458207543
 22
3265.449724925022
 32
0.0
 13
2653.897458207543
 23
3265.449724925022
 33
0.0
  0
SOLID
  5
544
330
53C
100
AcDbEntity
  8
HATCH
  6
CONTINUOUS
 62
     5
100
AcDbTrace
 10
2664.826390395678
 20
3272.520792736887
 30
0.0
 11
2659.554312457035
 21
3259.79287067553
 31
0.0
 12
2899.999996839946
 22
2900.0000036698
 32
0.0
 13
2899.999996839946
 23
2900.0000036698
 33
0.0
210
0.0
220
0.0
230
1.0
  0
SOLID
  5
545
330
53C
100
AcDbEntity
  8
HATCH
  6
CONTINUOUS
 62
     5
100
AcDbTrace
 10
2547.858575422493
 20
3275.527866990909
 30
0.0
 11
2562.43518824758
 21
3237.564812262169
 31
0.0
 12
2628.826390395678
 22
3272.520792736887
 32
0.0
 13
2628.826390395678
 23
3272.520792736887
 33
0.0
210
0.0
220
0.0
230
1.0
  0
SOLID
  5
546
330
53C
100
AcDbEntity
  8
HATCH
  6
CONTINUOUS
 62
     5
100
AcDbTrace
 10
2639.755322583812
 20
3279.591860548753
 30
0.0
 11
2636.826390395677
 21
3272.520792736887
 31
0.0
 12
2656.826390395677
 22
3272.520792736887
 32
0.0
 13
2656.826390395677
 23
3272.520792736887
 33
0.0
210
0.0
220
0.0
230
1.0
  0
SOLID
  5
547
330
53C
100
AcDbEntity
  8
HATCH
  6
CONTINUOUS
 62
     5
100
AcDbTrace
 10
2653.897458207543
 20
3279.591860548753
 30
0.0
 11
2639.755322583812
 21
3279.591860548753
 31
0.0
 12
2656.826390395677
 22
3272.520792736887
 32
0.0
 13
2656.826390395677
 23
3272.520792736887
 33
0.0
  0
SOLID
  5
548
330
53C
100
AcDbEntity
  8
HATCH
  6
CONTINUOUS
 62
     5
100
AcDbTrace
 10
2646.826390395677
 20
3282.520792736888
 30
0.0
 11
2639.755322583812
 21
3279.591860548753
 31
0.0
 12
2653.897458207543
 22
3279.591860548753
 32
0.0
 13
2653.897458207543
 23
3279.591860548753
 33
0.0
  0
SOLID
  5
549
330
53C
100
AcDbEntity
  8
HATCH
  6
CONTINUOUS
 62
     5
100
AcDbTrace
 10
2634.09846833432
 20
3285.248714798246
 30
0.0
 11
2547.858575422493
 21
3275.527866990909
 31
0.0
 12
2628.826390395678
 22
3272.520792736887
 32
0.0
 13
2628.826390395678
 23
3272.520792736887
 33
0.0
210
0.0
220
0.0
230
1.0
  0
SOLID
  5
54A
330
53C
100
AcDbEntity
  8
HATCH
  6
CONTINUOUS
 62
     5
100
AcDbTrace
 10
2659.554312457035
 20
3285.248714798246
 30
0.0
 11
2664.826390395678
 21
3272.520792736887
 31
0.0
 12
2899.999996839946
 22
2900.0000036698
 32
0.0
 13
2899.999996839946
 23
2900.0000036698
 33
0.0
210
0.0
220
0.0
230
1.0
  0
SOLID
  5
54B
330
53C
100
AcDbEntity
  8
HATCH
  6
CONTINUOUS
 62
     5
100
AcDbTrace
 10
2731.217592543768
 20
3289.476773211594
 30
0.0
 11
2659.554312457035
 21
3285.248714798246
 31
0.0
 12
2899.999996839946
 22
2900.0000036698
 32
0.0
 13
2899.999996839946
 23
2900.0000036698
 33
0.0
210
0.0
220
0.0
230
1.0
  0
SOLID
  5
54C
330
53C
100
AcDbEntity
  8
HATCH
  6
CONTINUOUS
 62
     5
100
AcDbTrace
 10
2646.826390395677
 20
3290.520792736888
 30
0.0
 11
2547.858575422493
 21
3275.527866990909
 31
0.0
 12
2634.09846833432
 22
3285.248714798246
 32
0.0
 13
2634.09846833432
 23
3285.248714798246
 33
0.0
210
0.0
220
0.0
230
1.0
  0
SOLID
  5
54D
330
53C
100
AcDbEntity
  8
HATCH
  6
CONTINUOUS
 62
     5
100
AcDbTrace
 10
2646.826390395677
 20
3290.520792736888
 30
0.0
 11
2659.554312457035
 21
3285.248714798246
 31
0.0
 12
2731.217592543768
 22
3289.476773211594
 32
0.0
 13
2731.217592543768
 23
3289.476773211594
 33
0.0
210
0.0
220
0.0
230
1.0
  0
SOLID
  5
54E
330
53C
100
AcDbEntity
  8
HATCH
  6
CONTINUOUS
 62
     5
100
AcDbTrace
 10
2718.48967048241
 20
3294.748851150237
 30
0.0
 11
2646.826390395677
 21
3290.520792736888
 31
0.0
 12
2731.217592543768
 22
3289.476773211594
 32
0.0
 13
2731.217592543768
 23
3289.476773211594
 33
0.0
  0
SOLID
  5
54F
330
53C
100
AcDbEntity
  8
HATCH
  6
CONTINUOUS
 62
     5
100
AcDbTrace
 10
2743.945514605126
 20
3294.748851150237
 30
0.0
 11
2731.217592543768
 21
3289.476773211594
 31
0.0
 12
2899.999996839946
 22
2900.0000036698
 32
0.0
 13
2899.999996839946
 23
2900.0000036698
 33
0.0
210
0.0
220
0.0
230
1.0
  0
SOLID
  5
550
330
53C
100
AcDbEntity
  8
HATCH
  6
CONTINUOUS
 62
     5
100
AcDbTrace
 10
2738.288660355634
 20
3300.405705399729
 30
0.0
 11
2724.146524731903
 21
3300.405705399729
 31
0.0
 12
2731.217592543768
 22
3297.476773211595
 32
0.0
 13
2731.217592543768
 23
3297.476773211595
 33
0.0
  0
SOLID
  5
551
330
53C
100
AcDbEntity
  8
HATCH
  6
CONTINUOUS
 62
     5
100
AcDbTrace
 10
2721.217592543768
 20
3307.476773211594
 30
0.0
 11
2724.146524731903
 21
3300.405705399729
 31
0.0
 12
2738.288660355634
 22
3300.405705399729
 32
0.0
 13
2738.288660355634
 23
3300.405705399729
 33
0.0
210
0.0
220
0.0
230
1.0
  0
SOLID
  5
552
330
53C
100
AcDbEntity
  8
HATCH
  6
CONTINUOUS
 62
     5
100
AcDbTrace
 10
2713.217592543768
 20
3307.476773211594
 30
0.0
 11
2646.826390395677
 21
3290.520792736888
 31
0.0
 12
2718.48967048241
 22
3294.748851150237
 32
0.0
 13
2718.48967048241
 23
3294.748851150237
 33
0.0
210
0.0
220
0.0
230
1.0
  0
SOLID
  5
553
330
53C
100
AcDbEntity
  8
HATCH
  6
CONTINUOUS
 62
     5
100
AcDbTrace
 10
2713.217592543768
 20
3307.476773211594
 30
0.0
 11
2547.858575422493
 21
3275.527866990909
 31
0.0
 12
2646.826390395677
 22
3290.520792736888
 32
0.0
 13
2646.826390395677
 23
3290.520792736888
 33
0.0
210
0.0
220
0.0
230
1.0
  0
SOLID
  5
554
330
53C
100
AcDbEntity
  8
HATCH
  6
CONTINUOUS
 62
     5
100
AcDbTrace
 10
2741.217592543768
 20
3307.476773211594
 30
0.0
 11
2721.217592543768
 21
3307.476773211594
 31
0.0
 12
2738.288660355634
 22
3300.405705399729
 32
0.0
 13
2738.288660355634
 23
3300.405705399729
 33
0.0
  0
SOLID
  5
555
330
53C
100
AcDbEntity
  8
HATCH
  6
CONTINUOUS
 62
     5
100
AcDbTrace
 10
2749.217592543768
 20
3307.476773211594
 30
0.0
 11
2743.945514605126
 21
3294.748851150237
 31
0.0
 12
2899.999996839946
 22
2900.0000036698
 32
0.0
 13
2899.999996839946
 23
2900.0000036698
 33
0.0
210
0.0
220
0.0
230
1.0
  0
SOLID
  5
556
330
53C
100
AcDbEntity
  8
HATCH
  6
CONTINUOUS
 62
     5
100
AcDbTrace
 10
2566.310374230551
 20
3311.766000035216
 30
0.0
 11
2547.858575422493
 21
3275.527866990909
 31
0.0
 12
2713.217592543768
 22
3307.476773211594
 32
0.0
 13
2713.217592543768
 23
3307.476773211594
 33
0.0
210
0.0
220
0.0
230
1.0
  0
SOLID
  5
557
330
53C
100
AcDbEntity
  8
HATCH
  6
CONTINUOUS
 62
     5
100
AcDbTrace
 10
2724.146524731903
 20
3314.54784102346
 30
0.0
 11
2721.217592543768
 21
3307.476773211594
 31
0.0
 12
2741.217592543768
 22
3307.476773211594
 32
0.0
 13
2741.217592543768
 23
3307.476773211594
 33
0.0
210
0.0
220
0.0
230
1.0
  0
SOLID
  5
558
330
53C
100
AcDbEntity
  8
HATCH
  6
CONTINUOUS
 62
     5
100
AcDbTrace
 10
2738.288660355634
 20
3314.54784102346
 30
0.0
 11
2724.146524731903
 21
3314.54784102346
 31
0.0
 12
2741.217592543768
 22
3307.476773211594
 32
0.0
 13
2741.217592543768
 23
3307.476773211594
 33
0.0
  0
SOLID
  5
559
330
53C
100
AcDbEntity
  8
HATCH
  6
CONTINUOUS
 62
     5
100
AcDbTrace
 10
2731.217592543768
 20
3317.476773211594
 30
0.0
 11
2724.146524731903
 21
3314.54784102346
 31
0.0
 12
2738.288660355634
 22
3314.54784102346
 32
0.0
 13
2738.288660355634
 23
3314.54784102346
 33
0.0
  0
SOLID
  5
55A
330
53C
100
AcDbEntity
  8
HATCH
  6
CONTINUOUS
 62
     5
100
AcDbTrace
 10
2718.48967048241
 20
3320.204695272952
 30
0.0
 11
2566.310374230551
 21
3311.766000035216
 31
0.0
 12
2713.217592543768
 22
3307.476773211594
 32
0.0
 13
2713.217592543768
 23
3307.476773211594
 33
0.0
210
0.0
220
0.0
230
1.0
  0
SOLID
  5
55B
330
53C
100
AcDbEntity
  8
HATCH
  6
CONTINUOUS
 62
     5
100
AcDbTrace
 10
2815.608794691859
 20
3324.432753686305
 30
0.0
 11
2743.945514605126
 21
3320.204695272952
 31
0.0
 12
2749.217592543768
 22
3307.476773211594
 32
0.0
 13
2749.217592543768
 23
3307.476773211594
 33
0.0
210
0.0
220
0.0
230
1.0
  0
SOLID
  5
55C
330
53C
100
AcDbEntity
  8
HATCH
  6
CONTINUOUS
 62
     5
100
AcDbTrace
 10
2815.608794691859
 20
3324.432753686305
 30
0.0
 11
2749.217592543768
 21
3307.476773211594
 31
0.0
 12
2899.999996839946
 22
2900.0000036698
 32
0.0
 13
2899.999996839946
 23
2900.0000036698
 33
0.0
210
0.0
220
0.0
230
1.0
  0
SOLID
  5
55D
330
53C
100
AcDbEntity
  8
HATCH
  6
CONTINUOUS
 62
     5
100
AcDbTrace
 10
2731.217592543768
 20
3325.476773211595
 30
0.0
 11
2566.310374230551
 21
3311.766000035216
 31
0.0
 12
2718.48967048241
 22
3320.204695272952
 32
0.0
 13
2718.48967048241
 23
3320.204695272952
 33
0.0
  0
SOLID
  5
55E
330
53C
100
AcDbEntity
  8
HATCH
  6
CONTINUOUS
 62
     5
100
AcDbTrace
 10
2731.217592543768
 20
3325.476773211595
 30
0.0
 11
2743.945514605126
 21
3320.204695272952
 31
0.0
 12
2815.608794691859
 22
3324.432753686305
 32
0.0
 13
2815.608794691859
 23
3324.432753686305
 33
0.0
  0
SOLID
  5
55F
330
53C
100
AcDbEntity
  8
HATCH
  6
CONTINUOUS
 62
     5
100
AcDbTrace
 10
2802.880872630502
 20
3329.704831624948
 30
0.0
 11
2731.217592543768
 21
3325.476773211595
 31
0.0
 12
2815.608794691859
 22
3324.432753686305
 32
0.0
 13
2815.608794691859
 23
3324.432753686305
 33
0.0
210
0.0
220
0.0
230
1.0
  0
SOLID
  5
560
330
53C
100
AcDbEntity
  8
HATCH
  6
CONTINUOUS
 62
     5
100
AcDbTrace
 10
2828.336716753217
 20
3329.704831624948
 30
0.0
 11
2815.608794691859
 21
3324.432753686305
 31
0.0
 12
2899.999996839946
 22
2900.0000036698
 32
0.0
 13
2899.999996839946
 23
2900.0000036698
 33
0.0
210
0.0
220
0.0
230
1.0
  0
SOLID
  5
561
330
53C
100
AcDbEntity
  8
HATCH
  6
CONTINUOUS
 62
     5
100
AcDbTrace
 10
2822.679862503725
 20
3335.36168587444
 30
0.0
 11
2808.537726879994
 21
3335.36168587444
 31
0.0
 12
2815.608794691859
 22
3332.432753686306
 32
0.0
 13
2815.608794691859
 23
3332.432753686306
 33
0.0
  0
SOLID
  5
562
330
53C
100
AcDbEntity
  8
HATCH
  6
CONTINUOUS
 62
     5
100
AcDbTrace
 10
2805.60879469186
 20
3342.432753686306
 30
0.0
 11
2808.537726879994
 21
3335.36168587444
 31
0.0
 12
2822.679862503725
 22
3335.36168587444
 32
0.0
 13
2822.679862503725
 23
3335.36168587444
 33
0.0
210
0.0
220
0.0
230
1.0
  0
SOLID
  5
563
330
53C
100
AcDbEntity
  8
HATCH
  6
CONTINUOUS
 62
     5
100
AcDbTrace
 10
2797.608794691859
 20
3342.432753686306
 30
0.0
 11
2731.217592543768
 21
3325.476773211595
 31
0.0
 12
2802.880872630502
 22
3329.704831624948
 32
0.0
 13
2802.880872630502
 23
3329.704831624948
 33
0.0
210
0.0
220
0.0
230
1.0
  0
SOLID
  5
564
330
53C
100
AcDbEntity
  8
HATCH
  6
CONTINUOUS
 62
     5
100
AcDbTrace
 10
2797.608794691859
 20
3342.432753686306
 30
0.0
 11
2566.310374230551
 21
3311.766000035216
 31
0.0
 12
2731.217592543768
 22
3325.476773211595
 32
0.0
 13
2731.217592543768
 23
3325.476773211595
 33
0.0
210
0.0
220
0.0
230
1.0
  0
SOLID
  5
565
330
53C
100
AcDbEntity
  8
HATCH
  6
CONTINUOUS
 62
     5
100
AcDbTrace
 10
2825.608794691859
 20
3342.432753686306
 30
0.0
 11
2805.60879469186
 21
3342.432753686306
 31
0.0
 12
2822.679862503725
 22
3335.36168587444
 32
0.0
 13
2822.679862503725
 23
3335.36168587444
 33
0.0
  0
SOLID
  5
566
330
53C
100
AcDbEntity
  8
HATCH
  6
CONTINUOUS
 62
     5
100
AcDbTrace
 10
2833.608794691859
 20
3342.432753686306
 30
0.0
 11
2828.336716753217
 21
3329.704831624948
 31
0.0
 12
2899.999996839946
 22
2900.0000036698
 32
0.0
 13
2899.999996839946
 23
2900.0000036698
 33
0.0
210
0.0
220
0.0
230
1.0
  0
SOLID
  5
567
330
53C
100
AcDbEntity
  8
HATCH
  6
CONTINUOUS
 62
     5
100
AcDbTrace
 10
2808.537726879994
 20
3349.503821498171
 30
0.0
 11
2805.60879469186
 21
3342.432753686306
 31
0.0
 12
2825.608794691859
 22
3342.432753686306
 32
0.0
 13
2825.608794691859
 23
3342.432753686306
 33
0.0
210
0.0
220
0.0
230
1.0
  0
SOLID
  5
568
330
53C
100
AcDbEntity
  8
HATCH
  6
CONTINUOUS
 62
     5
100
AcDbTrace
 10
2822.679862503725
 20
3349.503821498171
 30
0.0
 11
2808.537726879994
 21
3349.503821498171
 31
0.0
 12
2825.608794691859
 22
3342.432753686306
 32
0.0
 13
2825.608794691859
 23
3342.432753686306
 33
0.0
  0
SOLID
  5
569
330
53C
100
AcDbEntity
  8
HATCH
  6
CONTINUOUS
 62
     5
100
AcDbTrace
 10
2815.608794691859
 20
3352.432753686305
 30
0.0
 11
2808.537726879994
 21
3349.503821498171
 31
0.0
 12
2822.679862503725
 22
3349.503821498171
 32
0.0
 13
2822.679862503725
 23
3349.503821498171
 33
0.0
  0
SOLID
  5
56A
330
53C
100
AcDbEntity
  8
HATCH
  6
CONTINUOUS
 62
     5
100
AcDbTrace
 10
2802.880872630502
 20
3355.160675747663
 30
0.0
 11
2566.310374230551
 21
3311.766000035216
 31
0.0
 12
2797.608794691859
 22
3342.432753686306
 32
0.0
 13
2797.608794691859
 23
3342.432753686306
 33
0.0
210
0.0
220
0.0
230
1.0
  0
SOLID
  5
56B
330
53C
100
AcDbEntity
  8
HATCH
  6
CONTINUOUS
 62
     5
100
AcDbTrace
 10
2815.608794691859
 20
3360.432753686306
 30
0.0
 11
2566.310374230551
 21
3311.766000035216
 31
0.0
 12
2802.880872630502
 22
3355.160675747663
 32
0.0
 13
2802.880872630502
 23
3355.160675747663
 33
0.0
  0
SOLID
  5
56C
330
53C
100
AcDbEntity
  8
HATCH
  6
CONTINUOUS
 62
     5
100
AcDbTrace
 10
2899.999996839947
 20
3377.388734161005
 30
0.0
 11
2815.608794691859
 21
3360.432753686306
 31
0.0
 12
2828.336716753217
 22
3355.160675747663
 32
0.0
 13
2828.336716753217
 23
3355.160675747663
 33
0.0
210
0.0
220
0.0
230
1.0
  0
SOLID
  5
56D
330
53C
100
AcDbEntity
  8
HATCH
  6
CONTINUOUS
 62
     5
100
AcDbTrace
 10
2899.999996839947
 20
3377.388734161005
 30
0.0
 11
2828.336716753217
 21
3355.160675747663
 31
0.0
 12
2833.608794691859
 22
3342.432753686306
 32
0.0
 13
2833.608794691859
 23
3342.432753686306
 33
0.0
210
0.0
220
0.0
230
1.0
  0
SOLID
  5
56E
330
53C
100
AcDbEntity
  8
HATCH
  6
CONTINUOUS
 62
     5
100
AcDbTrace
 10
2899.999996839947
 20
3377.388734161005
 30
0.0
 11
2833.608794691859
 21
3342.432753686306
 31
0.0
 12
2899.999996839946
 22
2900.0000036698
 32
0.0
 13
2899.999996839946
 23
2900.0000036698
 33
0.0
210
0.0
220
0.0
230
1.0
  0
SOLID
  5
56F
330
53C
100
AcDbEntity
  8
HATCH
  6
CONTINUOUS
 62
     5
100
AcDbTrace
 10
2697.17777768645
 20
3389.656155900787
 30
0.0
 11
2815.608794691859
 21
3360.432753686306
 31
0.0
 12
2899.999996839947
 22
3377.388734161005
 32
0.0
 13
2899.999996839947
 23
3377.388734161005
 33
0.0
210
0.0
220
0.0
230
1.0
  0
SOLID
  5
570
330
53C
100
AcDbEntity
  8
HATCH
  6
CONTINUOUS
 62
     5
100
AcDbTrace
 10
2697.17777768645
 20
3389.656155900787
 30
0.0
 11
2566.310374230551
 21
3311.766000035216
 31
0.0
 12
2815.608794691859
 22
3360.432753686306
 32
0.0
 13
2815.608794691859
 23
3360.432753686306
 33
0.0
210
0.0
220
0.0
230
1.0
  0
SOLID
  5
571
330
53C
100
AcDbEntity
  8
HATCH
  6
CONTINUOUS
 62
     5
100
AcDbTrace
 10
2883.463285182049
 20
3414.539889369603
 30
0.0
 11
2697.17777768645
 21
3389.656155900787
 31
0.0
 12
2899.999996839947
 22
3377.388734161005
 32
0.0
 13
2899.999996839947
 23
3377.388734161005
 33
0.0
  0
SOLID
  5
572
330
53C
100
AcDbEntity
  8
HATCH
  6
CONTINUOUS
 62
     5
100
AcDbTrace
 10
2844.791663506614
 20
3427.116726920505
 30
0.0
 11
2697.17777768645
 21
3389.656155900787
 31
0.0
 12
2883.463285182049
 22
3414.539889369603
 32
0.0
 13
2883.463285182049
 23
3414.539889369603
 33
0.0
210
0.0
220
0.0
230
1.0
  0
ENDBLK
  5
574
330
53C
100
AcDbEntity
  8
0
100
AcDbBlockEnd
  0
BLOCK
  5
5AC
330
575
100
AcDbEntity
  8
0
100
AcDbBlockBegin
  2
*U11
 70
     1
 10
0.0
 20
0.0
 30
0.0
  3
*U11
  1

  0
SOLID
  5
576
330
575
100
AcDbEntity
  8
HATCH
  6
CONTINUOUS
 62
     5
100
AcDbTrace
 10
2385.460111140144
 20
2916.536715327699
 30
0.0
 11
2422.611266348743
 21
2900.0000036698
 31
0.0
 12
2899.999996839945
 22
2900.000003669799
 32
0.0
 13
2899.999996839945
 23
2900.000003669799
 33
0.0
210
0.0
220
0.0
230
1.0
  0
SOLID
  5
577
330
575
100
AcDbEntity
  8
HATCH
  6
CONTINUOUS
 62
     5
100
AcDbTrace
 10
2372.883273589244
 20
2955.208337003136
 30
0.0
 11
2385.460111140144
 21
2916.536715327699
 31
0.0
 12
2899.999996839945
 22
2900.000003669799
 32
0.0
 13
2899.999996839945
 23
2900.000003669799
 33
0.0
210
0.0
220
0.0
230
1.0
  0
SOLID
  5
578
330
575
100
AcDbEntity
  8
HATCH
  6
CONTINUOUS
 62
     5
100
AcDbTrace
 10
2457.567246823449
 20
2966.391205817902
 30
0.0
 11
2372.883273589244
 21
2955.208337003136
 31
0.0
 12
2899.999996839945
 22
2900.000003669799
 32
0.0
 13
2899.999996839945
 23
2900.000003669799
 33
0.0
210
0.0
220
0.0
230
1.0
  0
SOLID
  5
579
330
575
100
AcDbEntity
  8
HATCH
  6
CONTINUOUS
 62
     5
100
AcDbTrace
 10
2444.839324762091
 20
2971.663283756544
 30
0.0
 11
2372.883273589244
 21
2955.208337003136
 31
0.0
 12
2457.567246823449
 22
2966.391205817902
 32
0.0
 13
2457.567246823449
 23
2966.391205817902
 33
0.0
  0
SOLID
  5
57A
330
575
100
AcDbEntity
  8
HATCH
  6
CONTINUOUS
 62
     5
100
AcDbTrace
 10
2470.295168884806
 20
2971.663283756544
 30
0.0
 11
2457.567246823449
 21
2966.391205817902
 31
0.0
 12
2899.999996839945
 22
2900.000003669799
 32
0.0
 13
2899.999996839945
 23
2900.000003669799
 33
0.0
210
0.0
220
0.0
230
1.0
  0
SOLID
  5
57B
330
575
100
AcDbEntity
  8
HATCH
  6
CONTINUOUS
 62
     5
100
AcDbTrace
 10
2464.638314635314
 20
2977.320138006037
 30
0.0
 11
2450.496179011583
 21
2977.320138006037
 31
0.0
 12
2457.567246823449
 22
2974.391205817902
 32
0.0
 13
2457.567246823449
 23
2974.391205817902
 33
0.0
  0
SOLID
  5
57C
330
575
100
AcDbEntity
  8
HATCH
  6
CONTINUOUS
 62
     5
100
AcDbTrace
 10
2439.567246823449
 20
2984.391205817902
 30
0.0
 11
2372.883273589244
 21
2955.208337003136
 31
0.0
 12
2444.839324762091
 22
2971.663283756544
 32
0.0
 13
2444.839324762091
 23
2971.663283756544
 33
0.0
  0
SOLID
  5
57D
330
575
100
AcDbEntity
  8
HATCH
  6
CONTINUOUS
 62
     5
100
AcDbTrace
 10
2447.567246823449
 20
2984.391205817902
 30
0.0
 11
2450.496179011583
 21
2977.320138006037
 31
0.0
 12
2464.638314635314
 22
2977.320138006037
 32
0.0
 13
2464.638314635314
 23
2977.320138006037
 33
0.0
210
0.0
220
0.0
230
1.0
  0
SOLID
  5
57E
330
575
100
AcDbEntity
  8
HATCH
  6
CONTINUOUS
 62
     5
100
AcDbTrace
 10
2475.567246823449
 20
2984.391205817902
 30
0.0
 11
2470.295168884806
 21
2971.663283756544
 31
0.0
 12
2899.999996839945
 22
2900.000003669799
 32
0.0
 13
2899.999996839945
 23
2900.000003669799
 33
0.0
210
0.0
220
0.0
230
1.0
  0
SOLID
  5
57F
330
575
100
AcDbEntity
  8
HATCH
  6
CONTINUOUS
 62
     5
100
AcDbTrace
 10
2467.567246823449
 20
2984.391205817902
 30
0.0
 11
2447.567246823449
 21
2984.391205817902
 31
0.0
 12
2464.638314635314
 22
2977.320138006037
 32
0.0
 13
2464.638314635314
 23
2977.320138006037
 33
0.0
  0
SOLID
  5
580
330
575
100
AcDbEntity
  8
HATCH
  6
CONTINUOUS
 62
     5
100
AcDbTrace
 10
2450.496179011583
 20
2991.462273629768
 30
0.0
 11
2447.567246823449
 21
2984.391205817902
 31
0.0
 12
2467.567246823449
 22
2984.391205817902
 32
0.0
 13
2467.567246823449
 23
2984.391205817902
 33
0.0
210
0.0
220
0.0
230
1.0
  0
SOLID
  5
581
330
575
100
AcDbEntity
  8
HATCH
  6
CONTINUOUS
 62
     5
100
AcDbTrace
 10
2464.638314635314
 20
2991.462273629768
 30
0.0
 11
2450.496179011583
 21
2991.462273629768
 31
0.0
 12
2467.567246823449
 22
2984.391205817902
 32
0.0
 13
2467.567246823449
 23
2984.391205817902
 33
0.0
  0
SOLID
  5
582
330
575
100
AcDbEntity
  8
HATCH
  6
CONTINUOUS
 62
     5
100
AcDbTrace
 10
2457.567246823449
 20
2994.391205817903
 30
0.0
 11
2450.496179011583
 21
2991.462273629768
 31
0.0
 12
2464.638314635314
 22
2991.462273629768
 32
0.0
 13
2464.638314635314
 23
2991.462273629768
 33
0.0
  0
SOLID
  5
583
330
575
100
AcDbEntity
  8
HATCH
  6
CONTINUOUS
 62
     5
100
AcDbTrace
 10
2444.839324762091
 20
2997.11912787926
 30
0.0
 11
2372.883273589244
 21
2955.208337003136
 31
0.0
 12
2439.567246823449
 22
2984.391205817902
 32
0.0
 13
2439.567246823449
 23
2984.391205817902
 33
0.0
  0
SOLID
  5
584
330
575
100
AcDbEntity
  8
HATCH
  6
CONTINUOUS
 62
     5
100
AcDbTrace
 10
2470.295168884806
 20
2997.11912787926
 30
0.0
 11
2475.567246823449
 21
2984.391205817902
 31
0.0
 12
2899.999996839945
 22
2900.000003669799
 32
0.0
 13
2899.999996839945
 23
2900.000003669799
 33
0.0
210
0.0
220
0.0
230
1.0
  0
SOLID
  5
585
330
575
100
AcDbEntity
  8
HATCH
  6
CONTINUOUS
 62
     5
100
AcDbTrace
 10
2457.567246823449
 20
3002.391205817902
 30
0.0
 11
2470.295168884806
 21
2997.11912787926
 31
0.0
 12
2899.999996839945
 22
2900.000003669799
 32
0.0
 13
2899.999996839945
 23
2900.000003669799
 33
0.0
210
0.0
220
0.0
230
1.0
  0
SOLID
  5
586
330
575
100
AcDbEntity
  8
HATCH
  6
CONTINUOUS
 62
     5
100
AcDbTrace
 10
2492.523227298159
 20
3050.782407965992
 30
0.0
 11
2457.567246823449
 21
3002.391205817902
 31
0.0
 12
2899.999996839945
 22
2900.000003669799
 32
0.0
 13
2899.999996839945
 23
2900.000003669799
 33
0.0
210
0.0
220
0.0
230
1.0
  0
SOLID
  5
587
330
575
100
AcDbEntity
  8
HATCH
  6
CONTINUOUS
 62
     5
100
AcDbTrace
 10
2492.523227298159
 20
3050.782407965992
 30
0.0
 11
2444.839324762091
 21
2997.11912787926
 31
0.0
 12
2457.567246823449
 22
3002.391205817902
 32
0.0
 13
2457.567246823449
 23
3002.391205817902
 33
0.0
210
0.0
220
0.0
230
1.0
  0
SOLID
  5
588
330
575
100
AcDbEntity
  8
HATCH
  6
CONTINUOUS
 62
     5
100
AcDbTrace
 10
2492.523227298159
 20
3050.782407965992
 30
0.0
 11
2372.883273589244
 21
2955.208337003136
 31
0.0
 12
2444.839324762091
 22
2997.11912787926
 32
0.0
 13
2444.839324762091
 23
2997.11912787926
 33
0.0
210
0.0
220
0.0
230
1.0
  0
SOLID
  5
589
330
575
100
AcDbEntity
  8
HATCH
  6
CONTINUOUS
 62
     5
100
AcDbTrace
 10
2479.795305236801
 20
3056.054485904634
 30
0.0
 11
2372.883273589244
 21
2955.208337003136
 31
0.0
 12
2492.523227298159
 22
3050.782407965992
 32
0.0
 13
2492.523227298159
 23
3050.782407965992
 33
0.0
210
0.0
220
0.0
230
1.0
  0
SOLID
  5
58A
330
575
100
AcDbEntity
  8
HATCH
  6
CONTINUOUS
 62
     5
100
AcDbTrace
 10
2505.251149359516
 20
3056.054485904634
 30
0.0
 11
2492.523227298159
 21
3050.782407965992
 31
0.0
 12
2899.999996839945
 22
2900.000003669799
 32
0.0
 13
2899.999996839945
 23
2900.000003669799
 33
0.0
210
0.0
220
0.0
230
1.0
  0
SOLID
  5
58B
330
575
100
AcDbEntity
  8
HATCH
  6
CONTINUOUS
 62
     5
100
AcDbTrace
 10
2499.594295110024
 20
3061.711340154127
 30
0.0
 11
2485.452159486293
 21
3061.711340154127
 31
0.0
 12
2492.523227298159
 22
3058.782407965992
 32
0.0
 13
2492.523227298159
 23
3058.782407965992
 33
0.0
  0
SOLID
  5
58C
330
575
100
AcDbEntity
  8
HATCH
  6
CONTINUOUS
 62
     5
100
AcDbTrace
 10
2474.523227298158
 20
3068.782407965992
 30
0.0
 11
2372.883273589244
 21
2955.208337003136
 31
0.0
 12
2479.795305236801
 22
3056.054485904634
 32
0.0
 13
2479.795305236801
 23
3056.054485904634
 33
0.0
210
0.0
220
0.0
230
1.0
  0
SOLID
  5
58D
330
575
100
AcDbEntity
  8
HATCH
  6
CONTINUOUS
 62
     5
100
AcDbTrace
 10
2482.523227298159
 20
3068.782407965992
 30
0.0
 11
2485.452159486293
 21
3061.711340154127
 31
0.0
 12
2499.594295110024
 22
3061.711340154127
 32
0.0
 13
2499.594295110024
 23
3061.711340154127
 33
0.0
210
0.0
220
0.0
230
1.0
  0
SOLID
  5
58E
330
575
100
AcDbEntity
  8
HATCH
  6
CONTINUOUS
 62
     5
100
AcDbTrace
 10
2502.523227298159
 20
3068.782407965992
 30
0.0
 11
2482.523227298159
 21
3068.782407965992
 31
0.0
 12
2499.594295110024
 22
3061.711340154127
 32
0.0
 13
2499.594295110024
 23
3061.711340154127
 33
0.0
  0
SOLID
  5
58F
330
575
100
AcDbEntity
  8
HATCH
  6
CONTINUOUS
 62
     5
100
AcDbTrace
 10
2510.523227298159
 20
3068.782407965992
 30
0.0
 11
2505.251149359516
 21
3056.054485904634
 31
0.0
 12
2899.999996839945
 22
2900.000003669799
 32
0.0
 13
2899.999996839945
 23
2900.000003669799
 33
0.0
210
0.0
220
0.0
230
1.0
  0
SOLID
  5
590
330
575
100
AcDbEntity
  8
HATCH
  6
CONTINUOUS
 62
     5
100
AcDbTrace
 10
2485.452159486293
 20
3075.853475777857
 30
0.0
 11
2482.523227298159
 21
3068.782407965992
 31
0.0
 12
2502.523227298159
 22
3068.782407965992
 32
0.0
 13
2502.523227298159
 23
3068.782407965992
 33
0.0
210
0.0
220
0.0
230
1.0
  0
SOLID
  5
591
330
575
100
AcDbEntity
  8
HATCH
  6
CONTINUOUS
 62
     5
100
AcDbTrace
 10
2499.594295110024
 20
3075.853475777857
 30
0.0
 11
2485.452159486293
 21
3075.853475777857
 31
0.0
 12
2502.523227298159
 22
3068.782407965992
 32
0.0
 13
2502.523227298159
 23
3068.782407965992
 33
0.0
  0
SOLID
  5
592
330
575
100
AcDbEntity
  8
HATCH
  6
CONTINUOUS
 62
     5
100
AcDbTrace
 10
2492.523227298159
 20
3078.782407965992
 30
0.0
 11
2485.452159486293
 21
3075.853475777857
 31
0.0
 12
2499.594295110024
 22
3075.853475777857
 32
0.0
 13
2499.594295110024
 23
3075.853475777857
 33
0.0
  0
SOLID
  5
593
330
575
100
AcDbEntity
  8
HATCH
  6
CONTINUOUS
 62
     5
100
AcDbTrace
 10
2479.795305236801
 20
3081.51033002735
 30
0.0
 11
2372.883273589244
 21
2955.208337003136
 31
0.0
 12
2474.523227298158
 22
3068.782407965992
 32
0.0
 13
2474.523227298158
 23
3068.782407965992
 33
0.0
  0
SOLID
  5
594
330
575
100
AcDbEntity
  8
HATCH
  6
CONTINUOUS
 62
     5
100
AcDbTrace
 10
2505.251149359516
 20
3081.51033002735
 30
0.0
 11
2510.523227298159
 21
3068.782407965992
 31
0.0
 12
2899.999996839945
 22
2900.000003669799
 32
0.0
 13
2899.999996839945
 23
2900.000003669799
 33
0.0
210
0.0
220
0.0
230
1.0
  0
SOLID
  5
595
330
575
100
AcDbEntity
  8
HATCH
  6
CONTINUOUS
 62
     5
100
AcDbTrace
 10
2410.343847043942
 20
3102.82222870186
 30
0.0
 11
2479.795305236801
 21
3081.51033002735
 31
0.0
 12
2492.523227298159
 22
3086.782407965992
 32
0.0
 13
2492.523227298159
 23
3086.782407965992
 33
0.0
210
0.0
220
0.0
230
1.0
  0
SOLID
  5
596
330
575
100
AcDbEntity
  8
HATCH
  6
CONTINUOUS
 62
     5
100
AcDbTrace
 10
2410.343847043942
 20
3102.82222870186
 30
0.0
 11
2372.883273589244
 21
2955.208337003136
 31
0.0
 12
2479.795305236801
 22
3081.51033002735
 32
0.0
 13
2479.795305236801
 23
3081.51033002735
 33
0.0
210
0.0
220
0.0
230
1.0
  0
SOLID
  5
597
330
575
100
AcDbEntity
  8
HATCH
  6
CONTINUOUS
 62
     5
100
AcDbTrace
 10
2527.479207772866
 20
3135.173610114084
 30
0.0
 11
2410.343847043942
 21
3102.82222870186
 31
0.0
 12
2492.523227298159
 22
3086.782407965992
 32
0.0
 13
2492.523227298159
 23
3086.782407965992
 33
0.0
210
0.0
220
0.0
230
1.0
  0
SOLID
  5
598
330
575
100
AcDbEntity
  8
HATCH
  6
CONTINUOUS
 62
     5
100
AcDbTrace
 10
2527.479207772866
 20
3135.173610114084
 30
0.0
 11
2492.523227298159
 21
3086.782407965992
 31
0.0
 12
2505.251149359516
 22
3081.51033002735
 32
0.0
 13
2505.251149359516
 23
3081.51033002735
 33
0.0
  0
SOLID
  5
599
330
575
100
AcDbEntity
  8
HATCH
  6
CONTINUOUS
 62
     5
100
AcDbTrace
 10
2527.479207772866
 20
3135.173610114084
 30
0.0
 11
2505.251149359516
 21
3081.51033002735
 31
0.0
 12
2899.999996839945
 22
2900.000003669799
 32
0.0
 13
2899.999996839945
 23
2900.000003669799
 33
0.0
210
0.0
220
0.0
230
1.0
  0
SOLID
  5
59A
330
575
100
AcDbEntity
  8
HATCH
  6
CONTINUOUS
 62
     5
100
AcDbTrace
 10
2514.751285711508
 20
3140.445688052726
 30
0.0
 11
2410.343847043942
 21
3102.82222870186
 31
0.0
 12
2527.479207772866
 22
3135.173610114084
 32
0.0
 13
2527.479207772866
 23
3135.173610114084
 33
0.0
210
0.0
220
0.0
230
1.0
  0
SOLID
  5
59B
330
575
100
AcDbEntity
  8
HATCH
  6
CONTINUOUS
 62
     5
100
AcDbTrace
 10
2540.207129834223
 20
3140.445688052726
 30
0.0
 11
2527.479207772866
 21
3135.173610114084
 31
0.0
 12
2899.999996839945
 22
2900.000003669799
 32
0.0
 13
2899.999996839945
 23
2900.000003669799
 33
0.0
210
0.0
220
0.0
230
1.0
  0
SOLID
  5
59C
330
575
100
AcDbEntity
  8
HATCH
  6
CONTINUOUS
 62
     5
100
AcDbTrace
 10
2534.550275584731
 20
3146.102542302219
 30
0.0
 11
2520.408139961
 21
3146.102542302219
 31
0.0
 12
2527.479207772866
 22
3143.173610114084
 32
0.0
 13
2527.479207772866
 23
3143.173610114084
 33
0.0
  0
SOLID
  5
59D
330
575
100
AcDbEntity
  8
HATCH
  6
CONTINUOUS
 62
     5
100
AcDbTrace
 10
2517.479207772866
 20
3153.173610114084
 30
0.0
 11
2520.408139961
 21
3146.102542302219
 31
0.0
 12
2534.550275584731
 22
3146.102542302219
 32
0.0
 13
2534.550275584731
 23
3146.102542302219
 33
0.0
210
0.0
220
0.0
230
1.0
  0
SOLID
  5
59E
330
575
100
AcDbEntity
  8
HATCH
  6
CONTINUOUS
 62
     5
100
AcDbTrace
 10
2509.479207772866
 20
3153.173610114084
 30
0.0
 11
2410.343847043942
 21
3102.82222870186
 31
0.0
 12
2514.751285711508
 22
3140.445688052726
 32
0.0
 13
2514.751285711508
 23
3140.445688052726
 33
0.0
  0
SOLID
  5
59F
330
575
100
AcDbEntity
  8
HATCH
  6
CONTINUOUS
 62
     5
100
AcDbTrace
 10
2537.479207772866
 20
3153.173610114084
 30
0.0
 11
2517.479207772866
 21
3153.173610114084
 31
0.0
 12
2534.550275584731
 22
3146.102542302219
 32
0.0
 13
2534.550275584731
 23
3146.102542302219
 33
0.0
  0
SOLID
  5
5A0
330
575
100
AcDbEntity
  8
HATCH
  6
CONTINUOUS
 62
     5
100
AcDbTrace
 10
2545.479207772866
 20
3153.173610114084
 30
0.0
 11
2540.207129834223
 21
3140.445688052726
 31
0.0
 12
2899.999996839945
 22
2900.000003669799
 32
0.0
 13
2899.999996839945
 23
2900.000003669799
 33
0.0
210
0.0
220
0.0
230
1.0
  0
SOLID
  5
5A1
330
575
100
AcDbEntity
  8
HATCH
  6
CONTINUOUS
 62
     5
100
AcDbTrace
 10
2520.408139961
 20
3160.244677925949
 30
0.0
 11
2517.479207772866
 21
3153.173610114084
 31
0.0
 12
2537.479207772866
 22
3153.173610114084
 32
0.0
 13
2537.479207772866
 23
3153.173610114084
 33
0.0
210
0.0
220
0.0
230
1.0
  0
SOLID
  5
5A2
330
575
100
AcDbEntity
  8
HATCH
  6
CONTINUOUS
 62
     5
100
AcDbTrace
 10
2534.550275584731
 20
3160.244677925949
 30
0.0
 11
2520.408139961
 21
3160.244677925949
 31
0.0
 12
2537.479207772866
 22
3153.173610114084
 32
0.0
 13
2537.479207772866
 23
3153.173610114084
 33
0.0
  0
SOLID
  5
5A3
330
575
100
AcDbEntity
  8
HATCH
  6
CONTINUOUS
 62
     5
100
AcDbTrace
 10
2527.479207772866
 20
3163.173610114084
 30
0.0
 11
2520.408139961
 21
3160.244677925949
 31
0.0
 12
2534.550275584731
 22
3160.244677925949
 32
0.0
 13
2534.550275584731
 23
3160.244677925949
 33
0.0
  0
SOLID
  5
5A4
330
575
100
AcDbEntity
  8
HATCH
  6
CONTINUOUS
 62
     5
100
AcDbTrace
 10
2514.751285711508
 20
3165.901532175442
 30
0.0
 11
2410.343847043942
 21
3102.82222870186
 31
0.0
 12
2509.479207772866
 22
3153.173610114084
 32
0.0
 13
2509.479207772866
 23
3153.173610114084
 33
0.0
  0
SOLID
  5
5A5
330
575
100
AcDbEntity
  8
HATCH
  6
CONTINUOUS
 62
     5
100
AcDbTrace
 10
2540.207129834223
 20
3165.901532175442
 30
0.0
 11
2545.479207772866
 21
3153.173610114084
 31
0.0
 12
2899.999996839945
 22
2900.000003669799
 32
0.0
 13
2899.999996839945
 23
2900.000003669799
 33
0.0
210
0.0
220
0.0
230
1.0
  0
SOLID
  5
5A6
330
575
100
AcDbEntity
  8
HATCH
  6
CONTINUOUS
 62
     5
100
AcDbTrace
 10
2488.234008486748
 20
3233.6896361661
 30
0.0
 11
2514.751285711508
 21
3165.901532175442
 31
0.0
 12
2527.479207772866
 22
3171.173610114084
 32
0.0
 13
2527.479207772866
 23
3171.173610114084
 33
0.0
210
0.0
220
0.0
230
1.0
  0
SOLID
  5
5A7
330
575
100
AcDbEntity
  8
HATCH
  6
CONTINUOUS
 62
     5
100
AcDbTrace
 10
2488.234008486748
 20
3233.6896361661
 30
0.0
 11
2410.343847043942
 21
3102.82222870186
 31
0.0
 12
2514.751285711508
 22
3165.901532175442
 32
0.0
 13
2514.751285711508
 23
3165.901532175442
 33
0.0
  0
SOLID
  5
5A8
330
575
100
AcDbEntity
  8
HATCH
  6
CONTINUOUS
 62
     5
100
AcDbTrace
 10
2562.435188247578
 20
3237.564812262167
 30
0.0
 11
2488.234008486748
 21
3233.6896361661
 31
0.0
 12
2527.479207772866
 22
3171.173610114084
 32
0.0
 13
2527.479207772866
 23
3171.173610114084
 33
0.0
210
0.0
220
0.0
230
1.0
  0
SOLID
  5
5A9
330
575
100
AcDbEntity
  8
HATCH
  6
CONTINUOUS
 62
     5
100
AcDbTrace
 10
2562.435188247578
 20
3237.564812262167
 30
0.0
 11
2527.479207772866
 21
3171.173610114084
 31
0.0
 12
2540.207129834223
 22
3165.901532175442
 32
0.0
 13
2540.207129834223
 23
3165.901532175442
 33
0.0
210
0.0
220
0.0
230
1.0
  0
SOLID
  5
5AA
330
575
100
AcDbEntity
  8
HATCH
  6
CONTINUOUS
 62
     5
100
AcDbTrace
 10
2562.435188247578
 20
3237.564812262167
 30
0.0
 11
2540.207129834223
 21
3165.901532175442
 31
0.0
 12
2899.999996839945
 22
2900.000003669799
 32
0.0
 13
2899.999996839945
 23
2900.000003669799
 33
0.0
210
0.0
220
0.0
230
1.0
  0
SOLID
  5
5AB
330
575
100
AcDbEntity
  8
HATCH
  6
CONTINUOUS
 62
     5
100
AcDbTrace
 10
2524.472139873088
 20
3252.141425419107
 30
0.0
 11
2488.234008486748
 21
3233.6896361661
 31
0.0
 12
2562.435188247578
 22
3237.564812262167
 32
0.0
 13
2562.435188247578
 23
3237.564812262167
 33
0.0
210
0.0
220
0.0
230
1.0
  0
ENDBLK
  5
5AD
330
575
100
AcDbEntity
  8
0
100
AcDbBlockEnd
  0
BLOCK
  5
5E5
330
5AE
100
AcDbEntity
  8
0
100
AcDbBlockBegin
  2
*U12
 70
     1
 10
0.0
 20
0.0
 30
0.0
  3
*U12
  1

  0
SOLID
  5
5AF
330
5AE
100
AcDbEntity
  8
HATCH
  6
CONTINUOUS
 62
     5
100
AcDbTrace
 10
2488.234000474532
 20
2566.310381060403
 30
0.0
 11
2524.472133518838
 21
2547.858582252345
 31
0.0
 12
2562.435188247579
 22
2562.435195077432
 32
0.0
 13
2562.435188247579
 23
2562.435195077432
 33
0.0
  0
SOLID
  5
5B0
330
5AE
100
AcDbEntity
  8
HATCH
  6
CONTINUOUS
 62
     5
100
AcDbTrace
 10
2527.479207772859
 20
2628.826397225529
 30
0.0
 11
2488.234000474532
 21
2566.310381060403
 31
0.0
 12
2562.435188247579
 22
2562.435195077432
 32
0.0
 13
2562.435188247579
 23
2562.435195077432
 33
0.0
210
0.0
220
0.0
230
1.0
  0
SOLID
  5
5B1
330
5AE
100
AcDbEntity
  8
HATCH
  6
CONTINUOUS
 62
     5
100
AcDbTrace
 10
2514.751285711502
 20
2634.098475164171
 30
0.0
 11
2488.234000474532
 21
2566.310381060403
 31
0.0
 12
2527.479207772859
 22
2628.826397225529
 32
0.0
 13
2527.479207772859
 23
2628.826397225529
 33
0.0
  0
SOLID
  5
5B2
330
5AE
100
AcDbEntity
  8
HATCH
  6
CONTINUOUS
 62
     5
100
AcDbTrace
 10
2540.207129834217
 20
2634.098475164171
 30
0.0
 11
2527.479207772859
 21
2628.826397225529
 31
0.0
 12
2562.435188247579
 22
2562.435195077432
 32
0.0
 13
2562.435188247579
 23
2562.435195077432
 33
0.0
210
0.0
220
0.0
230
1.0
  0
SOLID
  5
5B3
330
5AE
100
AcDbEntity
  8
HATCH
  6
CONTINUOUS
 62
     5
100
AcDbTrace
 10
2534.550275584725
 20
2639.755329413663
 30
0.0
 11
2520.408139960994
 21
2639.755329413663
 31
0.0
 12
2527.479207772859
 22
2636.826397225529
 32
0.0
 13
2527.479207772859
 23
2636.826397225529
 33
0.0
  0
SOLID
  5
5B4
330
5AE
100
AcDbEntity
  8
HATCH
  6
CONTINUOUS
 62
     5
100
AcDbTrace
 10
2517.47920777286
 20
2646.826397225529
 30
0.0
 11
2520.408139960994
 21
2639.755329413663
 31
0.0
 12
2534.550275584725
 22
2639.755329413663
 32
0.0
 13
2534.550275584725
 23
2639.755329413663
 33
0.0
210
0.0
220
0.0
230
1.0
  0
SOLID
  5
5B5
330
5AE
100
AcDbEntity
  8
HATCH
  6
CONTINUOUS
 62
     5
100
AcDbTrace
 10
2509.47920777286
 20
2646.826397225529
 30
0.0
 11
2488.234000474532
 21
2566.310381060403
 31
0.0
 12
2514.751285711502
 22
2634.098475164171
 32
0.0
 13
2514.751285711502
 23
2634.098475164171
 33
0.0
210
0.0
220
0.0
230
1.0
  0
SOLID
  5
5B6
330
5AE
100
AcDbEntity
  8
HATCH
  6
CONTINUOUS
 62
     5
100
AcDbTrace
 10
2545.47920777286
 20
2646.826397225529
 30
0.0
 11
2540.207129834217
 21
2634.098475164171
 31
0.0
 12
2562.435188247579
 22
2562.435195077432
 32
0.0
 13
2562.435188247579
 23
2562.435195077432
 33
0.0
210
0.0
220
0.0
230
1.0
  0
SOLID
  5
5B7
330
5AE
100
AcDbEntity
  8
HATCH
  6
CONTINUOUS
 62
     5
100
AcDbTrace
 10
2537.47920777286
 20
2646.826397225529
 30
0.0
 11
2517.47920777286
 21
2646.826397225529
 31
0.0
 12
2534.550275584725
 22
2639.755329413663
 32
0.0
 13
2534.550275584725
 23
2639.755329413663
 33
0.0
  0
SOLID
  5
5B8
330
5AE
100
AcDbEntity
  8
HATCH
  6
CONTINUOUS
 62
     5
100
AcDbTrace
 10
2520.408139960994
 20
2653.897465037394
 30
0.0
 11
2517.47920777286
 21
2646.826397225529
 31
0.0
 12
2537.47920777286
 22
2646.826397225529
 32
0.0
 13
2537.47920777286
 23
2646.826397225529
 33
0.0
210
0.0
220
0.0
230
1.0
  0
SOLID
  5
5B9
330
5AE
100
AcDbEntity
  8
HATCH
  6
CONTINUOUS
 62
     5
100
AcDbTrace
 10
2534.550275584725
 20
2653.897465037394
 30
0.0
 11
2520.408139960994
 21
2653.897465037394
 31
0.0
 12
2537.47920777286
 22
2646.826397225529
 32
0.0
 13
2537.47920777286
 23
2646.826397225529
 33
0.0
  0
SOLID
  5
5BA
330
5AE
100
AcDbEntity
  8
HATCH
  6
CONTINUOUS
 62
     5
100
AcDbTrace
 10
2527.479207772859
 20
2656.826397225529
 30
0.0
 11
2520.408139960994
 21
2653.897465037394
 31
0.0
 12
2534.550275584725
 22
2653.897465037394
 32
0.0
 13
2534.550275584725
 23
2653.897465037394
 33
0.0
  0
SOLID
  5
5BB
330
5AE
100
AcDbEntity
  8
HATCH
  6
CONTINUOUS
 62
     5
100
AcDbTrace
 10
2410.343842314823
 20
2697.17779005484
 30
0.0
 11
2514.751285711502
 21
2659.554319286886
 31
0.0
 12
2527.479207772859
 22
2664.826397225529
 32
0.0
 13
2527.479207772859
 23
2664.826397225529
 33
0.0
210
0.0
220
0.0
230
1.0
  0
SOLID
  5
5BC
330
5AE
100
AcDbEntity
  8
HATCH
  6
CONTINUOUS
 62
     5
100
AcDbTrace
 10
2410.343842314823
 20
2697.17779005484
 30
0.0
 11
2509.47920777286
 21
2646.826397225529
 31
0.0
 12
2514.751285711502
 22
2659.554319286886
 32
0.0
 13
2514.751285711502
 23
2659.554319286886
 33
0.0
210
0.0
220
0.0
230
1.0
  0
SOLID
  5
5BD
330
5AE
100
AcDbEntity
  8
HATCH
  6
CONTINUOUS
 62
     5
100
AcDbTrace
 10
2410.343842314823
 20
2697.17779005484
 30
0.0
 11
2488.234000474532
 21
2566.310381060403
 31
0.0
 12
2509.47920777286
 22
2646.826397225529
 32
0.0
 13
2509.47920777286
 23
2646.826397225529
 33
0.0
  0
SOLID
  5
5BE
330
5AE
100
AcDbEntity
  8
HATCH
  6
CONTINUOUS
 62
     5
100
AcDbTrace
 10
2492.523227298153
 20
2713.21759937362
 30
0.0
 11
2410.343842314823
 21
2697.17779005484
 31
0.0
 12
2527.479207772859
 22
2664.826397225529
 32
0.0
 13
2527.479207772859
 23
2664.826397225529
 33
0.0
  0
SOLID
  5
5BF
330
5AE
100
AcDbEntity
  8
HATCH
  6
CONTINUOUS
 62
     5
100
AcDbTrace
 10
2492.523227298153
 20
2713.21759937362
 30
0.0
 11
2527.479207772859
 21
2664.826397225529
 31
0.0
 12
2540.207129834217
 22
2659.554319286886
 32
0.0
 13
2540.207129834217
 23
2659.554319286886
 33
0.0
210
0.0
220
0.0
230
1.0
  0
SOLID
  5
5C0
330
5AE
100
AcDbEntity
  8
HATCH
  6
CONTINUOUS
 62
     5
100
AcDbTrace
 10
2479.795305236795
 20
2718.489677312262
 30
0.0
 11
2410.343842314823
 21
2697.17779005484
 31
0.0
 12
2492.523227298153
 22
2713.21759937362
 32
0.0
 13
2492.523227298153
 23
2713.21759937362
 33
0.0
210
0.0
220
0.0
230
1.0
  0
SOLID
  5
5C1
330
5AE
100
AcDbEntity
  8
HATCH
  6
CONTINUOUS
 62
     5
100
AcDbTrace
 10
2505.25114935951
 20
2718.489677312262
 30
0.0
 11
2492.523227298153
 21
2713.21759937362
 31
0.0
 12
2540.207129834217
 22
2659.554319286886
 32
0.0
 13
2540.207129834217
 23
2659.554319286886
 33
0.0
  0
SOLID
  5
5C2
330
5AE
100
AcDbEntity
  8
HATCH
  6
CONTINUOUS
 62
     5
100
AcDbTrace
 10
2499.594295110018
 20
2724.146531561754
 30
0.0
 11
2485.452159486287
 21
2724.146531561754
 31
0.0
 12
2492.523227298153
 22
2721.21759937362
 32
0.0
 13
2492.523227298153
 23
2721.21759937362
 33
0.0
  0
SOLID
  5
5C3
330
5AE
100
AcDbEntity
  8
HATCH
  6
CONTINUOUS
 62
     5
100
AcDbTrace
 10
2482.523227298153
 20
2731.21759937362
 30
0.0
 11
2485.452159486287
 21
2724.146531561754
 31
0.0
 12
2499.594295110018
 22
2724.146531561754
 32
0.0
 13
2499.594295110018
 23
2724.146531561754
 33
0.0
210
0.0
220
0.0
230
1.0
  0
SOLID
  5
5C4
330
5AE
100
AcDbEntity
  8
HATCH
  6
CONTINUOUS
 62
     5
100
AcDbTrace
 10
2474.523227298153
 20
2731.21759937362
 30
0.0
 11
2410.343842314823
 21
2697.17779005484
 31
0.0
 12
2479.795305236795
 22
2718.489677312262
 32
0.0
 13
2479.795305236795
 23
2718.489677312262
 33
0.0
210
0.0
220
0.0
230
1.0
  0
SOLID
  5
5C5
330
5AE
100
AcDbEntity
  8
HATCH
  6
CONTINUOUS
 62
     5
100
AcDbTrace
 10
2510.523227298153
 20
2731.21759937362
 30
0.0
 11
2505.25114935951
 21
2718.489677312262
 31
0.0
 12
2540.207129834217
 22
2659.554319286886
 32
0.0
 13
2540.207129834217
 23
2659.554319286886
 33
0.0
210
0.0
220
0.0
230
1.0
  0
SOLID
  5
5C6
330
5AE
100
AcDbEntity
  8
HATCH
  6
CONTINUOUS
 62
     5
100
AcDbTrace
 10
2510.523227298153
 20
2731.21759937362
 30
0.0
 11
2540.207129834217
 21
2659.554319286886
 31
0.0
 12
2545.47920777286
 22
2646.826397225529
 32
0.0
 13
2545.47920777286
 23
2646.826397225529
 33
0.0
210
0.0
220
0.0
230
1.0
  0
SOLID
  5
5C7
330
5AE
100
AcDbEntity
  8
HATCH
  6
CONTINUOUS
 62
     5
100
AcDbTrace
 10
2502.523227298153
 20
2731.21759937362
 30
0.0
 11
2482.523227298153
 21
2731.21759937362
 31
0.0
 12
2499.594295110018
 22
2724.146531561754
 32
0.0
 13
2499.594295110018
 23
2724.146531561754
 33
0.0
  0
SOLID
  5
5C8
330
5AE
100
AcDbEntity
  8
HATCH
  6
CONTINUOUS
 62
     5
100
AcDbTrace
 10
2485.452159486287
 20
2738.288667185485
 30
0.0
 11
2482.523227298153
 21
2731.21759937362
 31
0.0
 12
2502.523227298153
 22
2731.21759937362
 32
0.0
 13
2502.523227298153
 23
2731.21759937362
 33
0.0
210
0.0
220
0.0
230
1.0
  0
SOLID
  5
5C9
330
5AE
100
AcDbEntity
  8
HATCH
  6
CONTINUOUS
 62
     5
100
AcDbTrace
 10
2499.594295110018
 20
2738.288667185485
 30
0.0
 11
2485.452159486287
 21
2738.288667185485
 31
0.0
 12
2502.523227298153
 22
2731.21759937362
 32
0.0
 13
2502.523227298153
 23
2731.21759937362
 33
0.0
  0
SOLID
  5
5CA
330
5AE
100
AcDbEntity
  8
HATCH
  6
CONTINUOUS
 62
     5
100
AcDbTrace
 10
2492.523227298153
 20
2741.21759937362
 30
0.0
 11
2485.452159486287
 21
2738.288667185485
 31
0.0
 12
2499.594295110018
 22
2738.288667185485
 32
0.0
 13
2499.594295110018
 23
2738.288667185485
 33
0.0
  0
SOLID
  5
5CB
330
5AE
100
AcDbEntity
  8
HATCH
  6
CONTINUOUS
 62
     5
100
AcDbTrace
 10
2479.795305236795
 20
2743.945521434977
 30
0.0
 11
2410.343842314823
 21
2697.17779005484
 31
0.0
 12
2474.523227298153
 22
2731.21759937362
 32
0.0
 13
2474.523227298153
 23
2731.21759937362
 33
0.0
210
0.0
220
0.0
230
1.0
  0
SOLID
  5
5CC
330
5AE
100
AcDbEntity
  8
HATCH
  6
CONTINUOUS
 62
     5
100
AcDbTrace
 10
2457.567246823442
 20
2797.608801521711
 30
0.0
 11
2492.523227298153
 21
2749.21759937362
 31
0.0
 12
2505.25114935951
 22
2743.945521434977
 32
0.0
 13
2505.25114935951
 23
2743.945521434977
 33
0.0
210
0.0
220
0.0
230
1.0
  0
SOLID
  5
5CD
330
5AE
100
AcDbEntity
  8
HATCH
  6
CONTINUOUS
 62
     5
100
AcDbTrace
 10
2457.567246823442
 20
2797.608801521711
 30
0.0
 11
2479.795305236795
 21
2743.945521434977
 31
0.0
 12
2492.523227298153
 22
2749.21759937362
 32
0.0
 13
2492.523227298153
 23
2749.21759937362
 33
0.0
210
0.0
220
0.0
230
1.0
  0
SOLID
  5
5CE
330
5AE
100
AcDbEntity
  8
HATCH
  6
CONTINUOUS
 62
     5
100
AcDbTrace
 10
2457.567246823442
 20
2797.608801521711
 30
0.0
 11
2410.343842314823
 21
2697.17779005484
 31
0.0
 12
2479.795305236795
 22
2743.945521434977
 32
0.0
 13
2479.795305236795
 23
2743.945521434977
 33
0.0
210
0.0
220
0.0
230
1.0
  0
SOLID
  5
5CF
330
5AE
100
AcDbEntity
  8
HATCH
  6
CONTINUOUS
 62
     5
100
AcDbTrace
 10
2444.839324762085
 20
2802.880879460353
 30
0.0
 11
2410.343842314823
 21
2697.17779005484
 31
0.0
 12
2457.567246823442
 22
2797.608801521711
 32
0.0
 13
2457.567246823442
 23
2797.608801521711
 33
0.0
210
0.0
220
0.0
230
1.0
  0
SOLID
  5
5D0
330
5AE
100
AcDbEntity
  8
HATCH
  6
CONTINUOUS
 62
     5
100
AcDbTrace
 10
2470.2951688848
 20
2802.880879460353
 30
0.0
 11
2457.567246823442
 21
2797.608801521711
 31
0.0
 12
2505.25114935951
 22
2743.945521434977
 32
0.0
 13
2505.25114935951
 23
2743.945521434977
 33
0.0
210
0.0
220
0.0
230
1.0
  0
SOLID
  5
5D1
330
5AE
100
AcDbEntity
  8
HATCH
  6
CONTINUOUS
 62
     5
100
AcDbTrace
 10
2464.638314635307
 20
2808.537733709846
 30
0.0
 11
2450.496179011577
 21
2808.537733709846
 31
0.0
 12
2457.567246823442
 22
2805.608801521711
 32
0.0
 13
2457.567246823442
 23
2805.608801521711
 33
0.0
  0
SOLID
  5
5D2
330
5AE
100
AcDbEntity
  8
HATCH
  6
CONTINUOUS
 62
     5
100
AcDbTrace
 10
2439.567246823442
 20
2815.608801521711
 30
0.0
 11
2410.343842314823
 21
2697.17779005484
 31
0.0
 12
2444.839324762085
 22
2802.880879460353
 32
0.0
 13
2444.839324762085
 23
2802.880879460353
 33
0.0
210
0.0
220
0.0
230
1.0
  0
SOLID
  5
5D3
330
5AE
100
AcDbEntity
  8
HATCH
  6
CONTINUOUS
 62
     5
100
AcDbTrace
 10
2447.567246823442
 20
2815.608801521711
 30
0.0
 11
2450.496179011577
 21
2808.537733709846
 31
0.0
 12
2464.638314635307
 22
2808.537733709846
 32
0.0
 13
2464.638314635307
 23
2808.537733709846
 33
0.0
210
0.0
220
0.0
230
1.0
  0
SOLID
  5
5D4
330
5AE
100
AcDbEntity
  8
HATCH
  6
CONTINUOUS
 62
     5
100
AcDbTrace
 10
2475.567246823442
 20
2815.608801521711
 30
0.0
 11
2470.2951688848
 21
2802.880879460353
 31
0.0
 12
2505.25114935951
 22
2743.945521434977
 32
0.0
 13
2505.25114935951
 23
2743.945521434977
 33
0.0
210
0.0
220
0.0
230
1.0
  0
SOLID
  5
5D5
330
5AE
100
AcDbEntity
  8
HATCH
  6
CONTINUOUS
 62
     5
100
AcDbTrace
 10
2467.567246823442
 20
2815.608801521711
 30
0.0
 11
2447.567246823442
 21
2815.608801521711
 31
0.0
 12
2464.638314635307
 22
2808.537733709846
 32
0.0
 13
2464.638314635307
 23
2808.537733709846
 33
0.0
  0
SOLID
  5
5D6
330
5AE
100
AcDbEntity
  8
HATCH
  6
CONTINUOUS
 62
     5
100
AcDbTrace
 10
2450.496179011577
 20
2822.679869333576
 30
0.0
 11
2447.567246823442
 21
2815.608801521711
 31
0.0
 12
2467.567246823442
 22
2815.608801521711
 32
0.0
 13
2467.567246823442
 23
2815.608801521711
 33
0.0
210
0.0
220
0.0
230
1.0
  0
SOLID
  5
5D7
330
5AE
100
AcDbEntity
  8
HATCH
  6
CONTINUOUS
 62
     5
100
AcDbTrace
 10
2464.638314635307
 20
2822.679869333576
 30
0.0
 11
2450.496179011577
 21
2822.679869333576
 31
0.0
 12
2467.567246823442
 22
2815.608801521711
 32
0.0
 13
2467.567246823442
 23
2815.608801521711
 33
0.0
  0
SOLID
  5
5D8
330
5AE
100
AcDbEntity
  8
HATCH
  6
CONTINUOUS
 62
     5
100
AcDbTrace
 10
2457.567246823442
 20
2825.608801521711
 30
0.0
 11
2450.496179011577
 21
2822.679869333576
 31
0.0
 12
2464.638314635307
 22
2822.679869333576
 32
0.0
 13
2464.638314635307
 23
2822.679869333576
 33
0.0
  0
SOLID
  5
5D9
330
5AE
100
AcDbEntity
  8
HATCH
  6
CONTINUOUS
 62
     5
100
AcDbTrace
 10
2470.2951688848
 20
2828.336723583069
 30
0.0
 11
2475.567246823442
 21
2815.608801521711
 31
0.0
 12
2505.25114935951
 22
2743.945521434977
 32
0.0
 13
2505.25114935951
 23
2743.945521434977
 33
0.0
210
0.0
220
0.0
230
1.0
  0
SOLID
  5
5DA
330
5AE
100
AcDbEntity
  8
HATCH
  6
CONTINUOUS
 62
     5
100
AcDbTrace
 10
2372.883272340311
 20
2844.791682260982
 30
0.0
 11
2444.839324762085
 21
2828.336723583069
 31
0.0
 12
2457.567246823442
 22
2833.608801521711
 32
0.0
 13
2457.567246823442
 23
2833.608801521711
 33
0.0
210
0.0
220
0.0
230
1.0
  0
SOLID
  5
5DB
330
5AE
100
AcDbEntity
  8
HATCH
  6
CONTINUOUS
 62
     5
100
AcDbTrace
 10
2372.883272340311
 20
2844.791682260982
 30
0.0
 11
2439.567246823442
 21
2815.608801521711
 31
0.0
 12
2444.839324762085
 22
2828.336723583069
 32
0.0
 13
2444.839324762085
 23
2828.336723583069
 33
0.0
210
0.0
220
0.0
230
1.0
  0
SOLID
  5
5DC
330
5AE
100
AcDbEntity
  8
HATCH
  6
CONTINUOUS
 62
     5
100
AcDbTrace
 10
2372.883272340311
 20
2844.791682260982
 30
0.0
 11
2410.343842314823
 21
2697.17779005484
 31
0.0
 12
2439.567246823442
 22
2815.608801521711
 32
0.0
 13
2439.567246823442
 23
2815.608801521711
 33
0.0
210
0.0
220
0.0
230
1.0
  0
SOLID
  5
5DD
330
5AE
100
AcDbEntity
  8
HATCH
  6
CONTINUOUS
 62
     5
100
AcDbTrace
 10
2385.460115152306
 20
2883.463296466228
 30
0.0
 11
2372.883272340311
 21
2844.791682260982
 31
0.0
 12
2457.567246823442
 22
2833.608801521711
 32
0.0
 13
2457.567246823442
 23
2833.608801521711
 33
0.0
210
0.0
220
0.0
230
1.0
  0
SOLID
  5
5DE
330
5AE
100
AcDbEntity
  8
HATCH
  6
CONTINUOUS
 62
     5
100
AcDbTrace
 10
2385.460115152306
 20
2883.463296466228
 30
0.0
 11
2457.567246823442
 21
2833.608801521711
 31
0.0
 12
2470.2951688848
 22
2828.336723583069
 32
0.0
 13
2470.2951688848
 23
2828.336723583069
 33
0.0
210
0.0
220
0.0
230
1.0
  0
SOLID
  5
5DF
330
5AE
100
AcDbEntity
  8
HATCH
  6
CONTINUOUS
 62
     5
100
AcDbTrace
 10
2899.999996839946
 20
2900.000003669797
 30
0.0
 11
2385.460115152306
 21
2883.463296466228
 31
0.0
 12
2470.2951688848
 22
2828.336723583069
 32
0.0
 13
2470.2951688848
 23
2828.336723583069
 33
0.0
  0
SOLID
  5
5E0
330
5AE
100
AcDbEntity
  8
HATCH
  6
CONTINUOUS
 62
     5
100
AcDbTrace
 10
2899.999996839946
 20
2900.000003669797
 30
0.0
 11
2470.2951688848
 21
2828.336723583069
 31
0.0
 12
2505.25114935951
 22
2743.945521434977
 32
0.0
 13
2505.25114935951
 23
2743.945521434977
 33
0.0
210
0.0
220
0.0
230
1.0
  0
SOLID
  5
5E1
330
5AE
100
AcDbEntity
  8
HATCH
  6
CONTINUOUS
 62
     5
100
AcDbTrace
 10
2899.999996839946
 20
2900.000003669797
 30
0.0
 11
2505.25114935951
 21
2743.945521434977
 31
0.0
 12
2510.523227298153
 22
2731.21759937362
 32
0.0
 13
2510.523227298153
 23
2731.21759937362
 33
0.0
210
0.0
220
0.0
230
1.0
  0
SOLID
  5
5E2
330
5AE
100
AcDbEntity
  8
HATCH
  6
CONTINUOUS
 62
     5
100
AcDbTrace
 10
2899.999996839946
 20
2900.000003669797
 30
0.0
 11
2510.523227298153
 21
2731.21759937362
 31
0.0
 12
2545.47920777286
 22
2646.826397225529
 32
0.0
 13
2545.47920777286
 23
2646.826397225529
 33
0.0
210
0.0
220
0.0
230
1.0
  0
SOLID
  5
5E3
330
5AE
100
AcDbEntity
  8
HATCH
  6
CONTINUOUS
 62
     5
100
AcDbTrace
 10
2899.999996839946
 20
2900.000003669797
 30
0.0
 11
2545.47920777286
 21
2646.826397225529
 31
0.0
 12
2562.435188247579
 22
2562.435195077432
 32
0.0
 13
2562.435188247579
 23
2562.435195077432
 33
0.0
210
0.0
220
0.0
230
1.0
  0
SOLID
  5
5E4
330
5AE
100
AcDbEntity
  8
HATCH
  6
CONTINUOUS
 62
     5
100
AcDbTrace
 10
2422.611266348742
 20
2900.000003669798
 30
0.0
 11
2385.460115152306
 21
2883.463296466228
 31
0.0
 12
2899.999996839946
 22
2900.000003669797
 32
0.0
 13
2899.999996839946
 23
2900.000003669797
 33
0.0
210
0.0
220
0.0
230
1.0
  0
ENDBLK
  5
5E6
330
5AE
100
AcDbEntity
  8
0
100
AcDbBlockEnd
  0
BLOCK
  5
61E
330
5E7
100
AcDbEntity
  8
0
100
AcDbBlockBegin
  2
*U13
 70
     1
 10
0.0
 20
0.0
 30
0.0
  3
*U13
  1

  0
SOLID
  5
5E8
330
5E7
100
AcDbEntity
  8
HATCH
  6
CONTINUOUS
 62
     5
100
AcDbTrace
 10
2697.177777686447
 20
2410.343851438814
 30
0.0
 11
2844.79166350661
 21
2372.883280419094
 31
0.0
 12
2883.463285182047
 22
2385.460117969996
 32
0.0
 13
2883.463285182047
 23
2385.460117969996
 33
0.0
210
0.0
220
0.0
230
1.0
  0
SOLID
  5
5E9
330
5E7
100
AcDbEntity
  8
HATCH
  6
CONTINUOUS
 62
     5
100
AcDbTrace
 10
2899.999996839946
 20
2422.611273178594
 30
0.0
 11
2697.177777686447
 21
2410.343851438814
 31
0.0
 12
2883.463285182047
 22
2385.460117969996
 32
0.0
 13
2883.463285182047
 23
2385.460117969996
 33
0.0
  0
SOLID
  5
5EA
330
5E7
100
AcDbEntity
  8
HATCH
  6
CONTINUOUS
 62
     5
100
AcDbTrace
 10
2815.608794691844
 20
2439.5672536533
 30
0.0
 11
2697.177777686447
 21
2410.343851438814
 31
0.0
 12
2899.999996839946
 22
2422.611273178594
 32
0.0
 13
2899.999996839946
 23
2422.611273178594
 33
0.0
210
0.0
220
0.0
230
1.0
  0
SOLID
  5
5EB
330
5E7
100
AcDbEntity
  8
HATCH
  6
CONTINUOUS
 62
     5
100
AcDbTrace
 10
2802.880872630487
 20
2444.839331591942
 30
0.0
 11
2697.177777686447
 21
2410.343851438814
 31
0.0
 12
2815.608794691844
 22
2439.5672536533
 32
0.0
 13
2815.608794691844
 23
2439.5672536533
 33
0.0
210
0.0
220
0.0
230
1.0
  0
SOLID
  5
5EC
330
5E7
100
AcDbEntity
  8
HATCH
  6
CONTINUOUS
 62
     5
100
AcDbTrace
 10
2828.336716753202
 20
2444.839331591942
 30
0.0
 11
2815.608794691844
 21
2439.5672536533
 31
0.0
 12
2899.999996839946
 22
2422.611273178594
 32
0.0
 13
2899.999996839946
 23
2422.611273178594
 33
0.0
210
0.0
220
0.0
230
1.0
  0
SOLID
  5
5ED
330
5E7
100
AcDbEntity
  8
HATCH
  6
CONTINUOUS
 62
     5
100
AcDbTrace
 10
2822.679862503709
 20
2450.496185841435
 30
0.0
 11
2808.537726879979
 21
2450.496185841435
 31
0.0
 12
2815.608794691844
 22
2447.5672536533
 32
0.0
 13
2815.608794691844
 23
2447.5672536533
 33
0.0
  0
SOLID
  5
5EE
330
5E7
100
AcDbEntity
  8
HATCH
  6
CONTINUOUS
 62
     5
100
AcDbTrace
 10
2805.608794691844
 20
2457.5672536533
 30
0.0
 11
2808.537726879979
 21
2450.496185841435
 31
0.0
 12
2822.679862503709
 22
2450.496185841435
 32
0.0
 13
2822.679862503709
 23
2450.496185841435
 33
0.0
210
0.0
220
0.0
230
1.0
  0
SOLID
  5
5EF
330
5E7
100
AcDbEntity
  8
HATCH
  6
CONTINUOUS
 62
     5
100
AcDbTrace
 10
2797.608794691844
 20
2457.5672536533
 30
0.0
 11
2697.177777686447
 21
2410.343851438814
 31
0.0
 12
2802.880872630487
 22
2444.839331591942
 32
0.0
 13
2802.880872630487
 23
2444.839331591942
 33
0.0
210
0.0
220
0.0
230
1.0
  0
SOLID
  5
5F0
330
5E7
100
AcDbEntity
  8
HATCH
  6
CONTINUOUS
 62
     5
100
AcDbTrace
 10
2825.608794691844
 20
2457.5672536533
 30
0.0
 11
2805.608794691844
 21
2457.5672536533
 31
0.0
 12
2822.679862503709
 22
2450.496185841435
 32
0.0
 13
2822.679862503709
 23
2450.496185841435
 33
0.0
  0
SOLID
  5
5F1
330
5E7
100
AcDbEntity
  8
HATCH
  6
CONTINUOUS
 62
     5
100
AcDbTrace
 10
2833.608794691844
 20
2457.5672536533
 30
0.0
 11
2828.336716753202
 21
2444.839331591942
 31
0.0
 12
2899.999996839946
 22
2422.611273178594
 32
0.0
 13
2899.999996839946
 23
2422.611273178594
 33
0.0
210
0.0
220
0.0
230
1.0
  0
SOLID
  5
5F2
330
5E7
100
AcDbEntity
  8
HATCH
  6
CONTINUOUS
 62
     5
100
AcDbTrace
 10
2808.537726879979
 20
2464.638321465165
 30
0.0
 11
2805.608794691844
 21
2457.5672536533
 31
0.0
 12
2825.608794691844
 22
2457.5672536533
 32
0.0
 13
2825.608794691844
 23
2457.5672536533
 33
0.0
210
0.0
220
0.0
230
1.0
  0
SOLID
  5
5F3
330
5E7
100
AcDbEntity
  8
HATCH
  6
CONTINUOUS
 62
     5
100
AcDbTrace
 10
2822.679862503709
 20
2464.638321465165
 30
0.0
 11
2808.537726879979
 21
2464.638321465165
 31
0.0
 12
2825.608794691844
 22
2457.5672536533
 32
0.0
 13
2825.608794691844
 23
2457.5672536533
 33
0.0
  0
SOLID
  5
5F4
330
5E7
100
AcDbEntity
  8
HATCH
  6
CONTINUOUS
 62
     5
100
AcDbTrace
 10
2815.608794691844
 20
2467.5672536533
 30
0.0
 11
2808.537726879979
 21
2464.638321465165
 31
0.0
 12
2822.679862503709
 22
2464.638321465165
 32
0.0
 13
2822.679862503709
 23
2464.638321465165
 33
0.0
  0
SOLID
  5
5F5
330
5E7
100
AcDbEntity
  8
HATCH
  6
CONTINUOUS
 62
     5
100
AcDbTrace
 10
2802.880872630487
 20
2470.295175714658
 30
0.0
 11
2697.177777686447
 21
2410.343851438814
 31
0.0
 12
2797.608794691844
 22
2457.5672536533
 32
0.0
 13
2797.608794691844
 23
2457.5672536533
 33
0.0
210
0.0
220
0.0
230
1.0
  0
SOLID
  5
5F6
330
5E7
100
AcDbEntity
  8
HATCH
  6
CONTINUOUS
 62
     5
100
AcDbTrace
 10
2828.336716753202
 20
2470.295175714658
 30
0.0
 11
2833.608794691844
 21
2457.5672536533
 31
0.0
 12
2899.999996839946
 22
2422.611273178594
 32
0.0
 13
2899.999996839946
 23
2422.611273178594
 33
0.0
210
0.0
220
0.0
230
1.0
  0
SOLID
  5
5F7
330
5E7
100
AcDbEntity
  8
HATCH
  6
CONTINUOUS
 62
     5
100
AcDbTrace
 10
2731.217592543754
 20
2474.52323412801
 30
0.0
 11
2697.177777686447
 21
2410.343851438814
 31
0.0
 12
2802.880872630487
 22
2470.295175714658
 32
0.0
 13
2802.880872630487
 23
2470.295175714658
 33
0.0
210
0.0
220
0.0
230
1.0
  0
SOLID
  5
5F8
330
5E7
100
AcDbEntity
  8
HATCH
  6
CONTINUOUS
 62
     5
100
AcDbTrace
 10
2815.608794691844
 20
2475.5672536533
 30
0.0
 11
2731.217592543754
 21
2474.52323412801
 31
0.0
 12
2802.880872630487
 22
2470.295175714658
 32
0.0
 13
2802.880872630487
 23
2470.295175714658
 33
0.0
210
0.0
220
0.0
230
1.0
  0
SOLID
  5
5F9
330
5E7
100
AcDbEntity
  8
HATCH
  6
CONTINUOUS
 62
     5
100
AcDbTrace
 10
2718.489670482397
 20
2479.795312066653
 30
0.0
 11
2697.177777686447
 21
2410.343851438814
 31
0.0
 12
2731.217592543754
 22
2474.52323412801
 32
0.0
 13
2731.217592543754
 23
2474.52323412801
 33
0.0
210
0.0
220
0.0
230
1.0
  0
SOLID
  5
5FA
330
5E7
100
AcDbEntity
  8
HATCH
  6
CONTINUOUS
 62
     5
100
AcDbTrace
 10
2743.945514605112
 20
2479.795312066653
 30
0.0
 11
2731.217592543754
 21
2474.52323412801
 31
0.0
 12
2815.608794691844
 22
2475.5672536533
 32
0.0
 13
2815.608794691844
 23
2475.5672536533
 33
0.0
210
0.0
220
0.0
230
1.0
  0
SOLID
  5
5FB
330
5E7
100
AcDbEntity
  8
HATCH
  6
CONTINUOUS
 62
     5
100
AcDbTrace
 10
2738.288660355619
 20
2485.452166316145
 30
0.0
 11
2724.146524731889
 21
2485.452166316145
 31
0.0
 12
2731.217592543754
 22
2482.52323412801
 32
0.0
 13
2731.217592543754
 23
2482.52323412801
 33
0.0
  0
SOLID
  5
5FC
330
5E7
100
AcDbEntity
  8
HATCH
  6
CONTINUOUS
 62
     5
100
AcDbTrace
 10
2566.31037423055
 20
2488.234007304385
 30
0.0
 11
2697.177777686447
 21
2410.343851438814
 31
0.0
 12
2718.489670482397
 22
2479.795312066653
 32
0.0
 13
2718.489670482397
 23
2479.795312066653
 33
0.0
210
0.0
220
0.0
230
1.0
  0
SOLID
  5
5FD
330
5E7
100
AcDbEntity
  8
HATCH
  6
CONTINUOUS
 62
     5
100
AcDbTrace
 10
2721.217592543754
 20
2492.523234128011
 30
0.0
 11
2724.146524731889
 21
2485.452166316145
 31
0.0
 12
2738.288660355619
 22
2485.452166316145
 32
0.0
 13
2738.288660355619
 23
2485.452166316145
 33
0.0
210
0.0
220
0.0
230
1.0
  0
SOLID
  5
5FE
330
5E7
100
AcDbEntity
  8
HATCH
  6
CONTINUOUS
 62
     5
100
AcDbTrace
 10
2713.217592543754
 20
2492.523234128011
 30
0.0
 11
2566.31037423055
 21
2488.234007304385
 31
0.0
 12
2718.489670482397
 22
2479.795312066653
 32
0.0
 13
2718.489670482397
 23
2479.795312066653
 33
0.0
210
0.0
220
0.0
230
1.0
  0
SOLID
  5
5FF
330
5E7
100
AcDbEntity
  8
HATCH
  6
CONTINUOUS
 62
     5
100
AcDbTrace
 10
2741.217592543754
 20
2492.523234128011
 30
0.0
 11
2721.217592543754
 21
2492.523234128011
 31
0.0
 12
2738.288660355619
 22
2485.452166316145
 32
0.0
 13
2738.288660355619
 23
2485.452166316145
 33
0.0
  0
SOLID
  5
600
330
5E7
100
AcDbEntity
  8
HATCH
  6
CONTINUOUS
 62
     5
100
AcDbTrace
 10
2749.217592543754
 20
2492.523234128011
 30
0.0
 11
2743.945514605112
 21
2479.795312066653
 31
0.0
 12
2815.608794691844
 22
2475.5672536533
 32
0.0
 13
2815.608794691844
 23
2475.5672536533
 33
0.0
210
0.0
220
0.0
230
1.0
  0
SOLID
  5
601
330
5E7
100
AcDbEntity
  8
HATCH
  6
CONTINUOUS
 62
     5
100
AcDbTrace
 10
2724.146524731889
 20
2499.594301939876
 30
0.0
 11
2721.217592543754
 21
2492.523234128011
 31
0.0
 12
2741.217592543754
 22
2492.523234128011
 32
0.0
 13
2741.217592543754
 23
2492.523234128011
 33
0.0
210
0.0
220
0.0
230
1.0
  0
SOLID
  5
602
330
5E7
100
AcDbEntity
  8
HATCH
  6
CONTINUOUS
 62
     5
100
AcDbTrace
 10
2738.288660355619
 20
2499.594301939876
 30
0.0
 11
2724.146524731889
 21
2499.594301939876
 31
0.0
 12
2741.217592543754
 22
2492.523234128011
 32
0.0
 13
2741.217592543754
 23
2492.523234128011
 33
0.0
  0
SOLID
  5
603
330
5E7
100
AcDbEntity
  8
HATCH
  6
CONTINUOUS
 62
     5
100
AcDbTrace
 10
2731.217592543754
 20
2502.523234128011
 30
0.0
 11
2724.146524731889
 21
2499.594301939876
 31
0.0
 12
2738.288660355619
 22
2499.594301939876
 32
0.0
 13
2738.288660355619
 23
2499.594301939876
 33
0.0
  0
SOLID
  5
604
330
5E7
100
AcDbEntity
  8
HATCH
  6
CONTINUOUS
 62
     5
100
AcDbTrace
 10
2718.489670482397
 20
2505.251156189368
 30
0.0
 11
2566.31037423055
 21
2488.234007304385
 31
0.0
 12
2713.217592543754
 22
2492.523234128011
 32
0.0
 13
2713.217592543754
 23
2492.523234128011
 33
0.0
210
0.0
220
0.0
230
1.0
  0
SOLID
  5
605
330
5E7
100
AcDbEntity
  8
HATCH
  6
CONTINUOUS
 62
     5
100
AcDbTrace
 10
2743.945514605112
 20
2505.251156189368
 30
0.0
 11
2749.217592543754
 21
2492.523234128011
 31
0.0
 12
2815.608794691844
 22
2475.5672536533
 32
0.0
 13
2815.608794691844
 23
2475.5672536533
 33
0.0
  0
SOLID
  5
606
330
5E7
100
AcDbEntity
  8
HATCH
  6
CONTINUOUS
 62
     5
100
AcDbTrace
 10
2743.945514605112
 20
2505.251156189368
 30
0.0
 11
2815.608794691844
 21
2475.5672536533
 31
0.0
 12
2828.336716753202
 22
2470.295175714658
 32
0.0
 13
2828.336716753202
 23
2470.295175714658
 33
0.0
210
0.0
220
0.0
230
1.0
  0
SOLID
  5
607
330
5E7
100
AcDbEntity
  8
HATCH
  6
CONTINUOUS
 62
     5
100
AcDbTrace
 10
2646.826390395662
 20
2509.479214602718
 30
0.0
 11
2566.31037423055
 21
2488.234007304385
 31
0.0
 12
2718.489670482397
 22
2505.251156189368
 32
0.0
 13
2718.489670482397
 23
2505.251156189368
 33
0.0
210
0.0
220
0.0
230
1.0
  0
SOLID
  5
608
330
5E7
100
AcDbEntity
  8
HATCH
  6
CONTINUOUS
 62
     5
100
AcDbTrace
 10
2731.217592543754
 20
2510.52323412801
 30
0.0
 11
2646.826390395662
 21
2509.479214602718
 31
0.0
 12
2718.489670482397
 22
2505.251156189368
 32
0.0
 13
2718.489670482397
 23
2505.251156189368
 33
0.0
210
0.0
220
0.0
230
1.0
  0
SOLID
  5
609
330
5E7
100
AcDbEntity
  8
HATCH
  6
CONTINUOUS
 62
     5
100
AcDbTrace
 10
2634.098468334304
 20
2514.75129254136
 30
0.0
 11
2566.31037423055
 21
2488.234007304385
 31
0.0
 12
2646.826390395662
 22
2509.479214602718
 32
0.0
 13
2646.826390395662
 23
2509.479214602718
 33
0.0
210
0.0
220
0.0
230
1.0
  0
SOLID
  5
60A
330
5E7
100
AcDbEntity
  8
HATCH
  6
CONTINUOUS
 62
     5
100
AcDbTrace
 10
2659.55431245702
 20
2514.75129254136
 30
0.0
 11
2646.826390395662
 21
2509.479214602718
 31
0.0
 12
2731.217592543754
 22
2510.52323412801
 32
0.0
 13
2731.217592543754
 23
2510.52323412801
 33
0.0
210
0.0
220
0.0
230
1.0
  0
SOLID
  5
60B
330
5E7
100
AcDbEntity
  8
HATCH
  6
CONTINUOUS
 62
     5
100
AcDbTrace
 10
2653.897458207528
 20
2520.408146790853
 30
0.0
 11
2639.755322583797
 21
2520.408146790853
 31
0.0
 12
2646.826390395662
 22
2517.479214602718
 32
0.0
 13
2646.826390395662
 23
2517.479214602718
 33
0.0
  0
SOLID
  5
60C
330
5E7
100
AcDbEntity
  8
HATCH
  6
CONTINUOUS
 62
     5
100
AcDbTrace
 10
2547.858575422493
 20
2524.472140348691
 30
0.0
 11
2566.31037423055
 21
2488.234007304385
 31
0.0
 12
2634.098468334304
 22
2514.75129254136
 32
0.0
 13
2634.098468334304
 23
2514.75129254136
 33
0.0
210
0.0
220
0.0
230
1.0
  0
SOLID
  5
60D
330
5E7
100
AcDbEntity
  8
HATCH
  6
CONTINUOUS
 62
     5
100
AcDbTrace
 10
2636.826390395663
 20
2527.479214602718
 30
0.0
 11
2639.755322583797
 21
2520.408146790853
 31
0.0
 12
2653.897458207528
 22
2520.408146790853
 32
0.0
 13
2653.897458207528
 23
2520.408146790853
 33
0.0
210
0.0
220
0.0
230
1.0
  0
SOLID
  5
60E
330
5E7
100
AcDbEntity
  8
HATCH
  6
CONTINUOUS
 62
     5
100
AcDbTrace
 10
2628.826390395662
 20
2527.479214602718
 30
0.0
 11
2547.858575422493
 21
2524.472140348691
 31
0.0
 12
2634.098468334304
 22
2514.75129254136
 32
0.0
 13
2634.098468334304
 23
2514.75129254136
 33
0.0
210
0.0
220
0.0
230
1.0
  0
SOLID
  5
60F
330
5E7
100
AcDbEntity
  8
HATCH
  6
CONTINUOUS
 62
     5
100
AcDbTrace
 10
2656.826390395663
 20
2527.479214602718
 30
0.0
 11
2636.826390395663
 21
2527.479214602718
 31
0.0
 12
2653.897458207528
 22
2520.408146790853
 32
0.0
 13
2653.897458207528
 23
2520.408146790853
 33
0.0
  0
SOLID
  5
610
330
5E7
100
AcDbEntity
  8
HATCH
  6
CONTINUOUS
 62
     5
100
AcDbTrace
 10
2664.826390395663
 20
2527.479214602718
 30
0.0
 11
2659.55431245702
 21
2514.75129254136
 31
0.0
 12
2731.217592543754
 22
2510.52323412801
 32
0.0
 13
2731.217592543754
 23
2510.52323412801
 33
0.0
210
0.0
220
0.0
230
1.0
  0
SOLID
  5
611
330
5E7
100
AcDbEntity
  8
HATCH
  6
CONTINUOUS
 62
     5
100
AcDbTrace
 10
2639.755322583797
 20
2534.550282414583
 30
0.0
 11
2636.826390395663
 21
2527.479214602718
 31
0.0
 12
2656.826390395663
 22
2527.479214602718
 32
0.0
 13
2656.826390395663
 23
2527.479214602718
 33
0.0
210
0.0
220
0.0
230
1.0
  0
SOLID
  5
612
330
5E7
100
AcDbEntity
  8
HATCH
  6
CONTINUOUS
 62
     5
100
AcDbTrace
 10
2653.897458207528
 20
2534.550282414583
 30
0.0
 11
2639.755322583797
 21
2534.550282414583
 31
0.0
 12
2656.826390395663
 22
2527.479214602718
 32
0.0
 13
2656.826390395663
 23
2527.479214602718
 33
0.0
  0
SOLID
  5
613
330
5E7
100
AcDbEntity
  8
HATCH
  6
CONTINUOUS
 62
     5
100
AcDbTrace
 10
2646.826390395662
 20
2537.479214602718
 30
0.0
 11
2639.755322583797
 21
2534.550282414583
 31
0.0
 12
2653.897458207528
 22
2534.550282414583
 32
0.0
 13
2653.897458207528
 23
2534.550282414583
 33
0.0
  0
SOLID
  5
614
330
5E7
100
AcDbEntity
  8
HATCH
  6
CONTINUOUS
 62
     5
100
AcDbTrace
 10
2634.098468334304
 20
2540.207136664076
 30
0.0
 11
2547.858575422493
 21
2524.472140348691
 31
0.0
 12
2628.826390395662
 22
2527.479214602718
 32
0.0
 13
2628.826390395662
 23
2527.479214602718
 33
0.0
210
0.0
220
0.0
230
1.0
  0
SOLID
  5
615
330
5E7
100
AcDbEntity
  8
HATCH
  6
CONTINUOUS
 62
     5
100
AcDbTrace
 10
2659.55431245702
 20
2540.207136664076
 30
0.0
 11
2664.826390395663
 21
2527.479214602718
 31
0.0
 12
2731.217592543754
 22
2510.52323412801
 32
0.0
 13
2731.217592543754
 23
2510.52323412801
 33
0.0
210
0.0
220
0.0
230
1.0
  0
SOLID
  5
616
330
5E7
100
AcDbEntity
  8
HATCH
  6
CONTINUOUS
 62
     5
100
AcDbTrace
 10
2646.826390395662
 20
2545.479214602718
 30
0.0
 11
2547.858575422493
 21
2524.472140348691
 31
0.0
 12
2634.098468334304
 22
2540.207136664076
 32
0.0
 13
2634.098468334304
 23
2540.207136664076
 33
0.0
210
0.0
220
0.0
230
1.0
  0
SOLID
  5
617
330
5E7
100
AcDbEntity
  8
HATCH
  6
CONTINUOUS
 62
     5
100
AcDbTrace
 10
2646.826390395662
 20
2545.479214602718
 30
0.0
 11
2659.55431245702
 21
2540.207136664076
 31
0.0
 12
2731.217592543754
 22
2510.52323412801
 32
0.0
 13
2731.217592543754
 23
2510.52323412801
 33
0.0
210
0.0
220
0.0
230
1.0
  0
SOLID
  5
618
330
5E7
100
AcDbEntity
  8
HATCH
  6
CONTINUOUS
 62
     5
100
AcDbTrace
 10
2562.43518824758
 20
2562.43519507743
 30
0.0
 11
2547.858575422493
 21
2524.472140348691
 31
0.0
 12
2646.826390395662
 22
2545.479214602718
 32
0.0
 13
2646.826390395662
 23
2545.479214602718
 33
0.0
  0
SOLID
  5
619
330
5E7
100
AcDbEntity
  8
HATCH
  6
CONTINUOUS
 62
     5
100
AcDbTrace
 10
2899.999996839948
 20
2900.000003669796
 30
0.0
 11
2562.43518824758
 21
2562.43519507743
 31
0.0
 12
2646.826390395662
 22
2545.479214602718
 32
0.0
 13
2646.826390395662
 23
2545.479214602718
 33
0.0
  0
SOLID
  5
61A
330
5E7
100
AcDbEntity
  8
HATCH
  6
CONTINUOUS
 62
     5
100
AcDbTrace
 10
2899.999996839948
 20
2900.000003669796
 30
0.0
 11
2646.826390395662
 21
2545.479214602718
 31
0.0
 12
2731.217592543754
 22
2510.52323412801
 32
0.0
 13
2731.217592543754
 23
2510.52323412801
 33
0.0
210
0.0
220
0.0
230
1.0
  0
SOLID
  5
61B
330
5E7
100
AcDbEntity
  8
HATCH
  6
CONTINUOUS
 62
     5
100
AcDbTrace
 10
2899.999996839948
 20
2900.000003669796
 30
0.0
 11
2731.217592543754
 21
2510.52323412801
 31
0.0
 12
2743.945514605112
 22
2505.251156189368
 32
0.0
 13
2743.945514605112
 23
2505.251156189368
 33
0.0
210
0.0
220
0.0
230
1.0
  0
SOLID
  5
61C
330
5E7
100
AcDbEntity
  8
HATCH
  6
CONTINUOUS
 62
     5
100
AcDbTrace
 10
2899.999996839948
 20
2900.000003669796
 30
0.0
 11
2743.945514605112
 21
2505.251156189368
 31
0.0
 12
2828.336716753202
 22
2470.295175714658
 32
0.0
 13
2828.336716753202
 23
2470.295175714658
 33
0.0
210
0.0
220
0.0
230
1.0
  0
SOLID
  5
61D
330
5E7
100
AcDbEntity
  8
HATCH
  6
CONTINUOUS
 62
     5
100
AcDbTrace
 10
2899.999996839948
 20
2900.000003669796
 30
0.0
 11
2828.336716753202
 21
2470.295175714658
 31
0.0
 12
2899.999996839946
 22
2422.611273178594
 32
0.0
 13
2899.999996839946
 23
2422.611273178594
 33
0.0
  0
ENDBLK
  5
61F
330
5E7
100
AcDbEntity
  8
0
100
AcDbBlockEnd
  0
BLOCK
  5
657
330
620
100
AcDbEntity
  8
0
100
AcDbBlockBegin
  2
*U14
 70
     1
 10
0.0
 20
0.0
 30
0.0
  3
*U14
  1

  0
SOLID
  5
621
330
620
100
AcDbEntity
  8
HATCH
  6
CONTINUOUS
 62
     5
100
AcDbTrace
 10
3102.822215993445
 20
2410.343851438812
 30
0.0
 11
2916.536708497847
 21
2385.460117969996
 31
0.0
 12
2955.208330173281
 22
2372.883280419094
 32
0.0
 13
2955.208330173281
 23
2372.883280419094
 33
0.0
210
0.0
220
0.0
230
1.0
  0
SOLID
  5
622
330
620
100
AcDbEntity
  8
HATCH
  6
CONTINUOUS
 62
     5
100
AcDbTrace
 10
2899.999996839949
 20
2422.611273178592
 30
0.0
 11
2916.536708497847
 21
2385.460117969996
 31
0.0
 12
3102.822215993445
 22
2410.343851438812
 32
0.0
 13
3102.822215993445
 23
2410.343851438812
 33
0.0
210
0.0
220
0.0
230
1.0
  0
SOLID
  5
623
330
620
100
AcDbEntity
  8
HATCH
  6
CONTINUOUS
 62
     5
100
AcDbTrace
 10
2984.391198988036
 20
2439.567253653293
 30
0.0
 11
2899.999996839949
 21
2422.611273178592
 31
0.0
 12
3102.822215993445
 22
2410.343851438812
 32
0.0
 13
3102.822215993445
 23
2410.343851438812
 33
0.0
210
0.0
220
0.0
230
1.0
  0
SOLID
  5
624
330
620
100
AcDbEntity
  8
HATCH
  6
CONTINUOUS
 62
     5
100
AcDbTrace
 10
2971.663276926678
 20
2444.839331591936
 30
0.0
 11
2899.999996839949
 21
2422.611273178592
 31
0.0
 12
2984.391198988036
 22
2439.567253653293
 32
0.0
 13
2984.391198988036
 23
2439.567253653293
 33
0.0
  0
SOLID
  5
625
330
620
100
AcDbEntity
  8
HATCH
  6
CONTINUOUS
 62
     5
100
AcDbTrace
 10
2997.119121049394
 20
2444.839331591936
 30
0.0
 11
2984.391198988036
 21
2439.567253653293
 31
0.0
 12
3102.822215993445
 22
2410.343851438812
 32
0.0
 13
3102.822215993445
 23
2410.343851438812
 33
0.0
  0
SOLID
  5
626
330
620
100
AcDbEntity
  8
HATCH
  6
CONTINUOUS
 62
     5
100
AcDbTrace
 10
2991.462266799901
 20
2450.496185841428
 30
0.0
 11
2977.320131176171
 21
2450.496185841428
 31
0.0
 12
2984.391198988036
 22
2447.567253653293
 32
0.0
 13
2984.391198988036
 23
2447.567253653293
 33
0.0
  0
SOLID
  5
627
330
620
100
AcDbEntity
  8
HATCH
  6
CONTINUOUS
 62
     5
100
AcDbTrace
 10
2966.391198988036
 20
2457.567253653293
 30
0.0
 11
2899.999996839949
 21
2422.611273178592
 31
0.0
 12
2971.663276926678
 22
2444.839331591936
 32
0.0
 13
2971.663276926678
 23
2444.839331591936
 33
0.0
210
0.0
220
0.0
230
1.0
  0
SOLID
  5
628
330
620
100
AcDbEntity
  8
HATCH
  6
CONTINUOUS
 62
     5
100
AcDbTrace
 10
2974.391198988036
 20
2457.567253653293
 30
0.0
 11
2977.320131176171
 21
2450.496185841428
 31
0.0
 12
2991.462266799901
 22
2450.496185841428
 32
0.0
 13
2991.462266799901
 23
2450.496185841428
 33
0.0
210
0.0
220
0.0
230
1.0
  0
SOLID
  5
629
330
620
100
AcDbEntity
  8
HATCH
  6
CONTINUOUS
 62
     5
100
AcDbTrace
 10
2994.391198988036
 20
2457.567253653293
 30
0.0
 11
2974.391198988036
 21
2457.567253653293
 31
0.0
 12
2991.462266799901
 22
2450.496185841428
 32
0.0
 13
2991.462266799901
 23
2450.496185841428
 33
0.0
  0
SOLID
  5
62A
330
620
100
AcDbEntity
  8
HATCH
  6
CONTINUOUS
 62
     5
100
AcDbTrace
 10
3002.391198988036
 20
2457.567253653293
 30
0.0
 11
2997.119121049394
 21
2444.839331591936
 31
0.0
 12
3102.822215993445
 22
2410.343851438812
 32
0.0
 13
3102.822215993445
 23
2410.343851438812
 33
0.0
210
0.0
220
0.0
230
1.0
  0
SOLID
  5
62B
330
620
100
AcDbEntity
  8
HATCH
  6
CONTINUOUS
 62
     5
100
AcDbTrace
 10
2977.320131176171
 20
2464.638321465159
 30
0.0
 11
2974.391198988036
 21
2457.567253653293
 31
0.0
 12
2994.391198988036
 22
2457.567253653293
 32
0.0
 13
2994.391198988036
 23
2457.567253653293
 33
0.0
210
0.0
220
0.0
230
1.0
  0
SOLID
  5
62C
330
620
100
AcDbEntity
  8
HATCH
  6
CONTINUOUS
 62
     5
100
AcDbTrace
 10
2991.462266799901
 20
2464.638321465159
 30
0.0
 11
2977.320131176171
 21
2464.638321465159
 31
0.0
 12
2994.391198988036
 22
2457.567253653293
 32
0.0
 13
2994.391198988036
 23
2457.567253653293
 33
0.0
  0
SOLID
  5
62D
330
620
100
AcDbEntity
  8
HATCH
  6
CONTINUOUS
 62
     5
100
AcDbTrace
 10
2984.391198988036
 20
2467.567253653293
 30
0.0
 11
2977.320131176171
 21
2464.638321465159
 31
0.0
 12
2991.462266799901
 22
2464.638321465159
 32
0.0
 13
2991.462266799901
 23
2464.638321465159
 33
0.0
  0
SOLID
  5
62E
330
620
100
AcDbEntity
  8
HATCH
  6
CONTINUOUS
 62
     5
100
AcDbTrace
 10
2971.663276926678
 20
2470.295175714651
 30
0.0
 11
2899.999996839949
 21
2422.611273178592
 31
0.0
 12
2966.391198988036
 22
2457.567253653293
 32
0.0
 13
2966.391198988036
 23
2457.567253653293
 33
0.0
  0
SOLID
  5
62F
330
620
100
AcDbEntity
  8
HATCH
  6
CONTINUOUS
 62
     5
100
AcDbTrace
 10
2997.119121049394
 20
2470.295175714651
 30
0.0
 11
3002.391198988036
 21
2457.567253653293
 31
0.0
 12
3102.822215993445
 22
2410.343851438812
 32
0.0
 13
3102.822215993445
 23
2410.343851438812
 33
0.0
210
0.0
220
0.0
230
1.0
  0
SOLID
  5
630
330
620
100
AcDbEntity
  8
HATCH
  6
CONTINUOUS
 62
     5
100
AcDbTrace
 10
3068.782401136127
 20
2474.523234128003
 30
0.0
 11
2997.119121049394
 21
2470.295175714651
 31
0.0
 12
3102.822215993445
 22
2410.343851438812
 32
0.0
 13
3102.822215993445
 23
2410.343851438812
 33
0.0
210
0.0
220
0.0
230
1.0
  0
SOLID
  5
631
330
620
100
AcDbEntity
  8
HATCH
  6
CONTINUOUS
 62
     5
100
AcDbTrace
 10
2984.391198988036
 20
2475.567253653293
 30
0.0
 11
2997.119121049394
 21
2470.295175714651
 31
0.0
 12
3068.782401136127
 22
2474.523234128003
 32
0.0
 13
3068.782401136127
 23
2474.523234128003
 33
0.0
210
0.0
220
0.0
230
1.0
  0
SOLID
  5
632
330
620
100
AcDbEntity
  8
HATCH
  6
CONTINUOUS
 62
     5
100
AcDbTrace
 10
3056.054479074769
 20
2479.795312066645
 30
0.0
 11
2984.391198988036
 21
2475.567253653293
 31
0.0
 12
3068.782401136127
 22
2474.523234128003
 32
0.0
 13
3068.782401136127
 23
2474.523234128003
 33
0.0
210
0.0
220
0.0
230
1.0
  0
SOLID
  5
633
330
620
100
AcDbEntity
  8
HATCH
  6
CONTINUOUS
 62
     5
100
AcDbTrace
 10
3081.510323197484
 20
2479.795312066645
 30
0.0
 11
3068.782401136127
 21
2474.523234128003
 31
0.0
 12
3102.822215993445
 22
2410.343851438812
 32
0.0
 13
3102.822215993445
 23
2410.343851438812
 33
0.0
210
0.0
220
0.0
230
1.0
  0
SOLID
  5
634
330
620
100
AcDbEntity
  8
HATCH
  6
CONTINUOUS
 62
     5
100
AcDbTrace
 10
3075.853468947992
 20
2485.452166316138
 30
0.0
 11
3061.711333324262
 21
2485.452166316138
 31
0.0
 12
3068.782401136127
 22
2482.523234128003
 32
0.0
 13
3068.782401136127
 23
2482.523234128003
 33
0.0
  0
SOLID
  5
635
330
620
100
AcDbEntity
  8
HATCH
  6
CONTINUOUS
 62
     5
100
AcDbTrace
 10
3233.689619449344
 20
2488.234007304382
 30
0.0
 11
3081.510323197484
 21
2479.795312066645
 31
0.0
 12
3102.822215993445
 22
2410.343851438812
 32
0.0
 13
3102.822215993445
 23
2410.343851438812
 33
0.0
210
0.0
220
0.0
230
1.0
  0
SOLID
  5
636
330
620
100
AcDbEntity
  8
HATCH
  6
CONTINUOUS
 62
     5
100
AcDbTrace
 10
3058.782401136127
 20
2492.523234128003
 30
0.0
 11
3061.711333324262
 21
2485.452166316138
 31
0.0
 12
3075.853468947992
 22
2485.452166316138
 32
0.0
 13
3075.853468947992
 23
2485.452166316138
 33
0.0
210
0.0
220
0.0
230
1.0
  0
SOLID
  5
637
330
620
100
AcDbEntity
  8
HATCH
  6
CONTINUOUS
 62
     5
100
AcDbTrace
 10
3050.782401136127
 20
2492.523234128003
 30
0.0
 11
2984.391198988036
 21
2475.567253653293
 31
0.0
 12
3056.054479074769
 22
2479.795312066645
 32
0.0
 13
3056.054479074769
 23
2479.795312066645
 33
0.0
210
0.0
220
0.0
230
1.0
  0
SOLID
  5
638
330
620
100
AcDbEntity
  8
HATCH
  6
CONTINUOUS
 62
     5
100
AcDbTrace
 10
3078.782401136127
 20
2492.523234128003
 30
0.0
 11
3058.782401136127
 21
2492.523234128003
 31
0.0
 12
3075.853468947992
 22
2485.452166316138
 32
0.0
 13
3075.853468947992
 23
2485.452166316138
 33
0.0
  0
SOLID
  5
639
330
620
100
AcDbEntity
  8
HATCH
  6
CONTINUOUS
 62
     5
100
AcDbTrace
 10
3086.782401136127
 20
2492.523234128003
 30
0.0
 11
3081.510323197484
 21
2479.795312066645
 31
0.0
 12
3233.689619449344
 22
2488.234007304382
 32
0.0
 13
3233.689619449344
 23
2488.234007304382
 33
0.0
  0
SOLID
  5
63A
330
620
100
AcDbEntity
  8
HATCH
  6
CONTINUOUS
 62
     5
100
AcDbTrace
 10
3061.711333324262
 20
2499.594301939868
 30
0.0
 11
3058.782401136127
 21
2492.523234128003
 31
0.0
 12
3078.782401136127
 22
2492.523234128003
 32
0.0
 13
3078.782401136127
 23
2492.523234128003
 33
0.0
210
0.0
220
0.0
230
1.0
  0
SOLID
  5
63B
330
620
100
AcDbEntity
  8
HATCH
  6
CONTINUOUS
 62
     5
100
AcDbTrace
 10
3075.853468947992
 20
2499.594301939868
 30
0.0
 11
3061.711333324262
 21
2499.594301939868
 31
0.0
 12
3078.782401136127
 22
2492.523234128003
 32
0.0
 13
3078.782401136127
 23
2492.523234128003
 33
0.0
  0
SOLID
  5
63C
330
620
100
AcDbEntity
  8
HATCH
  6
CONTINUOUS
 62
     5
100
AcDbTrace
 10
3068.782401136127
 20
2502.523234128003
 30
0.0
 11
3061.711333324262
 21
2499.594301939868
 31
0.0
 12
3075.853468947992
 22
2499.594301939868
 32
0.0
 13
3075.853468947992
 23
2499.594301939868
 33
0.0
  0
SOLID
  5
63D
330
620
100
AcDbEntity
  8
HATCH
  6
CONTINUOUS
 62
     5
100
AcDbTrace
 10
3056.054479074769
 20
2505.251156189361
 30
0.0
 11
2984.391198988036
 21
2475.567253653293
 31
0.0
 12
3050.782401136127
 22
2492.523234128003
 32
0.0
 13
3050.782401136127
 23
2492.523234128003
 33
0.0
  0
SOLID
  5
63E
330
620
100
AcDbEntity
  8
HATCH
  6
CONTINUOUS
 62
     5
100
AcDbTrace
 10
3056.054479074769
 20
2505.251156189361
 30
0.0
 11
2971.663276926678
 21
2470.295175714651
 31
0.0
 12
2984.391198988036
 22
2475.567253653293
 32
0.0
 13
2984.391198988036
 23
2475.567253653293
 33
0.0
210
0.0
220
0.0
230
1.0
  0
SOLID
  5
63F
330
620
100
AcDbEntity
  8
HATCH
  6
CONTINUOUS
 62
     5
100
AcDbTrace
 10
3081.510323197484
 20
2505.251156189361
 30
0.0
 11
3086.782401136127
 21
2492.523234128003
 31
0.0
 12
3233.689619449344
 22
2488.234007304382
 32
0.0
 13
3233.689619449344
 23
2488.234007304382
 33
0.0
210
0.0
220
0.0
230
1.0
  0
SOLID
  5
640
330
620
100
AcDbEntity
  8
HATCH
  6
CONTINUOUS
 62
     5
100
AcDbTrace
 10
3153.173603284218
 20
2509.47921460271
 30
0.0
 11
3081.510323197484
 21
2505.251156189361
 31
0.0
 12
3233.689619449344
 22
2488.234007304382
 32
0.0
 13
3233.689619449344
 23
2488.234007304382
 33
0.0
210
0.0
220
0.0
230
1.0
  0
SOLID
  5
641
330
620
100
AcDbEntity
  8
HATCH
  6
CONTINUOUS
 62
     5
100
AcDbTrace
 10
3068.782401136127
 20
2510.523234128003
 30
0.0
 11
3081.510323197484
 21
2505.251156189361
 31
0.0
 12
3153.173603284218
 22
2509.47921460271
 32
0.0
 13
3153.173603284218
 23
2509.47921460271
 33
0.0
210
0.0
220
0.0
230
1.0
  0
SOLID
  5
642
330
620
100
AcDbEntity
  8
HATCH
  6
CONTINUOUS
 62
     5
100
AcDbTrace
 10
3140.44568122286
 20
2514.751292541352
 30
0.0
 11
3068.782401136127
 21
2510.523234128003
 31
0.0
 12
3153.173603284218
 22
2509.47921460271
 32
0.0
 13
3153.173603284218
 23
2509.47921460271
 33
0.0
  0
SOLID
  5
643
330
620
100
AcDbEntity
  8
HATCH
  6
CONTINUOUS
 62
     5
100
AcDbTrace
 10
3165.901525345576
 20
2514.751292541352
 30
0.0
 11
3153.173603284218
 21
2509.47921460271
 31
0.0
 12
3233.689619449344
 22
2488.234007304382
 32
0.0
 13
3233.689619449344
 23
2488.234007304382
 33
0.0
210
0.0
220
0.0
230
1.0
  0
SOLID
  5
644
330
620
100
AcDbEntity
  8
HATCH
  6
CONTINUOUS
 62
     5
100
AcDbTrace
 10
3160.244671096084
 20
2520.408146790845
 30
0.0
 11
3146.102535472353
 21
2520.408146790845
 31
0.0
 12
3153.173603284218
 22
2517.47921460271
 32
0.0
 13
3153.173603284218
 23
2517.47921460271
 33
0.0
  0
SOLID
  5
645
330
620
100
AcDbEntity
  8
HATCH
  6
CONTINUOUS
 62
     5
100
AcDbTrace
 10
3252.141418257402
 20
2524.472140348688
 30
0.0
 11
3165.901525345576
 21
2514.751292541352
 31
0.0
 12
3233.689619449344
 22
2488.234007304382
 32
0.0
 13
3233.689619449344
 23
2488.234007304382
 33
0.0
210
0.0
220
0.0
230
1.0
  0
SOLID
  5
646
330
620
100
AcDbEntity
  8
HATCH
  6
CONTINUOUS
 62
     5
100
AcDbTrace
 10
3143.173603284218
 20
2527.47921460271
 30
0.0
 11
3146.102535472353
 21
2520.408146790845
 31
0.0
 12
3160.244671096084
 22
2520.408146790845
 32
0.0
 13
3160.244671096084
 23
2520.408146790845
 33
0.0
210
0.0
220
0.0
230
1.0
  0
SOLID
  5
647
330
620
100
AcDbEntity
  8
HATCH
  6
CONTINUOUS
 62
     5
100
AcDbTrace
 10
3135.173603284218
 20
2527.47921460271
 30
0.0
 11
3068.782401136127
 21
2510.523234128003
 31
0.0
 12
3140.44568122286
 22
2514.751292541352
 32
0.0
 13
3140.44568122286
 23
2514.751292541352
 33
0.0
210
0.0
220
0.0
230
1.0
  0
SOLID
  5
648
330
620
100
AcDbEntity
  8
HATCH
  6
CONTINUOUS
 62
     5
100
AcDbTrace
 10
3171.173603284218
 20
2527.47921460271
 30
0.0
 11
3165.901525345576
 21
2514.751292541352
 31
0.0
 12
3252.141418257402
 22
2524.472140348688
 32
0.0
 13
3252.141418257402
 23
2524.472140348688
 33
0.0
  0
SOLID
  5
649
330
620
100
AcDbEntity
  8
HATCH
  6
CONTINUOUS
 62
     5
100
AcDbTrace
 10
3163.173603284218
 20
2527.47921460271
 30
0.0
 11
3143.173603284218
 21
2527.47921460271
 31
0.0
 12
3160.244671096084
 22
2520.408146790845
 32
0.0
 13
3160.244671096084
 23
2520.408146790845
 33
0.0
  0
SOLID
  5
64A
330
620
100
AcDbEntity
  8
HATCH
  6
CONTINUOUS
 62
     5
100
AcDbTrace
 10
3146.102535472353
 20
2534.550282414576
 30
0.0
 11
3143.173603284218
 21
2527.47921460271
 31
0.0
 12
3163.173603284218
 22
2527.47921460271
 32
0.0
 13
3163.173603284218
 23
2527.47921460271
 33
0.0
210
0.0
220
0.0
230
1.0
  0
SOLID
  5
64B
330
620
100
AcDbEntity
  8
HATCH
  6
CONTINUOUS
 62
     5
100
AcDbTrace
 10
3160.244671096084
 20
2534.550282414576
 30
0.0
 11
3146.102535472353
 21
2534.550282414576
 31
0.0
 12
3163.173603284218
 22
2527.47921460271
 32
0.0
 13
3163.173603284218
 23
2527.47921460271
 33
0.0
  0
SOLID
  5
64C
330
620
100
AcDbEntity
  8
HATCH
  6
CONTINUOUS
 62
     5
100
AcDbTrace
 10
3153.173603284218
 20
2537.47921460271
 30
0.0
 11
3146.102535472353
 21
2534.550282414576
 31
0.0
 12
3160.244671096084
 22
2534.550282414576
 32
0.0
 13
3160.244671096084
 23
2534.550282414576
 33
0.0
  0
SOLID
  5
64D
330
620
100
AcDbEntity
  8
HATCH
  6
CONTINUOUS
 62
     5
100
AcDbTrace
 10
3140.44568122286
 20
2540.207136664068
 30
0.0
 11
3068.782401136127
 21
2510.523234128003
 31
0.0
 12
3135.173603284218
 22
2527.47921460271
 32
0.0
 13
3135.173603284218
 23
2527.47921460271
 33
0.0
210
0.0
220
0.0
230
1.0
  0
SOLID
  5
64E
330
620
100
AcDbEntity
  8
HATCH
  6
CONTINUOUS
 62
     5
100
AcDbTrace
 10
3165.901525345576
 20
2540.207136664068
 30
0.0
 11
3171.173603284218
 21
2527.47921460271
 31
0.0
 12
3252.141418257402
 22
2524.472140348688
 32
0.0
 13
3252.141418257402
 23
2524.472140348688
 33
0.0
210
0.0
220
0.0
230
1.0
  0
SOLID
  5
64F
330
620
100
AcDbEntity
  8
HATCH
  6
CONTINUOUS
 62
     5
100
AcDbTrace
 10
3153.173603284218
 20
2545.47921460271
 30
0.0
 11
3068.782401136127
 21
2510.523234128003
 31
0.0
 12
3140.44568122286
 22
2540.207136664068
 32
0.0
 13
3140.44568122286
 23
2540.207136664068
 33
0.0
210
0.0
220
0.0
230
1.0
  0
SOLID
  5
650
330
620
100
AcDbEntity
  8
HATCH
  6
CONTINUOUS
 62
     5
100
AcDbTrace
 10
3153.173603284218
 20
2545.47921460271
 30
0.0
 11
3165.901525345576
 21
2540.207136664068
 31
0.0
 12
3252.141418257402
 22
2524.472140348688
 32
0.0
 13
3252.141418257402
 23
2524.472140348688
 33
0.0
210
0.0
220
0.0
230
1.0
  0
SOLID
  5
651
330
620
100
AcDbEntity
  8
HATCH
  6
CONTINUOUS
 62
     5
100
AcDbTrace
 10
3237.564805432315
 20
2562.435195077429
 30
0.0
 11
3153.173603284218
 21
2545.47921460271
 31
0.0
 12
3252.141418257402
 22
2524.472140348688
 32
0.0
 13
3252.141418257402
 23
2524.472140348688
 33
0.0
210
0.0
220
0.0
230
1.0
  0
SOLID
  5
652
330
620
100
AcDbEntity
  8
HATCH
  6
CONTINUOUS
 62
     5
100
AcDbTrace
 10
2899.99999683995
 20
2900.000003669796
 30
0.0
 11
3153.173603284218
 21
2545.47921460271
 31
0.0
 12
3237.564805432315
 22
2562.435195077429
 32
0.0
 13
3237.564805432315
 23
2562.435195077429
 33
0.0
210
0.0
220
0.0
230
1.0
  0
SOLID
  5
653
330
620
100
AcDbEntity
  8
HATCH
  6
CONTINUOUS
 62
     5
100
AcDbTrace
 10
2899.99999683995
 20
2900.000003669796
 30
0.0
 11
3068.782401136127
 21
2510.523234128003
 31
0.0
 12
3153.173603284218
 22
2545.47921460271
 32
0.0
 13
3153.173603284218
 23
2545.47921460271
 33
0.0
210
0.0
220
0.0
230
1.0
  0
SOLID
  5
654
330
620
100
AcDbEntity
  8
HATCH
  6
CONTINUOUS
 62
     5
100
AcDbTrace
 10
2899.99999683995
 20
2900.000003669796
 30
0.0
 11
3056.054479074769
 21
2505.251156189361
 31
0.0
 12
3068.782401136127
 22
2510.523234128003
 32
0.0
 13
3068.782401136127
 23
2510.523234128003
 33
0.0
210
0.0
220
0.0
230
1.0
  0
SOLID
  5
655
330
620
100
AcDbEntity
  8
HATCH
  6
CONTINUOUS
 62
     5
100
AcDbTrace
 10
2899.99999683995
 20
2900.000003669796
 30
0.0
 11
2971.663276926678
 21
2470.295175714651
 31
0.0
 12
3056.054479074769
 22
2505.251156189361
 32
0.0
 13
3056.054479074769
 23
2505.251156189361
 33
0.0
  0
SOLID
  5
656
330
620
100
AcDbEntity
  8
HATCH
  6
CONTINUOUS
 62
     5
100
AcDbTrace
 10
2899.99999683995
 20
2900.000003669796
 30
0.0
 11
2899.999996839949
 21
2422.611273178592
 31
0.0
 12
2971.663276926678
 22
2470.295175714651
 32
0.0
 13
2971.663276926678
 23
2470.295175714651
 33
0.0
  0
ENDBLK
  5
658
330
620
100
AcDbEntity
  8
0
100
AcDbBlockEnd
  0
BLOCK
  5
690
330
659
100
AcDbEntity
  8
0
100
AcDbBlockBegin
  2
*U15
 70
     1
 10
0.0
 20
0.0
 30
0.0
  3
*U15
  1

  0
SOLID
  5
65A
330
659
100
AcDbEntity
  8
HATCH
  6
CONTINUOUS
 62
     5
100
AcDbTrace
 10
3311.765986138397
 20
2566.310372339916
 30
0.0
 11
3237.564805432317
 21
2562.43519507743
 31
0.0
 12
3275.527854556457
 22
2547.858581959641
 32
0.0
 13
3275.527854556457
 23
2547.858581959641
 33
0.0
210
0.0
220
0.0
230
1.0
  0
SOLID
  5
65B
330
659
100
AcDbEntity
  8
HATCH
  6
CONTINUOUS
 62
     5
100
AcDbTrace
 10
3272.520785907029
 20
2628.826397225513
 30
0.0
 11
3237.564805432317
 21
2562.43519507743
 31
0.0
 12
3311.765986138397
 22
2566.310372339916
 32
0.0
 13
3311.765986138397
 23
2566.310372339916
 33
0.0
210
0.0
220
0.0
230
1.0
  0
SOLID
  5
65C
330
659
100
AcDbEntity
  8
HATCH
  6
CONTINUOUS
 62
     5
100
AcDbTrace
 10
3259.792863845671
 20
2634.098475164156
 30
0.0
 11
3237.564805432317
 21
2562.43519507743
 31
0.0
 12
3272.520785907029
 22
2628.826397225513
 32
0.0
 13
3272.520785907029
 23
2628.826397225513
 33
0.0
210
0.0
220
0.0
230
1.0
  0
SOLID
  5
65D
330
659
100
AcDbEntity
  8
HATCH
  6
CONTINUOUS
 62
     5
100
AcDbTrace
 10
3285.248707968387
 20
2634.098475164156
 30
0.0
 11
3272.520785907029
 21
2628.826397225513
 31
0.0
 12
3311.765986138397
 22
2566.310372339916
 32
0.0
 13
3311.765986138397
 23
2566.310372339916
 33
0.0
210
0.0
220
0.0
230
1.0
  0
SOLID
  5
65E
330
659
100
AcDbEntity
  8
HATCH
  6
CONTINUOUS
 62
     5
100
AcDbTrace
 10
3279.591853718894
 20
2639.755329413648
 30
0.0
 11
3265.449718095164
 21
2639.755329413648
 31
0.0
 12
3272.520785907029
 22
2636.826397225513
 32
0.0
 13
3272.520785907029
 23
2636.826397225513
 33
0.0
  0
SOLID
  5
65F
330
659
100
AcDbEntity
  8
HATCH
  6
CONTINUOUS
 62
     5
100
AcDbTrace
 10
3254.520785907029
 20
2646.826397225513
 30
0.0
 11
3237.564805432317
 21
2562.43519507743
 31
0.0
 12
3259.792863845671
 22
2634.098475164156
 32
0.0
 13
3259.792863845671
 23
2634.098475164156
 33
0.0
210
0.0
220
0.0
230
1.0
  0
SOLID
  5
660
330
659
100
AcDbEntity
  8
HATCH
  6
CONTINUOUS
 62
     5
100
AcDbTrace
 10
3262.520785907029
 20
2646.826397225513
 30
0.0
 11
3265.449718095164
 21
2639.755329413648
 31
0.0
 12
3279.591853718894
 22
2639.755329413648
 32
0.0
 13
3279.591853718894
 23
2639.755329413648
 33
0.0
210
0.0
220
0.0
230
1.0
  0
SOLID
  5
661
330
659
100
AcDbEntity
  8
HATCH
  6
CONTINUOUS
 62
     5
100
AcDbTrace
 10
3290.520785907029
 20
2646.826397225513
 30
0.0
 11
3285.248707968387
 21
2634.098475164156
 31
0.0
 12
3311.765986138397
 22
2566.310372339916
 32
0.0
 13
3311.765986138397
 23
2566.310372339916
 33
0.0
210
0.0
220
0.0
230
1.0
  0
SOLID
  5
662
330
659
100
AcDbEntity
  8
HATCH
  6
CONTINUOUS
 62
     5
100
AcDbTrace
 10
3282.520785907029
 20
2646.826397225513
 30
0.0
 11
3262.520785907029
 21
2646.826397225513
 31
0.0
 12
3279.591853718894
 22
2639.755329413648
 32
0.0
 13
3279.591853718894
 23
2639.755329413648
 33
0.0
  0
SOLID
  5
663
330
659
100
AcDbEntity
  8
HATCH
  6
CONTINUOUS
 62
     5
100
AcDbTrace
 10
3265.449718095164
 20
2653.897465037378
 30
0.0
 11
3262.520785907029
 21
2646.826397225513
 31
0.0
 12
3282.520785907029
 22
2646.826397225513
 32
0.0
 13
3282.520785907029
 23
2646.826397225513
 33
0.0
210
0.0
220
0.0
230
1.0
  0
SOLID
  5
664
330
659
100
AcDbEntity
  8
HATCH
  6
CONTINUOUS
 62
     5
100
AcDbTrace
 10
3279.591853718894
 20
2653.897465037378
 30
0.0
 11
3265.449718095164
 21
2653.897465037378
 31
0.0
 12
3282.520785907029
 22
2646.826397225513
 32
0.0
 13
3282.520785907029
 23
2646.826397225513
 33
0.0
  0
SOLID
  5
665
330
659
100
AcDbEntity
  8
HATCH
  6
CONTINUOUS
 62
     5
100
AcDbTrace
 10
3272.520785907029
 20
2656.826397225513
 30
0.0
 11
3265.449718095164
 21
2653.897465037378
 31
0.0
 12
3279.591853718894
 22
2653.897465037378
 32
0.0
 13
3279.591853718894
 23
2653.897465037378
 33
0.0
  0
SOLID
  5
666
330
659
100
AcDbEntity
  8
HATCH
  6
CONTINUOUS
 62
     5
100
AcDbTrace
 10
3389.656146923223
 20
2697.177779331267
 30
0.0
 11
3272.520785907029
 21
2664.826397225513
 31
0.0
 12
3285.248707968387
 22
2659.554319286871
 32
0.0
 13
3285.248707968387
 23
2659.554319286871
 33
0.0
210
0.0
220
0.0
230
1.0
  0
SOLID
  5
667
330
659
100
AcDbEntity
  8
HATCH
  6
CONTINUOUS
 62
     5
100
AcDbTrace
 10
3389.656146923223
 20
2697.177779331267
 30
0.0
 11
3285.248707968387
 21
2659.554319286871
 31
0.0
 12
3290.520785907029
 22
2646.826397225513
 32
0.0
 13
3290.520785907029
 23
2646.826397225513
 33
0.0
  0
SOLID
  5
668
330
659
100
AcDbEntity
  8
HATCH
  6
CONTINUOUS
 62
     5
100
AcDbTrace
 10
3389.656146923223
 20
2697.177779331267
 30
0.0
 11
3290.520785907029
 21
2646.826397225513
 31
0.0
 12
3311.765986138397
 22
2566.310372339916
 32
0.0
 13
3311.765986138397
 23
2566.310372339916
 33
0.0
  0
SOLID
  5
669
330
659
100
AcDbEntity
  8
HATCH
  6
CONTINUOUS
 62
     5
100
AcDbTrace
 10
3307.476766381737
 20
2713.217599373605
 30
0.0
 11
3272.520785907029
 21
2664.826397225513
 31
0.0
 12
3389.656146923223
 22
2697.177779331267
 32
0.0
 13
3389.656146923223
 23
2697.177779331267
 33
0.0
210
0.0
220
0.0
230
1.0
  0
SOLID
  5
66A
330
659
100
AcDbEntity
  8
HATCH
  6
CONTINUOUS
 62
     5
100
AcDbTrace
 10
3307.476766381737
 20
2713.217599373605
 30
0.0
 11
3259.792863845671
 21
2659.554319286871
 31
0.0
 12
3272.520785907029
 22
2664.826397225513
 32
0.0
 13
3272.520785907029
 23
2664.826397225513
 33
0.0
  0
SOLID
  5
66B
330
659
100
AcDbEntity
  8
HATCH
  6
CONTINUOUS
 62
     5
100
AcDbTrace
 10
3294.748844320379
 20
2718.489677312247
 30
0.0
 11
3259.792863845671
 21
2659.554319286871
 31
0.0
 12
3307.476766381737
 22
2713.217599373605
 32
0.0
 13
3307.476766381737
 23
2713.217599373605
 33
0.0
210
0.0
220
0.0
230
1.0
  0
SOLID
  5
66C
330
659
100
AcDbEntity
  8
HATCH
  6
CONTINUOUS
 62
     5
100
AcDbTrace
 10
3320.204688443094
 20
2718.489677312247
 30
0.0
 11
3307.476766381737
 21
2713.217599373605
 31
0.0
 12
3389.656146923223
 22
2697.177779331267
 32
0.0
 13
3389.656146923223
 23
2697.177779331267
 33
0.0
210
0.0
220
0.0
230
1.0
  0
SOLID
  5
66D
330
659
100
AcDbEntity
  8
HATCH
  6
CONTINUOUS
 62
     5
100
AcDbTrace
 10
3314.547834193602
 20
2724.14653156174
 30
0.0
 11
3300.405698569871
 21
2724.14653156174
 31
0.0
 12
3307.476766381737
 22
2721.217599373605
 32
0.0
 13
3307.476766381737
 23
2721.217599373605
 33
0.0
  0
SOLID
  5
66E
330
659
100
AcDbEntity
  8
HATCH
  6
CONTINUOUS
 62
     5
100
AcDbTrace
 10
3297.476766381736
 20
2731.217599373605
 30
0.0
 11
3300.405698569871
 21
2724.14653156174
 31
0.0
 12
3314.547834193602
 22
2724.14653156174
 32
0.0
 13
3314.547834193602
 23
2724.14653156174
 33
0.0
210
0.0
220
0.0
230
1.0
  0
SOLID
  5
66F
330
659
100
AcDbEntity
  8
HATCH
  6
CONTINUOUS
 62
     5
100
AcDbTrace
 10
3289.476766381737
 20
2731.217599373605
 30
0.0
 11
3259.792863845671
 21
2659.554319286871
 31
0.0
 12
3294.748844320379
 22
2718.489677312247
 32
0.0
 13
3294.748844320379
 23
2718.489677312247
 33
0.0
210
0.0
220
0.0
230
1.0
  0
SOLID
  5
670
330
659
100
AcDbEntity
  8
HATCH
  6
CONTINUOUS
 62
     5
100
AcDbTrace
 10
3289.476766381737
 20
2731.217599373605
 30
0.0
 11
3254.520785907029
 21
2646.826397225513
 31
0.0
 12
3259.792863845671
 22
2659.554319286871
 32
0.0
 13
3259.792863845671
 23
2659.554319286871
 33
0.0
210
0.0
220
0.0
230
1.0
  0
SOLID
  5
671
330
659
100
AcDbEntity
  8
HATCH
  6
CONTINUOUS
 62
     5
100
AcDbTrace
 10
3317.476766381736
 20
2731.217599373605
 30
0.0
 11
3297.476766381736
 21
2731.217599373605
 31
0.0
 12
3314.547834193602
 22
2724.14653156174
 32
0.0
 13
3314.547834193602
 23
2724.14653156174
 33
0.0
  0
SOLID
  5
672
330
659
100
AcDbEntity
  8
HATCH
  6
CONTINUOUS
 62
     5
100
AcDbTrace
 10
3325.476766381736
 20
2731.217599373605
 30
0.0
 11
3320.204688443094
 21
2718.489677312247
 31
0.0
 12
3389.656146923223
 22
2697.177779331267
 32
0.0
 13
3389.656146923223
 23
2697.177779331267
 33
0.0
210
0.0
220
0.0
230
1.0
  0
SOLID
  5
673
330
659
100
AcDbEntity
  8
HATCH
  6
CONTINUOUS
 62
     5
100
AcDbTrace
 10
3300.405698569871
 20
2738.288667185471
 30
0.0
 11
3297.476766381736
 21
2731.217599373605
 31
0.0
 12
3317.476766381736
 22
2731.217599373605
 32
0.0
 13
3317.476766381736
 23
2731.217599373605
 33
0.0
210
0.0
220
0.0
230
1.0
  0
SOLID
  5
674
330
659
100
AcDbEntity
  8
HATCH
  6
CONTINUOUS
 62
     5
100
AcDbTrace
 10
3314.547834193602
 20
2738.288667185471
 30
0.0
 11
3300.405698569871
 21
2738.288667185471
 31
0.0
 12
3317.476766381736
 22
2731.217599373605
 32
0.0
 13
3317.476766381736
 23
2731.217599373605
 33
0.0
  0
SOLID
  5
675
330
659
100
AcDbEntity
  8
HATCH
  6
CONTINUOUS
 62
     5
100
AcDbTrace
 10
3307.476766381737
 20
2741.217599373605
 30
0.0
 11
3300.405698569871
 21
2738.288667185471
 31
0.0
 12
3314.547834193602
 22
2738.288667185471
 32
0.0
 13
3314.547834193602
 23
2738.288667185471
 33
0.0
  0
SOLID
  5
676
330
659
100
AcDbEntity
  8
HATCH
  6
CONTINUOUS
 62
     5
100
AcDbTrace
 10
3320.204688443094
 20
2743.945521434963
 30
0.0
 11
3325.476766381736
 21
2731.217599373605
 31
0.0
 12
3389.656146923223
 22
2697.177779331267
 32
0.0
 13
3389.656146923223
 23
2697.177779331267
 33
0.0
210
0.0
220
0.0
230
1.0
  0
SOLID
  5
677
330
659
100
AcDbEntity
  8
HATCH
  6
CONTINUOUS
 62
     5
100
AcDbTrace
 10
3342.432746856447
 20
2797.608801521695
 30
0.0
 11
3307.476766381737
 21
2749.217599373605
 31
0.0
 12
3320.204688443094
 22
2743.945521434963
 32
0.0
 13
3320.204688443094
 23
2743.945521434963
 33
0.0
210
0.0
220
0.0
230
1.0
  0
SOLID
  5
678
330
659
100
AcDbEntity
  8
HATCH
  6
CONTINUOUS
 62
     5
100
AcDbTrace
 10
3342.432746856447
 20
2797.608801521695
 30
0.0
 11
3320.204688443094
 21
2743.945521434963
 31
0.0
 12
3389.656146923223
 22
2697.177779331267
 32
0.0
 13
3389.656146923223
 23
2697.177779331267
 33
0.0
210
0.0
220
0.0
230
1.0
  0
SOLID
  5
679
330
659
100
AcDbEntity
  8
HATCH
  6
CONTINUOUS
 62
     5
100
AcDbTrace
 10
3342.432746856447
 20
2797.608801521695
 30
0.0
 11
3294.748844320379
 21
2743.945521434963
 31
0.0
 12
3307.476766381737
 22
2749.217599373605
 32
0.0
 13
3307.476766381737
 23
2749.217599373605
 33
0.0
210
0.0
220
0.0
230
1.0
  0
SOLID
  5
67A
330
659
100
AcDbEntity
  8
HATCH
  6
CONTINUOUS
 62
     5
100
AcDbTrace
 10
3329.704824795089
 20
2802.880879460337
 30
0.0
 11
3294.748844320379
 21
2743.945521434963
 31
0.0
 12
3342.432746856447
 22
2797.608801521695
 32
0.0
 13
3342.432746856447
 23
2797.608801521695
 33
0.0
210
0.0
220
0.0
230
1.0
  0
SOLID
  5
67B
330
659
100
AcDbEntity
  8
HATCH
  6
CONTINUOUS
 62
     5
100
AcDbTrace
 10
3355.160668917805
 20
2802.880879460337
 30
0.0
 11
3342.432746856447
 21
2797.608801521695
 31
0.0
 12
3389.656146923223
 22
2697.177779331267
 32
0.0
 13
3389.656146923223
 23
2697.177779331267
 33
0.0
210
0.0
220
0.0
230
1.0
  0
SOLID
  5
67C
330
659
100
AcDbEntity
  8
HATCH
  6
CONTINUOUS
 62
     5
100
AcDbTrace
 10
3349.503814668312
 20
2808.53773370983
 30
0.0
 11
3335.361679044582
 21
2808.53773370983
 31
0.0
 12
3342.432746856447
 22
2805.608801521695
 32
0.0
 13
3342.432746856447
 23
2805.608801521695
 33
0.0
  0
SOLID
  5
67D
330
659
100
AcDbEntity
  8
HATCH
  6
CONTINUOUS
 62
     5
100
AcDbTrace
 10
3332.432746856447
 20
2815.608801521695
 30
0.0
 11
3335.361679044582
 21
2808.53773370983
 31
0.0
 12
3349.503814668312
 22
2808.53773370983
 32
0.0
 13
3349.503814668312
 23
2808.53773370983
 33
0.0
210
0.0
220
0.0
230
1.0
  0
SOLID
  5
67E
330
659
100
AcDbEntity
  8
HATCH
  6
CONTINUOUS
 62
     5
100
AcDbTrace
 10
3324.432746856447
 20
2815.608801521695
 30
0.0
 11
3294.748844320379
 21
2743.945521434963
 31
0.0
 12
3329.704824795089
 22
2802.880879460337
 32
0.0
 13
3329.704824795089
 23
2802.880879460337
 33
0.0
210
0.0
220
0.0
230
1.0
  0
SOLID
  5
67F
330
659
100
AcDbEntity
  8
HATCH
  6
CONTINUOUS
 62
     5
100
AcDbTrace
 10
3360.432746856447
 20
2815.608801521695
 30
0.0
 11
3355.160668917805
 21
2802.880879460337
 31
0.0
 12
3389.656146923223
 22
2697.177779331267
 32
0.0
 13
3389.656146923223
 23
2697.177779331267
 33
0.0
210
0.0
220
0.0
230
1.0
  0
SOLID
  5
680
330
659
100
AcDbEntity
  8
HATCH
  6
CONTINUOUS
 62
     5
100
AcDbTrace
 10
3352.432746856447
 20
2815.608801521695
 30
0.0
 11
3332.432746856447
 21
2815.608801521695
 31
0.0
 12
3349.503814668312
 22
2808.53773370983
 32
0.0
 13
3349.503814668312
 23
2808.53773370983
 33
0.0
  0
SOLID
  5
681
330
659
100
AcDbEntity
  8
HATCH
  6
CONTINUOUS
 62
     5
100
AcDbTrace
 10
3335.361679044582
 20
2822.67986933356
 30
0.0
 11
3332.432746856447
 21
2815.608801521695
 31
0.0
 12
3352.432746856447
 22
2815.608801521695
 32
0.0
 13
3352.432746856447
 23
2815.608801521695
 33
0.0
210
0.0
220
0.0
230
1.0
  0
SOLID
  5
682
330
659
100
AcDbEntity
  8
HATCH
  6
CONTINUOUS
 62
     5
100
AcDbTrace
 10
3349.503814668312
 20
2822.67986933356
 30
0.0
 11
3335.361679044582
 21
2822.67986933356
 31
0.0
 12
3352.432746856447
 22
2815.608801521695
 32
0.0
 13
3352.432746856447
 23
2815.608801521695
 33
0.0
  0
SOLID
  5
683
330
659
100
AcDbEntity
  8
HATCH
  6
CONTINUOUS
 62
     5
100
AcDbTrace
 10
3342.432746856447
 20
2825.608801521695
 30
0.0
 11
3335.361679044582
 21
2822.67986933356
 31
0.0
 12
3349.503814668312
 22
2822.67986933356
 32
0.0
 13
3349.503814668312
 23
2822.67986933356
 33
0.0
  0
SOLID
  5
684
330
659
100
AcDbEntity
  8
HATCH
  6
CONTINUOUS
 62
     5
100
AcDbTrace
 10
3329.704824795089
 20
2828.336723583053
 30
0.0
 11
3294.748844320379
 21
2743.945521434963
 31
0.0
 12
3324.432746856447
 22
2815.608801521695
 32
0.0
 13
3324.432746856447
 23
2815.608801521695
 33
0.0
210
0.0
220
0.0
230
1.0
  0
SOLID
  5
685
330
659
100
AcDbEntity
  8
HATCH
  6
CONTINUOUS
 62
     5
100
AcDbTrace
 10
3427.116720090652
 20
2844.791670336462
 30
0.0
 11
3342.432746856447
 21
2833.608801521695
 31
0.0
 12
3355.160668917805
 22
2828.336723583053
 32
0.0
 13
3355.160668917805
 23
2828.336723583053
 33
0.0
210
0.0
220
0.0
230
1.0
  0
SOLID
  5
686
330
659
100
AcDbEntity
  8
HATCH
  6
CONTINUOUS
 62
     5
100
AcDbTrace
 10
3427.116720090652
 20
2844.791670336462
 30
0.0
 11
3355.160668917805
 21
2828.336723583053
 31
0.0
 12
3360.432746856447
 22
2815.608801521695
 32
0.0
 13
3360.432746856447
 23
2815.608801521695
 33
0.0
210
0.0
220
0.0
230
1.0
  0
SOLID
  5
687
330
659
100
AcDbEntity
  8
HATCH
  6
CONTINUOUS
 62
     5
100
AcDbTrace
 10
3427.116720090652
 20
2844.791670336462
 30
0.0
 11
3360.432746856447
 21
2815.608801521695
 31
0.0
 12
3389.656146923223
 22
2697.177779331267
 32
0.0
 13
3389.656146923223
 23
2697.177779331267
 33
0.0
  0
SOLID
  5
688
330
659
100
AcDbEntity
  8
HATCH
  6
CONTINUOUS
 62
     5
100
AcDbTrace
 10
3414.539882539751
 20
2883.463292011898
 30
0.0
 11
3342.432746856447
 21
2833.608801521695
 31
0.0
 12
3427.116720090652
 22
2844.791670336462
 32
0.0
 13
3427.116720090652
 23
2844.791670336462
 33
0.0
210
0.0
220
0.0
230
1.0
  0
SOLID
  5
689
330
659
100
AcDbEntity
  8
HATCH
  6
CONTINUOUS
 62
     5
100
AcDbTrace
 10
3414.539882539751
 20
2883.463292011898
 30
0.0
 11
3329.704824795089
 21
2828.336723583053
 31
0.0
 12
3342.432746856447
 22
2833.608801521695
 32
0.0
 13
3342.432746856447
 23
2833.608801521695
 33
0.0
210
0.0
220
0.0
230
1.0
  0
SOLID
  5
68A
330
659
100
AcDbEntity
  8
HATCH
  6
CONTINUOUS
 62
     5
100
AcDbTrace
 10
3377.388727331152
 20
2900.000003669797
 30
0.0
 11
3329.704824795089
 21
2828.336723583053
 31
0.0
 12
3414.539882539751
 22
2883.463292011898
 32
0.0
 13
3414.539882539751
 23
2883.463292011898
 33
0.0
210
0.0
220
0.0
230
1.0
  0
SOLID
  5
68B
330
659
100
AcDbEntity
  8
HATCH
  6
CONTINUOUS
 62
     5
100
AcDbTrace
 10
2899.99999683995
 20
2900.000003669799
 30
0.0
 11
3329.704824795089
 21
2828.336723583053
 31
0.0
 12
3377.388727331152
 22
2900.000003669797
 32
0.0
 13
3377.388727331152
 23
2900.000003669797
 33
0.0
  0
SOLID
  5
68C
330
659
100
AcDbEntity
  8
HATCH
  6
CONTINUOUS
 62
     5
100
AcDbTrace
 10
2899.99999683995
 20
2900.000003669799
 30
0.0
 11
3294.748844320379
 21
2743.945521434963
 31
0.0
 12
3329.704824795089
 22
2828.336723583053
 32
0.0
 13
3329.704824795089
 23
2828.336723583053
 33
0.0
210
0.0
220
0.0
230
1.0
  0
SOLID
  5
68D
330
659
100
AcDbEntity
  8
HATCH
  6
CONTINUOUS
 62
     5
100
AcDbTrace
 10
2899.99999683995
 20
2900.000003669799
 30
0.0
 11
3289.476766381737
 21
2731.217599373605
 31
0.0
 12
3294.748844320379
 22
2743.945521434963
 32
0.0
 13
3294.748844320379
 23
2743.945521434963
 33
0.0
210
0.0
220
0.0
230
1.0
  0
SOLID
  5
68E
330
659
100
AcDbEntity
  8
HATCH
  6
CONTINUOUS
 62
     5
100
AcDbTrace
 10
2899.99999683995
 20
2900.000003669799
 30
0.0
 11
3254.520785907029
 21
2646.826397225513
 31
0.0
 12
3289.476766381737
 22
2731.217599373605
 32
0.0
 13
3289.476766381737
 23
2731.217599373605
 33
0.0
210
0.0
220
0.0
230
1.0
  0
SOLID
  5
68F
330
659
100
AcDbEntity
  8
HATCH
  6
CONTINUOUS
 62
     5
100
AcDbTrace
 10
2899.99999683995
 20
2900.000003669799
 30
0.0
 11
3237.564805432317
 21
2562.43519507743
 31
0.0
 12
3254.520785907029
 22
2646.826397225513
 32
0.0
 13
3254.520785907029
 23
2646.826397225513
 33
0.0
  0
ENDBLK
  5
691
330
659
100
AcDbEntity
  8
0
100
AcDbBlockEnd
  0
BLOCK
  5
6C9
330
692
100
AcDbEntity
  8
0
100
AcDbBlockBegin
  2
*U16
 70
     1
 10
0.0
 20
0.0
 30
0.0
  3
*U16
  1

  0
SOLID
  5
693
330
692
100
AcDbEntity
  8
HATCH
  6
CONTINUOUS
 62
     5
100
AcDbTrace
 10
3414.539879158326
 20
2916.536711573618
 30
0.0
 11
2899.99999683995
 21
2900.000003669801
 31
0.0
 12
3377.388727331153
 22
2900.000003669799
 32
0.0
 13
3377.388727331153
 23
2900.000003669799
 33
0.0
210
0.0
220
0.0
230
1.0
  0
SOLID
  5
694
330
692
100
AcDbEntity
  8
HATCH
  6
CONTINUOUS
 62
     5
100
AcDbTrace
 10
3427.116721143244
 20
2955.208326953224
 30
0.0
 11
2899.99999683995
 21
2900.000003669801
 31
0.0
 12
3414.539879158326
 22
2916.536711573618
 32
0.0
 13
3414.539879158326
 23
2916.536711573618
 33
0.0
  0
SOLID
  5
695
330
692
100
AcDbEntity
  8
HATCH
  6
CONTINUOUS
 62
     5
100
AcDbTrace
 10
3342.432746856452
 20
2966.391205817888
 30
0.0
 11
2899.99999683995
 21
2900.000003669801
 31
0.0
 12
3427.116721143244
 22
2955.208326953224
 32
0.0
 13
3427.116721143244
 23
2955.208326953224
 33
0.0
210
0.0
220
0.0
230
1.0
  0
SOLID
  5
696
330
692
100
AcDbEntity
  8
HATCH
  6
CONTINUOUS
 62
     5
100
AcDbTrace
 10
3329.704824795095
 20
2971.66328375653
 30
0.0
 11
2899.99999683995
 21
2900.000003669801
 31
0.0
 12
3342.432746856452
 22
2966.391205817888
 32
0.0
 13
3342.432746856452
 23
2966.391205817888
 33
0.0
210
0.0
220
0.0
230
1.0
  0
SOLID
  5
697
330
692
100
AcDbEntity
  8
HATCH
  6
CONTINUOUS
 62
     5
100
AcDbTrace
 10
3355.160668917811
 20
2971.66328375653
 30
0.0
 11
3342.432746856452
 21
2966.391205817888
 31
0.0
 12
3427.116721143244
 22
2955.208326953224
 32
0.0
 13
3427.116721143244
 23
2955.208326953224
 33
0.0
210
0.0
220
0.0
230
1.0
  0
SOLID
  5
698
330
692
100
AcDbEntity
  8
HATCH
  6
CONTINUOUS
 62
     5
100
AcDbTrace
 10
3349.503814668319
 20
2977.320138006022
 30
0.0
 11
3335.361679044588
 21
2977.320138006021
 31
0.0
 12
3342.432746856454
 22
2974.391205817887
 32
0.0
 13
3342.432746856454
 23
2974.391205817887
 33
0.0
210
0.0
220
0.0
230
1.0
  0
SOLID
  5
699
330
692
100
AcDbEntity
  8
HATCH
  6
CONTINUOUS
 62
     5
100
AcDbTrace
 10
3332.432746856453
 20
2984.391205817887
 30
0.0
 11
3335.361679044588
 21
2977.320138006021
 31
0.0
 12
3349.503814668319
 22
2977.320138006022
 32
0.0
 13
3349.503814668319
 23
2977.320138006022
 33
0.0
210
0.0
220
0.0
230
1.0
  0
SOLID
  5
69A
330
692
100
AcDbEntity
  8
HATCH
  6
CONTINUOUS
 62
     5
100
AcDbTrace
 10
3324.432746856452
 20
2984.391205817887
 30
0.0
 11
2899.99999683995
 21
2900.000003669801
 31
0.0
 12
3329.704824795095
 22
2971.66328375653
 32
0.0
 13
3329.704824795095
 23
2971.66328375653
 33
0.0
210
0.0
220
0.0
230
1.0
  0
SOLID
  5
69B
330
692
100
AcDbEntity
  8
HATCH
  6
CONTINUOUS
 62
     5
100
AcDbTrace
 10
3352.432746856453
 20
2984.391205817887
 30
0.0
 11
3332.432746856453
 21
2984.391205817887
 31
0.0
 12
3349.503814668319
 22
2977.320138006022
 32
0.0
 13
3349.503814668319
 23
2977.320138006022
 33
0.0
210
0.0
220
0.0
230
1.0
  0
SOLID
  5
69C
330
692
100
AcDbEntity
  8
HATCH
  6
CONTINUOUS
 62
     5
100
AcDbTrace
 10
3360.432746856452
 20
2984.391205817887
 30
0.0
 11
3355.160668917811
 21
2971.66328375653
 31
0.0
 12
3427.116721143244
 22
2955.208326953224
 32
0.0
 13
3427.116721143244
 23
2955.208326953224
 33
0.0
210
0.0
220
0.0
230
1.0
  0
SOLID
  5
69D
330
692
100
AcDbEntity
  8
HATCH
  6
CONTINUOUS
 62
     5
100
AcDbTrace
 10
3335.361679044587
 20
2991.462273629753
 30
0.0
 11
3332.432746856453
 21
2984.391205817887
 31
0.0
 12
3352.432746856453
 22
2984.391205817887
 32
0.0
 13
3352.432746856453
 23
2984.391205817887
 33
0.0
210
0.0
220
0.0
230
1.0
  0
SOLID
  5
69E
330
692
100
AcDbEntity
  8
HATCH
  6
CONTINUOUS
 62
     5
100
AcDbTrace
 10
3349.503814668319
 20
2991.462273629753
 30
0.0
 11
3335.361679044587
 21
2991.462273629753
 31
0.0
 12
3352.432746856453
 22
2984.391205817887
 32
0.0
 13
3352.432746856453
 23
2984.391205817887
 33
0.0
  0
SOLID
  5
69F
330
692
100
AcDbEntity
  8
HATCH
  6
CONTINUOUS
 62
     5
100
AcDbTrace
 10
3342.432746856453
 20
2994.391205817888
 30
0.0
 11
3335.361679044587
 21
2991.462273629753
 31
0.0
 12
3349.503814668319
 22
2991.462273629753
 32
0.0
 13
3349.503814668319
 23
2991.462273629753
 33
0.0
210
0.0
220
0.0
230
1.0
  0
SOLID
  5
6A0
330
692
100
AcDbEntity
  8
HATCH
  6
CONTINUOUS
 62
     5
100
AcDbTrace
 10
3329.704824795095
 20
2997.119127879246
 30
0.0
 11
2899.99999683995
 21
2900.000003669801
 31
0.0
 12
3324.432746856452
 22
2984.391205817887
 32
0.0
 13
3324.432746856452
 23
2984.391205817887
 33
0.0
210
0.0
220
0.0
230
1.0
  0
SOLID
  5
6A1
330
692
100
AcDbEntity
  8
HATCH
  6
CONTINUOUS
 62
     5
100
AcDbTrace
 10
3355.160668917811
 20
2997.119127879246
 30
0.0
 11
3360.432746856452
 21
2984.391205817887
 31
0.0
 12
3427.116721143244
 22
2955.208326953224
 32
0.0
 13
3427.116721143244
 23
2955.208326953224
 33
0.0
  0
SOLID
  5
6A2
330
692
100
AcDbEntity
  8
HATCH
  6
CONTINUOUS
 62
     5
100
AcDbTrace
 10
3342.432746856452
 20
3002.391205817888
 30
0.0
 11
2899.99999683995
 21
2900.000003669801
 31
0.0
 12
3329.704824795095
 22
2997.119127879246
 32
0.0
 13
3329.704824795095
 23
2997.119127879246
 33
0.0
210
0.0
220
0.0
230
1.0
  0
SOLID
  5
6A3
330
692
100
AcDbEntity
  8
HATCH
  6
CONTINUOUS
 62
     5
100
AcDbTrace
 10
3307.476766381743
 20
3050.782407965979
 30
0.0
 11
3342.432746856452
 21
3002.391205817888
 31
0.0
 12
3355.160668917811
 22
2997.119127879246
 32
0.0
 13
3355.160668917811
 23
2997.119127879246
 33
0.0
210
0.0
220
0.0
230
1.0
  0
SOLID
  5
6A4
330
692
100
AcDbEntity
  8
HATCH
  6
CONTINUOUS
 62
     5
100
AcDbTrace
 10
3307.476766381743
 20
3050.782407965979
 30
0.0
 11
3355.160668917811
 21
2997.119127879246
 31
0.0
 12
3427.116721143244
 22
2955.208326953224
 32
0.0
 13
3427.116721143244
 23
2955.208326953224
 33
0.0
210
0.0
220
0.0
230
1.0
  0
SOLID
  5
6A5
330
692
100
AcDbEntity
  8
HATCH
  6
CONTINUOUS
 62
     5
100
AcDbTrace
 10
3307.476766381743
 20
3050.782407965979
 30
0.0
 11
2899.99999683995
 21
2900.000003669801
 31
0.0
 12
3342.432746856452
 22
3002.391205817888
 32
0.0
 13
3342.432746856452
 23
3002.391205817888
 33
0.0
210
0.0
220
0.0
230
1.0
  0
SOLID
  5
6A6
330
692
100
AcDbEntity
  8
HATCH
  6
CONTINUOUS
 62
     5
100
AcDbTrace
 10
3294.748844320385
 20
3056.05448590462
 30
0.0
 11
2899.99999683995
 21
2900.000003669801
 31
0.0
 12
3307.476766381743
 22
3050.782407965979
 32
0.0
 13
3307.476766381743
 23
3050.782407965979
 33
0.0
210
0.0
220
0.0
230
1.0
  0
SOLID
  5
6A7
330
692
100
AcDbEntity
  8
HATCH
  6
CONTINUOUS
 62
     5
100
AcDbTrace
 10
3320.204688443101
 20
3056.054485904621
 30
0.0
 11
3307.476766381743
 21
3050.782407965979
 31
0.0
 12
3427.116721143244
 22
2955.208326953224
 32
0.0
 13
3427.116721143244
 23
2955.208326953224
 33
0.0
210
0.0
220
0.0
230
1.0
  0
SOLID
  5
6A8
330
692
100
AcDbEntity
  8
HATCH
  6
CONTINUOUS
 62
     5
100
AcDbTrace
 10
3300.405698569877
 20
3061.711340154113
 30
0.0
 11
3307.476766381742
 21
3058.782407965979
 31
0.0
 12
3314.547834193607
 22
3061.711340154113
 32
0.0
 13
3314.547834193607
 23
3061.711340154113
 33
0.0
210
0.0
220
0.0
230
1.0
  0
SOLID
  5
6A9
330
692
100
AcDbEntity
  8
HATCH
  6
CONTINUOUS
 62
     5
100
AcDbTrace
 10
3317.476766381743
 20
3068.782407965978
 30
0.0
 11
3300.405698569877
 21
3061.711340154113
 31
0.0
 12
3314.547834193607
 22
3061.711340154113
 32
0.0
 13
3314.547834193607
 23
3061.711340154113
 33
0.0
210
0.0
220
0.0
230
1.0
  0
SOLID
  5
6AA
330
692
100
AcDbEntity
  8
HATCH
  6
CONTINUOUS
 62
     5
100
AcDbTrace
 10
3289.476766381743
 20
3068.782407965978
 30
0.0
 11
2899.99999683995
 21
2900.000003669801
 31
0.0
 12
3294.748844320385
 22
3056.05448590462
 32
0.0
 13
3294.748844320385
 23
3056.05448590462
 33
0.0
210
0.0
220
0.0
230
1.0
  0
SOLID
  5
6AB
330
692
100
AcDbEntity
  8
HATCH
  6
CONTINUOUS
 62
     5
100
AcDbTrace
 10
3297.476766381743
 20
3068.782407965979
 30
0.0
 11
3300.405698569877
 21
3061.711340154113
 31
0.0
 12
3317.476766381743
 22
3068.782407965978
 32
0.0
 13
3317.476766381743
 23
3068.782407965978
 33
0.0
210
0.0
220
0.0
230
1.0
  0
SOLID
  5
6AC
330
692
100
AcDbEntity
  8
HATCH
  6
CONTINUOUS
 62
     5
100
AcDbTrace
 10
3325.476766381743
 20
3068.782407965979
 30
0.0
 11
3320.204688443101
 21
3056.054485904621
 31
0.0
 12
3427.116721143244
 22
2955.208326953224
 32
0.0
 13
3427.116721143244
 23
2955.208326953224
 33
0.0
210
0.0
220
0.0
230
1.0
  0
SOLID
  5
6AD
330
692
100
AcDbEntity
  8
HATCH
  6
CONTINUOUS
 62
     5
100
AcDbTrace
 10
3314.547834193608
 20
3075.853475777843
 30
0.0
 11
3297.476766381743
 21
3068.782407965979
 31
0.0
 12
3317.476766381743
 22
3068.782407965978
 32
0.0
 13
3317.476766381743
 23
3068.782407965978
 33
0.0
  0
SOLID
  5
6AE
330
692
100
AcDbEntity
  8
HATCH
  6
CONTINUOUS
 62
     5
100
AcDbTrace
 10
3300.405698569878
 20
3075.853475777844
 30
0.0
 11
3297.476766381743
 21
3068.782407965979
 31
0.0
 12
3314.547834193608
 22
3075.853475777843
 32
0.0
 13
3314.547834193608
 23
3075.853475777843
 33
0.0
210
0.0
220
0.0
230
1.0
  0
SOLID
  5
6AF
330
692
100
AcDbEntity
  8
HATCH
  6
CONTINUOUS
 62
     5
100
AcDbTrace
 10
3307.476766381743
 20
3078.782407965978
 30
0.0
 11
3300.405698569878
 21
3075.853475777844
 31
0.0
 12
3314.547834193608
 22
3075.853475777843
 32
0.0
 13
3314.547834193608
 23
3075.853475777843
 33
0.0
210
0.0
220
0.0
230
1.0
  0
SOLID
  5
6B0
330
692
100
AcDbEntity
  8
HATCH
  6
CONTINUOUS
 62
     5
100
AcDbTrace
 10
3294.748844320384
 20
3081.510330027336
 30
0.0
 11
2899.99999683995
 21
2900.000003669801
 31
0.0
 12
3289.476766381743
 22
3068.782407965978
 32
0.0
 13
3289.476766381743
 23
3068.782407965978
 33
0.0
210
0.0
220
0.0
230
1.0
  0
SOLID
  5
6B1
330
692
100
AcDbEntity
  8
HATCH
  6
CONTINUOUS
 62
     5
100
AcDbTrace
 10
3320.204688443101
 20
3081.510330027336
 30
0.0
 11
3325.476766381743
 21
3068.782407965979
 31
0.0
 12
3427.116721143244
 22
2955.208326953224
 32
0.0
 13
3427.116721143244
 23
2955.208326953224
 33
0.0
210
0.0
220
0.0
230
1.0
  0
SOLID
  5
6B2
330
692
100
AcDbEntity
  8
HATCH
  6
CONTINUOUS
 62
     5
100
AcDbTrace
 10
3389.65615100442
 20
3102.822218155451
 30
0.0
 11
3307.476766381743
 21
3086.782407965979
 31
0.0
 12
3320.204688443101
 22
3081.510330027336
 32
0.0
 13
3320.204688443101
 23
3081.510330027336
 33
0.0
210
0.0
220
0.0
230
1.0
  0
SOLID
  5
6B3
330
692
100
AcDbEntity
  8
HATCH
  6
CONTINUOUS
 62
     5
100
AcDbTrace
 10
3389.65615100442
 20
3102.822218155451
 30
0.0
 11
3320.204688443101
 21
3081.510330027336
 31
0.0
 12
3427.116721143244
 22
2955.208326953224
 32
0.0
 13
3427.116721143244
 23
2955.208326953224
 33
0.0
210
0.0
220
0.0
230
1.0
  0
SOLID
  5
6B4
330
692
100
AcDbEntity
  8
HATCH
  6
CONTINUOUS
 62
     5
100
AcDbTrace
 10
3272.520785907035
 20
3135.173610114069
 30
0.0
 11
3307.476766381743
 21
3086.782407965979
 31
0.0
 12
3389.65615100442
 22
3102.822218155451
 32
0.0
 13
3389.65615100442
 23
3102.822218155451
 33
0.0
210
0.0
220
0.0
230
1.0
  0
SOLID
  5
6B5
330
692
100
AcDbEntity
  8
HATCH
  6
CONTINUOUS
 62
     5
100
AcDbTrace
 10
3272.520785907035
 20
3135.173610114069
 30
0.0
 11
3294.748844320384
 21
3081.510330027336
 31
0.0
 12
3307.476766381743
 22
3086.782407965979
 32
0.0
 13
3307.476766381743
 23
3086.782407965979
 33
0.0
210
0.0
220
0.0
230
1.0
  0
SOLID
  5
6B6
330
692
100
AcDbEntity
  8
HATCH
  6
CONTINUOUS
 62
     5
100
AcDbTrace
 10
3272.520785907035
 20
3135.173610114069
 30
0.0
 11
2899.99999683995
 21
2900.000003669801
 31
0.0
 12
3294.748844320384
 22
3081.510330027336
 32
0.0
 13
3294.748844320384
 23
3081.510330027336
 33
0.0
210
0.0
220
0.0
230
1.0
  0
SOLID
  5
6B7
330
692
100
AcDbEntity
  8
HATCH
  6
CONTINUOUS
 62
     5
100
AcDbTrace
 10
3285.248707968393
 20
3140.445688052711
 30
0.0
 11
3272.520785907035
 21
3135.173610114069
 31
0.0
 12
3389.65615100442
 22
3102.822218155451
 32
0.0
 13
3389.65615100442
 23
3102.822218155451
 33
0.0
210
0.0
220
0.0
230
1.0
  0
SOLID
  5
6B8
330
692
100
AcDbEntity
  8
HATCH
  6
CONTINUOUS
 62
     5
100
AcDbTrace
 10
3259.792863845678
 20
3140.445688052712
 30
0.0
 11
2899.99999683995
 21
2900.000003669801
 31
0.0
 12
3272.520785907035
 22
3135.173610114069
 32
0.0
 13
3272.520785907035
 23
3135.173610114069
 33
0.0
  0
SOLID
  5
6B9
330
692
100
AcDbEntity
  8
HATCH
  6
CONTINUOUS
 62
     5
100
AcDbTrace
 10
3279.591853718901
 20
3146.102542302203
 30
0.0
 11
3265.44971809517
 21
3146.102542302203
 31
0.0
 12
3272.520785907035
 22
3143.173610114069
 32
0.0
 13
3272.520785907035
 23
3143.173610114069
 33
0.0
210
0.0
220
0.0
230
1.0
  0
SOLID
  5
6BA
330
692
100
AcDbEntity
  8
HATCH
  6
CONTINUOUS
 62
     5
100
AcDbTrace
 10
3262.520785907035
 20
3153.173610114069
 30
0.0
 11
3265.44971809517
 21
3146.102542302203
 31
0.0
 12
3279.591853718901
 22
3146.102542302203
 32
0.0
 13
3279.591853718901
 23
3146.102542302203
 33
0.0
210
0.0
220
0.0
230
1.0
  0
SOLID
  5
6BB
330
692
100
AcDbEntity
  8
HATCH
  6
CONTINUOUS
 62
     5
100
AcDbTrace
 10
3290.520785907036
 20
3153.173610114069
 30
0.0
 11
3285.248707968393
 21
3140.445688052711
 31
0.0
 12
3389.65615100442
 22
3102.822218155451
 32
0.0
 13
3389.65615100442
 23
3102.822218155451
 33
0.0
210
0.0
220
0.0
230
1.0
  0
SOLID
  5
6BC
330
692
100
AcDbEntity
  8
HATCH
  6
CONTINUOUS
 62
     5
100
AcDbTrace
 10
3282.520785907036
 20
3153.17361011407
 30
0.0
 11
3262.520785907035
 21
3153.173610114069
 31
0.0
 12
3279.591853718901
 22
3146.102542302203
 32
0.0
 13
3279.591853718901
 23
3146.102542302203
 33
0.0
210
0.0
220
0.0
230
1.0
  0
SOLID
  5
6BD
330
692
100
AcDbEntity
  8
HATCH
  6
CONTINUOUS
 62
     5
100
AcDbTrace
 10
3254.520785907036
 20
3153.17361011407
 30
0.0
 11
2899.99999683995
 21
2900.000003669801
 31
0.0
 12
3259.792863845678
 22
3140.445688052712
 32
0.0
 13
3259.792863845678
 23
3140.445688052712
 33
0.0
210
0.0
220
0.0
230
1.0
  0
SOLID
  5
6BE
330
692
100
AcDbEntity
  8
HATCH
  6
CONTINUOUS
 62
     5
100
AcDbTrace
 10
3265.44971809517
 20
3160.244677925934
 30
0.0
 11
3262.520785907035
 21
3153.173610114069
 31
0.0
 12
3282.520785907036
 22
3153.17361011407
 32
0.0
 13
3282.520785907036
 23
3153.17361011407
 33
0.0
  0
SOLID
  5
6BF
330
692
100
AcDbEntity
  8
HATCH
  6
CONTINUOUS
 62
     5
100
AcDbTrace
 10
3279.591853718901
 20
3160.244677925935
 30
0.0
 11
3265.44971809517
 21
3160.244677925934
 31
0.0
 12
3282.520785907036
 22
3153.17361011407
 32
0.0
 13
3282.520785907036
 23
3153.17361011407
 33
0.0
210
0.0
220
0.0
230
1.0
  0
SOLID
  5
6C0
330
692
100
AcDbEntity
  8
HATCH
  6
CONTINUOUS
 62
     5
100
AcDbTrace
 10
3272.520785907035
 20
3163.173610114069
 30
0.0
 11
3265.44971809517
 21
3160.244677925934
 31
0.0
 12
3279.591853718901
 22
3160.244677925935
 32
0.0
 13
3279.591853718901
 23
3160.244677925935
 33
0.0
210
0.0
220
0.0
230
1.0
  0
SOLID
  5
6C1
330
692
100
AcDbEntity
  8
HATCH
  6
CONTINUOUS
 62
     5
100
AcDbTrace
 10
3285.248707968394
 20
3165.901532175427
 30
0.0
 11
3290.520785907036
 21
3153.173610114069
 31
0.0
 12
3389.65615100442
 22
3102.822218155451
 32
0.0
 13
3389.65615100442
 23
3102.822218155451
 33
0.0
210
0.0
220
0.0
230
1.0
  0
SOLID
  5
6C2
330
692
100
AcDbEntity
  8
HATCH
  6
CONTINUOUS
 62
     5
100
AcDbTrace
 10
3259.792863845678
 20
3165.901532175427
 30
0.0
 11
2899.99999683995
 21
2900.000003669801
 31
0.0
 12
3254.520785907036
 22
3153.17361011407
 32
0.0
 13
3254.520785907036
 23
3153.17361011407
 33
0.0
210
0.0
220
0.0
230
1.0
  0
SOLID
  5
6C3
330
692
100
AcDbEntity
  8
HATCH
  6
CONTINUOUS
 62
     5
100
AcDbTrace
 10
3311.765993205364
 20
3233.689626279195
 30
0.0
 11
3272.520785907036
 21
3171.173610114069
 31
0.0
 12
3285.248707968394
 22
3165.901532175427
 32
0.0
 13
3285.248707968394
 23
3165.901532175427
 33
0.0
210
0.0
220
0.0
230
1.0
  0
SOLID
  5
6C4
330
692
100
AcDbEntity
  8
HATCH
  6
CONTINUOUS
 62
     5
100
AcDbTrace
 10
3311.765993205364
 20
3233.689626279195
 30
0.0
 11
3285.248707968394
 21
3165.901532175427
 31
0.0
 12
3389.65615100442
 22
3102.822218155451
 32
0.0
 13
3389.65615100442
 23
3102.822218155451
 33
0.0
210
0.0
220
0.0
230
1.0
  0
SOLID
  5
6C5
330
692
100
AcDbEntity
  8
HATCH
  6
CONTINUOUS
 62
     5
100
AcDbTrace
 10
3237.564805432317
 20
3237.564812262166
 30
0.0
 11
3272.520785907036
 21
3171.173610114069
 31
0.0
 12
3311.765993205364
 22
3233.689626279195
 32
0.0
 13
3311.765993205364
 23
3233.689626279195
 33
0.0
  0
SOLID
  5
6C6
330
692
100
AcDbEntity
  8
HATCH
  6
CONTINUOUS
 62
     5
100
AcDbTrace
 10
3237.564805432317
 20
3237.564812262166
 30
0.0
 11
3259.792863845678
 21
3165.901532175427
 31
0.0
 12
3272.520785907036
 22
3171.173610114069
 32
0.0
 13
3272.520785907036
 23
3171.173610114069
 33
0.0
210
0.0
220
0.0
230
1.0
  0
SOLID
  5
6C7
330
692
100
AcDbEntity
  8
HATCH
  6
CONTINUOUS
 62
     5
100
AcDbTrace
 10
3237.564805432317
 20
3237.564812262166
 30
0.0
 11
2899.99999683995
 21
2900.000003669801
 31
0.0
 12
3259.792863845678
 22
3165.901532175427
 32
0.0
 13
3259.792863845678
 23
3165.901532175427
 33
0.0
210
0.0
220
0.0
230
1.0
  0
SOLID
  5
6C8
330
692
100
AcDbEntity
  8
HATCH
  6
CONTINUOUS
 62
     5
100
AcDbTrace
 10
3275.527860161058
 20
3252.141425087254
 30
0.0
 11
3237.564805432317
 21
3237.564812262166
 31
0.0
 12
3311.765993205364
 22
3233.689626279195
 32
0.0
 13
3311.765993205364
 23
3233.689626279195
 33
0.0
  0
ENDBLK
  5
6CA
330
692
100
AcDbEntity
  8
0
100
AcDbBlockEnd
  0
ENDSEC
  0
SECTION
  2
ENTITIES
  0
INSERT
  5
4A6
330
1F
100
AcDbEntity
  8
HATCH
100
AcDbBlockReference
  2
TAKA
 10
0.0
 20
0.0
 30
0.0
  0
ENDSEC
  0
SECTION
  2
OBJECTS
  0
DICTIONARY
  5
C
330
0
100
AcDbDictionary
  3
ACAD_GROUP
350
D
  3
ACAD_LAYOUT
350
1A
  3
ACAD_MLINESTYLE
350
17
  3
ACAD_PLOTSETTINGS
350
19
1001
ACAD
1000
TREAT_AS_HARD
1070
     0
1000
TREAT_AS_HARD
1070
     0
  0
DICTIONARY
  5
1B9
330
1F
100
AcDbDictionary
  3
ACAD_LAYOUTSELFREF
350
4A8
  3
ACAD_SORTENTS
350
359
1001
ACAD
1000
TREAT_AS_HARD
1070
     1
1000
TREAT_AS_HARD
1070
     0
  0
DICTIONARY
  5
1BB
330
50
100
AcDbDictionary
  3
ACAD_LAYOUTSELFREF
350
4A9
1001
ACAD
1000
TREAT_AS_HARD
1070
     1
1000
TREAT_AS_HARD
1070
     0
  0
DICTIONARY
  5
D
102
{ACAD_REACTORS
330
C
102
}
330
C
100
AcDbDictionary
1001
ACAD
1000
TREAT_AS_HARD
1070
     0
1000
TREAT_AS_HARD
1070
     0
  0
DICTIONARY
  5
1A
102
{ACAD_REACTORS
330
C
102
}
330
C
100
AcDbDictionary
1001
ACAD
1000
TREAT_AS_HARD
1070
     0
1000
TREAT_AS_HARD
1070
     0
  0
DICTIONARY
  5
17
102
{ACAD_REACTORS
330
C
102
}
330
C
100
AcDbDictionary
  3
STANDARD
350
18
1001
ACAD
1000
TREAT_AS_HARD
1070
     0
1000
TREAT_AS_HARD
1070
     0
  0
DICTIONARY
  5
19
102
{ACAD_REACTORS
330
C
102
}
330
C
100
AcDbDictionary
1001
ACAD
1000
TREAT_AS_HARD
1070
     0
1000
TREAT_AS_HARD
1070
     0
  0
XRECORD
  5
4A8
102
{ACAD_REACTORS
330
1B9
102
}
330
1B9
100
AcDbXrecord
340
1F
  0
SORTENTSTABLE
  5
359
102
{ACAD_REACTORS
330
1B9
102
}
330
1B9
100
AcDbSortentsTable
330
1F
331
3D9
  5
3DC
331
321
  5
35A
331
3A6
  5
3AD
331
384
  5
38F
331
365
  5
372
331
332
  5
363
331
3C8
  5
321
331
3B7
  5
3BC
331
395
  5
39E
331
376
  5
381
331
3EA
  5
3EB
331
3C6
  5
3CB
331
3A4
  5
3AB
331
382
  5
38D
331
363
  5
370
331
3D7
  5
3DA
331
3B5
  5
3BA
331
393
  5
39C
331
374
  5
37F
331
3E8
  5
3E9
331
3C4
  5
3C9
331
3A2
  5
3A9
331
380
  5
38B
331
361
  5
36E
331
32E
  5
361
331
3D5
  5
3D8
331
3B3
  5
3B8
331
391
  5
39A
331
372
  5
37D
331
3E6
  5
3E7
331
3C2
  5
3C7
331
3A0
  5
3A7
331
37E
  5
389
331
2B0
  5
356
331
38F
  5
398
331
370
  5
2AE
331
3E4
  5
3E5
331
3D3
  5
3D6
331
3B1
  5
32D
331
35F
  5
36C
331
3C0
  5
3C5
331
39E
  5
3A5
331
37C
  5
387
331
3D1
  5
3D4
331
3AF
  5
3B6
331
38D
  5
396
331
36E
  5
37B
331
3E2
  5
3E3
331
35D
  5
36A
331
2AE
  5
337
331
37A
  5
385
331
3BE
  5
3C3
331
39C
  5
2B0
331
328
  5
35F
331
3CF
  5
3D2
331
3AD
  5
3B4
331
38B
  5
394
331
36C
  5
379
331
3E0
  5
3E1
331
35B
  5
368
331
3BC
  5
3C1
331
39A
  5
3A3
331
378
  5
383
331
326
  5
35D
331
3CD
  5
3D0
331
3AB
  5
3B2
331
389
  5
392
331
36A
  5
377
331
3DE
  5
324
331
3EF
  5
3F0
331
337
  5
366
331
3BA
  5
3BF
331
398
  5
3A1
331
3DC
  5
3DF
331
324
  5
35B
331
3F2
  5
3F3
331
3CB
  5
3CE
331
3A9
  5
3B0
331
387
  5
390
331
368
  5
375
331
3ED
  5
3EE
331
335
  5
334
331
3B8
  5
3BD
331
3DA
  5
3DD
331
3F0
  5
3F1
331
366
  5
373
331
3C9
  5
3CC
331
3A7
  5
3AE
331
385
  5
327
331
396
  5
39F
331
377
  5
382
331
3EB
  5
3EC
331
333
  5
364
331
3D8
  5
3DB
331
3A5
  5
3AC
331
383
  5
38E
331
364
  5
371
331
3C7
  5
32E
331
394
  5
39D
331
375
  5
380
331
3B6
  5
3BB
331
295
  5
335
331
3E9
  5
3EA
331
3C5
  5
3CA
331
3A3
  5
3AA
331
381
  5
38C
331
362
  5
36F
331
340
  5
367
331
32F
  5
362
331
3D6
  5
3D9
331
3B4
  5
3B9
331
392
  5
39B
331
373
  5
37E
331
3E7
  5
3E8
331
3C3
  5
3C8
331
3A1
  5
3A8
331
37F
  5
38A
331
360
  5
36D
331
32D
  5
360
331
390
  5
399
331
371
  5
37C
331
3E5
  5
3E6
331
3D4
  5
3D7
331
3B2
  5
2B8
331
3C1
  5
3C6
331
39F
  5
3A6
331
37D
  5
388
331
3D2
  5
3D5
331
3B0
  5
3B7
331
38E
  5
397
331
36F
  5
326
331
3E3
  5
3E4
331
35E
  5
36B
331
2AF
  5
340
331
3BF
  5
3C4
331
39D
  5
3A4
331
37B
  5
386
331
3D0
  5
3D3
331
3AE
  5
3B5
331
38C
  5
395
331
36D
  5
37A
331
3E1
  5
3E2
331
35C
  5
369
331
379
  5
384
331
3BD
  5
3C2
331
39B
  5
328
331
327
  5
35E
331
3CE
  5
3D1
331
3AC
  5
3B3
331
38A
  5
393
331
36B
  5
378
331
3DF
  5
3E0
331
35A
  5
2A7
331
3BB
  5
3C0
331
399
  5
3A2
331
325
  5
35C
331
3F3
  5
332
331
3CC
  5
3CF
331
3AA
  5
3B1
331
388
  5
391
331
369
  5
376
331
3DD
  5
32F
331
358
  5
295
331
3EE
  5
3EF
331
336
  5
365
331
3B9
  5
3BE
331
3DB
  5
3DE
331
3F1
  5
3F2
331
367
  5
374
331
2B8
  5
358
331
3CA
  5
3CD
331
3A8
  5
3AF
331
334
  5
333
331
386
  5
2AF
331
397
  5
3A0
331
2A7
  5
336
331
356
  5
325
331
3EC
  5
3ED
  0
XRECORD
  5
4A9
102
{ACAD_REACTORS
330
1BB
102
}
330
1BB
100
AcDbXrecord
340
50
  0
MLINESTYLE
  5
18
102
{ACAD_REACTORS
330
17
102
}
330
17
100
AcDbMlineStyle
  2
STANDARD
 70
     0
  3

 62
   256
 51
90.0
 52
90.0
 71
     2
 49
0.5
 62
   256
  6
BYLAYER
 49
-0.5
 62
   256
  6
BYLAYER
  0
ENDSEC
  0
EOF
