  0
SECTION
  2
HEADER
  9
$ACADVER
  1
AC1012
  9
$DWGCODEPAGE
  3
ANSI_1252
  9
$INSBASE
 10
0.0
 20
0.0
 30
0.0
  9
$EXTMIN
 10
260.1090670768408
 20
-1207.097607582098
 30
-0.0015258207003583
  9
$EXTMAX
 10
7516.325798512518
 20
3844.189105429729
 30
0.0000000349246037
  9
$LIMMIN
 10
0.0
 20
0.0
  9
$LIMMAX
 10
420.0
 20
297.0
  9
$ORTHOMODE
 70
     1
  9
$REGENMODE
 70
     1
  9
$FILLMODE
 70
     1
  9
$QTEXTMODE
 70
     0
  9
$MIRRTEXT
 70
     1
  9
$DRAGMODE
 70
     2
  9
$LTSCALE
 40
1.0
  9
$OSMODE
 70
  3071
  9
$ATTMODE
 70
     1
  9
$TEXTSIZE
 40
2.5
  9
$TRACEWID
 40
1.0
  9
$TEXTSTYLE
  7
STANDARD
  9
$CLAYER
  8
HATCH
  9
$CELTYPE
  6
BYLAYER
  9
$CECOLOR
 62
   251
  9
$CELTSCALE
 40
1.0
  9
$DELOBJ
 70
     1
  9
$DISPSILH
 70
     0
  9
$DIMSCALE
 40
1.0
  9
$DIMASZ
 40
2.5
  9
$DIMEXO
 40
0.625
  9
$DIMDLI
 40
3.75
  9
$DIMRND
 40
0.0
  9
$DIMDLE
 40
0.0
  9
$DIMEXE
 40
1.25
  9
$DIMTP
 40
0.0
  9
$DIMTM
 40
0.0
  9
$DIMTXT
 40
2.5
  9
$DIMCEN
 40
2.5
  9
$DIMTSZ
 40
0.0
  9
$DIMTOL
 70
     0
  9
$DIMLIM
 70
     0
  9
$DIMTIH
 70
     0
  9
$DIMTOH
 70
     0
  9
$DIMSE1
 70
     0
  9
$DIMSE2
 70
     0
  9
$DIMTAD
 70
     1
  9
$DIMZIN
 70
     8
  9
$DIMBLK
  1

  9
$DIMASO
 70
     1
  9
$DIMSHO
 70
     1
  9
$DIMPOST
  1

  9
$DIMAPOST
  1

  9
$DIMALT
 70
     0
  9
$DIMALTD
 70
     3
  9
$DIMALTF
 40
0.03937007874016
  9
$DIMLFAC
 40
1.0
  9
$DIMTOFL
 70
     1
  9
$DIMTVP
 40
0.0
  9
$DIMTIX
 70
     0
  9
$DIMSOXD
 70
     0
  9
$DIMSAH
 70
     0
  9
$DIMBLK1
  1

  9
$DIMBLK2
  1

  9
$DIMSTYLE
  2
ISO-25
  9
$DIMCLRD
 70
     0
  9
$DIMCLRE
 70
     0
  9
$DIMCLRT
 70
     0
  9
$DIMTFAC
 40
1.0
  9
$DIMGAP
 40
0.625
  9
$DIMJUST
 70
     0
  9
$DIMSD1
 70
     0
  9
$DIMSD2
 70
     0
  9
$DIMTOLJ
 70
     0
  9
$DIMTZIN
 70
     8
  9
$DIMALTZ
 70
     0
  9
$DIMALTTZ
 70
     0
  9
$DIMFIT
 70
     3
  9
$DIMUPT
 70
     0
  9
$DIMUNIT
 70
     2
  9
$DIMDEC
 70
     2
  9
$DIMTDEC
 70
     2
  9
$DIMALTU
 70
     2
  9
$DIMALTTD
 70
     3
  9
$DIMTXSTY
  7
STANDARD
  9
$DIMAUNIT
 70
     0
  9
$LUNITS
 70
     2
  9
$LUPREC
 70
     4
  9
$SKETCHINC
 40
1.0
  9
$FILLETRAD
 40
20.0
  9
$AUNITS
 70
     0
  9
$AUPREC
 70
     0
  9
$MENU
  1
.
  9
$ELEVATION
 40
0.0
  9
$PELEVATION
 40
0.0
  9
$THICKNESS
 40
0.0
  9
$LIMCHECK
 70
     0
  9
$BLIPMODE
 70
     0
  9
$CHAMFERA
 40
300.0
  9
$CHAMFERB
 40
300.0
  9
$CHAMFERC
 40
20.0
  9
$CHAMFERD
 40
0.0
  9
$SKPOLY
 70
     0
  9
$TDCREATE
 40
2452619.596477430
  9
$TDUPDATE
 40
2452773.466242360
  9
$TDINDWG
 40
0.0387695602
  9
$TDUSRTIMER
 40
0.0387670139
  9
$USRTIMER
 70
     1
  9
$ANGBASE
 50
0.0
  9
$ANGDIR
 70
     0
  9
$PDMODE
 70
     0
  9
$PDSIZE
 40
0.0
  9
$PLINEWID
 40
0.0
  9
$COORDS
 70
     2
  9
$SPLFRAME
 70
     0
  9
$SPLINETYPE
 70
     6
  9
$SPLINESEGS
 70
     8
  9
$ATTDIA
 70
     0
  9
$ATTREQ
 70
     1
  9
$HANDLING
 70
-16383
  9
$HANDSEED
  5
52D
  9
$SURFTAB1
 70
     6
  9
$SURFTAB2
 70
     6
  9
$SURFTYPE
 70
     6
  9
$SURFU
 70
     6
  9
$SURFV
 70
     6
  9
$UCSNAME
  2

  9
$UCSORG
 10
0.0
 20
0.0
 30
0.0
  9
$UCSXDIR
 10
1.0
 20
0.0
 30
0.0
  9
$UCSYDIR
 10
0.0
 20
1.0
 30
0.0
  9
$PUCSNAME
  2

  9
$PUCSORG
 10
0.0
 20
0.0
 30
0.0
  9
$PUCSXDIR
 10
1.0
 20
0.0
 30
0.0
  9
$PUCSYDIR
 10
0.0
 20
1.0
 30
0.0
  9
$USERI1
 70
     0
  9
$USERI2
 70
     0
  9
$USERI3
 70
     0
  9
$USERI4
 70
     0
  9
$USERI5
 70
     0
  9
$USERR1
 40
0.0
  9
$USERR2
 40
0.0
  9
$USERR3
 40
0.0
  9
$USERR4
 40
0.0
  9
$USERR5
 40
0.0
  9
$WORLDVIEW
 70
     1
  9
$SHADEDGE
 70
     3
  9
$SHADEDIF
 70
    70
  9
$TILEMODE
 70
     1
  9
$MAXACTVP
 70
    64
  9
$PINSBASE
 10
0.0
 20
0.0
 30
0.0
  9
$PLIMCHECK
 70
     0
  9
$PEXTMIN
 10
0.0
 20
0.0
 30
0.0
  9
$PEXTMAX
 10
0.0
 20
0.0
 30
0.0
  9
$PLIMMIN
 10
0.0
 20
0.0
  9
$PLIMMAX
 10
12.0
 20
9.0
  9
$UNITMODE
 70
     0
  9
$VISRETAIN
 70
     1
  9
$PLINEGEN
 70
     0
  9
$PSLTSCALE
 70
     1
  9
$TREEDEPTH
 70
  3020
  9
$PICKSTYLE
 70
     1
  9
$CMLSTYLE
  2
STANDARD
  9
$CMLJUST
 70
     0
  9
$CMLSCALE
 40
20.0
  9
$SAVEIMAGES
 70
     1
  0
ENDSEC
  0
SECTION
  2
CLASSES
  0
CLASS
  1
ACDBDICTIONARYWDFLT
  2
AcDbDictionaryWithDefault
  3
AutoCAD 2000
 90
    32768
280
     0
281
     0
  0
CLASS
  1
ACDBPLACEHOLDER
  2
AcDbPlaceHolder
  3
AutoCAD 2000
 90
    32768
280
     0
281
     0
  0
CLASS
  1
LAYOUT
  2
AcDbLayout
  3
AutoCAD 2000
 90
    32768
280
     0
281
     0
  0
CLASS
  1
LONG_TRANSACTION
  2
AcDbLongTransaction
  3
AutoCAD 2000
 90
    32768
280
     0
281
     0
  0
CLASS
  1
LWPOLYLINE
  2
AcDbPolyline
  3
AutoCAD 2000
 90
    32768
280
     0
281
     1
  0
CLASS
  1
HATCH
  2
AcDbHatch
  3
AutoCAD 2000
 90
    32768
280
     0
281
     1
  0
CLASS
  1
XRECORD
  2
AcDbXrecord
  3
AutoCAD 2000
 90
    32768
280
     0
281
     0
  0
CLASS
  1
LONG_TRANSACTION
  2
AcDbLongTransaction
  3
AutoCAD 2000
 90
    32768
280
     0
281
     0
  0
CLASS
  1
LWPOLYLINE
  2
AcDbPolyline
  3
AutoCAD 2000
 90
    32768
280
     0
281
     1
  0
CLASS
  1
HATCH
  2
AcDbHatch
  3
AutoCAD 2000
 90
    32768
280
     0
281
     1
  0
CLASS
  1
XRECORD
  2
AcDbXrecord
  3
AutoCAD 2000
 90
    32768
280
     0
281
     0
  0
CLASS
  1
LONG_TRANSACTION
  2
AcDbLongTransaction
  3
AutoCAD 2000
 90
    32768
280
     0
281
     0
  0
CLASS
  1
LWPOLYLINE
  2
AcDbPolyline
  3
AutoCAD 2000
 90
    32768
280
     0
281
     1
  0
CLASS
  1
HATCH
  2
AcDbHatch
  3
AutoCAD 2000
 90
    32768
280
     0
281
     1
  0
CLASS
  1
XRECORD
  2
AcDbXrecord
  3
AutoCAD 2000
 90
    32768
280
     0
281
     0
  0
CLASS
  1
DICTIONARYVAR
  2
AcDbDictionaryVar
  3
AutoCAD 2000
 90
    32768
280
     0
281
     0
  0
CLASS
  1
SORTENTSTABLE
  2
AcDbSortentsTable
  3
AutoCAD 2000
 90
    32768
280
     0
281
     0
  0
CLASS
  1
LONG_TRANSACTION
  2
AcDbLongTransaction
  3
AutoCAD 2000
 90
    32768
280
     0
281
     0
  0
CLASS
  1
LWPOLYLINE
  2
AcDbPolyline
  3
AutoCAD 2000
 90
    32768
280
     0
281
     1
  0
CLASS
  1
HATCH
  2
AcDbHatch
  3
AutoCAD 2000
 90
    32768
280
     0
281
     1
  0
CLASS
  1
XRECORD
  2
AcDbXrecord
  3
AutoCAD 2000
 90
    32768
280
     0
281
     0
  0
ENDSEC
  0
SECTION
  2
TABLES
  0
TABLE
  2
VPORT
  5
8
330
0
100
AcDbSymbolTable
 70
     3
  0
VPORT
  5
44F
330
8
100
AcDbSymbolTableRecord
100
AcDbViewportTableRecord
  2
*ACTIVE
 70
     0
 10
0.0
 20
0.0
 11
1.0
 21
1.0
 12
2476.164593149355
 22
940.6120327772741
 13
0.0
 23
0.0
 14
10.0
 24
10.0
 15
10.0
 25
10.0
 16
0.0
 26
0.0
 36
1.0
 17
0.0
 27
0.0
 37
0.0
 40
8657.329343251523
 41
1.558704453441295
 42
50.0
 43
0.0
 44
0.0
 50
0.0
 51
0.0
 71
     0
 72
   100
 73
     1
 74
     3
 75
     0
 76
     0
 77
     0
 78
     0
  0
ENDTAB
  0
TABLE
  2
LTYPE
  5
5
330
0
100
AcDbSymbolTable
 70
     1
  0
LTYPE
  5
14
330
5
100
AcDbSymbolTableRecord
100
AcDbLinetypeTableRecord
  2
BYBLOCK
 70
     0
  3

 72
    65
 73
     0
 40
0.0
  0
LTYPE
  5
15
330
5
100
AcDbSymbolTableRecord
100
AcDbLinetypeTableRecord
  2
BYLAYER
 70
     0
  3

 72
    65
 73
     0
 40
0.0
  0
LTYPE
  5
16
330
5
100
AcDbSymbolTableRecord
100
AcDbLinetypeTableRecord
  2
CONTINUOUS
 70
     0
  3
Solid line
 72
    65
 73
     0
 40
0.0
  0
ENDTAB
  0
TABLE
  2
LAYER
  5
2
330
0
100
AcDbSymbolTable
 70
     5
  0
LAYER
  5
10
330
2
100
AcDbSymbolTableRecord
100
AcDbLayerTableRecord
  2
0
 70
     0
 62
     7
  6
CONTINUOUS
  0
LAYER
  5
10E
330
2
100
AcDbSymbolTableRecord
100
AcDbLayerTableRecord
  2
SAFETY
 70
     0
 62
     7
  6
CONTINUOUS
  0
LAYER
  5
10F
330
2
100
AcDbSymbolTableRecord
100
AcDbLayerTableRecord
  2
OBJECT
 70
     0
 62
     7
  6
CONTINUOUS
  0
LAYER
  5
1D3
330
2
100
AcDbSymbolTableRecord
100
AcDbLayerTableRecord
  2
TEKST
 70
     0
 62
     7
  6
CONTINUOUS
  0
LAYER
  5
2A7
330
2
100
AcDbSymbolTableRecord
100
AcDbLayerTableRecord
  2
HATCH
 70
     0
 62
     7
  6
CONTINUOUS
  0
ENDTAB
  0
TABLE
  2
STYLE
  5
3
330
0
100
AcDbSymbolTable
 70
     1
  0
STYLE
  5
11
330
3
100
AcDbSymbolTableRecord
100
AcDbTextStyleTableRecord
  2
STANDARD
 70
     0
 40
0.0
 41
1.0
 50
0.0
 71
     0
 42
2.5
  3
txt
  4

  0
ENDTAB
  0
TABLE
  2
VIEW
  5
6
330
0
100
AcDbSymbolTable
 70
     0
  0
ENDTAB
  0
TABLE
  2
UCS
  5
7
330
0
100
AcDbSymbolTable
 70
     0
  0
ENDTAB
  0
TABLE
  2
APPID
  5
9
330
0
100
AcDbSymbolTable
 70
     2
  0
APPID
  5
12
330
9
100
AcDbSymbolTableRecord
100
AcDbRegAppTableRecord
  2
ACAD
 70
     0
  0
APPID
  5
1CC
330
9
100
AcDbSymbolTableRecord
100
AcDbRegAppTableRecord
  2
CONTENTBLOCKICON
 70
     0
  0
ENDTAB
  0
TABLE
  2
DIMSTYLE
  5
A
330
0
100
AcDbSymbolTable
 70
     1
  0
DIMSTYLE
105
27
330
A
100
AcDbSymbolTableRecord
100
AcDbDimStyleTableRecord
  2
ISO-25
 70
     0
  3

  4

  5

  6

  7

 40
1.0
 41
2.5
 42
0.625
 43
3.75
 44
1.25
 45
0.0
 46
0.0
 47
0.0
 48
0.0
140
2.5
141
2.5
142
0.0
143
0.03937007874016
144
1.0
145
0.0
146
1.0
147
0.625
 71
     0
 72
     0
 73
     0
 74
     0
 75
     0
 76
     0
 77
     1
 78
     8
170
     0
171
     3
172
     1
173
     0
174
     0
175
     0
176
     0
177
     0
178
     0
270
     2
271
     2
272
     2
273
     2
274
     3
340
11
275
     0
280
     0
281
     0
282
     0
283
     0
284
     8
285
     0
286
     0
287
     3
288
     0
  0
ENDTAB
  0
TABLE
  2
BLOCK_RECORD
  5
1
330
0
100
AcDbSymbolTable
 70
     9
  0
BLOCK_RECORD
  5
1F
102
{ACAD_XDICTIONARY
360
132
102
}
330
1
100
AcDbSymbolTableRecord
100
AcDbBlockTableRecord
  2
*MODEL_SPACE
  0
BLOCK_RECORD
  5
50
102
{ACAD_XDICTIONARY
360
134
102
}
330
1
100
AcDbSymbolTableRecord
100
AcDbBlockTableRecord
  2
*PAPER_SPACE
  0
BLOCK_RECORD
  5
13E
330
1
100
AcDbSymbolTableRecord
100
AcDbBlockTableRecord
  2
AFKG
1001
ACAD
1000
DesignCenter Data
1002
{
1070
     1
1070
     4
1002
}
1001
CONTENTBLOCKICON
1071
        0
1004
28000000200000002000000001000800000000000004000000000000000000000000000000000000000000004000000080000000FF000000002000004020000080200000FF200000004000004040000080400000FF400000006000004060000080600000FF600000008000004080000080800000FF80000000A0000040A000
1004
0080A00000FFA0000000C0000040C0000080C00000FFC0000000FF000040FF000080FF0000FFFF0000000020004000200080002000FF002000002020004020200080202000FF202000004020004040200080402000FF402000006020004060200080602000FF602000008020004080200080802000FF80200000A0200040A0
1004
200080A02000FFA0200000C0200040C0200080C02000FFC0200000FF200040FF200080FF2000FFFF2000000040004000400080004000FF004000002040004020400080204000FF204000004040004040400080404000FF404000006040004060400080604000FF604000008040004080400080804000FF80400000A0400040
1004
A0400080A04000FFA0400000C0400040C0400080C04000FFC0400000FF400040FF400080FF4000FFFF4000000060004000600080006000FF006000002060004020600080206000FF206000004060004040600080406000FF406000006060004060600080606000FF606000008060004080600080806000FF80600000A06000
1004
40A0600080A06000FFA0600000C0600040C0600080C06000FFC0600000FF600040FF600080FF6000FFFF6000000080004000800080008000FF008000002080004020800080208000FF208000004080004040800080408000FF408000006080004060800080608000FF608000008080004080800080808000FF80800000A080
1004
0040A0800080A08000FFA0800000C0800040C0800080C08000FFC0800000FF800040FF800080FF8000FFFF80000000A0004000A0008000A000FF00A0000020A0004020A0008020A000FF20A0000040A0004040A0008040A000FF40A0000060A0004060A0008060A000FF60A0000080A0004080A0008080A000FF80A00000A0
1004
A00040A0A00080A0A000FFA0A00000C0A00040C0A00080C0A000FFC0A00000FFA00040FFA00080FFA000FFFFA0000000C0004000C0008000C000FF00C0000020C0004020C0008020C000FF20C0000040C0004040C0008040C000FF40C0000060C0004060C0008060C000FF60C0000080C0004080C0008080C000FF80C00000
1004
A0C00040A0C00080A0C000FFA0C00000C0C00040C0C00080C0C000FFC0C00000FFC00040FFC00080FFC000FFFFC0000000FF004000FF008000FF00FF00FF000020FF004020FF008020FF00FF20FF000040FF004040FF008040FF00FF40FF000060FF004060FF008060FF00FF60FF000080FF004080FF008080FF00FF80FF00
1004
00A0FF0040A0FF0080A0FF00FFA0FF0000C0FF0040C0FF0080C0FF00FFC0FF0000FFFF0040FFFF0080FFFF00FFFFFF0000000000000000000000000000000000000000000000000000000000000000000000000000000000000000000000000000000000000000000000000000000000000000000000000000000000000000
1004
000000000000000000000000000000000000000000000000000000000000000000000000000000000000000000000000000000000000000000000000000000000000000000000000000000000000000000000000000000000000000000000000000000000000000000000000000000000000000000000000000000000000FF
1004
FFFFFFFFFFFFFFFFFFFFFFFF00000000000000000000000000000000FFFFFF00000000000000000000000000FF00000000000000000000000000FFFF0000000000000000000000000000000000FF00000000000000000000FFFF0000000000000000000000000000000000000000FF00000000000000FFFF00000000000000
1004
00000000000000000000000000000000FF0000000000FF00000000000000000000000000000000000000000000000000FF00000000FF00000000000000000000FC49FCFCFCFCFCFCFCFCFC000000000000FF000000FF0000000000000000FCFC004900000000000000FC00FC0000000000FF000000FF000000000000FCFC00
1004
00004900FCE0E0E0E000FC00FC0000000000FF0000FF0000000000FCFCFF0000000049FCFC0000000000FC00FC0000000000FF0000FF0000000000FCFCFF0000000049FCFC0000000000FC00FC0000000000FF000000FF000000000000FCFC0000004900FCE0E0E0E000FC00FC0000000000FF000000FF0000000000000000
1004
FCFC004900000000000000FC00FC0000000000FF000000FF00000000000000000000FC49FCFCFCFCFCFCFCFCFC000000000000FF00000000FF00000000000000000000000000000000000000000000000000FF000000000000FFFF0000000000000000000000000000000000000000000000FF0000000000000000FFFF0000
1004
00000000FFFFFFFFFFFF0000000000000000FF0000000000000000000000FFFF00000000FFFFFFFFFF0000000000000000FF0000000000000000000000000000FFFFFF00000000000000000000000000FF000000000000000000000000000000000000FFFFFFFFFFFFFFFFFFFFFFFFFF000000000000000000000000000000
1004
00000000000000000000000000000000000000000000000000000000000000000000000000000000000000000000000000000000000000000000000000000000000000000000000000000000000000000000000000000000000000000000000000000000000000000000000000000000000000000000000000000000000000
1004
0000000000000000000000000000000000000000000000000000000000000000000000000000000000000000000000000000000000000000
  0
BLOCK_RECORD
  5
453
330
1
100
AcDbSymbolTableRecord
100
AcDbBlockTableRecord
  2
*U1
  0
BLOCK_RECORD
  5
462
330
1
100
AcDbSymbolTableRecord
100
AcDbBlockTableRecord
  2
*U2
  0
BLOCK_RECORD
  5
471
330
1
100
AcDbSymbolTableRecord
100
AcDbBlockTableRecord
  2
*U3
  0
BLOCK_RECORD
  5
477
330
1
100
AcDbSymbolTableRecord
100
AcDbBlockTableRecord
  2
*U4
  0
BLOCK_RECORD
  5
4AB
330
1
100
AcDbSymbolTableRecord
100
AcDbBlockTableRecord
  2
*U5
  0
BLOCK_RECORD
  5
4C3
330
1
100
AcDbSymbolTableRecord
100
AcDbBlockTableRecord
  2
*U6
  0
BLOCK_RECORD
  5
4EA
330
1
100
AcDbSymbolTableRecord
100
AcDbBlockTableRecord
  2
*U7
  0
BLOCK_RECORD
  5
522
330
1
100
AcDbSymbolTableRecord
100
AcDbBlockTableRecord
  2
*U8
  0
ENDTAB
  0
ENDSEC
  0
SECTION
  2
BLOCKS
  0
BLOCK
  5
20
330
1F
100
AcDbEntity
  8
0
100
AcDbBlockBegin
  2
*MODEL_SPACE
 70
     0
 10
0.0
 20
0.0
 30
0.0
  3
*MODEL_SPACE
  1

  0
ENDBLK
  5
21
330
1F
100
AcDbEntity
  8
0
100
AcDbBlockEnd
  0
BLOCK
  5
52
330
50
100
AcDbEntity
 67
     1
  8
0
100
AcDbBlockBegin
  2
*PAPER_SPACE
 70
     0
 10
0.0
 20
0.0
 30
0.0
  3
*PAPER_SPACE
  1

  0
ENDBLK
  5
53
330
50
100
AcDbEntity
 67
     1
  8
0
100
AcDbBlockEnd
  0
BLOCK
  5
13F
330
13E
100
AcDbEntity
  8
0
100
AcDbBlockBegin
  2
AFKG
 70
     0
 10
0.0
 20
0.0
 30
0.0
  3
AFKG
  1

  0
INSERT
  5
3E9
330
13E
100
AcDbEntity
  8
HATCH
  6
CONTINUOUS
 62
     2
100
AcDbBlockReference
  2
*U1
 10
0.0
 20
0.0
 30
0.0
1001
ACAD
1002
{
1000
R14_HATCH_DATA
1000
3E9
1011
1.0
1021
0.0
1031
0.0
1011
0.0
1021
1.0
1031
0.0
1011
0.0
1021
0.0
1031
1.0
1040
0.0
1010
0.0
1020
0.0
1030
1.0
1000
SOLID
1070
     1
1070
     0
1071
        1
1071
        7
1070
     1
1070
     1
1071
       10
1040
4002.322923828668
1040
1663.545737163587
1040
0.4142135623730951
1040
3997.322923828668
1040
1668.545737163587
1040
0.0
1040
3987.322923828669
1040
1668.545737163587
1040
0.4142135623730951
1040
3982.322923828669
1040
1663.545737163587
1040
0.0
1040
3982.322923828668
1040
1588.545737163587
1040
0.0
1040
3982.322923828669
1040
1048.545737163587
1040
0.0
1040
3982.322923828668
1040
973.5457371635877
1040
0.4142135623731017
1040
3987.322923828668
1040
968.5457371635877
1040
0.0
1040
3997.322923828668
1040
968.5457371635877
1040
0.4142135623731507
1040
4002.322923828669
1040
973.5457371635876
1040
0.0
1071
        0
1070
     0
1070
     1
1040
2.235462601790369
1071
        1
1040
3990.594167612217
1040
1356.585357110205
1040
0.0
1002
}
  0
INSERT
  5
3EA
330
13E
100
AcDbEntity
  8
HATCH
  6
CONTINUOUS
 62
     3
100
AcDbBlockReference
  2
*U2
 10
0.0
 20
0.0
 30
0.0
1001
ACAD
1002
{
1000
R14_HATCH_DATA
1000
3EA
1011
1.0
1021
0.0
1031
0.0
1011
0.0
1021
1.0
1031
0.0
1011
0.0
1021
0.0
1031
1.0
1040
0.0
1010
0.0
1020
0.0
1030
1.0
1000
SOLID
1070
     1
1070
     0
1071
        1
1071
        7
1070
     1
1070
     1
1071
       10
1040
3982.322923828668
1040
1588.545737163587
1040
0.4142135623730951
1040
3977.322923828668
1040
1593.545737163587
1040
0.0
1040
3967.322923828668
1040
1593.545737163587
1040
0.4142135623730951
1040
3962.322923828668
1040
1588.545737163587
1040
0.0
1040
3962.322923828669
1040
1388.545737163588
1040
0.0
1040
3962.322923828669
1040
1248.545737163587
1040
0.0
1040
3962.322923828668
1040
1048.545737163587
1040
0.4142135623730951
1040
3967.322923828668
1040
1043.545737163587
1040
0.0
1040
3977.322923828669
1040
1043.545737163587
1040
0.4142135623731003
1040
3982.322923828669
1040
1048.545737163587
1040
0.0
1071
        0
1070
     0
1070
     1
1040
2.235462601790369
1071
        1
1040
3970.460432346983
1040
1414.707371794884
1040
0.0
1002
}
  0
INSERT
  5
3EB
330
13E
100
AcDbEntity
  8
HATCH
  6
CONTINUOUS
 62
   251
100
AcDbBlockReference
  2
*U3
 10
0.0
 20
0.0
 30
0.0
1001
ACAD
1002
{
1000
R14_HATCH_DATA
1000
3EB
1011
1.0
1021
0.0
1031
0.0
1011
0.0
1021
1.0
1031
0.0
1011
0.0
1021
0.0
1031
1.0
1040
0.0
1010
0.0
1020
0.0
1030
1.0
1000
SOLID
1070
     1
1070
     1
1071
        1
1071
        7
1070
     0
1070
     1
1071
        5
1040
3409.452921888119
1040
443.5457371635876
1040
3509.45292188812
1040
443.5457371635875
1040
3509.452921888119
1040
2193.545737163586
1040
3409.452921888119
1040
2193.545737163586
1040
3409.452921888119
1040
2118.545737163587
1071
        5
1005
447
1005
3FE
1005
3F5
1005
449
1005
3F4
1070
     0
1070
     1
1040
8.58775293289017
1071
        1
1040
3457.542809399383
1040
1232.842426146639
1040
0.0
1002
}
  0
INSERT
  5
3EC
330
13E
100
AcDbEntity
  8
HATCH
  6
CONTINUOUS
 62
     2
100
AcDbBlockReference
  2
*U4
 10
0.0
 20
0.0
 30
0.0
1001
ACAD
1002
{
1000
R14_HATCH_DATA
1000
3EC
1011
1.0
1021
0.0
1031
0.0
1011
0.0
1021
1.0
1031
0.0
1011
0.0
1021
0.0
1031
1.0
1040
0.0
1010
0.0
1020
0.0
1030
1.0
1000
SOLID
1070
     1
1070
     1
1071
        4
1071
        7
1070
     1
1070
     1
1071
        8
1040
3347.395208228717
1040
2263.545737163587
1040
0.0
1040
1740.607195076128
1040
1335.866245239275
1040
0.577350269189626
1040
1740.607195076128
1040
1301.225229087897
1040
0.0
1040
3347.395208228719
1040
373.5457371635872
1040
0.0
1040
5620.962534135455
1040
373.5457371635872
1040
0.0
1040
5935.607195076128
1040
688.190398104259
1040
0.0
1040
5935.607195076128
1040
1948.901076222913
1040
0.0
1040
5620.962534135451
1040
2263.545737163588
1040
0.0
1071
        8
1005
44C
1005
43A
1005
446
1005
43D
1005
43F
1005
441
1005
442
1005
444
1071
       22
1070
     0
1070
     1
1071
       34
1040
4332.322923828668
1040
2193.545737163586
1040
4332.322923828668
1040
2218.545737163587
1040
4432.322923828667
1040
2218.545737163587
1040
4432.322923828668
1040
2193.545737163586
1040
5552.322923828668
1040
2193.545737163586
1040
5552.322923828669
1040
2218.545737163586
1040
5602.322923828667
1040
2218.545737163586
1040
5652.32292382867
1040
2168.545737163587
1040
5652.32292382867
1040
2133.190398104259
1040
5865.607195076128
1040
1919.906126856797
1040
5865.607195076126
1040
717.1853474703733
1040
5652.32292382867
1040
503.9010762229193
1040
5652.32292382867
1040
468.5457371635888
1040
5602.322923828669
1040
418.545737163587
1040
5552.322923828668
1040
418.5457371635866
1040
5552.322923828668
1040
443.5457371635876
1040
4432.322923828669
1040
443.5457371635876
1040
4432.322923828668
1040
418.5457371635875
1040
4332.322923828668
1040
418.5457371635875
1040
4332.322923828668
1040
443.5457371635875
1040
3409.452921888119
1040
443.5457371635875
1040
3409.452921888118
1040
418.5457371635856
1040
3359.452921888119
1040
418.5457371635856
1040
3309.452921888119
1040
447.4132506230669
1040
3309.452921888119
1040
476.2807640825489
1040
1945.869989492416
1040
1263.545737163587
1040
1870.607195076129
1040
1263.545737163587
1040
1870.607195076128
1040
1373.545737163587
1040
1945.869989492416
1040
1373.545737163587
1040
3309.452921888118
1040
2160.810710244625
1040
3309.452921888119
1040
2189.678223704106
1040
3359.452921888117
1040
2218.545737163587
1040
3409.452921888119
1040
2218.545737163587
1040
3409.452921888117
1040
2193.545737163586
1071
       32
1005
42D
1005
43E
1005
42E
1005
431
1005
44A
1005
430
1005
445
1005
443
1005
440
1005
41C
1005
44B
1005
41A
1005
419
1005
448
1005
408
1005
449
1005
3F9
1005
3FA
1005
3F6
1005
3F8
1005
43C
1005
432
1005
438
1005
435
1005
439
1005
434
1005
43B
1005
3FD
1005
3FB
1005
3FF
1005
3FE
1005
447
1071
        6
1070
     0
1070
     1
1071
        4
1040
3509.452921888119
1040
1368.545737163587
1040
3609.452921888119
1040
1368.545737163587
1040
3609.452921888119
1040
1268.545737163587
1040
3509.452921888119
1040
1268.545737163587
1071
        2
1005
3F3
1005
3F4
1071
        6
1070
     1
1070
     1
1071
        2
1040
4002.322923828669
1040
1336.545737163587
1040
-1.0
1040
4002.322923828669
1040
1300.545737163587
1040
0.0
1071
        2
1005
401
1005
403
1070
     0
1070
     1
1040
5.926074580778083
1071
        5
1040
3610.338326566111
1040
2217.365275227461
1040
0.0
1040
3610.338326566111
1040
2217.365275227461
1040
0.0
1040
3610.338326566111
1040
2217.365275227461
1040
0.0
1040
3610.338326566111
1040
2217.365275227461
1040
0.0
1040
3610.338326566111
1040
2217.365275227461
1040
0.0
1002
}
  0
INSERT
  5
3ED
330
13E
100
AcDbEntity
  8
HATCH
  6
CONTINUOUS
 62
     2
100
AcDbBlockReference
  2
*U5
 10
0.0
 20
0.0
 30
0.0
1001
ACAD
1002
{
1000
R14_HATCH_DATA
1000
3ED
1011
1.0
1021
0.0
1031
0.0
1011
0.0
1021
1.0
1031
0.0
1011
0.0
1021
0.0
1031
1.0
1040
0.0
1010
0.0
1020
0.0
1030
1.0
1000
SOLID
1070
     1
1070
     1
1071
        1
1071
        7
1070
     0
1070
     1
1071
        8
1040
5865.607195076131
1040
1919.906126856798
1040
5652.32292382867
1040
2133.190398104259
1040
5652.32292382867
1040
2118.545737163586
1040
5552.322923828669
1040
2118.545737163586
1040
5552.322923828676
1040
518.5457371635867
1040
5652.322923828672
1040
518.545737163587
1040
5652.32292382867
1040
503.9010762229199
1040
5865.607195076125
1040
717.1853474703724
1071
        8
1005
445
1005
430
1005
42F
1005
407
1005
41B
1005
41C
1005
440
1005
443
1070
     0
1070
     1
1040
8.922278738457228
1071
        1
1040
5748.043384294062
1040
1471.521878749907
1040
0.0
1002
}
  0
MTEXT
  5
3EE
330
13E
100
AcDbEntity
  8
TEKST
100
AcDbMText
 10
3556.44545264043
 20
3228.899893560603
 30
0.0
 40
100.0
 41
1657.8662
 71
     1
 72
     1
  1
{\FIMPACT.TTF;Hoogte: 255 cm\PMax. valhoogte: 45 cm}
1001
ACAD
1000
MTEXTBEGIN
1070
    73
1070
     1
1070
    44
1040
1.0
1070
    74
1070
     0
1000
MTEXTEND
1000
MTEXTBEGIN
1070
    73
1070
     1
1070
    44
1040
1.0
1070
    74
1070
     0
1000
MTEXTEND
1000
MTEXTBEGIN
1070
    73
1070
     1
1070
    44
1040
1.0
1070
    74
1070
     0
1000
MTEXTEND
  0
POLYLINE
  5
3EF
330
13E
100
AcDbEntity
  8
SAFETY
100
AcDb2dPolyline
 66
     1
 10
0.0
 20
0.0
 30
0.0
 70
     1
  0
VERTEX
  5
4B4
330
3EF
100
AcDbEntity
  8
SAFETY
100
AcDbVertex
100
AcDb2dVertex
 10
2604.093938039495
 20
-900.4923685130702
 30
0.0
  0
VERTEX
  5
4B5
330
3EF
100
AcDbEntity
  8
SAFETY
100
AcDbVertex
100
AcDb2dVertex
 10
1010.607195076129
 20
19.50763148692953
 30
0.0
 42
-0.577350269189626
  0
VERTEX
  5
4B6
330
3EF
100
AcDbEntity
  8
SAFETY
100
AcDbVertex
100
AcDb2dVertex
 10
1010.607195076127
 20
2617.583842840245
 30
0.0
  0
VERTEX
  5
4B7
330
3EF
100
AcDbEntity
  8
SAFETY
100
AcDbVertex
100
AcDb2dVertex
 10
2604.093938039497
 20
3537.583842840246
 30
0.0
 42
-0.1316524975873957
  0
VERTEX
  5
4B8
330
3EF
100
AcDbEntity
  8
SAFETY
100
AcDbVertex
100
AcDb2dVertex
 10
3354.093938039497
 20
3738.545737163589
 30
0.0
  0
VERTEX
  5
4B9
330
3EF
100
AcDbEntity
  8
SAFETY
100
AcDbVertex
100
AcDb2dVertex
 10
5610.607195076128
 20
3738.545737163587
 30
0.0
 42
-0.1989123673796587
  0
VERTEX
  5
4BA
330
3EF
100
AcDbEntity
  8
SAFETY
100
AcDbVertex
100
AcDb2dVertex
 10
6671.267366855952
 20
3299.205908943406
 30
0.0
  0
VERTEX
  5
4BB
330
3EF
100
AcDbEntity
  8
SAFETY
100
AcDbVertex
100
AcDb2dVertex
 10
6971.267366855951
 20
2999.205908943405
 30
0.0
 42
-0.1989123673796575
  0
VERTEX
  5
4BC
330
3EF
100
AcDbEntity
  8
SAFETY
100
AcDbVertex
100
AcDb2dVertex
 10
7410.607195076128
 20
1938.545737163584
 30
0.0
  0
VERTEX
  5
4BD
330
3EF
100
AcDbEntity
  8
SAFETY
100
AcDbVertex
100
AcDb2dVertex
 10
7410.607195076128
 20
698.5457371635882
 30
0.0
 42
-0.1989123673796589
  0
VERTEX
  5
4BE
330
3EF
100
AcDbEntity
  8
SAFETY
100
AcDbVertex
100
AcDb2dVertex
 10
6971.267366855946
 20
-362.1144346162371
 30
0.0
  0
VERTEX
  5
4BF
330
3EF
100
AcDbEntity
  8
SAFETY
100
AcDbVertex
100
AcDb2dVertex
 10
6671.267366855947
 20
-662.1144346162359
 30
0.0
 42
-0.1989123673796575
  0
VERTEX
  5
4C0
330
3EF
100
AcDbEntity
  8
SAFETY
100
AcDbVertex
100
AcDb2dVertex
 10
5610.607195076128
 20
-1101.454262836412
 30
0.0
  0
VERTEX
  5
4C1
330
3EF
100
AcDbEntity
  8
SAFETY
100
AcDbVertex
100
AcDb2dVertex
 10
3354.093938039496
 20
-1101.454262836412
 30
0.0
 42
-0.1316524975873959
  0
SEQEND
  5
4C2
330
3EF
100
AcDbEntity
  8
SAFETY
  0
INSERT
  5
3F0
330
13E
100
AcDbEntity
  8
HATCH
  6
CONTINUOUS
 62
     1
100
AcDbBlockReference
  2
*U6
 10
0.0
 20
0.0
 30
0.0
1001
ACAD
1002
{
1000
R14_HATCH_DATA
1000
3F0
1011
1.0
1021
0.0
1031
0.0
1011
0.0
1021
1.0
1031
0.0
1011
0.0
1021
0.0
1031
1.0
1040
0.0
1010
0.0
1020
0.0
1030
1.0
1000
SOLID
1070
     1
1070
     0
1071
       12
1071
        7
1070
     1
1070
     1
1071
        8
1040
1980.607195076128
1040
1368.545737163587
1040
0.4142135623730951
1040
1975.607195076129
1040
1373.545737163587
1040
0.0
1040
1875.607195076129
1040
1373.545737163587
1040
0.4142135623730958
1040
1870.607195076129
1040
1368.545737163587
1040
0.0
1040
1870.607195076129
1040
1268.545737163587
1040
0.4142135623730951
1040
1875.607195076129
1040
1263.545737163587
1040
0.0
1040
1975.607195076129
1040
1263.545737163587
1040
0.4142135623730951
1040
1980.607195076128
1040
1268.545737163587
1040
0.0
1071
        0
1071
        7
1070
     0
1070
     1
1071
        5
1040
3409.452921888119
1040
2218.545737163587
1040
3359.452921888117
1040
2218.545737163587
1040
3309.452921888119
1040
2189.678223704106
1040
3309.452921888119
1040
2118.545737163587
1040
3409.452921888119
1040
2118.545737163587
1071
        0
1071
        7
1070
     0
1070
     1
1071
        4
1040
4432.322923828669
1040
2218.545737163587
1040
4332.322923828669
1040
2218.545737163587
1040
4332.322923828669
1040
2118.545737163587
1040
4432.322923828668
1040
2118.545737163587
1071
        0
1071
        7
1070
     0
1070
     1
1071
        5
1040
5652.32292382867
1040
2168.545737163586
1040
5602.32292382867
1040
2218.545737163586
1040
5552.322923828667
1040
2218.545737163586
1040
5552.322923828667
1040
2118.545737163586
1040
5652.32292382867
1040
2118.545737163586
1071
        0
1071
        7
1070
     0
1070
     1
1071
        5
1040
5652.32292382867
1040
468.5457371635886
1040
5652.322923828672
1040
518.545737163587
1040
5552.322923828668
1040
518.5457371635866
1040
5552.322923828668
1040
418.5457371635866
1040
5602.322923828669
1040
418.545737163587
1071
        0
1071
        7
1070
     0
1070
     1
1071
        4
1040
4432.322923828668
1040
518.5457371635875
1040
4332.322923828668
1040
518.5457371635875
1040
4332.322923828669
1040
418.5457371635875
1040
4432.322923828668
1040
418.5457371635875
1071
        0
1071
        7
1070
     0
1070
     1
1071
        5
1040
3409.452921888119
1040
518.5457371635854
1040
3309.452921888119
1040
518.5457371635854
1040
3309.452921888119
1040
447.4132506230669
1040
3359.452921888118
1040
418.5457371635856
1040
3409.452921888119
1040
418.5457371635857
1071
        0
1071
        7
1070
     0
1070
     1
1071
        4
1040
3609.452921888119
1040
1368.545737163587
1040
3509.452921888119
1040
1368.545737163587
1040
3509.452921888118
1040
1268.545737163587
1040
3609.452921888119
1040
1268.545737163587
1071
        0
1071
        7
1070
     0
1070
     1
1071
        4
1040
3982.322923828668
1040
1818.545737163587
1040
3882.322923828668
1040
1818.545737163587
1040
3882.322923828668
1040
1718.545737163587
1040
3982.322923828668
1040
1718.545737163587
1071
        0
1071
        7
1070
     0
1070
     1
1071
        4
1040
4882.322923828668
1040
1818.545737163587
1040
4782.322923828668
1040
1818.545737163587
1040
4782.322923828668
1040
1718.545737163587
1040
4882.322923828668
1040
1718.545737163587
1071
        0
1071
        7
1070
     0
1070
     1
1071
        4
1040
4882.322923828668
1040
918.5457371635877
1040
4782.322923828668
1040
918.5457371635875
1040
4782.322923828668
1040
818.5457371635873
1040
4882.322923828668
1040
818.5457371635877
1071
        0
1071
        7
1070
     0
1070
     1
1071
        4
1040
3982.322923828668
1040
918.5457371635877
1040
3882.322923828668
1040
918.5457371635877
1040
3882.322923828668
1040
818.5457371635875
1040
3982.322923828668
1040
818.5457371635875
1071
        0
1070
     0
1070
     1
1040
11.11679676409843
1071
       12
1040
1925.572442131961
1040
1319.586590386341
1040
0.0
1040
3360.678418483061
1040
2186.696755380839
1040
0.0
1040
4395.289753328187
1040
2186.696755380839
1040
0.0
1040
5607.898683515196
1040
2153.346350888718
1040
0.0
1040
5596.773833806328
1040
463.5932449302782
1040
0.0
1040
4361.915152214845
1040
463.5932449302782
1040
0.0
1040
3349.553568774194
1040
474.7100374071233
1040
0.0
1040
3560.925765229418
1040
1341.820175340031
1040
0.0
1040
3916.921059886663
1040
1764.258478891232
1040
0.0
1040
4851.408695365244
1040
1775.375271368073
1040
0.0
1040
4829.158995947502
1040
874.9147289430439
1040
0.0
1040
3939.170759304397
1040
874.9147289430439
1040
0.0
1002
}
  0
INSERT
  5
3F1
330
13E
100
AcDbEntity
  8
HATCH
  6
CONTINUOUS
 62
     1
100
AcDbBlockReference
  2
*U7
 10
0.0
 20
0.0
 30
0.0
1001
ACAD
1002
{
1000
R14_HATCH_DATA
1000
3F1
1011
1.0
1021
0.0
1031
0.0
1011
0.0
1021
1.0
1031
0.0
1011
0.0
1021
0.0
1031
1.0
1040
0.0
1010
0.0
1020
0.0
1030
1.0
1000
SOLID
1070
     1
1070
     0
1071
        4
1071
        7
1070
     0
1070
     1
1071
        4
1040
3982.322923828668
1040
1778.545737163587
1040
3982.322923828668
1040
1758.545737163587
1040
4782.322923828668
1040
1758.545737163587
1040
4782.322923828668
1040
1778.545737163586
1071
        0
1071
        7
1070
     0
1070
     1
1071
        6
1040
3922.322923828668
1040
918.5457371635877
1040
3942.322923828665
1040
918.5457371635877
1040
3942.322923828665
1040
1248.545737163587
1040
3942.322923828668
1040
1388.545737163587
1040
3942.322923828665
1040
1718.545737163587
1040
3922.322923828668
1040
1718.545737163587
1071
        0
1071
        7
1070
     1
1070
     1
1071
        8
1040
3962.322923828669
1040
1388.545737163587
1040
0.4142135623730951
1040
3957.322923828669
1040
1393.545737163587
1040
0.0
1040
3947.322923828668
1040
1393.545737163587
1040
0.4142135623730951
1040
3942.322923828668
1040
1388.545737163587
1040
0.0
1040
3942.322923828665
1040
1248.545737163587
1040
0.4142135623730951
1040
3947.322923828665
1040
1243.545737163587
1040
0.0
1040
3957.322923828669
1040
1243.545737163587
1040
0.4142135623730895
1040
3962.322923828669
1040
1248.545737163587
1040
0.0
1071
        0
1071
        7
1070
     0
1070
     1
1071
        4
1040
4782.322923828668
1040
858.5457371635875
1040
4782.322923828669
1040
878.5457371635875
1040
3982.322923828668
1040
878.5457371635875
1040
3982.322923828668
1040
858.5457371635875
1071
        0
1070
     0
1070
     1
1040
2.322542389567638
1071
        4
1040
4517.690757069598
1040
1770.299816245296
1040
0.0
1040
3927.33748633608
1040
1500.884893424452
1040
0.0
1040
3952.903939547971
1040
1301.146255411407
1040
0.0
1040
4171.381163292324
1040
866.8308099198293
1040
0.0
1002
}
  0
LINE
  5
3F2
330
13E
100
AcDbEntity
  8
OBJECT
100
AcDbLine
 10
2250.607195076129
 20
1549.485844839437
 30
0.0
 11
2250.607195076127
 21
1087.605629487737
 31
0.0
  0
POLYLINE
  5
3F3
330
13E
100
AcDbEntity
  8
OBJECT
100
AcDb2dPolyline
 66
     1
 10
0.0
 20
0.0
 30
0.0
 70
     1
  0
VERTEX
  5
4FF
330
3F3
100
AcDbEntity
  8
OBJECT
100
AcDbVertex
100
AcDb2dVertex
 10
3509.452921888119
 20
1268.545737163587
 30
0.0
  0
VERTEX
  5
500
330
3F3
100
AcDbEntity
  8
OBJECT
100
AcDbVertex
100
AcDb2dVertex
 10
3609.452921888119
 20
1268.545737163587
 30
0.0
  0
VERTEX
  5
501
330
3F3
100
AcDbEntity
  8
OBJECT
100
AcDbVertex
100
AcDb2dVertex
 10
3609.452921888119
 20
1368.545737163587
 30
0.0
  0
VERTEX
  5
502
330
3F3
100
AcDbEntity
  8
OBJECT
100
AcDbVertex
100
AcDb2dVertex
 10
3509.452921888119
 20
1368.545737163587
 30
0.0
  0
SEQEND
  5
503
330
3F3
100
AcDbEntity
  8
OBJECT
  0
LINE
  5
3F4
330
13E
100
AcDbEntity
  8
OBJECT
100
AcDbLine
 10
3509.452921888118
 20
2193.545737163586
 30
0.0
 11
3509.452921888119
 21
443.5457371635875
 31
0.0
  0
LINE
  5
3F5
330
13E
100
AcDbEntity
  8
OBJECT
100
AcDbLine
 10
3409.452921888119
 20
2218.545737163587
 30
0.0
 11
3409.452921888119
 21
418.5457371635875
 31
0.0
  0
LINE
  5
3F6
330
13E
100
AcDbEntity
  8
OBJECT
100
AcDbLine
 10
3309.452921888119
 20
447.413250623067
 30
0.0
 11
3359.452921888119
 21
418.5457371635853
 31
0.0
  0
LINE
  5
3F7
330
13E
100
AcDbEntity
  8
OBJECT
100
AcDbLine
 10
3409.452921888119
 20
518.5457371635854
 30
0.0
 11
3309.452921888119
 21
518.5457371635854
 31
0.0
  0
LINE
  5
3F8
330
13E
100
AcDbEntity
  8
OBJECT
100
AcDbLine
 10
3309.452921888119
 20
518.5457371635854
 30
0.0
 11
3309.452921888119
 21
447.413250623067
 31
0.0
  0
LINE
  5
3F9
330
13E
100
AcDbEntity
  8
OBJECT
100
AcDbLine
 10
3409.452921888119
 20
418.5457371635856
 30
0.0
 11
3409.452921888119
 21
518.5457371635854
 31
0.0
  0
LINE
  5
3FA
330
13E
100
AcDbEntity
  8
OBJECT
100
AcDbLine
 10
3359.452921888119
 20
418.5457371635856
 30
0.0
 11
3409.452921888119
 21
418.5457371635856
 31
0.0
  0
LINE
  5
3FB
330
13E
100
AcDbEntity
  8
OBJECT
100
AcDbLine
 10
3309.452921888119
 20
2189.678223704106
 30
0.0
 11
3359.452921888119
 21
2218.545737163588
 31
0.0
  0
LINE
  5
3FC
330
13E
100
AcDbEntity
  8
OBJECT
100
AcDbLine
 10
3409.452921888119
 20
2118.545737163587
 30
0.0
 11
3309.452921888119
 21
2118.545737163587
 31
0.0
  0
LINE
  5
3FD
330
13E
100
AcDbEntity
  8
OBJECT
100
AcDbLine
 10
3309.452921888119
 20
2118.545737163587
 30
0.0
 11
3309.452921888119
 21
2189.678223704106
 31
0.0
  0
LINE
  5
3FE
330
13E
100
AcDbEntity
  8
OBJECT
100
AcDbLine
 10
3409.452921888119
 20
2218.545737163587
 30
0.0
 11
3409.452921888119
 21
2118.545737163587
 31
0.0
  0
LINE
  5
3FF
330
13E
100
AcDbEntity
  8
OBJECT
100
AcDbLine
 10
3359.452921888119
 20
2218.545737163587
 30
0.0
 11
3409.452921888119
 21
2218.545737163587
 31
0.0
  0
LINE
  5
400
330
13E
100
AcDbEntity
  8
OBJECT
100
AcDbLine
 10
4015.322923828668
 20
1330.995636761576
 30
0.0
 11
4015.322923828668
 21
1306.095837565599
 31
0.0
  0
ARC
  5
401
330
13E
100
AcDbEntity
  8
OBJECT
100
AcDbCircle
 10
4002.322923828669
 20
1318.545737163587
 30
0.0
 40
18.0
100
AcDbArc
 50
270.0
 51
90.0
  0
LINE
  5
402
330
13E
100
AcDbEntity
  8
OBJECT
100
AcDbLine
 10
3942.322923828665
 20
1248.545737163587
 30
0.0
 11
3942.322923828668
 21
1388.545737163587
 31
0.0
  0
LINE
  5
403
330
13E
100
AcDbEntity
  8
OBJECT
100
AcDbLine
 10
4002.322923828669
 20
973.5457371635876
 30
0.0
 11
4002.322923828668
 21
1663.545737163587
 31
0.0
  0
LINE
  5
404
330
13E
100
AcDbEntity
  8
OBJECT
100
AcDbLine
 10
3982.322923828669
 20
1048.545737163587
 30
0.0
 11
3982.322923828668
 21
1588.545737163587
 31
0.0
  0
LINE
  5
405
330
13E
100
AcDbEntity
  8
OBJECT
100
AcDbLine
 10
3962.322923828669
 20
1248.545737163587
 30
0.0
 11
3962.322923828669
 21
1388.545737163587
 31
0.0
  0
LINE
  5
406
330
13E
100
AcDbEntity
  8
OBJECT
100
AcDbLine
 10
3922.322923828668
 20
1718.545737163587
 30
0.0
 11
3922.322923828668
 21
918.5457371635877
 31
0.0
  0
LINE
  5
407
330
13E
100
AcDbEntity
  8
OBJECT
100
AcDbLine
 10
5552.322923828668
 20
2118.545737163586
 30
0.0
 11
5552.322923828675
 21
518.5457371635866
 31
0.0
  0
POLYLINE
  5
408
330
13E
100
AcDbEntity
  8
OBJECT
100
AcDb2dPolyline
 66
     1
 10
0.0
 20
0.0
 30
0.0
 70
     1
  0
VERTEX
  5
504
330
408
100
AcDbEntity
  8
OBJECT
100
AcDbVertex
100
AcDb2dVertex
 10
4332.322923828669
 20
418.5457371635875
 30
0.0
  0
VERTEX
  5
505
330
408
100
AcDbEntity
  8
OBJECT
100
AcDbVertex
100
AcDb2dVertex
 10
4432.322923828668
 20
418.5457371635875
 30
0.0
  0
VERTEX
  5
506
330
408
100
AcDbEntity
  8
OBJECT
100
AcDbVertex
100
AcDb2dVertex
 10
4432.322923828668
 20
518.5457371635875
 30
0.0
  0
VERTEX
  5
507
330
408
100
AcDbEntity
  8
OBJECT
100
AcDbVertex
100
AcDb2dVertex
 10
4332.322923828669
 20
518.5457371635875
 30
0.0
  0
SEQEND
  5
508
330
408
100
AcDbEntity
  8
OBJECT
  0
LINE
  5
409
330
13E
100
AcDbEntity
  8
OBJECT
100
AcDbLine
 10
3982.322923828668
 20
878.5457371635875
 30
0.0
 11
4782.322923828668
 21
878.5457371635875
 31
0.0
  0
LINE
  5
40A
330
13E
100
AcDbEntity
  8
OBJECT
100
AcDbLine
 10
3982.322923828668
 20
858.5457371635875
 30
0.0
 11
4782.322923828668
 21
858.5457371635875
 31
0.0
  0
LINE
  5
40B
330
13E
100
AcDbEntity
  8
OBJECT
100
AcDbLine
 10
3942.322923828665
 20
1248.545737163587
 30
0.0
 11
3942.322923828665
 21
918.5457371635877
 31
0.0
  0
POLYLINE
  5
40C
330
13E
100
AcDbEntity
  8
OBJECT
100
AcDb2dPolyline
 66
     1
 10
0.0
 20
0.0
 30
0.0
 70
     1
  0
VERTEX
  5
509
330
40C
100
AcDbEntity
  8
OBJECT
100
AcDbVertex
100
AcDb2dVertex
 10
3882.322923828668
 20
818.5457371635875
 30
0.0
  0
VERTEX
  5
50A
330
40C
100
AcDbEntity
  8
OBJECT
100
AcDbVertex
100
AcDb2dVertex
 10
3982.322923828668
 20
818.5457371635875
 30
0.0
  0
VERTEX
  5
50B
330
40C
100
AcDbEntity
  8
OBJECT
100
AcDbVertex
100
AcDb2dVertex
 10
3982.322923828668
 20
918.5457371635877
 30
0.0
  0
VERTEX
  5
50C
330
40C
100
AcDbEntity
  8
OBJECT
100
AcDbVertex
100
AcDb2dVertex
 10
3882.322923828668
 20
918.5457371635877
 30
0.0
  0
SEQEND
  5
50D
330
40C
100
AcDbEntity
  8
OBJECT
  0
LINE
  5
40D
330
13E
100
AcDbEntity
  8
OBJECT
100
AcDbLine
 10
3962.322923828669
 20
1248.545737163586
 30
0.0
 11
3962.322923828668
 21
1048.545737163587
 31
0.0
  0
LINE
  5
40E
330
13E
100
AcDbEntity
  8
OBJECT
100
AcDbLine
 10
3982.322923828668
 20
1048.545737163587
 30
0.0
 11
3982.322923828668
 21
973.5457371635876
 31
0.0
  0
ARC
  5
40F
330
13E
100
AcDbEntity
  8
OBJECT
100
AcDbCircle
 10
3997.322923828668
 20
973.5457371635876
 30
0.0
 40
5.0
100
AcDbArc
 50
269.9999999999996
 51
0.0000000000000382
  0
ARC
  5
410
330
13E
100
AcDbEntity
  8
OBJECT
100
AcDbCircle
 10
3987.322923828668
 20
973.5457371635876
 30
0.0
 40
5.0
100
AcDbArc
 50
180.0
 51
270.0
  0
LINE
  5
411
330
13E
100
AcDbEntity
  8
OBJECT
100
AcDbLine
 10
3997.322923828668
 20
968.5457371635877
 30
0.0
 11
3987.322923828668
 21
968.5457371635877
 31
0.0
  0
ARC
  5
412
330
13E
100
AcDbEntity
  8
OBJECT
100
AcDbCircle
 10
3977.322923828669
 20
1048.545737163587
 30
0.0
 40
5.0
100
AcDbArc
 50
269.999999999999
 51
0.0000000000000382
  0
ARC
  5
413
330
13E
100
AcDbEntity
  8
OBJECT
100
AcDbCircle
 10
3967.322923828668
 20
1048.545737163587
 30
0.0
 40
5.0
100
AcDbArc
 50
180.0
 51
270.0
  0
LINE
  5
414
330
13E
100
AcDbEntity
  8
OBJECT
100
AcDbLine
 10
3977.322923828669
 20
1043.545737163587
 30
0.0
 11
3967.322923828668
 21
1043.545737163587
 31
0.0
  0
ARC
  5
415
330
13E
100
AcDbEntity
  8
OBJECT
100
AcDbCircle
 10
3957.322923828669
 20
1248.545737163587
 30
0.0
 40
5.0
100
AcDbArc
 50
270.0000000000008
 51
359.9999999999997
  0
ARC
  5
416
330
13E
100
AcDbEntity
  8
OBJECT
100
AcDbCircle
 10
3947.322923828667
 20
1248.545737163587
 30
0.0
 40
5.0
100
AcDbArc
 50
180.0
 51
270.0
  0
LINE
  5
417
330
13E
100
AcDbEntity
  8
OBJECT
100
AcDbLine
 10
3957.322923828669
 20
1243.545737163587
 30
0.0
 11
3947.322923828667
 21
1243.545737163587
 31
0.0
  0
POLYLINE
  5
418
330
13E
100
AcDbEntity
  8
OBJECT
100
AcDb2dPolyline
 66
     1
 10
0.0
 20
0.0
 30
0.0
 70
     1
  0
VERTEX
  5
50E
330
418
100
AcDbEntity
  8
OBJECT
100
AcDbVertex
100
AcDb2dVertex
 10
4782.322923828668
 20
818.5457371635875
 30
0.0
  0
VERTEX
  5
50F
330
418
100
AcDbEntity
  8
OBJECT
100
AcDbVertex
100
AcDb2dVertex
 10
4882.322923828668
 20
818.5457371635875
 30
0.0
  0
VERTEX
  5
510
330
418
100
AcDbEntity
  8
OBJECT
100
AcDbVertex
100
AcDb2dVertex
 10
4882.322923828668
 20
918.5457371635877
 30
0.0
  0
VERTEX
  5
511
330
418
100
AcDbEntity
  8
OBJECT
100
AcDbVertex
100
AcDb2dVertex
 10
4782.322923828668
 20
918.5457371635877
 30
0.0
  0
SEQEND
  5
512
330
418
100
AcDbEntity
  8
OBJECT
  0
LINE
  5
419
330
13E
100
AcDbEntity
  8
OBJECT
100
AcDbLine
 10
5552.322923828668
 20
418.5457371635866
 30
0.0
 11
5552.322923828668
 21
518.5457371635866
 31
0.0
  0
LINE
  5
41A
330
13E
100
AcDbEntity
  8
OBJECT
100
AcDbLine
 10
5602.322923828669
 20
418.545737163587
 30
0.0
 11
5552.322923828668
 21
418.5457371635866
 31
0.0
  0
LINE
  5
41B
330
13E
100
AcDbEntity
  8
OBJECT
100
AcDbLine
 10
5552.322923828668
 20
518.5457371635866
 30
0.0
 11
5652.32292382867
 21
518.545737163587
 31
0.0
  0
LINE
  5
41C
330
13E
100
AcDbEntity
  8
OBJECT
100
AcDbLine
 10
5652.32292382867
 20
518.545737163587
 30
0.0
 11
5652.32292382867
 21
468.5457371635887
 31
0.0
  0
LINE
  5
41D
330
13E
100
AcDbEntity
  8
OBJECT
100
AcDbLine
 10
3982.322923828668
 20
1758.545737163587
 30
0.0
 11
4782.322923828668
 21
1758.545737163587
 31
0.0
  0
LINE
  5
41E
330
13E
100
AcDbEntity
  8
OBJECT
100
AcDbLine
 10
3982.322923828668
 20
1778.545737163587
 30
0.0
 11
4782.322923828668
 21
1778.545737163587
 31
0.0
  0
LINE
  5
41F
330
13E
100
AcDbEntity
  8
OBJECT
100
AcDbLine
 10
3942.322923828665
 20
1388.545737163587
 30
0.0
 11
3942.322923828665
 21
1718.545737163587
 31
0.0
  0
LINE
  5
420
330
13E
100
AcDbEntity
  8
OBJECT
100
AcDbLine
 10
3962.322923828669
 20
1388.545737163588
 30
0.0
 11
3962.322923828668
 21
1588.545737163587
 31
0.0
  0
ARC
  5
421
330
13E
100
AcDbEntity
  8
OBJECT
100
AcDbCircle
 10
3957.322923828669
 20
1388.545737163587
 30
0.0
 40
5.0
100
AcDbArc
 50
0.0
 51
90.0
  0
ARC
  5
422
330
13E
100
AcDbEntity
  8
OBJECT
100
AcDbCircle
 10
3947.322923828668
 20
1388.545737163587
 30
0.0
 40
5.0
100
AcDbArc
 50
90.0
 51
180.0
  0
LINE
  5
423
330
13E
100
AcDbEntity
  8
OBJECT
100
AcDbLine
 10
3957.322923828669
 20
1393.545737163587
 30
0.0
 11
3947.322923828668
 21
1393.545737163587
 31
0.0
  0
LINE
  5
424
330
13E
100
AcDbEntity
  8
OBJECT
100
AcDbLine
 10
3982.322923828668
 20
1588.545737163587
 30
0.0
 11
3982.322923828669
 21
1663.545737163587
 31
0.0
  0
ARC
  5
425
330
13E
100
AcDbEntity
  8
OBJECT
100
AcDbCircle
 10
3977.322923828668
 20
1588.545737163587
 30
0.0
 40
5.0
100
AcDbArc
 50
0.0
 51
90.0
  0
ARC
  5
426
330
13E
100
AcDbEntity
  8
OBJECT
100
AcDbCircle
 10
3967.322923828668
 20
1588.545737163587
 30
0.0
 40
5.0
100
AcDbArc
 50
90.0
 51
180.0
  0
LINE
  5
427
330
13E
100
AcDbEntity
  8
OBJECT
100
AcDbLine
 10
3977.322923828668
 20
1593.545737163587
 30
0.0
 11
3967.322923828668
 21
1593.545737163587
 31
0.0
  0
ARC
  5
428
330
13E
100
AcDbEntity
  8
OBJECT
100
AcDbCircle
 10
3997.322923828668
 20
1663.545737163587
 30
0.0
 40
5.0
100
AcDbArc
 50
0.0
 51
90.0
  0
ARC
  5
429
330
13E
100
AcDbEntity
  8
OBJECT
100
AcDbCircle
 10
3987.322923828669
 20
1663.545737163587
 30
0.0
 40
5.0
100
AcDbArc
 50
90.0
 51
180.0
  0
LINE
  5
42A
330
13E
100
AcDbEntity
  8
OBJECT
100
AcDbLine
 10
3997.322923828668
 20
1668.545737163587
 30
0.0
 11
3987.322923828669
 21
1668.545737163587
 31
0.0
  0
POLYLINE
  5
42B
330
13E
100
AcDbEntity
  8
OBJECT
100
AcDb2dPolyline
 66
     1
 10
0.0
 20
0.0
 30
0.0
 70
     1
  0
VERTEX
  5
513
330
42B
100
AcDbEntity
  8
OBJECT
100
AcDbVertex
100
AcDb2dVertex
 10
3882.322923828668
 20
1818.545737163587
 30
0.0
  0
VERTEX
  5
514
330
42B
100
AcDbEntity
  8
OBJECT
100
AcDbVertex
100
AcDb2dVertex
 10
3982.322923828668
 20
1818.545737163587
 30
0.0
  0
VERTEX
  5
515
330
42B
100
AcDbEntity
  8
OBJECT
100
AcDbVertex
100
AcDb2dVertex
 10
3982.322923828668
 20
1718.545737163587
 30
0.0
  0
VERTEX
  5
516
330
42B
100
AcDbEntity
  8
OBJECT
100
AcDbVertex
100
AcDb2dVertex
 10
3882.322923828668
 20
1718.545737163587
 30
0.0
  0
SEQEND
  5
517
330
42B
100
AcDbEntity
  8
OBJECT
  0
POLYLINE
  5
42C
330
13E
100
AcDbEntity
  8
OBJECT
100
AcDb2dPolyline
 66
     1
 10
0.0
 20
0.0
 30
0.0
 70
     1
  0
VERTEX
  5
518
330
42C
100
AcDbEntity
  8
OBJECT
100
AcDbVertex
100
AcDb2dVertex
 10
4782.322923828668
 20
1818.545737163587
 30
0.0
  0
VERTEX
  5
519
330
42C
100
AcDbEntity
  8
OBJECT
100
AcDbVertex
100
AcDb2dVertex
 10
4882.322923828668
 20
1818.545737163587
 30
0.0
  0
VERTEX
  5
51A
330
42C
100
AcDbEntity
  8
OBJECT
100
AcDbVertex
100
AcDb2dVertex
 10
4882.322923828668
 20
1718.545737163587
 30
0.0
  0
VERTEX
  5
51B
330
42C
100
AcDbEntity
  8
OBJECT
100
AcDbVertex
100
AcDb2dVertex
 10
4782.322923828668
 20
1718.545737163587
 30
0.0
  0
SEQEND
  5
51C
330
42C
100
AcDbEntity
  8
OBJECT
  0
POLYLINE
  5
42D
330
13E
100
AcDbEntity
  8
OBJECT
100
AcDb2dPolyline
 66
     1
 10
0.0
 20
0.0
 30
0.0
 70
     1
  0
VERTEX
  5
51D
330
42D
100
AcDbEntity
  8
OBJECT
100
AcDbVertex
100
AcDb2dVertex
 10
4332.322923828669
 20
2218.545737163587
 30
0.0
  0
VERTEX
  5
51E
330
42D
100
AcDbEntity
  8
OBJECT
100
AcDbVertex
100
AcDb2dVertex
 10
4432.322923828668
 20
2218.545737163587
 30
0.0
  0
VERTEX
  5
51F
330
42D
100
AcDbEntity
  8
OBJECT
100
AcDbVertex
100
AcDb2dVertex
 10
4432.322923828668
 20
2118.545737163587
 30
0.0
  0
VERTEX
  5
520
330
42D
100
AcDbEntity
  8
OBJECT
100
AcDbVertex
100
AcDb2dVertex
 10
4332.322923828669
 20
2118.545737163587
 30
0.0
  0
SEQEND
  5
521
330
42D
100
AcDbEntity
  8
OBJECT
  0
LINE
  5
42E
330
13E
100
AcDbEntity
  8
OBJECT
100
AcDbLine
 10
5552.322923828668
 20
2218.545737163586
 30
0.0
 11
5552.322923828668
 21
2118.545737163586
 31
0.0
  0
LINE
  5
42F
330
13E
100
AcDbEntity
  8
OBJECT
100
AcDbLine
 10
5552.322923828668
 20
2118.545737163586
 30
0.0
 11
5652.32292382867
 21
2118.545737163586
 31
0.0
  0
LINE
  5
430
330
13E
100
AcDbEntity
  8
OBJECT
100
AcDbLine
 10
5652.32292382867
 20
2118.545737163586
 30
0.0
 11
5652.32292382867
 21
2168.545737163587
 31
0.0
  0
LINE
  5
431
330
13E
100
AcDbEntity
  8
OBJECT
100
AcDbLine
 10
5602.322923828669
 20
2218.545737163586
 30
0.0
 11
5552.322923828668
 21
2218.545737163586
 31
0.0
  0
LINE
  5
432
330
13E
100
AcDbEntity
  8
OBJECT
100
AcDbLine
 10
1875.607195076129
 20
1263.545737163587
 30
0.0
 11
1975.607195076129
 21
1263.545737163587
 31
0.0
  0
LINE
  5
433
330
13E
100
AcDbEntity
  8
OBJECT
100
AcDbLine
 10
1980.607195076128
 20
1268.545737163587
 30
0.0
 11
1980.607195076128
 21
1368.545737163587
 31
0.0
  0
LINE
  5
434
330
13E
100
AcDbEntity
  8
OBJECT
100
AcDbLine
 10
1975.607195076129
 20
1373.545737163587
 30
0.0
 11
1875.607195076129
 21
1373.545737163587
 31
0.0
  0
LINE
  5
435
330
13E
100
AcDbEntity
  8
OBJECT
100
AcDbLine
 10
1870.607195076129
 20
1368.545737163587
 30
0.0
 11
1870.607195076129
 21
1268.545737163587
 31
0.0
  0
ARC
  5
436
330
13E
100
AcDbEntity
  8
OBJECT
100
AcDbCircle
 10
1975.607195076129
 20
1368.545737163587
 30
0.0
 40
5.0
100
AcDbArc
 50
0.0
 51
90.0
  0
ARC
  5
437
330
13E
100
AcDbEntity
  8
OBJECT
100
AcDbCircle
 10
1975.607195076129
 20
1268.545737163587
 30
0.0
 40
5.0
100
AcDbArc
 50
270.0
 51
0.0
  0
ARC
  5
438
330
13E
100
AcDbEntity
  8
OBJECT
100
AcDbCircle
 10
1875.607195076129
 20
1268.545737163587
 30
0.0
 40
5.0
100
AcDbArc
 50
180.0
 51
270.0
  0
ARC
  5
439
330
13E
100
AcDbEntity
  8
OBJECT
100
AcDbCircle
 10
1875.607195076129
 20
1368.545737163587
 30
0.0
 40
5.0
100
AcDbArc
 50
90.0
 51
180.0000000000001
  0
LINE
  5
43A
330
13E
100
AcDbEntity
  8
OBJECT
100
AcDbLine
 10
1740.607195076128
 20
1335.866245239275
 30
0.0
 11
3347.395208228719
 21
2263.545737163587
 31
0.0
  0
LINE
  5
43B
330
13E
100
AcDbEntity
  8
OBJECT
100
AcDbLine
 10
1945.869989492417
 20
1373.545737163587
 30
0.0
 11
3309.452921888119
 21
2160.810710244625
 31
0.0
  0
LINE
  5
43C
330
13E
100
AcDbEntity
  8
OBJECT
100
AcDbLine
 10
1945.869989492417
 20
1263.545737163587
 30
0.0
 11
3309.452921888118
 21
476.2807640825489
 31
0.0
  0
LINE
  5
43D
330
13E
100
AcDbEntity
  8
OBJECT
100
AcDbLine
 10
1740.607195076128
 20
1301.225229087897
 30
0.0
 11
3347.395208228719
 21
373.5457371635871
 31
0.0
  0
LINE
  5
43E
330
13E
100
AcDbEntity
  8
OBJECT
100
AcDbLine
 10
5552.322923828669
 20
2193.545737163586
 30
0.0
 11
4432.322923828668
 21
2193.545737163586
 31
0.0
  0
LINE
  5
43F
330
13E
100
AcDbEntity
  8
OBJECT
100
AcDbLine
 10
3347.395208228718
 20
373.5457371635872
 30
0.0
 11
5620.962534135454
 21
373.5457371635872
 31
0.0
  0
LINE
  5
440
330
13E
100
AcDbEntity
  8
OBJECT
100
AcDbLine
 10
5652.32292382867
 20
503.9010762229188
 30
0.0
 11
5865.607195076129
 21
717.1853474703756
 31
0.0
  0
LINE
  5
441
330
13E
100
AcDbEntity
  8
OBJECT
100
AcDbLine
 10
5620.962534135455
 20
373.5457371635873
 30
0.0
 11
5935.607195076128
 21
688.1903981042584
 31
0.0
  0
LINE
  5
442
330
13E
100
AcDbEntity
  8
OBJECT
100
AcDbLine
 10
5935.607195076129
 20
688.1903981042584
 30
0.0
 11
5935.607195076129
 21
1948.901076222915
 31
0.0
  0
LINE
  5
443
330
13E
100
AcDbEntity
  8
OBJECT
100
AcDbLine
 10
5865.607195076126
 20
717.1853474703745
 30
0.0
 11
5865.607195076129
 21
1919.906126856798
 31
0.0
  0
LINE
  5
444
330
13E
100
AcDbEntity
  8
OBJECT
100
AcDbLine
 10
5935.607195076129
 20
1948.901076222914
 30
0.0
 11
5620.962534135452
 21
2263.545737163587
 31
0.0
  0
LINE
  5
445
330
13E
100
AcDbEntity
  8
OBJECT
100
AcDbLine
 10
5865.60719507613
 20
1919.906126856797
 30
0.0
 11
5652.322923828672
 21
2133.190398104257
 31
0.0
  0
ARC
  5
446
330
13E
100
AcDbEntity
  8
OBJECT
100
AcDbCircle
 10
1750.607195076128
 20
1318.545737163586
 30
0.0
 40
20.0
100
AcDbArc
 50
119.9999999999999
 51
240.0
  0
LINE
  5
447
330
13E
100
AcDbEntity
  8
OBJECT
100
AcDbLine
 10
4332.322923828669
 20
2193.545737163586
 30
0.0
 11
3409.452921888119
 21
2193.545737163586
 31
0.0
  0
LINE
  5
448
330
13E
100
AcDbEntity
  8
OBJECT
100
AcDbLine
 10
4432.322923828668
 20
443.5457371635875
 30
0.0
 11
5552.322923828668
 21
443.5457371635876
 31
0.0
  0
LINE
  5
449
330
13E
100
AcDbEntity
  8
OBJECT
100
AcDbLine
 10
3409.452921888119
 20
443.5457371635875
 30
0.0
 11
4332.322923828669
 21
443.5457371635875
 31
0.0
  0
LINE
  5
44A
330
13E
100
AcDbEntity
  8
OBJECT
100
AcDbLine
 10
5602.322923828669
 20
2218.545737163586
 30
0.0
 11
5652.32292382867
 21
2168.545737163587
 31
0.0
  0
LINE
  5
44B
330
13E
100
AcDbEntity
  8
OBJECT
100
AcDbLine
 10
5652.32292382867
 20
468.5457371635887
 30
0.0
 11
5602.322923828669
 21
418.545737163587
 31
0.0
  0
LINE
  5
44C
330
13E
100
AcDbEntity
  8
OBJECT
100
AcDbLine
 10
5620.962534135451
 20
2263.545737163588
 30
0.0
 11
3347.395208228717
 21
2263.545737163587
 31
0.0
  0
INSERT
  5
44D
330
13E
100
AcDbEntity
  8
HATCH
  6
CONTINUOUS
 62
     2
100
AcDbBlockReference
  2
*U8
 10
0.0
 20
0.0
 30
0.0
1001
ACAD
1002
{
1000
R14_HATCH_DATA
1000
44D
1011
1.0
1021
0.0
1031
0.0
1011
0.0
1021
1.0
1031
0.0
1011
0.0
1021
0.0
1031
1.0
1040
0.0
1010
0.0
1020
0.0
1030
1.0
1000
SOLID
1070
     1
1070
     0
1071
        1
1071
        7
1070
     1
1070
     1
1071
        8
1040
2250.607195076129
1040
1549.485844839437
1040
0.0
1040
1945.869989492417
1040
1373.545737163587
1040
0.0
1040
1975.607195076129
1040
1373.545737163587
1040
-0.4142135623730951
1040
1980.607195076128
1040
1368.545737163587
1040
0.0
1040
1980.607195076128
1040
1268.545737163587
1040
-0.4142135623730951
1040
1975.607195076129
1040
1263.545737163587
1040
0.0
1040
1945.869989492417
1040
1263.545737163587
1040
0.0
1040
2250.607195076127
1040
1087.605629487738
1040
0.0
1071
        0
1070
     0
1070
     1
1040
5.926074580778083
1071
        1
1040
2181.119380252683
1040
1298.823694543421
1040
0.0
1002
}
  0
ENDBLK
  5
140
330
13E
100
AcDbEntity
  8
0
100
AcDbBlockEnd
  0
BLOCK
  5
460
330
453
100
AcDbEntity
  8
0
 62
   251
100
AcDbBlockBegin
  2
*U1
 70
     1
 10
0.0
 20
0.0
 30
0.0
  3
*U1
  1

  0
SOLID
  5
454
330
453
100
AcDbEntity
  8
HATCH
  6
CONTINUOUS
 62
     2
100
AcDbTrace
 10
4000.858457734601
 20
970.0102032576545
 30
0.0
 11
3987.322923828668
 21
968.5457371635877
 31
0.0
 12
3997.322923828668
 22
968.5457371635877
 32
0.0
 13
3997.322923828668
 23
968.5457371635877
 33
0.0
210
0.0
220
0.0
230
1.0
  0
SOLID
  5
455
330
453
100
AcDbEntity
  8
HATCH
  6
CONTINUOUS
 62
     2
100
AcDbTrace
 10
3983.787389922735
 20
970.010203257655
 30
0.0
 11
3987.322923828668
 21
968.5457371635877
 31
0.0
 12
4000.858457734601
 22
970.0102032576545
 32
0.0
 13
4000.858457734601
 23
970.0102032576545
 33
0.0
210
0.0
220
0.0
230
1.0
  0
SOLID
  5
456
330
453
100
AcDbEntity
  8
HATCH
  6
CONTINUOUS
 62
     2
100
AcDbTrace
 10
4002.322923828669
 20
973.5457371635876
 30
0.0
 11
3983.787389922735
 21
970.010203257655
 31
0.0
 12
4000.858457734601
 22
970.0102032576545
 32
0.0
 13
4000.858457734601
 23
970.0102032576545
 33
0.0
210
0.0
220
0.0
230
1.0
  0
SOLID
  5
457
330
453
100
AcDbEntity
  8
HATCH
  6
CONTINUOUS
 62
     2
100
AcDbTrace
 10
3982.322923828668
 20
973.5457371635877
 30
0.0
 11
3983.787389922735
 21
970.010203257655
 31
0.0
 12
4002.322923828669
 22
973.5457371635876
 32
0.0
 13
4002.322923828669
 23
973.5457371635876
 33
0.0
  0
SOLID
  5
458
330
453
100
AcDbEntity
  8
HATCH
  6
CONTINUOUS
 62
     2
100
AcDbTrace
 10
3982.322923828669
 20
1048.545737163587
 30
0.0
 11
3982.322923828668
 21
973.5457371635877
 31
0.0
 12
4002.322923828669
 22
973.5457371635876
 32
0.0
 13
4002.322923828669
 23
973.5457371635876
 33
0.0
210
0.0
220
0.0
230
1.0
  0
SOLID
  5
459
330
453
100
AcDbEntity
  8
HATCH
  6
CONTINUOUS
 62
     2
100
AcDbTrace
 10
3982.322923828668
 20
1588.545737163587
 30
0.0
 11
3982.322923828669
 21
1048.545737163587
 31
0.0
 12
4002.322923828669
 22
973.5457371635876
 32
0.0
 13
4002.322923828669
 23
973.5457371635876
 33
0.0
210
0.0
220
0.0
230
1.0
  0
SOLID
  5
45A
330
453
100
AcDbEntity
  8
HATCH
  6
CONTINUOUS
 62
     2
100
AcDbTrace
 10
4002.322923828668
 20
1663.545737163587
 30
0.0
 11
3982.322923828668
 21
1588.545737163587
 31
0.0
 12
4002.322923828669
 22
973.5457371635876
 32
0.0
 13
4002.322923828669
 23
973.5457371635876
 33
0.0
210
0.0
220
0.0
230
1.0
  0
SOLID
  5
45B
330
453
100
AcDbEntity
  8
HATCH
  6
CONTINUOUS
 62
     2
100
AcDbTrace
 10
3982.322923828669
 20
1663.545737163587
 30
0.0
 11
3982.322923828668
 21
1588.545737163587
 31
0.0
 12
4002.322923828668
 22
1663.545737163587
 32
0.0
 13
4002.322923828668
 23
1663.545737163587
 33
0.0
210
0.0
220
0.0
230
1.0
  0
SOLID
  5
45C
330
453
100
AcDbEntity
  8
HATCH
  6
CONTINUOUS
 62
     2
100
AcDbTrace
 10
4000.858457734601
 20
1667.08127106952
 30
0.0
 11
3982.322923828669
 21
1663.545737163587
 31
0.0
 12
4002.322923828668
 22
1663.545737163587
 32
0.0
 13
4002.322923828668
 23
1663.545737163587
 33
0.0
210
0.0
220
0.0
230
1.0
  0
SOLID
  5
45D
330
453
100
AcDbEntity
  8
HATCH
  6
CONTINUOUS
 62
     2
100
AcDbTrace
 10
3983.787389922736
 20
1667.08127106952
 30
0.0
 11
3982.322923828669
 21
1663.545737163587
 31
0.0
 12
4000.858457734601
 22
1667.08127106952
 32
0.0
 13
4000.858457734601
 23
1667.08127106952
 33
0.0
210
0.0
220
0.0
230
1.0
  0
SOLID
  5
45E
330
453
100
AcDbEntity
  8
HATCH
  6
CONTINUOUS
 62
     2
100
AcDbTrace
 10
3983.787389922736
 20
1667.08127106952
 30
0.0
 11
3997.322923828668
 21
1668.545737163587
 31
0.0
 12
3987.322923828669
 22
1668.545737163587
 32
0.0
 13
3987.322923828669
 23
1668.545737163587
 33
0.0
210
0.0
220
0.0
230
1.0
  0
SOLID
  5
45F
330
453
100
AcDbEntity
  8
HATCH
  6
CONTINUOUS
 62
     2
100
AcDbTrace
 10
3997.322923828668
 20
1668.545737163587
 30
0.0
 11
3983.787389922736
 21
1667.08127106952
 31
0.0
 12
4000.858457734601
 22
1667.08127106952
 32
0.0
 13
4000.858457734601
 23
1667.08127106952
 33
0.0
210
0.0
220
0.0
230
1.0
  0
ENDBLK
  5
461
330
453
100
AcDbEntity
  8
0
 62
   251
100
AcDbBlockEnd
  0
BLOCK
  5
46F
330
462
100
AcDbEntity
  8
0
 62
   251
100
AcDbBlockBegin
  2
*U2
 70
     1
 10
0.0
 20
0.0
 30
0.0
  3
*U2
  1

  0
SOLID
  5
463
330
462
100
AcDbEntity
  8
HATCH
  6
CONTINUOUS
 62
     3
100
AcDbTrace
 10
3980.858457734601
 20
1045.010203257654
 30
0.0
 11
3967.322923828668
 21
1043.545737163587
 31
0.0
 12
3977.322923828669
 22
1043.545737163587
 32
0.0
 13
3977.322923828669
 23
1043.545737163587
 33
0.0
210
0.0
220
0.0
230
1.0
  0
SOLID
  5
464
330
462
100
AcDbEntity
  8
HATCH
  6
CONTINUOUS
 62
     3
100
AcDbTrace
 10
3963.787389922735
 20
1045.010203257654
 30
0.0
 11
3967.322923828668
 21
1043.545737163587
 31
0.0
 12
3980.858457734601
 22
1045.010203257654
 32
0.0
 13
3980.858457734601
 23
1045.010203257654
 33
0.0
210
0.0
220
0.0
230
1.0
  0
SOLID
  5
465
330
462
100
AcDbEntity
  8
HATCH
  6
CONTINUOUS
 62
     3
100
AcDbTrace
 10
3982.322923828669
 20
1048.545737163587
 30
0.0
 11
3963.787389922735
 21
1045.010203257654
 31
0.0
 12
3980.858457734601
 22
1045.010203257654
 32
0.0
 13
3980.858457734601
 23
1045.010203257654
 33
0.0
210
0.0
220
0.0
230
1.0
  0
SOLID
  5
466
330
462
100
AcDbEntity
  8
HATCH
  6
CONTINUOUS
 62
     3
100
AcDbTrace
 10
3962.322923828668
 20
1048.545737163587
 30
0.0
 11
3963.787389922735
 21
1045.010203257654
 31
0.0
 12
3982.322923828669
 22
1048.545737163587
 32
0.0
 13
3982.322923828669
 23
1048.545737163587
 33
0.0
210
0.0
220
0.0
230
1.0
  0
SOLID
  5
467
330
462
100
AcDbEntity
  8
HATCH
  6
CONTINUOUS
 62
     3
100
AcDbTrace
 10
3962.322923828669
 20
1248.545737163587
 30
0.0
 11
3962.322923828668
 21
1048.545737163587
 31
0.0
 12
3982.322923828669
 22
1048.545737163587
 32
0.0
 13
3982.322923828669
 23
1048.545737163587
 33
0.0
210
0.0
220
0.0
230
1.0
  0
SOLID
  5
468
330
462
100
AcDbEntity
  8
HATCH
  6
CONTINUOUS
 62
     3
100
AcDbTrace
 10
3962.322923828669
 20
1388.545737163588
 30
0.0
 11
3962.322923828669
 21
1248.545737163587
 31
0.0
 12
3982.322923828669
 22
1048.545737163587
 32
0.0
 13
3982.322923828669
 23
1048.545737163587
 33
0.0
210
0.0
220
0.0
230
1.0
  0
SOLID
  5
469
330
462
100
AcDbEntity
  8
HATCH
  6
CONTINUOUS
 62
     3
100
AcDbTrace
 10
3982.322923828668
 20
1588.545737163587
 30
0.0
 11
3962.322923828669
 21
1388.545737163588
 31
0.0
 12
3982.322923828669
 22
1048.545737163587
 32
0.0
 13
3982.322923828669
 23
1048.545737163587
 33
0.0
210
0.0
220
0.0
230
1.0
  0
SOLID
  5
46A
330
462
100
AcDbEntity
  8
HATCH
  6
CONTINUOUS
 62
     3
100
AcDbTrace
 10
3962.322923828668
 20
1588.545737163587
 30
0.0
 11
3962.322923828669
 21
1388.545737163588
 31
0.0
 12
3982.322923828668
 22
1588.545737163587
 32
0.0
 13
3982.322923828668
 23
1588.545737163587
 33
0.0
210
0.0
220
0.0
230
1.0
  0
SOLID
  5
46B
330
462
100
AcDbEntity
  8
HATCH
  6
CONTINUOUS
 62
     3
100
AcDbTrace
 10
3980.858457734601
 20
1592.08127106952
 30
0.0
 11
3962.322923828668
 21
1588.545737163587
 31
0.0
 12
3982.322923828668
 22
1588.545737163587
 32
0.0
 13
3982.322923828668
 23
1588.545737163587
 33
0.0
210
0.0
220
0.0
230
1.0
  0
SOLID
  5
46C
330
462
100
AcDbEntity
  8
HATCH
  6
CONTINUOUS
 62
     3
100
AcDbTrace
 10
3963.787389922735
 20
1592.08127106952
 30
0.0
 11
3962.322923828668
 21
1588.545737163587
 31
0.0
 12
3980.858457734601
 22
1592.08127106952
 32
0.0
 13
3980.858457734601
 23
1592.08127106952
 33
0.0
210
0.0
220
0.0
230
1.0
  0
SOLID
  5
46D
330
462
100
AcDbEntity
  8
HATCH
  6
CONTINUOUS
 62
     3
100
AcDbTrace
 10
3963.787389922735
 20
1592.08127106952
 30
0.0
 11
3977.322923828668
 21
1593.545737163587
 31
0.0
 12
3967.322923828668
 22
1593.545737163587
 32
0.0
 13
3967.322923828668
 23
1593.545737163587
 33
0.0
210
0.0
220
0.0
230
1.0
  0
SOLID
  5
46E
330
462
100
AcDbEntity
  8
HATCH
  6
CONTINUOUS
 62
     3
100
AcDbTrace
 10
3977.322923828668
 20
1593.545737163587
 30
0.0
 11
3963.787389922735
 21
1592.08127106952
 31
0.0
 12
3980.858457734601
 22
1592.08127106952
 32
0.0
 13
3980.858457734601
 23
1592.08127106952
 33
0.0
210
0.0
220
0.0
230
1.0
  0
ENDBLK
  5
470
330
462
100
AcDbEntity
  8
0
 62
   251
100
AcDbBlockEnd
  0
BLOCK
  5
475
330
471
100
AcDbEntity
  8
0
 62
   251
100
AcDbBlockBegin
  2
*U3
 70
     1
 10
0.0
 20
0.0
 30
0.0
  3
*U3
  1

  0
SOLID
  5
472
330
471
100
AcDbEntity
  8
HATCH
  6
CONTINUOUS
 62
   251
100
AcDbTrace
 10
3409.452921888119
 20
443.5457371635876
 30
0.0
 11
3509.45292188812
 21
443.5457371635875
 31
0.0
 12
3409.452921888119
 22
2118.545737163587
 32
0.0
 13
3409.452921888119
 23
2118.545737163587
 33
0.0
210
0.0
220
0.0
230
1.0
  0
SOLID
  5
473
330
471
100
AcDbEntity
  8
HATCH
  6
CONTINUOUS
 62
   251
100
AcDbTrace
 10
3509.452921888119
 20
2193.545737163586
 30
0.0
 11
3409.452921888119
 21
2118.545737163587
 31
0.0
 12
3509.45292188812
 22
443.5457371635875
 32
0.0
 13
3509.45292188812
 23
443.5457371635875
 33
0.0
210
0.0
220
0.0
230
1.0
  0
SOLID
  5
474
330
471
100
AcDbEntity
  8
HATCH
  6
CONTINUOUS
 62
   251
100
AcDbTrace
 10
3409.452921888119
 20
2118.545737163587
 30
0.0
 11
3509.452921888119
 21
2193.545737163586
 31
0.0
 12
3409.452921888119
 22
2193.545737163586
 32
0.0
 13
3409.452921888119
 23
2193.545737163586
 33
0.0
210
0.0
220
0.0
230
1.0
  0
ENDBLK
  5
476
330
471
100
AcDbEntity
  8
0
 62
   251
100
AcDbBlockEnd
  0
BLOCK
  5
4A9
330
477
100
AcDbEntity
  8
0
 62
   251
100
AcDbBlockBegin
  2
*U4
 70
     1
 10
0.0
 20
0.0
 30
0.0
  3
*U4
  1

  0
SOLID
  5
478
330
477
100
AcDbEntity
  8
HATCH
  6
CONTINUOUS
 62
     2
100
AcDbTrace
 10
3409.452921888118
 20
418.5457371635856
 30
0.0
 11
3347.395208228719
 21
373.5457371635872
 31
0.0
 12
5620.962534135455
 22
373.5457371635872
 32
0.0
 13
5620.962534135455
 23
373.5457371635872
 33
0.0
210
0.0
220
0.0
230
1.0
  0
SOLID
  5
479
330
477
100
AcDbEntity
  8
HATCH
  6
CONTINUOUS
 62
     2
100
AcDbTrace
 10
3347.395208228719
 20
373.5457371635872
 30
0.0
 11
3409.452921888118
 21
418.5457371635856
 31
0.0
 12
3359.452921888119
 22
418.5457371635856
 32
0.0
 13
3359.452921888119
 23
418.5457371635856
 33
0.0
210
0.0
220
0.0
230
1.0
  0
SOLID
  5
47A
330
477
100
AcDbEntity
  8
HATCH
  6
CONTINUOUS
 62
     2
100
AcDbTrace
 10
5552.322923828668
 20
418.5457371635866
 30
0.0
 11
3409.452921888118
 21
418.5457371635856
 31
0.0
 12
5620.962534135455
 22
373.5457371635872
 32
0.0
 13
5620.962534135455
 23
373.5457371635872
 33
0.0
210
0.0
220
0.0
230
1.0
  0
SOLID
  5
47B
330
477
100
AcDbEntity
  8
HATCH
  6
CONTINUOUS
 62
     2
100
AcDbTrace
 10
5602.322923828669
 20
418.545737163587
 30
0.0
 11
5552.322923828668
 21
418.5457371635866
 31
0.0
 12
5620.962534135455
 22
373.5457371635872
 32
0.0
 13
5620.962534135455
 23
373.5457371635872
 33
0.0
210
0.0
220
0.0
230
1.0
  0
SOLID
  5
47C
330
477
100
AcDbEntity
  8
HATCH
  6
CONTINUOUS
 62
     2
100
AcDbTrace
 10
4432.322923828668
 20
418.5457371635875
 30
0.0
 11
3409.452921888118
 21
418.5457371635856
 31
0.0
 12
5552.322923828668
 22
418.5457371635866
 32
0.0
 13
5552.322923828668
 23
418.5457371635866
 33
0.0
210
0.0
220
0.0
230
1.0
  0
SOLID
  5
47D
330
477
100
AcDbEntity
  8
HATCH
  6
CONTINUOUS
 62
     2
100
AcDbTrace
 10
3409.452921888118
 20
418.5457371635856
 30
0.0
 11
4432.322923828668
 21
418.5457371635875
 31
0.0
 12
4332.322923828668
 22
418.5457371635875
 32
0.0
 13
4332.322923828668
 23
418.5457371635875
 33
0.0
210
0.0
220
0.0
230
1.0
  0
SOLID
  5
47E
330
477
100
AcDbEntity
  8
HATCH
  6
CONTINUOUS
 62
     2
100
AcDbTrace
 10
3409.452921888119
 20
443.5457371635875
 30
0.0
 11
3409.452921888118
 21
418.5457371635856
 31
0.0
 12
4332.322923828668
 22
418.5457371635875
 32
0.0
 13
4332.322923828668
 23
418.5457371635875
 33
0.0
210
0.0
220
0.0
230
1.0
  0
SOLID
  5
47F
330
477
100
AcDbEntity
  8
HATCH
  6
CONTINUOUS
 62
     2
100
AcDbTrace
 10
4332.322923828668
 20
443.5457371635875
 30
0.0
 11
3409.452921888119
 21
443.5457371635875
 31
0.0
 12
4332.322923828668
 22
418.5457371635875
 32
0.0
 13
4332.322923828668
 23
418.5457371635875
 33
0.0
  0
SOLID
  5
480
330
477
100
AcDbEntity
  8
HATCH
  6
CONTINUOUS
 62
     2
100
AcDbTrace
 10
4432.322923828668
 20
418.5457371635875
 30
0.0
 11
5552.322923828668
 21
443.5457371635876
 31
0.0
 12
4432.322923828669
 22
443.5457371635876
 32
0.0
 13
4432.322923828669
 23
443.5457371635876
 33
0.0
210
0.0
220
0.0
230
1.0
  0
SOLID
  5
481
330
477
100
AcDbEntity
  8
HATCH
  6
CONTINUOUS
 62
     2
100
AcDbTrace
 10
5552.322923828668
 20
443.5457371635876
 30
0.0
 11
4432.322923828668
 21
418.5457371635875
 31
0.0
 12
5552.322923828668
 22
418.5457371635866
 32
0.0
 13
5552.322923828668
 23
418.5457371635866
 33
0.0
210
0.0
220
0.0
230
1.0
  0
SOLID
  5
482
330
477
100
AcDbEntity
  8
HATCH
  6
CONTINUOUS
 62
     2
100
AcDbTrace
 10
3309.452921888119
 20
447.4132506230669
 30
0.0
 11
3347.395208228719
 21
373.5457371635872
 31
0.0
 12
3359.452921888119
 22
418.5457371635856
 32
0.0
 13
3359.452921888119
 23
418.5457371635856
 33
0.0
210
0.0
220
0.0
230
1.0
  0
SOLID
  5
483
330
477
100
AcDbEntity
  8
HATCH
  6
CONTINUOUS
 62
     2
100
AcDbTrace
 10
5652.32292382867
 20
468.5457371635888
 30
0.0
 11
5602.322923828669
 21
418.545737163587
 31
0.0
 12
5620.962534135455
 22
373.5457371635872
 32
0.0
 13
5620.962534135455
 23
373.5457371635872
 33
0.0
  0
SOLID
  5
484
330
477
100
AcDbEntity
  8
HATCH
  6
CONTINUOUS
 62
     2
100
AcDbTrace
 10
5935.607195076128
 20
688.190398104259
 30
0.0
 11
5652.32292382867
 21
503.9010762229193
 31
0.0
 12
5652.32292382867
 22
468.5457371635888
 32
0.0
 13
5652.32292382867
 23
468.5457371635888
 33
0.0
210
0.0
220
0.0
230
1.0
  0
SOLID
  5
485
330
477
100
AcDbEntity
  8
HATCH
  6
CONTINUOUS
 62
     2
100
AcDbTrace
 10
5935.607195076128
 20
688.190398104259
 30
0.0
 11
5652.32292382867
 21
468.5457371635888
 31
0.0
 12
5620.962534135455
 22
373.5457371635872
 32
0.0
 13
5620.962534135455
 23
373.5457371635872
 33
0.0
210
0.0
220
0.0
230
1.0
  0
SOLID
  5
486
330
477
100
AcDbEntity
  8
HATCH
  6
CONTINUOUS
 62
     2
100
AcDbTrace
 10
5865.607195076126
 20
717.1853474703733
 30
0.0
 11
5652.32292382867
 21
503.9010762229193
 31
0.0
 12
5935.607195076128
 22
688.190398104259
 32
0.0
 13
5935.607195076128
 23
688.190398104259
 33
0.0
210
0.0
220
0.0
230
1.0
  0
SOLID
  5
487
330
477
100
AcDbEntity
  8
HATCH
  6
CONTINUOUS
 62
     2
100
AcDbTrace
 10
1945.869989492416
 20
1263.545737163587
 30
0.0
 11
3309.452921888119
 21
447.4132506230669
 31
0.0
 12
3309.452921888119
 22
476.2807640825489
 32
0.0
 13
3309.452921888119
 23
476.2807640825489
 33
0.0
210
0.0
220
0.0
230
1.0
  0
SOLID
  5
488
330
477
100
AcDbEntity
  8
HATCH
  6
CONTINUOUS
 62
     2
100
AcDbTrace
 10
1945.869989492416
 20
1263.545737163587
 30
0.0
 11
3347.395208228719
 21
373.5457371635872
 31
0.0
 12
3309.452921888119
 22
447.4132506230669
 32
0.0
 13
3309.452921888119
 23
447.4132506230669
 33
0.0
210
0.0
220
0.0
230
1.0
  0
SOLID
  5
489
330
477
100
AcDbEntity
  8
HATCH
  6
CONTINUOUS
 62
     2
100
AcDbTrace
 10
1870.607195076129
 20
1263.545737163587
 30
0.0
 11
3347.395208228719
 21
373.5457371635872
 31
0.0
 12
1945.869989492416
 22
1263.545737163587
 32
0.0
 13
1945.869989492416
 23
1263.545737163587
 33
0.0
210
0.0
220
0.0
230
1.0
  0
SOLID
  5
48A
330
477
100
AcDbEntity
  8
HATCH
  6
CONTINUOUS
 62
     2
100
AcDbTrace
 10
1740.607195076128
 20
1301.225229087897
 30
0.0
 11
3347.395208228719
 21
373.5457371635872
 31
0.0
 12
1870.607195076129
 22
1263.545737163587
 32
0.0
 13
1870.607195076129
 23
1263.545737163587
 33
0.0
210
0.0
220
0.0
230
1.0
  0
SOLID
  5
48B
330
477
100
AcDbEntity
  8
HATCH
  6
CONTINUOUS
 62
     2
100
AcDbTrace
 10
1731.81334266041
 20
1311.705334297073
 30
0.0
 11
1740.607195076128
 21
1301.225229087897
 31
0.0
 12
1870.607195076129
 22
1263.545737163587
 32
0.0
 13
1870.607195076129
 23
1263.545737163587
 33
0.0
210
0.0
220
0.0
230
1.0
  0
SOLID
  5
48C
330
477
100
AcDbEntity
  8
HATCH
  6
CONTINUOUS
 62
     2
100
AcDbTrace
 10
4020.322923828668
 20
1318.545737163587
 30
0.0
 11
4002.322923828669
 21
1300.545737163587
 31
0.0
 12
4015.050845890026
 22
1305.817815102229
 32
0.0
 13
4015.050845890026
 23
1305.817815102229
 33
0.0
210
0.0
220
0.0
230
1.0
  0
SOLID
  5
48D
330
477
100
AcDbEntity
  8
HATCH
  6
CONTINUOUS
 62
     2
100
AcDbTrace
 10
1731.81334266041
 20
1325.386140030099
 30
0.0
 11
1731.81334266041
 21
1311.705334297073
 31
0.0
 12
1870.607195076129
 22
1263.545737163587
 32
0.0
 13
1870.607195076129
 23
1263.545737163587
 33
0.0
210
0.0
220
0.0
230
1.0
  0
SOLID
  5
48E
330
477
100
AcDbEntity
  8
HATCH
  6
CONTINUOUS
 62
     2
100
AcDbTrace
 10
4015.050845890026
 20
1331.273659224945
 30
0.0
 11
4002.322923828669
 21
1300.545737163587
 31
0.0
 12
4020.322923828668
 22
1318.545737163587
 32
0.0
 13
4020.322923828668
 23
1318.545737163587
 33
0.0
210
0.0
220
0.0
230
1.0
  0
SOLID
  5
48F
330
477
100
AcDbEntity
  8
HATCH
  6
CONTINUOUS
 62
     2
100
AcDbTrace
 10
1740.607195076128
 20
1335.866245239275
 30
0.0
 11
1731.81334266041
 21
1325.386140030099
 31
0.0
 12
1870.607195076129
 22
1263.545737163587
 32
0.0
 13
1870.607195076129
 23
1263.545737163587
 33
0.0
210
0.0
220
0.0
230
1.0
  0
SOLID
  5
490
330
477
100
AcDbEntity
  8
HATCH
  6
CONTINUOUS
 62
     2
100
AcDbTrace
 10
4002.322923828669
 20
1336.545737163587
 30
0.0
 11
4002.322923828669
 21
1300.545737163587
 31
0.0
 12
4015.050845890026
 22
1331.273659224945
 32
0.0
 13
4015.050845890026
 23
1331.273659224945
 33
0.0
210
0.0
220
0.0
230
1.0
  0
SOLID
  5
491
330
477
100
AcDbEntity
  8
HATCH
  6
CONTINUOUS
 62
     2
100
AcDbTrace
 10
3609.452921888119
 20
1268.545737163587
 30
0.0
 11
3609.452921888119
 21
1368.545737163587
 31
0.0
 12
3509.452921888119
 22
1368.545737163587
 32
0.0
 13
3509.452921888119
 23
1368.545737163587
 33
0.0
210
0.0
220
0.0
230
1.0
  0
SOLID
  5
492
330
477
100
AcDbEntity
  8
HATCH
  6
CONTINUOUS
 62
     2
100
AcDbTrace
 10
3509.452921888119
 20
1368.545737163587
 30
0.0
 11
3509.452921888119
 21
1268.545737163587
 31
0.0
 12
3609.452921888119
 22
1268.545737163587
 32
0.0
 13
3609.452921888119
 23
1268.545737163587
 33
0.0
210
0.0
220
0.0
230
1.0
  0
SOLID
  5
493
330
477
100
AcDbEntity
  8
HATCH
  6
CONTINUOUS
 62
     2
100
AcDbTrace
 10
1870.607195076128
 20
1373.545737163587
 30
0.0
 11
1740.607195076128
 21
1335.866245239275
 31
0.0
 12
1870.607195076129
 22
1263.545737163587
 32
0.0
 13
1870.607195076129
 23
1263.545737163587
 33
0.0
210
0.0
220
0.0
230
1.0
  0
SOLID
  5
494
330
477
100
AcDbEntity
  8
HATCH
  6
CONTINUOUS
 62
     2
100
AcDbTrace
 10
5865.607195076128
 20
1919.906126856797
 30
0.0
 11
5865.607195076126
 21
717.1853474703733
 31
0.0
 12
5935.607195076128
 22
688.190398104259
 32
0.0
 13
5935.607195076128
 23
688.190398104259
 33
0.0
210
0.0
220
0.0
230
1.0
  0
SOLID
  5
495
330
477
100
AcDbEntity
  8
HATCH
  6
CONTINUOUS
 62
     2
100
AcDbTrace
 10
5935.607195076128
 20
1948.901076222913
 30
0.0
 11
5865.607195076128
 21
1919.906126856797
 31
0.0
 12
5935.607195076128
 22
688.190398104259
 32
0.0
 13
5935.607195076128
 23
688.190398104259
 33
0.0
210
0.0
220
0.0
230
1.0
  0
SOLID
  5
496
330
477
100
AcDbEntity
  8
HATCH
  6
CONTINUOUS
 62
     2
100
AcDbTrace
 10
5652.32292382867
 20
2133.190398104259
 30
0.0
 11
5865.607195076128
 21
1919.906126856797
 31
0.0
 12
5935.607195076128
 22
1948.901076222913
 32
0.0
 13
5935.607195076128
 23
1948.901076222913
 33
0.0
210
0.0
220
0.0
230
1.0
  0
SOLID
  5
497
330
477
100
AcDbEntity
  8
HATCH
  6
CONTINUOUS
 62
     2
100
AcDbTrace
 10
3309.452921888118
 20
2160.810710244625
 30
0.0
 11
1870.607195076128
 21
1373.545737163587
 31
0.0
 12
1945.869989492416
 22
1373.545737163587
 32
0.0
 13
1945.869989492416
 23
1373.545737163587
 33
0.0
210
0.0
220
0.0
230
1.0
  0
SOLID
  5
498
330
477
100
AcDbEntity
  8
HATCH
  6
CONTINUOUS
 62
     2
100
AcDbTrace
 10
3309.452921888118
 20
2160.810710244625
 30
0.0
 11
1740.607195076128
 21
1335.866245239275
 31
0.0
 12
1870.607195076128
 22
1373.545737163587
 32
0.0
 13
1870.607195076128
 23
1373.545737163587
 33
0.0
210
0.0
220
0.0
230
1.0
  0
SOLID
  5
499
330
477
100
AcDbEntity
  8
HATCH
  6
CONTINUOUS
 62
     2
100
AcDbTrace
 10
5652.32292382867
 20
2168.545737163587
 30
0.0
 11
5652.32292382867
 21
2133.190398104259
 31
0.0
 12
5935.607195076128
 22
1948.901076222913
 32
0.0
 13
5935.607195076128
 23
1948.901076222913
 33
0.0
210
0.0
220
0.0
230
1.0
  0
SOLID
  5
49A
330
477
100
AcDbEntity
  8
HATCH
  6
CONTINUOUS
 62
     2
100
AcDbTrace
 10
3309.452921888119
 20
2189.678223704106
 30
0.0
 11
1740.607195076128
 21
1335.866245239275
 31
0.0
 12
3309.452921888118
 22
2160.810710244625
 32
0.0
 13
3309.452921888118
 23
2160.810710244625
 33
0.0
210
0.0
220
0.0
230
1.0
  0
SOLID
  5
49B
330
477
100
AcDbEntity
  8
HATCH
  6
CONTINUOUS
 62
     2
100
AcDbTrace
 10
5552.322923828669
 20
2218.545737163586
 30
0.0
 11
4432.322923828668
 21
2193.545737163586
 31
0.0
 12
5552.322923828668
 22
2193.545737163586
 32
0.0
 13
5552.322923828668
 23
2193.545737163586
 33
0.0
210
0.0
220
0.0
230
1.0
  0
SOLID
  5
49C
330
477
100
AcDbEntity
  8
HATCH
  6
CONTINUOUS
 62
     2
100
AcDbTrace
 10
5602.322923828667
 20
2218.545737163586
 30
0.0
 11
5652.32292382867
 21
2168.545737163587
 31
0.0
 12
5935.607195076128
 22
1948.901076222913
 32
0.0
 13
5935.607195076128
 23
1948.901076222913
 33
0.0
210
0.0
220
0.0
230
1.0
  0
SOLID
  5
49D
330
477
100
AcDbEntity
  8
HATCH
  6
CONTINUOUS
 62
     2
100
AcDbTrace
 10
4332.322923828668
 20
2218.545737163587
 30
0.0
 11
3409.452921888117
 21
2193.545737163586
 31
0.0
 12
4332.322923828668
 22
2193.545737163586
 32
0.0
 13
4332.322923828668
 23
2193.545737163586
 33
0.0
210
0.0
220
0.0
230
1.0
  0
SOLID
  5
49E
330
477
100
AcDbEntity
  8
HATCH
  6
CONTINUOUS
 62
     2
100
AcDbTrace
 10
4432.322923828667
 20
2218.545737163587
 30
0.0
 11
4432.322923828668
 21
2193.545737163586
 31
0.0
 12
5552.322923828669
 22
2218.545737163586
 32
0.0
 13
5552.322923828669
 23
2218.545737163586
 33
0.0
210
0.0
220
0.0
230
1.0
  0
SOLID
  5
49F
330
477
100
AcDbEntity
  8
HATCH
  6
CONTINUOUS
 62
     2
100
AcDbTrace
 10
3409.452921888119
 20
2218.545737163587
 30
0.0
 11
3409.452921888117
 21
2193.545737163586
 31
0.0
 12
4332.322923828668
 22
2218.545737163587
 32
0.0
 13
4332.322923828668
 23
2218.545737163587
 33
0.0
  0
SOLID
  5
4A0
330
477
100
AcDbEntity
  8
HATCH
  6
CONTINUOUS
 62
     2
100
AcDbTrace
 10
3359.452921888117
 20
2218.545737163587
 30
0.0
 11
1740.607195076128
 21
1335.866245239275
 31
0.0
 12
3309.452921888119
 22
2189.678223704106
 32
0.0
 13
3309.452921888119
 23
2189.678223704106
 33
0.0
210
0.0
220
0.0
230
1.0
  0
SOLID
  5
4A1
330
477
100
AcDbEntity
  8
HATCH
  6
CONTINUOUS
 62
     2
100
AcDbTrace
 10
3359.452921888117
 20
2218.545737163587
 30
0.0
 11
3409.452921888119
 21
2218.545737163587
 31
0.0
 12
4332.322923828668
 22
2218.545737163587
 32
0.0
 13
4332.322923828668
 23
2218.545737163587
 33
0.0
210
0.0
220
0.0
230
1.0
  0
SOLID
  5
4A2
330
477
100
AcDbEntity
  8
HATCH
  6
CONTINUOUS
 62
     2
100
AcDbTrace
 10
3359.452921888117
 20
2218.545737163587
 30
0.0
 11
4332.322923828668
 21
2218.545737163587
 31
0.0
 12
4432.322923828667
 22
2218.545737163587
 32
0.0
 13
4432.322923828667
 23
2218.545737163587
 33
0.0
210
0.0
220
0.0
230
1.0
  0
SOLID
  5
4A3
330
477
100
AcDbEntity
  8
HATCH
  6
CONTINUOUS
 62
     2
100
AcDbTrace
 10
3347.395208228717
 20
2263.545737163587
 30
0.0
 11
1740.607195076128
 21
1335.866245239275
 31
0.0
 12
3359.452921888117
 22
2218.545737163587
 32
0.0
 13
3359.452921888117
 23
2218.545737163587
 33
0.0
210
0.0
220
0.0
230
1.0
  0
SOLID
  5
4A4
330
477
100
AcDbEntity
  8
HATCH
  6
CONTINUOUS
 62
     2
100
AcDbTrace
 10
5620.962534135451
 20
2263.545737163588
 30
0.0
 11
3347.395208228717
 21
2263.545737163587
 31
0.0
 12
3359.452921888117
 22
2218.545737163587
 32
0.0
 13
3359.452921888117
 23
2218.545737163587
 33
0.0
210
0.0
220
0.0
230
1.0
  0
SOLID
  5
4A5
330
477
100
AcDbEntity
  8
HATCH
  6
CONTINUOUS
 62
     2
100
AcDbTrace
 10
5620.962534135451
 20
2263.545737163588
 30
0.0
 11
3359.452921888117
 21
2218.545737163587
 31
0.0
 12
4432.322923828667
 22
2218.545737163587
 32
0.0
 13
4432.322923828667
 23
2218.545737163587
 33
0.0
210
0.0
220
0.0
230
1.0
  0
SOLID
  5
4A6
330
477
100
AcDbEntity
  8
HATCH
  6
CONTINUOUS
 62
     2
100
AcDbTrace
 10
5620.962534135451
 20
2263.545737163588
 30
0.0
 11
4432.322923828667
 21
2218.545737163587
 31
0.0
 12
5552.322923828669
 22
2218.545737163586
 32
0.0
 13
5552.322923828669
 23
2218.545737163586
 33
0.0
210
0.0
220
0.0
230
1.0
  0
SOLID
  5
4A7
330
477
100
AcDbEntity
  8
HATCH
  6
CONTINUOUS
 62
     2
100
AcDbTrace
 10
5620.962534135451
 20
2263.545737163588
 30
0.0
 11
5552.322923828669
 21
2218.545737163586
 31
0.0
 12
5602.322923828667
 22
2218.545737163586
 32
0.0
 13
5602.322923828667
 23
2218.545737163586
 33
0.0
210
0.0
220
0.0
230
1.0
  0
SOLID
  5
4A8
330
477
100
AcDbEntity
  8
HATCH
  6
CONTINUOUS
 62
     2
100
AcDbTrace
 10
5620.962534135451
 20
2263.545737163588
 30
0.0
 11
5602.322923828667
 21
2218.545737163586
 31
0.0
 12
5935.607195076128
 22
1948.901076222913
 32
0.0
 13
5935.607195076128
 23
1948.901076222913
 33
0.0
210
0.0
220
0.0
230
1.0
  0
ENDBLK
  5
4AA
330
477
100
AcDbEntity
  8
0
 62
   251
100
AcDbBlockEnd
  0
BLOCK
  5
4B2
330
4AB
100
AcDbEntity
  8
0
 62
   251
100
AcDbBlockBegin
  2
*U5
 70
     1
 10
0.0
 20
0.0
 30
0.0
  3
*U5
  1

  0
SOLID
  5
4AC
330
4AB
100
AcDbEntity
  8
HATCH
  6
CONTINUOUS
 62
     2
100
AcDbTrace
 10
5865.607195076125
 20
717.1853474703724
 30
0.0
 11
5652.322923828672
 21
518.545737163587
 31
0.0
 12
5652.32292382867
 22
503.9010762229199
 32
0.0
 13
5652.32292382867
 23
503.9010762229199
 33
0.0
210
0.0
220
0.0
230
1.0
  0
SOLID
  5
4AD
330
4AB
100
AcDbEntity
  8
HATCH
  6
CONTINUOUS
 62
     2
100
AcDbTrace
 10
5865.607195076131
 20
1919.906126856798
 30
0.0
 11
5652.322923828672
 21
518.545737163587
 31
0.0
 12
5865.607195076125
 22
717.1853474703724
 32
0.0
 13
5865.607195076125
 23
717.1853474703724
 33
0.0
210
0.0
220
0.0
230
1.0
  0
SOLID
  5
4AE
330
4AB
100
AcDbEntity
  8
HATCH
  6
CONTINUOUS
 62
     2
100
AcDbTrace
 10
5865.607195076131
 20
1919.906126856798
 30
0.0
 11
5552.322923828676
 21
518.5457371635867
 31
0.0
 12
5652.322923828672
 22
518.545737163587
 32
0.0
 13
5652.322923828672
 23
518.545737163587
 33
0.0
210
0.0
220
0.0
230
1.0
  0
SOLID
  5
4AF
330
4AB
100
AcDbEntity
  8
HATCH
  6
CONTINUOUS
 62
     2
100
AcDbTrace
 10
5552.322923828669
 20
2118.545737163586
 30
0.0
 11
5552.322923828676
 21
518.5457371635867
 31
0.0
 12
5865.607195076131
 22
1919.906126856798
 32
0.0
 13
5865.607195076131
 23
1919.906126856798
 33
0.0
210
0.0
220
0.0
230
1.0
  0
SOLID
  5
4B0
330
4AB
100
AcDbEntity
  8
HATCH
  6
CONTINUOUS
 62
     2
100
AcDbTrace
 10
5865.607195076131
 20
1919.906126856798
 30
0.0
 11
5652.32292382867
 21
2118.545737163586
 31
0.0
 12
5552.322923828669
 22
2118.545737163586
 32
0.0
 13
5552.322923828669
 23
2118.545737163586
 33
0.0
210
0.0
220
0.0
230
1.0
  0
SOLID
  5
4B1
330
4AB
100
AcDbEntity
  8
HATCH
  6
CONTINUOUS
 62
     2
100
AcDbTrace
 10
5652.32292382867
 20
2133.190398104259
 30
0.0
 11
5652.32292382867
 21
2118.545737163586
 31
0.0
 12
5865.607195076131
 22
1919.906126856798
 32
0.0
 13
5865.607195076131
 23
1919.906126856798
 33
0.0
210
0.0
220
0.0
230
1.0
  0
ENDBLK
  5
4B3
330
4AB
100
AcDbEntity
  8
0
 62
   251
100
AcDbBlockEnd
  0
BLOCK
  5
4E8
330
4C3
100
AcDbEntity
  8
0
 62
   251
100
AcDbBlockBegin
  2
*U6
 70
     1
 10
0.0
 20
0.0
 30
0.0
  3
*U6
  1

  0
SOLID
  5
4C4
330
4C3
100
AcDbEntity
  8
HATCH
  6
CONTINUOUS
 62
     1
100
AcDbTrace
 10
3309.452921888119
 20
447.4132506230669
 30
0.0
 11
3359.452921888118
 21
418.5457371635856
 31
0.0
 12
3409.452921888119
 22
418.5457371635857
 32
0.0
 13
3409.452921888119
 23
418.5457371635857
 33
0.0
210
0.0
220
0.0
230
1.0
  0
SOLID
  5
4C5
330
4C3
100
AcDbEntity
  8
HATCH
  6
CONTINUOUS
 62
     1
100
AcDbTrace
 10
5652.32292382867
 20
468.5457371635886
 30
0.0
 11
5552.322923828668
 21
418.5457371635866
 31
0.0
 12
5602.322923828669
 22
418.545737163587
 32
0.0
 13
5602.322923828669
 23
418.545737163587
 33
0.0
210
0.0
220
0.0
230
1.0
  0
SOLID
  5
4C6
330
4C3
100
AcDbEntity
  8
HATCH
  6
CONTINUOUS
 62
     1
100
AcDbTrace
 10
3309.452921888119
 20
447.4132506230669
 30
0.0
 11
3409.452921888119
 21
518.5457371635854
 31
0.0
 12
3309.452921888119
 22
518.5457371635854
 32
0.0
 13
3309.452921888119
 23
518.5457371635854
 33
0.0
210
0.0
220
0.0
230
1.0
  0
SOLID
  5
4C7
330
4C3
100
AcDbEntity
  8
HATCH
  6
CONTINUOUS
 62
     1
100
AcDbTrace
 10
3409.452921888119
 20
518.5457371635854
 30
0.0
 11
3309.452921888119
 21
447.4132506230669
 31
0.0
 12
3409.452921888119
 22
418.5457371635857
 32
0.0
 13
3409.452921888119
 23
418.5457371635857
 33
0.0
210
0.0
220
0.0
230
1.0
  0
SOLID
  5
4C8
330
4C3
100
AcDbEntity
  8
HATCH
  6
CONTINUOUS
 62
     1
100
AcDbTrace
 10
5552.322923828668
 20
518.5457371635866
 30
0.0
 11
5552.322923828668
 21
418.5457371635866
 31
0.0
 12
5652.32292382867
 22
468.5457371635886
 32
0.0
 13
5652.32292382867
 23
468.5457371635886
 33
0.0
210
0.0
220
0.0
230
1.0
  0
SOLID
  5
4C9
330
4C3
100
AcDbEntity
  8
HATCH
  6
CONTINUOUS
 62
     1
100
AcDbTrace
 10
5652.322923828672
 20
518.545737163587
 30
0.0
 11
5552.322923828668
 21
518.5457371635866
 31
0.0
 12
5652.32292382867
 22
468.5457371635886
 32
0.0
 13
5652.32292382867
 23
468.5457371635886
 33
0.0
  0
SOLID
  5
4CA
330
4C3
100
AcDbEntity
  8
HATCH
  6
CONTINUOUS
 62
     1
100
AcDbTrace
 10
4432.322923828668
 20
418.5457371635875
 30
0.0
 11
4432.322923828668
 21
518.5457371635875
 31
0.0
 12
4332.322923828668
 22
518.5457371635875
 32
0.0
 13
4332.322923828668
 23
518.5457371635875
 33
0.0
210
0.0
220
0.0
230
1.0
  0
SOLID
  5
4CB
330
4C3
100
AcDbEntity
  8
HATCH
  6
CONTINUOUS
 62
     1
100
AcDbTrace
 10
4332.322923828668
 20
518.5457371635875
 30
0.0
 11
4332.322923828669
 21
418.5457371635875
 31
0.0
 12
4432.322923828668
 22
418.5457371635875
 32
0.0
 13
4432.322923828668
 23
418.5457371635875
 33
0.0
210
0.0
220
0.0
230
1.0
  0
SOLID
  5
4CC
330
4C3
100
AcDbEntity
  8
HATCH
  6
CONTINUOUS
 62
     1
100
AcDbTrace
 10
4782.322923828668
 20
918.5457371635875
 30
0.0
 11
4782.322923828668
 21
818.5457371635873
 31
0.0
 12
4882.322923828668
 22
818.5457371635877
 32
0.0
 13
4882.322923828668
 23
818.5457371635877
 33
0.0
210
0.0
220
0.0
230
1.0
  0
SOLID
  5
4CD
330
4C3
100
AcDbEntity
  8
HATCH
  6
CONTINUOUS
 62
     1
100
AcDbTrace
 10
4882.322923828668
 20
918.5457371635877
 30
0.0
 11
4782.322923828668
 21
918.5457371635875
 31
0.0
 12
4882.322923828668
 22
818.5457371635877
 32
0.0
 13
4882.322923828668
 23
818.5457371635877
 33
0.0
210
0.0
220
0.0
230
1.0
  0
SOLID
  5
4CE
330
4C3
100
AcDbEntity
  8
HATCH
  6
CONTINUOUS
 62
     1
100
AcDbTrace
 10
3982.322923828668
 20
818.5457371635875
 30
0.0
 11
3982.322923828668
 21
918.5457371635877
 31
0.0
 12
3882.322923828668
 22
918.5457371635877
 32
0.0
 13
3882.322923828668
 23
918.5457371635877
 33
0.0
210
0.0
220
0.0
230
1.0
  0
SOLID
  5
4CF
330
4C3
100
AcDbEntity
  8
HATCH
  6
CONTINUOUS
 62
     1
100
AcDbTrace
 10
3882.322923828668
 20
918.5457371635877
 30
0.0
 11
3882.322923828668
 21
818.5457371635875
 31
0.0
 12
3982.322923828668
 22
818.5457371635875
 32
0.0
 13
3982.322923828668
 23
818.5457371635875
 33
0.0
210
0.0
220
0.0
230
1.0
  0
SOLID
  5
4D0
330
4C3
100
AcDbEntity
  8
HATCH
  6
CONTINUOUS
 62
     1
100
AcDbTrace
 10
1979.142728982061
 20
1265.010203257654
 30
0.0
 11
1875.607195076129
 21
1263.545737163587
 31
0.0
 12
1975.607195076129
 22
1263.545737163587
 32
0.0
 13
1975.607195076129
 23
1263.545737163587
 33
0.0
210
0.0
220
0.0
230
1.0
  0
SOLID
  5
4D1
330
4C3
100
AcDbEntity
  8
HATCH
  6
CONTINUOUS
 62
     1
100
AcDbTrace
 10
1872.071661170196
 20
1265.010203257654
 30
0.0
 11
1875.607195076129
 21
1263.545737163587
 31
0.0
 12
1979.142728982061
 22
1265.010203257654
 32
0.0
 13
1979.142728982061
 23
1265.010203257654
 33
0.0
210
0.0
220
0.0
230
1.0
  0
SOLID
  5
4D2
330
4C3
100
AcDbEntity
  8
HATCH
  6
CONTINUOUS
 62
     1
100
AcDbTrace
 10
1980.607195076128
 20
1268.545737163587
 30
0.0
 11
1872.071661170196
 21
1265.010203257654
 31
0.0
 12
1979.142728982061
 22
1265.010203257654
 32
0.0
 13
1979.142728982061
 23
1265.010203257654
 33
0.0
210
0.0
220
0.0
230
1.0
  0
SOLID
  5
4D3
330
4C3
100
AcDbEntity
  8
HATCH
  6
CONTINUOUS
 62
     1
100
AcDbTrace
 10
1870.607195076129
 20
1268.545737163587
 30
0.0
 11
1872.071661170196
 21
1265.010203257654
 31
0.0
 12
1980.607195076128
 22
1268.545737163587
 32
0.0
 13
1980.607195076128
 23
1268.545737163587
 33
0.0
210
0.0
220
0.0
230
1.0
  0
SOLID
  5
4D4
330
4C3
100
AcDbEntity
  8
HATCH
  6
CONTINUOUS
 62
     1
100
AcDbTrace
 10
3609.452921888119
 20
1268.545737163587
 30
0.0
 11
3609.452921888119
 21
1368.545737163587
 31
0.0
 12
3509.452921888119
 22
1368.545737163587
 32
0.0
 13
3509.452921888119
 23
1368.545737163587
 33
0.0
210
0.0
220
0.0
230
1.0
  0
SOLID
  5
4D5
330
4C3
100
AcDbEntity
  8
HATCH
  6
CONTINUOUS
 62
     1
100
AcDbTrace
 10
3509.452921888119
 20
1368.545737163587
 30
0.0
 11
3509.452921888118
 21
1268.545737163587
 31
0.0
 12
3609.452921888119
 22
1268.545737163587
 32
0.0
 13
3609.452921888119
 23
1268.545737163587
 33
0.0
210
0.0
220
0.0
230
1.0
  0
SOLID
  5
4D6
330
4C3
100
AcDbEntity
  8
HATCH
  6
CONTINUOUS
 62
     1
100
AcDbTrace
 10
1980.607195076128
 20
1368.545737163587
 30
0.0
 11
1870.607195076129
 21
1268.545737163587
 31
0.0
 12
1980.607195076128
 22
1268.545737163587
 32
0.0
 13
1980.607195076128
 23
1268.545737163587
 33
0.0
  0
SOLID
  5
4D7
330
4C3
100
AcDbEntity
  8
HATCH
  6
CONTINUOUS
 62
     1
100
AcDbTrace
 10
1870.607195076129
 20
1368.545737163587
 30
0.0
 11
1870.607195076129
 21
1268.545737163587
 31
0.0
 12
1980.607195076128
 22
1368.545737163587
 32
0.0
 13
1980.607195076128
 23
1368.545737163587
 33
0.0
  0
SOLID
  5
4D8
330
4C3
100
AcDbEntity
  8
HATCH
  6
CONTINUOUS
 62
     1
100
AcDbTrace
 10
1979.142728982061
 20
1372.081271069519
 30
0.0
 11
1870.607195076129
 21
1368.545737163587
 31
0.0
 12
1980.607195076128
 22
1368.545737163587
 32
0.0
 13
1980.607195076128
 23
1368.545737163587
 33
0.0
210
0.0
220
0.0
230
1.0
  0
SOLID
  5
4D9
330
4C3
100
AcDbEntity
  8
HATCH
  6
CONTINUOUS
 62
     1
100
AcDbTrace
 10
1872.071661170196
 20
1372.081271069519
 30
0.0
 11
1870.607195076129
 21
1368.545737163587
 31
0.0
 12
1979.142728982061
 22
1372.081271069519
 32
0.0
 13
1979.142728982061
 23
1372.081271069519
 33
0.0
210
0.0
220
0.0
230
1.0
  0
SOLID
  5
4DA
330
4C3
100
AcDbEntity
  8
HATCH
  6
CONTINUOUS
 62
     1
100
AcDbTrace
 10
1872.071661170196
 20
1372.081271069519
 30
0.0
 11
1975.607195076129
 21
1373.545737163587
 31
0.0
 12
1875.607195076129
 22
1373.545737163587
 32
0.0
 13
1875.607195076129
 23
1373.545737163587
 33
0.0
210
0.0
220
0.0
230
1.0
  0
SOLID
  5
4DB
330
4C3
100
AcDbEntity
  8
HATCH
  6
CONTINUOUS
 62
     1
100
AcDbTrace
 10
1975.607195076129
 20
1373.545737163587
 30
0.0
 11
1872.071661170196
 21
1372.081271069519
 31
0.0
 12
1979.142728982061
 22
1372.081271069519
 32
0.0
 13
1979.142728982061
 23
1372.081271069519
 33
0.0
210
0.0
220
0.0
230
1.0
  0
SOLID
  5
4DC
330
4C3
100
AcDbEntity
  8
HATCH
  6
CONTINUOUS
 62
     1
100
AcDbTrace
 10
4882.322923828668
 20
1818.545737163587
 30
0.0
 11
4782.322923828668
 21
1718.545737163587
 31
0.0
 12
4882.322923828668
 22
1718.545737163587
 32
0.0
 13
4882.322923828668
 23
1718.545737163587
 33
0.0
210
0.0
220
0.0
230
1.0
  0
SOLID
  5
4DD
330
4C3
100
AcDbEntity
  8
HATCH
  6
CONTINUOUS
 62
     1
100
AcDbTrace
 10
4782.322923828668
 20
1818.545737163587
 30
0.0
 11
4782.322923828668
 21
1718.545737163587
 31
0.0
 12
4882.322923828668
 22
1818.545737163587
 32
0.0
 13
4882.322923828668
 23
1818.545737163587
 33
0.0
210
0.0
220
0.0
230
1.0
  0
SOLID
  5
4DE
330
4C3
100
AcDbEntity
  8
HATCH
  6
CONTINUOUS
 62
     1
100
AcDbTrace
 10
3982.322923828668
 20
1718.545737163587
 30
0.0
 11
3982.322923828668
 21
1818.545737163587
 31
0.0
 12
3882.322923828668
 22
1818.545737163587
 32
0.0
 13
3882.322923828668
 23
1818.545737163587
 33
0.0
210
0.0
220
0.0
230
1.0
  0
SOLID
  5
4DF
330
4C3
100
AcDbEntity
  8
HATCH
  6
CONTINUOUS
 62
     1
100
AcDbTrace
 10
3882.322923828668
 20
1818.545737163587
 30
0.0
 11
3882.322923828668
 21
1718.545737163587
 31
0.0
 12
3982.322923828668
 22
1718.545737163587
 32
0.0
 13
3982.322923828668
 23
1718.545737163587
 33
0.0
210
0.0
220
0.0
230
1.0
  0
SOLID
  5
4E0
330
4C3
100
AcDbEntity
  8
HATCH
  6
CONTINUOUS
 62
     1
100
AcDbTrace
 10
5652.32292382867
 20
2168.545737163586
 30
0.0
 11
5552.322923828667
 21
2118.545737163586
 31
0.0
 12
5652.32292382867
 22
2118.545737163586
 32
0.0
 13
5652.32292382867
 23
2118.545737163586
 33
0.0
210
0.0
220
0.0
230
1.0
  0
SOLID
  5
4E1
330
4C3
100
AcDbEntity
  8
HATCH
  6
CONTINUOUS
 62
     1
100
AcDbTrace
 10
3309.452921888119
 20
2189.678223704106
 30
0.0
 11
3309.452921888119
 21
2118.545737163587
 31
0.0
 12
3409.452921888119
 22
2118.545737163587
 32
0.0
 13
3409.452921888119
 23
2118.545737163587
 33
0.0
210
0.0
220
0.0
230
1.0
  0
SOLID
  5
4E2
330
4C3
100
AcDbEntity
  8
HATCH
  6
CONTINUOUS
 62
     1
100
AcDbTrace
 10
5652.32292382867
 20
2168.545737163586
 30
0.0
 11
5602.32292382867
 21
2218.545737163586
 31
0.0
 12
5552.322923828667
 22
2218.545737163586
 32
0.0
 13
5552.322923828667
 23
2218.545737163586
 33
0.0
210
0.0
220
0.0
230
1.0
  0
SOLID
  5
4E3
330
4C3
100
AcDbEntity
  8
HATCH
  6
CONTINUOUS
 62
     1
100
AcDbTrace
 10
5552.322923828667
 20
2218.545737163586
 30
0.0
 11
5552.322923828667
 21
2118.545737163586
 31
0.0
 12
5652.32292382867
 22
2168.545737163586
 32
0.0
 13
5652.32292382867
 23
2168.545737163586
 33
0.0
  0
SOLID
  5
4E4
330
4C3
100
AcDbEntity
  8
HATCH
  6
CONTINUOUS
 62
     1
100
AcDbTrace
 10
4432.322923828668
 20
2118.545737163587
 30
0.0
 11
4432.322923828669
 21
2218.545737163587
 31
0.0
 12
4332.322923828669
 22
2218.545737163587
 32
0.0
 13
4332.322923828669
 23
2218.545737163587
 33
0.0
210
0.0
220
0.0
230
1.0
  0
SOLID
  5
4E5
330
4C3
100
AcDbEntity
  8
HATCH
  6
CONTINUOUS
 62
     1
100
AcDbTrace
 10
4332.322923828669
 20
2218.545737163587
 30
0.0
 11
4332.322923828669
 21
2118.545737163587
 31
0.0
 12
4432.322923828668
 22
2118.545737163587
 32
0.0
 13
4432.322923828668
 23
2118.545737163587
 33
0.0
210
0.0
220
0.0
230
1.0
  0
SOLID
  5
4E6
330
4C3
100
AcDbEntity
  8
HATCH
  6
CONTINUOUS
 62
     1
100
AcDbTrace
 10
3409.452921888119
 20
2218.545737163587
 30
0.0
 11
3309.452921888119
 21
2189.678223704106
 31
0.0
 12
3409.452921888119
 22
2118.545737163587
 32
0.0
 13
3409.452921888119
 23
2118.545737163587
 33
0.0
210
0.0
220
0.0
230
1.0
  0
SOLID
  5
4E7
330
4C3
100
AcDbEntity
  8
HATCH
  6
CONTINUOUS
 62
     1
100
AcDbTrace
 10
3359.452921888117
 20
2218.545737163587
 30
0.0
 11
3309.452921888119
 21
2189.678223704106
 31
0.0
 12
3409.452921888119
 22
2218.545737163587
 32
0.0
 13
3409.452921888119
 23
2218.545737163587
 33
0.0
210
0.0
220
0.0
230
1.0
  0
ENDBLK
  5
4E9
330
4C3
100
AcDbEntity
  8
0
 62
   251
100
AcDbBlockEnd
  0
BLOCK
  5
4FD
330
4EA
100
AcDbEntity
  8
0
 62
   251
100
AcDbBlockBegin
  2
*U7
 70
     1
 10
0.0
 20
0.0
 30
0.0
  3
*U7
  1

  0
SOLID
  5
4EB
330
4EA
100
AcDbEntity
  8
HATCH
  6
CONTINUOUS
 62
     1
100
AcDbTrace
 10
3942.322923828665
 20
1248.545737163587
 30
0.0
 11
3922.322923828668
 21
918.5457371635877
 31
0.0
 12
3942.322923828665
 22
918.5457371635877
 32
0.0
 13
3942.322923828665
 23
918.5457371635877
 33
0.0
210
0.0
220
0.0
230
1.0
  0
SOLID
  5
4EC
330
4EA
100
AcDbEntity
  8
HATCH
  6
CONTINUOUS
 62
     1
100
AcDbTrace
 10
3942.322923828668
 20
1388.545737163587
 30
0.0
 11
3922.322923828668
 21
918.5457371635877
 31
0.0
 12
3942.322923828665
 22
1248.545737163587
 32
0.0
 13
3942.322923828665
 23
1248.545737163587
 33
0.0
  0
SOLID
  5
4ED
330
4EA
100
AcDbEntity
  8
HATCH
  6
CONTINUOUS
 62
     1
100
AcDbTrace
 10
3942.322923828665
 20
1718.545737163587
 30
0.0
 11
3922.322923828668
 21
918.5457371635877
 31
0.0
 12
3942.322923828668
 22
1388.545737163587
 32
0.0
 13
3942.322923828668
 23
1388.545737163587
 33
0.0
210
0.0
220
0.0
230
1.0
  0
SOLID
  5
4EE
330
4EA
100
AcDbEntity
  8
HATCH
  6
CONTINUOUS
 62
     1
100
AcDbTrace
 10
3922.322923828668
 20
1718.545737163587
 30
0.0
 11
3922.322923828668
 21
918.5457371635877
 31
0.0
 12
3942.322923828665
 22
1718.545737163587
 32
0.0
 13
3942.322923828665
 23
1718.545737163587
 33
0.0
210
0.0
220
0.0
230
1.0
  0
SOLID
  5
4EF
330
4EA
100
AcDbEntity
  8
HATCH
  6
CONTINUOUS
 62
     1
100
AcDbTrace
 10
4782.322923828668
 20
1778.545737163586
 30
0.0
 11
3982.322923828668
 21
1758.545737163587
 31
0.0
 12
4782.322923828668
 22
1758.545737163587
 32
0.0
 13
4782.322923828668
 23
1758.545737163587
 33
0.0
210
0.0
220
0.0
230
1.0
  0
SOLID
  5
4F0
330
4EA
100
AcDbEntity
  8
HATCH
  6
CONTINUOUS
 62
     1
100
AcDbTrace
 10
3982.322923828668
 20
1778.545737163587
 30
0.0
 11
3982.322923828668
 21
1758.545737163587
 31
0.0
 12
4782.322923828668
 22
1778.545737163586
 32
0.0
 13
4782.322923828668
 23
1778.545737163586
 33
0.0
210
0.0
220
0.0
230
1.0
  0
SOLID
  5
4F1
330
4EA
100
AcDbEntity
  8
HATCH
  6
CONTINUOUS
 62
     1
100
AcDbTrace
 10
4782.322923828668
 20
858.5457371635875
 30
0.0
 11
4782.322923828669
 21
878.5457371635875
 31
0.0
 12
3982.322923828668
 22
878.5457371635875
 32
0.0
 13
3982.322923828668
 23
878.5457371635875
 33
0.0
210
0.0
220
0.0
230
1.0
  0
SOLID
  5
4F2
330
4EA
100
AcDbEntity
  8
HATCH
  6
CONTINUOUS
 62
     1
100
AcDbTrace
 10
3982.322923828668
 20
878.5457371635875
 30
0.0
 11
3982.322923828668
 21
858.5457371635875
 31
0.0
 12
4782.322923828668
 22
858.5457371635875
 32
0.0
 13
4782.322923828668
 23
858.5457371635875
 33
0.0
210
0.0
220
0.0
230
1.0
  0
SOLID
  5
4F3
330
4EA
100
AcDbEntity
  8
HATCH
  6
CONTINUOUS
 62
     1
100
AcDbTrace
 10
3960.858457734602
 20
1245.010203257654
 30
0.0
 11
3947.322923828665
 21
1243.545737163587
 31
0.0
 12
3957.322923828669
 22
1243.545737163587
 32
0.0
 13
3957.322923828669
 23
1243.545737163587
 33
0.0
210
0.0
220
0.0
230
1.0
  0
SOLID
  5
4F4
330
4EA
100
AcDbEntity
  8
HATCH
  6
CONTINUOUS
 62
     1
100
AcDbTrace
 10
3943.787389922732
 20
1245.010203257654
 30
0.0
 11
3947.322923828665
 21
1243.545737163587
 31
0.0
 12
3960.858457734602
 22
1245.010203257654
 32
0.0
 13
3960.858457734602
 23
1245.010203257654
 33
0.0
210
0.0
220
0.0
230
1.0
  0
SOLID
  5
4F5
330
4EA
100
AcDbEntity
  8
HATCH
  6
CONTINUOUS
 62
     1
100
AcDbTrace
 10
3962.322923828669
 20
1248.545737163587
 30
0.0
 11
3943.787389922732
 21
1245.010203257654
 31
0.0
 12
3960.858457734602
 22
1245.010203257654
 32
0.0
 13
3960.858457734602
 23
1245.010203257654
 33
0.0
210
0.0
220
0.0
230
1.0
  0
SOLID
  5
4F6
330
4EA
100
AcDbEntity
  8
HATCH
  6
CONTINUOUS
 62
     1
100
AcDbTrace
 10
3942.322923828665
 20
1248.545737163587
 30
0.0
 11
3943.787389922732
 21
1245.010203257654
 31
0.0
 12
3962.322923828669
 22
1248.545737163587
 32
0.0
 13
3962.322923828669
 23
1248.545737163587
 33
0.0
210
0.0
220
0.0
230
1.0
  0
SOLID
  5
4F7
330
4EA
100
AcDbEntity
  8
HATCH
  6
CONTINUOUS
 62
     1
100
AcDbTrace
 10
3962.322923828669
 20
1388.545737163587
 30
0.0
 11
3942.322923828665
 21
1248.545737163587
 31
0.0
 12
3962.322923828669
 22
1248.545737163587
 32
0.0
 13
3962.322923828669
 23
1248.545737163587
 33
0.0
  0
SOLID
  5
4F8
330
4EA
100
AcDbEntity
  8
HATCH
  6
CONTINUOUS
 62
     1
100
AcDbTrace
 10
3942.322923828668
 20
1388.545737163587
 30
0.0
 11
3942.322923828665
 21
1248.545737163587
 31
0.0
 12
3962.322923828669
 22
1388.545737163587
 32
0.0
 13
3962.322923828669
 23
1388.545737163587
 33
0.0
210
0.0
220
0.0
230
1.0
  0
SOLID
  5
4F9
330
4EA
100
AcDbEntity
  8
HATCH
  6
CONTINUOUS
 62
     1
100
AcDbTrace
 10
3960.858457734602
 20
1392.081271069519
 30
0.0
 11
3942.322923828668
 21
1388.545737163587
 31
0.0
 12
3962.322923828669
 22
1388.545737163587
 32
0.0
 13
3962.322923828669
 23
1388.545737163587
 33
0.0
210
0.0
220
0.0
230
1.0
  0
SOLID
  5
4FA
330
4EA
100
AcDbEntity
  8
HATCH
  6
CONTINUOUS
 62
     1
100
AcDbTrace
 10
3943.787389922735
 20
1392.081271069519
 30
0.0
 11
3942.322923828668
 21
1388.545737163587
 31
0.0
 12
3960.858457734602
 22
1392.081271069519
 32
0.0
 13
3960.858457734602
 23
1392.081271069519
 33
0.0
210
0.0
220
0.0
230
1.0
  0
SOLID
  5
4FB
330
4EA
100
AcDbEntity
  8
HATCH
  6
CONTINUOUS
 62
     1
100
AcDbTrace
 10
3943.787389922735
 20
1392.081271069519
 30
0.0
 11
3957.322923828669
 21
1393.545737163587
 31
0.0
 12
3947.322923828668
 22
1393.545737163587
 32
0.0
 13
3947.322923828668
 23
1393.545737163587
 33
0.0
210
0.0
220
0.0
230
1.0
  0
SOLID
  5
4FC
330
4EA
100
AcDbEntity
  8
HATCH
  6
CONTINUOUS
 62
     1
100
AcDbTrace
 10
3957.322923828669
 20
1393.545737163587
 30
0.0
 11
3943.787389922735
 21
1392.081271069519
 31
0.0
 12
3960.858457734602
 22
1392.081271069519
 32
0.0
 13
3960.858457734602
 23
1392.081271069519
 33
0.0
210
0.0
220
0.0
230
1.0
  0
ENDBLK
  5
4FE
330
4EA
100
AcDbEntity
  8
0
 62
   251
100
AcDbBlockEnd
  0
BLOCK
  5
52B
330
522
100
AcDbEntity
  8
0
 62
   251
100
AcDbBlockBegin
  2
*U8
 70
     1
 10
0.0
 20
0.0
 30
0.0
  3
*U8
  1

  0
SOLID
  5
523
330
522
100
AcDbEntity
  8
HATCH
  6
CONTINUOUS
 62
     2
100
AcDbTrace
 10
2250.607195076127
 20
1087.605629487738
 30
0.0
 11
1975.607195076129
 21
1263.545737163587
 31
0.0
 12
1945.869989492417
 22
1263.545737163587
 32
0.0
 13
1945.869989492417
 23
1263.545737163587
 33
0.0
210
0.0
220
0.0
230
1.0
  0
SOLID
  5
524
330
522
100
AcDbEntity
  8
HATCH
  6
CONTINUOUS
 62
     2
100
AcDbTrace
 10
1979.142728982061
 20
1265.010203257654
 30
0.0
 11
1975.607195076129
 21
1263.545737163587
 31
0.0
 12
2250.607195076127
 22
1087.605629487738
 32
0.0
 13
2250.607195076127
 23
1087.605629487738
 33
0.0
210
0.0
220
0.0
230
1.0
  0
SOLID
  5
525
330
522
100
AcDbEntity
  8
HATCH
  6
CONTINUOUS
 62
     2
100
AcDbTrace
 10
1980.607195076128
 20
1268.545737163587
 30
0.0
 11
1979.142728982061
 21
1265.010203257654
 31
0.0
 12
2250.607195076127
 22
1087.605629487738
 32
0.0
 13
2250.607195076127
 23
1087.605629487738
 33
0.0
  0
SOLID
  5
526
330
522
100
AcDbEntity
  8
HATCH
  6
CONTINUOUS
 62
     2
100
AcDbTrace
 10
1980.607195076128
 20
1368.545737163587
 30
0.0
 11
1980.607195076128
 21
1268.545737163587
 31
0.0
 12
2250.607195076127
 22
1087.605629487738
 32
0.0
 13
2250.607195076127
 23
1087.605629487738
 33
0.0
210
0.0
220
0.0
230
1.0
  0
SOLID
  5
527
330
522
100
AcDbEntity
  8
HATCH
  6
CONTINUOUS
 62
     2
100
AcDbTrace
 10
1979.142728982061
 20
1372.081271069519
 30
0.0
 11
1980.607195076128
 21
1368.545737163587
 31
0.0
 12
2250.607195076127
 22
1087.605629487738
 32
0.0
 13
2250.607195076127
 23
1087.605629487738
 33
0.0
  0
SOLID
  5
528
330
522
100
AcDbEntity
  8
HATCH
  6
CONTINUOUS
 62
     2
100
AcDbTrace
 10
2250.607195076129
 20
1549.485844839437
 30
0.0
 11
1945.869989492417
 21
1373.545737163587
 31
0.0
 12
1975.607195076129
 22
1373.545737163587
 32
0.0
 13
1975.607195076129
 23
1373.545737163587
 33
0.0
210
0.0
220
0.0
230
1.0
  0
SOLID
  5
529
330
522
100
AcDbEntity
  8
HATCH
  6
CONTINUOUS
 62
     2
100
AcDbTrace
 10
2250.607195076129
 20
1549.485844839437
 30
0.0
 11
1975.607195076129
 21
1373.545737163587
 31
0.0
 12
1979.142728982061
 22
1372.081271069519
 32
0.0
 13
1979.142728982061
 23
1372.081271069519
 33
0.0
210
0.0
220
0.0
230
1.0
  0
SOLID
  5
52A
330
522
100
AcDbEntity
  8
HATCH
  6
CONTINUOUS
 62
     2
100
AcDbTrace
 10
2250.607195076129
 20
1549.485844839437
 30
0.0
 11
1979.142728982061
 21
1372.081271069519
 31
0.0
 12
2250.607195076127
 22
1087.605629487738
 32
0.0
 13
2250.607195076127
 23
1087.605629487738
 33
0.0
210
0.0
220
0.0
230
1.0
  0
ENDBLK
  5
52C
330
522
100
AcDbEntity
  8
0
 62
   251
100
AcDbBlockEnd
  0
ENDSEC
  0
SECTION
  2
ENTITIES
  0
INSERT
  5
44E
330
1F
100
AcDbEntity
  8
HATCH
 62
   251
100
AcDbBlockReference
  2
AFKG
 10
0.0
 20
0.0
 30
0.0
  0
ENDSEC
  0
SECTION
  2
OBJECTS
  0
DICTIONARY
  5
C
330
0
100
AcDbDictionary
  3
ACAD_GROUP
350
D
  3
ACAD_LAYOUT
350
1A
  3
ACAD_MLINESTYLE
350
17
  3
ACAD_PLOTSETTINGS
350
19
1001
ACAD
1000
TREAT_AS_HARD
1070
     0
1000
TREAT_AS_HARD
1070
     0
  0
DICTIONARY
  5
132
330
1F
100
AcDbDictionary
  3
ACAD_LAYOUTSELFREF
350
450
  3
ACAD_SORTENTS
350
3BE
1001
ACAD
1000
TREAT_AS_HARD
1070
     1
1000
TREAT_AS_HARD
1070
     1
  0
DICTIONARY
  5
134
330
50
100
AcDbDictionary
  3
ACAD_LAYOUTSELFREF
350
451
1001
ACAD
1000
TREAT_AS_HARD
1070
     1
1000
TREAT_AS_HARD
1070
     1
  0
DICTIONARY
  5
D
102
{ACAD_REACTORS
330
C
102
}
330
C
100
AcDbDictionary
1001
ACAD
1000
TREAT_AS_HARD
1070
     0
1000
TREAT_AS_HARD
1070
     0
  0
DICTIONARY
  5
1A
102
{ACAD_REACTORS
330
C
102
}
330
C
100
AcDbDictionary
1001
ACAD
1000
TREAT_AS_HARD
1070
     0
1000
TREAT_AS_HARD
1070
     0
  0
DICTIONARY
  5
17
102
{ACAD_REACTORS
330
C
102
}
330
C
100
AcDbDictionary
  3
STANDARD
350
18
1001
ACAD
1000
TREAT_AS_HARD
1070
     0
1000
TREAT_AS_HARD
1070
     0
  0
DICTIONARY
  5
19
102
{ACAD_REACTORS
330
C
102
}
330
C
100
AcDbDictionary
1001
ACAD
1000
TREAT_AS_HARD
1070
     0
1000
TREAT_AS_HARD
1070
     0
  0
XRECORD
  5
450
102
{ACAD_REACTORS
330
132
102
}
330
132
100
AcDbXrecord
340
1F
  0
SORTENTSTABLE
  5
3BE
102
{ACAD_REACTORS
330
132
102
}
330
132
100
AcDbSortentsTable
330
1F
331
2A1
  5
3BD
331
269
  5
270
331
236
  5
23F
331
28E
  5
297
331
256
  5
266
331
2E3
  5
22C
331
267
  5
26E
331
223
  5
235
331
254
  5
262
331
28C
  5
295
331
39B
  5
222
331
287
  5
28E
331
265
  5
26C
331
243
  5
24D
331
221
  5
22E
331
3BD
  5
22D
331
1DA
  5
224
331
28A
  5
293
331
274
  5
285
331
252
  5
25B
331
285
  5
28C
331
241
  5
24B
331
288
  5
28F
331
272
  5
27E
331
250
  5
257
331
299
  5
2A6
331
261
  5
26A
331
23F
  5
249
331
22E
  5
23C
331
270
  5
27C
331
297
  5
2A3
331
23D
  5
246
331
24E
  5
255
331
22C
  5
238
331
3C8
  5
223
331
2A6
  5
3E0
331
295
  5
2A0
331
26E
  5
275
331
24C
  5
253
331
2A4
  5
3D4
331
293
  5
29A
331
27D
  5
289
331
25B
  5
269
331
239
  5
242
331
26C
  5
273
331
24A
  5
251
331
291
  5
299
331
27B
  5
287
331
237
  5
240
331
26A
  5
271
331
248
  5
24F
331
2A0
  5
3A5
331
28F
  5
298
331
257
  5
267
331
235
  5
23E
331
268
  5
26F
331
246
  5
24E
331
224
  5
236
331
28D
  5
296
331
255
  5
265
331
29E
  5
39B
331
266
  5
26D
331
222
  5
22F
331
3E0
  5
21C
331
28B
  5
294
331
275
  5
286
331
253
  5
261
331
286
  5
28D
331
242
  5
24C
331
289
  5
291
331
273
  5
284
331
251
  5
25A
331
29A
  5
2E3
331
284
  5
28B
331
262
  5
26B
331
240
  5
24A
331
22F
  5
23D
331
271
  5
27D
331
298
  5
2A4
331
23E
  5
248
331
21C
  5
22B
331
24F
  5
256
331
22D
  5
239
331
3A5
  5
3E7
331
23C
  5
243
331
296
  5
2A1
331
26F
  5
27B
331
24D
  5
254
331
22B
  5
237
331
294
  5
29E
331
27E
  5
28A
331
26D
  5
274
331
24B
  5
252
331
3E7
  5
221
331
2A3
  5
3C8
331
27C
  5
288
331
25A
  5
268
331
238
  5
241
331
3D4
  5
1DA
331
26B
  5
272
331
249
  5
250
  0
XRECORD
  5
451
102
{ACAD_REACTORS
330
134
102
}
330
134
100
AcDbXrecord
340
50
  0
MLINESTYLE
  5
18
102
{ACAD_REACTORS
330
17
102
}
330
17
100
AcDbMlineStyle
  2
STANDARD
 70
     0
  3

 62
   256
 51
90.0
 52
90.0
 71
     2
 49
0.5
 62
   256
  6
BYLAYER
 49
-0.5
 62
   256
  6
BYLAYER
  0
ENDSEC
  0
EOF
