  0
SECTION
  2
HEADER
  9
$ACADVER
  1
AC1012
  9
$DWGCODEPAGE
  3
ANSI_1252
  9
$INSBASE
 10
0.0
 20
0.0
 30
0.0
  9
$EXTMIN
 10
-310.8606948027645
 20
-310.8606930521819
 30
-0.0157611265497053
  9
$EXTMAX
 10
6260.860730321285
 20
6260.860732071864
 30
516.5157635316941
  9
$LIMMIN
 10
0.0
 20
0.0
  9
$LIMMAX
 10
420.0
 20
297.0
  9
$ORTHOMODE
 70
     0
  9
$REGENMODE
 70
     1
  9
$FILLMODE
 70
     1
  9
$QTEXTMODE
 70
     0
  9
$MIRRTEXT
 70
     1
  9
$DRAGMODE
 70
     2
  9
$LTSCALE
 40
1.0
  9
$OSMODE
 70
  3071
  9
$ATTMODE
 70
     1
  9
$TEXTSIZE
 40
2.5
  9
$TRACEWID
 40
1.0
  9
$TEXTSTYLE
  7
STANDARD
  9
$CLAYER
  8
HATCH
  9
$CELTYPE
  6
BYLAYER
  9
$CECOLOR
 62
   256
  9
$CELTSCALE
 40
1.0
  9
$DELOBJ
 70
     1
  9
$DISPSILH
 70
     0
  9
$DIMSCALE
 40
1.0
  9
$DIMASZ
 40
2.5
  9
$DIMEXO
 40
0.625
  9
$DIMDLI
 40
3.75
  9
$DIMRND
 40
0.0
  9
$DIMDLE
 40
0.0
  9
$DIMEXE
 40
1.25
  9
$DIMTP
 40
0.0
  9
$DIMTM
 40
0.0
  9
$DIMTXT
 40
2.5
  9
$DIMCEN
 40
2.5
  9
$DIMTSZ
 40
0.0
  9
$DIMTOL
 70
     0
  9
$DIMLIM
 70
     0
  9
$DIMTIH
 70
     0
  9
$DIMTOH
 70
     0
  9
$DIMSE1
 70
     0
  9
$DIMSE2
 70
     0
  9
$DIMTAD
 70
     1
  9
$DIMZIN
 70
     8
  9
$DIMBLK
  1

  9
$DIMASO
 70
     1
  9
$DIMSHO
 70
     1
  9
$DIMPOST
  1

  9
$DIMAPOST
  1

  9
$DIMALT
 70
     0
  9
$DIMALTD
 70
     3
  9
$DIMALTF
 40
0.03937007874016
  9
$DIMLFAC
 40
1.0
  9
$DIMTOFL
 70
     1
  9
$DIMTVP
 40
0.0
  9
$DIMTIX
 70
     0
  9
$DIMSOXD
 70
     0
  9
$DIMSAH
 70
     0
  9
$DIMBLK1
  1

  9
$DIMBLK2
  1

  9
$DIMSTYLE
  2
ISO-25
  9
$DIMCLRD
 70
     0
  9
$DIMCLRE
 70
     0
  9
$DIMCLRT
 70
     0
  9
$DIMTFAC
 40
1.0
  9
$DIMGAP
 40
0.625
  9
$DIMJUST
 70
     0
  9
$DIMSD1
 70
     0
  9
$DIMSD2
 70
     0
  9
$DIMTOLJ
 70
     0
  9
$DIMTZIN
 70
     8
  9
$DIMALTZ
 70
     0
  9
$DIMALTTZ
 70
     0
  9
$DIMFIT
 70
     3
  9
$DIMUPT
 70
     0
  9
$DIMUNIT
 70
     2
  9
$DIMDEC
 70
     2
  9
$DIMTDEC
 70
     2
  9
$DIMALTU
 70
     2
  9
$DIMALTTD
 70
     3
  9
$DIMTXSTY
  7
STANDARD
  9
$DIMAUNIT
 70
     0
  9
$LUNITS
 70
     2
  9
$LUPREC
 70
     4
  9
$SKETCHINC
 40
1.0
  9
$FILLETRAD
 40
10.0
  9
$AUNITS
 70
     0
  9
$AUPREC
 70
     0
  9
$MENU
  1
.
  9
$ELEVATION
 40
0.0
  9
$PELEVATION
 40
0.0
  9
$THICKNESS
 40
0.0
  9
$LIMCHECK
 70
     0
  9
$BLIPMODE
 70
     0
  9
$CHAMFERA
 40
10.0
  9
$CHAMFERB
 40
10.0
  9
$CHAMFERC
 40
20.0
  9
$CHAMFERD
 40
0.0
  9
$SKPOLY
 70
     0
  9
$TDCREATE
 40
2452626.615756713
  9
$TDUPDATE
 40
2452773.380823726
  9
$TDINDWG
 40
0.0058395833
  9
$TDUSRTIMER
 40
0.0058388889
  9
$USRTIMER
 70
     1
  9
$ANGBASE
 50
0.0
  9
$ANGDIR
 70
     0
  9
$PDMODE
 70
     0
  9
$PDSIZE
 40
0.0
  9
$PLINEWID
 40
0.0
  9
$COORDS
 70
     2
  9
$SPLFRAME
 70
     0
  9
$SPLINETYPE
 70
     6
  9
$SPLINESEGS
 70
     8
  9
$ATTDIA
 70
     0
  9
$ATTREQ
 70
     1
  9
$HANDLING
 70
-16383
  9
$HANDSEED
  5
1FE
  9
$SURFTAB1
 70
     6
  9
$SURFTAB2
 70
     6
  9
$SURFTYPE
 70
     6
  9
$SURFU
 70
     6
  9
$SURFV
 70
     6
  9
$UCSNAME
  2

  9
$UCSORG
 10
0.0
 20
0.0
 30
0.0
  9
$UCSXDIR
 10
1.0
 20
0.0
 30
0.0
  9
$UCSYDIR
 10
0.0
 20
1.0
 30
0.0
  9
$PUCSNAME
  2

  9
$PUCSORG
 10
0.0
 20
0.0
 30
0.0
  9
$PUCSXDIR
 10
1.0
 20
0.0
 30
0.0
  9
$PUCSYDIR
 10
0.0
 20
1.0
 30
0.0
  9
$USERI1
 70
     0
  9
$USERI2
 70
     0
  9
$USERI3
 70
     0
  9
$USERI4
 70
     0
  9
$USERI5
 70
     0
  9
$USERR1
 40
0.0
  9
$USERR2
 40
0.0
  9
$USERR3
 40
0.0
  9
$USERR4
 40
0.0
  9
$USERR5
 40
0.0
  9
$WORLDVIEW
 70
     1
  9
$SHADEDGE
 70
     3
  9
$SHADEDIF
 70
    70
  9
$TILEMODE
 70
     1
  9
$MAXACTVP
 70
    64
  9
$PINSBASE
 10
0.0
 20
0.0
 30
0.0
  9
$PLIMCHECK
 70
     0
  9
$PEXTMIN
 10
0.0
 20
0.0
 30
0.0
  9
$PEXTMAX
 10
0.0
 20
0.0
 30
0.0
  9
$PLIMMIN
 10
0.0
 20
0.0
  9
$PLIMMAX
 10
12.0
 20
9.0
  9
$UNITMODE
 70
     0
  9
$VISRETAIN
 70
     1
  9
$PLINEGEN
 70
     0
  9
$PSLTSCALE
 70
     1
  9
$TREEDEPTH
 70
  3020
  9
$PICKSTYLE
 70
     1
  9
$CMLSTYLE
  2
STANDARD
  9
$CMLJUST
 70
     0
  9
$CMLSCALE
 40
20.0
  9
$SAVEIMAGES
 70
     1
  0
ENDSEC
  0
SECTION
  2
CLASSES
  0
CLASS
  1
ACDBDICTIONARYWDFLT
  2
AcDbDictionaryWithDefault
  3
AutoCAD 2000
 90
    32768
280
     0
281
     0
  0
CLASS
  1
ACDBPLACEHOLDER
  2
AcDbPlaceHolder
  3
AutoCAD 2000
 90
    32768
280
     0
281
     0
  0
CLASS
  1
LAYOUT
  2
AcDbLayout
  3
AutoCAD 2000
 90
    32768
280
     0
281
     0
  0
CLASS
  1
LONG_TRANSACTION
  2
AcDbLongTransaction
  3
AutoCAD 2000
 90
    32768
280
     0
281
     0
  0
CLASS
  1
LWPOLYLINE
  2
AcDbPolyline
  3
AutoCAD 2000
 90
    32768
280
     0
281
     1
  0
CLASS
  1
HATCH
  2
AcDbHatch
  3
AutoCAD 2000
 90
    32768
280
     0
281
     1
  0
CLASS
  1
XRECORD
  2
AcDbXrecord
  3
AutoCAD 2000
 90
    32768
280
     0
281
     0
  0
CLASS
  1
LONG_TRANSACTION
  2
AcDbLongTransaction
  3
AutoCAD 2000
 90
    32768
280
     0
281
     0
  0
CLASS
  1
LWPOLYLINE
  2
AcDbPolyline
  3
AutoCAD 2000
 90
    32768
280
     0
281
     1
  0
CLASS
  1
HATCH
  2
AcDbHatch
  3
AutoCAD 2000
 90
    32768
280
     0
281
     1
  0
CLASS
  1
XRECORD
  2
AcDbXrecord
  3
AutoCAD 2000
 90
    32768
280
     0
281
     0
  0
CLASS
  1
LONG_TRANSACTION
  2
AcDbLongTransaction
  3
AutoCAD 2000
 90
    32768
280
     0
281
     0
  0
CLASS
  1
LWPOLYLINE
  2
AcDbPolyline
  3
AutoCAD 2000
 90
    32768
280
     0
281
     1
  0
CLASS
  1
HATCH
  2
AcDbHatch
  3
AutoCAD 2000
 90
    32768
280
     0
281
     1
  0
CLASS
  1
XRECORD
  2
AcDbXrecord
  3
AutoCAD 2000
 90
    32768
280
     0
281
     0
  0
CLASS
  1
DICTIONARYVAR
  2
AcDbDictionaryVar
  3
AutoCAD 2000
 90
    32768
280
     0
281
     0
  0
CLASS
  1
SORTENTSTABLE
  2
AcDbSortentsTable
  3
AutoCAD 2000
 90
    32768
280
     0
281
     0
  0
CLASS
  1
LONG_TRANSACTION
  2
AcDbLongTransaction
  3
AutoCAD 2000
 90
    32768
280
     0
281
     0
  0
CLASS
  1
LWPOLYLINE
  2
AcDbPolyline
  3
AutoCAD 2000
 90
    32768
280
     0
281
     1
  0
CLASS
  1
HATCH
  2
AcDbHatch
  3
AutoCAD 2000
 90
    32768
280
     0
281
     1
  0
CLASS
  1
XRECORD
  2
AcDbXrecord
  3
AutoCAD 2000
 90
    32768
280
     0
281
     0
  0
ENDSEC
  0
SECTION
  2
TABLES
  0
TABLE
  2
VPORT
  5
8
330
0
100
AcDbSymbolTable
 70
     3
  0
VPORT
  5
1B0
330
8
100
AcDbSymbolTableRecord
100
AcDbViewportTableRecord
  2
*ACTIVE
 70
     0
 10
0.0
 20
0.0
 11
1.0
 21
1.0
 12
2975.00001775926
 22
2975.00001950984
 13
0.0
 23
0.0
 14
10.0
 24
10.0
 15
10.0
 25
10.0
 16
0.0
 26
0.0
 36
1.0
 17
0.0
 27
0.0
 37
0.0
 40
6651.378654519489
 41
1.558704453441295
 42
50.0
 43
0.0
 44
0.0
 50
0.0
 51
0.0
 71
     0
 72
   100
 73
     1
 74
     3
 75
     0
 76
     0
 77
     0
 78
     0
  0
ENDTAB
  0
TABLE
  2
LTYPE
  5
5
330
0
100
AcDbSymbolTable
 70
     1
  0
LTYPE
  5
14
330
5
100
AcDbSymbolTableRecord
100
AcDbLinetypeTableRecord
  2
BYBLOCK
 70
     0
  3

 72
    65
 73
     0
 40
0.0
  0
LTYPE
  5
15
330
5
100
AcDbSymbolTableRecord
100
AcDbLinetypeTableRecord
  2
BYLAYER
 70
     0
  3

 72
    65
 73
     0
 40
0.0
  0
LTYPE
  5
16
330
5
100
AcDbSymbolTableRecord
100
AcDbLinetypeTableRecord
  2
CONTINUOUS
 70
     0
  3
Solid line
 72
    65
 73
     0
 40
0.0
  0
ENDTAB
  0
TABLE
  2
LAYER
  5
2
330
0
100
AcDbSymbolTable
 70
     5
  0
LAYER
  5
10
330
2
100
AcDbSymbolTableRecord
100
AcDbLayerTableRecord
  2
0
 70
     0
 62
     7
  6
CONTINUOUS
  0
LAYER
  5
5D
330
2
100
AcDbSymbolTableRecord
100
AcDbLayerTableRecord
  2
SAFETY
 70
     0
 62
     7
  6
CONTINUOUS
  0
LAYER
  5
5E
330
2
100
AcDbSymbolTableRecord
100
AcDbLayerTableRecord
  2
OBJECT
 70
     0
 62
     7
  6
CONTINUOUS
  0
LAYER
  5
FD
330
2
100
AcDbSymbolTableRecord
100
AcDbLayerTableRecord
  2
TEKST
 70
     0
 62
     7
  6
CONTINUOUS
  0
LAYER
  5
126
330
2
100
AcDbSymbolTableRecord
100
AcDbLayerTableRecord
  2
HATCH
 70
     0
 62
     7
  6
CONTINUOUS
  0
ENDTAB
  0
TABLE
  2
STYLE
  5
3
330
0
100
AcDbSymbolTable
 70
     3
  0
STYLE
  5
11
330
3
100
AcDbSymbolTableRecord
100
AcDbTextStyleTableRecord
  2
STANDARD
 70
     0
 40
0.0
 41
1.0
 50
0.0
 71
     0
 42
2.5
  3
txt
  4

  0
STYLE
  5
5F
330
3
100
AcDbSymbolTableRecord
100
AcDbTextStyleTableRecord
  2
STYLE1
 70
     0
 40
5.0
 41
1.0
 50
0.0
 71
     0
 42
2.5
  3
romans.shx
  4

  0
STYLE
  5
60
330
3
100
AcDbSymbolTableRecord
100
AcDbTextStyleTableRecord
  2
STYLE2
 70
     0
 40
3.0
 41
1.0
 50
0.0
 71
     0
 42
1.5
  3
romand.shx
  4

  0
ENDTAB
  0
TABLE
  2
VIEW
  5
6
330
0
100
AcDbSymbolTable
 70
     0
  0
ENDTAB
  0
TABLE
  2
UCS
  5
7
330
0
100
AcDbSymbolTable
 70
     0
  0
ENDTAB
  0
TABLE
  2
APPID
  5
9
330
0
100
AcDbSymbolTable
 70
     3
  0
APPID
  5
12
330
9
100
AcDbSymbolTableRecord
100
AcDbRegAppTableRecord
  2
ACAD
 70
     0
  0
APPID
  5
62
330
9
100
AcDbSymbolTableRecord
100
AcDbRegAppTableRecord
  2
AVE_FINISH
 70
     0
  0
APPID
  5
F4
330
9
100
AcDbSymbolTableRecord
100
AcDbRegAppTableRecord
  2
CONTENTBLOCKICON
 70
     0
  0
ENDTAB
  0
TABLE
  2
DIMSTYLE
  5
A
330
0
100
AcDbSymbolTable
 70
     2
  0
DIMSTYLE
105
27
330
A
100
AcDbSymbolTableRecord
100
AcDbDimStyleTableRecord
  2
ISO-25
 70
     0
  3

  4

  5

  6

  7

 40
1.0
 41
2.5
 42
0.625
 43
3.75
 44
1.25
 45
0.0
 46
0.0
 47
0.0
 48
0.0
140
2.5
141
2.5
142
0.0
143
0.03937007874016
144
1.0
145
0.0
146
1.0
147
0.625
 71
     0
 72
     0
 73
     0
 74
     0
 75
     0
 76
     0
 77
     1
 78
     8
170
     0
171
     3
172
     1
173
     0
174
     0
175
     0
176
     0
177
     0
178
     0
270
     2
271
     2
272
     2
273
     2
274
     3
340
11
275
     0
280
     0
281
     0
282
     0
283
     0
284
     8
285
     0
286
     0
287
     3
288
     0
  0
DIMSTYLE
105
61
330
A
100
AcDbSymbolTableRecord
100
AcDbDimStyleTableRecord
  2
STANDARD
 70
     0
  3

  4

  5

  6

  7

 40
1.0
 41
4.0
 42
2.0
 43
7.0
 44
2.0
 45
0.0
 46
0.0
 47
0.0
 48
0.0
140
5.0
141
0.09
142
0.0
143
25.4
144
1.0
145
0.0
146
1.0
147
2.0
 71
     0
 72
     0
 73
     0
 74
     0
 75
     0
 76
     0
 77
     1
 78
     8
170
     0
171
     2
172
     1
173
     0
174
     0
175
     0
176
     1
177
     1
178
     1
270
     2
271
     1
272
     0
273
     2
274
     2
340
5F
275
     0
280
     0
281
     0
282
     0
283
     1
284
     0
285
     0
286
     0
287
     3
288
     0
  0
ENDTAB
  0
TABLE
  2
BLOCK_RECORD
  5
1
330
0
100
AcDbSymbolTable
 70
     3
  0
BLOCK_RECORD
  5
1F
102
{ACAD_XDICTIONARY
360
AD
102
}
330
1
100
AcDbSymbolTableRecord
100
AcDbBlockTableRecord
  2
*MODEL_SPACE
  0
BLOCK_RECORD
  5
50
102
{ACAD_XDICTIONARY
360
AF
102
}
330
1
100
AcDbSymbolTableRecord
100
AcDbBlockTableRecord
  2
*PAPER_SPACE
  0
BLOCK_RECORD
  5
BB
330
1
100
AcDbSymbolTableRecord
100
AcDbBlockTableRecord
  2
AFKD
1001
ACAD
1000
DesignCenter Data
1002
{
1070
     1
1070
     4
1002
}
1001
CONTENTBLOCKICON
1071
        0
1004
28000000200000002000000001000800000000000004000000000000000000000000000000000000000000004000000080000000FF000000002000004020000080200000FF200000004000004040000080400000FF400000006000004060000080600000FF600000008000004080000080800000FF80000000A0000040A000
1004
0080A00000FFA0000000C0000040C0000080C00000FFC0000000FF000040FF000080FF0000FFFF0000000020004000200080002000FF002000002020004020200080202000FF202000004020004040200080402000FF402000006020004060200080602000FF602000008020004080200080802000FF80200000A0200040A0
1004
200080A02000FFA0200000C0200040C0200080C02000FFC0200000FF200040FF200080FF2000FFFF2000000040004000400080004000FF004000002040004020400080204000FF204000004040004040400080404000FF404000006040004060400080604000FF604000008040004080400080804000FF80400000A0400040
1004
A0400080A04000FFA0400000C0400040C0400080C04000FFC0400000FF400040FF400080FF4000FFFF4000000060004000600080006000FF006000002060004020600080206000FF206000004060004040600080406000FF406000006060004060600080606000FF606000008060004080600080806000FF80600000A06000
1004
40A0600080A06000FFA0600000C0600040C0600080C06000FFC0600000FF600040FF600080FF6000FFFF6000000080004000800080008000FF008000002080004020800080208000FF208000004080004040800080408000FF408000006080004060800080608000FF608000008080004080800080808000FF80800000A080
1004
0040A0800080A08000FFA0800000C0800040C0800080C08000FFC0800000FF800040FF800080FF8000FFFF80000000A0004000A0008000A000FF00A0000020A0004020A0008020A000FF20A0000040A0004040A0008040A000FF40A0000060A0004060A0008060A000FF60A0000080A0004080A0008080A000FF80A00000A0
1004
A00040A0A00080A0A000FFA0A00000C0A00040C0A00080C0A000FFC0A00000FFA00040FFA00080FFA000FFFFA0000000C0004000C0008000C000FF00C0000020C0004020C0008020C000FF20C0000040C0004040C0008040C000FF40C0000060C0004060C0008060C000FF60C0000080C0004080C0008080C000FF80C00000
1004
A0C00040A0C00080A0C000FFA0C00000C0C00040C0C00080C0C000FFC0C00000FFC00040FFC00080FFC000FFFFC0000000FF004000FF008000FF00FF00FF000020FF004020FF008020FF00FF20FF000040FF004040FF008040FF00FF40FF000060FF004060FF008060FF00FF60FF000080FF004080FF008080FF00FF80FF00
1004
00A0FF0040A0FF0080A0FF00FFA0FF0000C0FF0040C0FF0080C0FF00FFC0FF0000FFFF0040FFFF0080FFFF00FFFFFF0000000000000000000000000000000000000000000000000000000000000000000000000000000000FFFFFFFFFFFFFFFFFFFFFFFFFFFFFFFF00000000000000000000000000FFFFFF00000000000000
1004
000000000000000000FFFFFF0000000000000000FFFF00000000000000000000000000000000000000000000FFFF000000000000FF000000000000000000000000000000000000000000000000FF0000000000FF0000000000000000000000000000000000000000000000000000FF00000000FF0000000000000000000000
1004
000000000000000000000000000000FF00000000FF0000000000000000000000000000000000000000000000000000FF000000FF000000000000FFFFFFFFFFFFFFFFFFFFFFFFFFFFFFE0000000000000FF0000FF000000000000FF00FFFFFFFFFFFFFFFFFFFFFFFF00FF000000000000FF0000FF000000000000FFFFE00000
1004
0000000000000000E0FFE0000000000000FF0000FF000000000000FFFF000000000000000000000000FF00000000000000FF0000FF000000000000FFFF000000000000000000000000FF00000000000000FF0000FF000000000000FFFF000000000000000000000000FF00000000000000FF0000FF000000000000FFFF0000
1004
00000000000000000000FF00000000000000FF0000FF000000000000FFFF000000000000000000000000FF00000000000000FF0000FF000000000000FFFF000000000000000000000000FF00000000000000FF0000FF000000000000FFFF000000000000000000000000FF00000000000000FF0000FF000000000000FFFF00
1004
0000000000000000000000FF00000000000000FF0000FF000000000000FFFF000000000000000000000000FF00000000000000FF0000FF000000000000FFFF000000000000000000000000FF00000000000000FF0000FF000000000000FFFF0000000000000000000000E0FFE0000000000000FF0000FF000000000000FF00
1004
FFFFFFFFFFFFFFFFFFFFFFFF00FF000000000000FF0000FF000000000000FFFFFFFFFFFFFFFFFFFFFFFFFFFFFFE0000000000000FF000000FF0000000000000000000000000000000000000000000000000000FF00000000FF0000000000000000FFFFFFFFFFFFFF0000000000000000000000FF00000000FF000000000000
1004
0000FFFFFFFFFFFFFF0000000000000000000000FF0000000000FF00000000000000FFFFFFFFFF000000000000000000000000FF000000000000FFFF00000000000000000000000000000000000000000000FFFF0000000000000000FFFFFF00000000000000000000000000000000FFFFFF00000000000000000000000000
1004
FFFFFFFFFFFFFFFFFFFFFFFFFFFFFFFF00000000000000000000000000000000000000000000000000000000000000000000000000000000
  0
BLOCK_RECORD
  5
1B4
330
1
100
AcDbSymbolTableRecord
100
AcDbBlockTableRecord
  2
*U1
  0
BLOCK_RECORD
  5
1D3
330
1
100
AcDbSymbolTableRecord
100
AcDbBlockTableRecord
  2
*U2
  0
ENDTAB
  0
ENDSEC
  0
SECTION
  2
BLOCKS
  0
BLOCK
  5
20
330
1F
100
AcDbEntity
  8
0
100
AcDbBlockBegin
  2
*MODEL_SPACE
 70
     0
 10
0.0
 20
0.0
 30
0.0
  3
*MODEL_SPACE
  1

  0
ENDBLK
  5
21
330
1F
100
AcDbEntity
  8
0
100
AcDbBlockEnd
  0
BLOCK
  5
52
330
50
100
AcDbEntity
 67
     1
  8
0
100
AcDbBlockBegin
  2
*PAPER_SPACE
 70
     0
 10
0.0
 20
0.0
 30
0.0
  3
*PAPER_SPACE
  1

  0
ENDBLK
  5
53
330
50
100
AcDbEntity
 67
     1
  8
0
100
AcDbBlockEnd
  0
BLOCK
  5
BC
330
BB
100
AcDbEntity
  8
0
100
AcDbBlockBegin
  2
AFKD
 70
     0
 10
0.0
 20
0.0
 30
0.0
  3
AFKD
  1

  0
INSERT
  5
15D
330
BB
100
AcDbEntity
  8
HATCH
  6
CONTINUOUS
 62
   251
100
AcDbBlockReference
  2
*U1
 10
0.0
 20
0.0
 30
0.0
1001
ACAD
1002
{
1000
R14_HATCH_DATA
1000
15D
1011
1.0
1021
0.0
1031
0.0
1011
0.0
1021
1.0
1031
0.0
1011
0.0
1021
0.0
1031
1.0
1040
0.0
1010
0.0
1020
0.0
1030
1.0
1000
SOLID
1070
     1
1070
     1
1071
        4
1071
        7
1070
     1
1070
     1
1071
        8
1040
4197.273834571666
1040
4258.000004209796
1040
-0.1505317755580712
1040
4166.469457971148
1040
4358.0000042098
1040
-0.1505317755580695
1040
4197.273834571664
1040
4458.000004209803
1040
0.0
1040
2967.000002459211
1040
4458.000004209796
1040
0.0
1040
1722.660814045886
1040
4458.000004209796
1040
-0.1599762495611873
1040
1757.253148544951
1040
4352.649885940887
1040
-0.1413440751783557
1040
1729.951308354151
1040
4258.000004209796
1040
0.0
1040
2967.000002459212
1040
4258.000004209796
1040
0.0
1071
        6
1005
170
1005
164
1005
16A
1005
16B
1005
169
1005
163
1071
        7
1070
     1
1070
     1
1071
        4
1040
4244.186244123596
1040
1736.474574132094
1040
-0.3082913139147194
1040
4444.186244123595
1040
1743.765068440357
1040
0.0
1040
4444.186244123595
1040
4211.087594657867
1040
-0.308043766005148
1040
4244.186244123596
1040
4211.087594657867
1040
0.0
1071
        4
1005
170
1005
16C
1005
16F
1005
16D
1071
        7
1070
     1
1070
     1
1071
        8
1040
1731.798890213352
1040
1688.000004209796
1040
-0.1505317755580576
1040
1762.603266813864
1040
1588.0000042098
1040
-0.1505317755580755
1040
1731.798890213345
1040
1488.000004209794
1040
0.0
1040
2967.000002459212
1040
1488.000004209796
1040
0.0
1040
4206.411910739124
1040
1488.000004209796
1040
-0.159976249561195
1040
4171.819576240056
1040
1593.35012247871
1040
-0.1413440751783486
1040
4199.121416430854
1040
1688.000004209796
1040
0.0
1040
2983.396851473424
1040
1688.000004209798
1040
0.0
1071
        6
1005
16E
1005
162
1005
168
1005
167
1005
161
1005
16F
1071
        7
1070
     1
1070
     1
1071
        4
1040
1484.886480661416
1040
1734.912413761731
1040
-0.3080437660051498
1040
1684.886480661416
1040
1734.912413761733
1040
0.0
1040
1684.886480661416
1040
4209.525434287505
1040
-0.3082913139147214
1040
1484.886480661416
1040
4202.234939979237
1040
0.0
1071
        4
1005
16B
1005
166
1005
168
1005
165
1070
     0
1070
     1
1040
13.43712859498886
1071
        4
1040
3351.512244994133
1040
4345.587143131968
1040
0.0
1040
4319.686605512397
1040
3740.916359486378
1040
0.0
1040
2504.359706862473
1040
1604.412905241523
1040
0.0
1040
1549.632221569787
1040
2289.706464714137
1040
0.0
1002
}
  0
INSERT
  5
15E
330
BB
100
AcDbEntity
  8
HATCH
  6
CONTINUOUS
 62
     1
100
AcDbBlockReference
  2
*U2
 10
0.0
 20
0.0
 30
0.0
1001
ACAD
1002
{
1000
R14_HATCH_DATA
1000
15E
1011
1.0
1021
0.0
1031
0.0
1011
0.0
1021
1.0
1031
0.0
1011
0.0
1021
0.0
1031
1.0
1040
0.0
1010
0.0
1020
0.0
1030
1.0
1000
SOLID
1070
     1
1070
     1
1071
        4
1071
        7
1070
     1
1070
     1
1071
        2
1040
1757.253148544951
1040
4352.649885940887
1040
1.0
1040
1401.819576240056
1040
4352.649885940887
1040
1.0
1071
        1
1005
16B
1071
        7
1070
     1
1070
     1
1071
        2
1040
4521.903030276043
1040
4358.0000042098
1040
1.0
1040
4166.469457971148
1040
4358.0000042098
1040
1.0
1071
        1
1005
170
1071
        7
1070
     1
1070
     1
1071
        2
1040
4527.253148544952
1040
1593.35012247871
1040
1.0
1040
4171.819576240056
1040
1593.35012247871
1040
1.0
1071
        1
1005
16F
1071
        7
1070
     1
1070
     1
1071
        2
1040
1762.603266813864
1040
1588.0000042098
1040
1.0
1040
1407.169694508969
1040
1588.0000042098
1040
1.0
1071
        1
1005
168
1070
     0
1070
     1
1040
13.43712859498886
1071
        4
1040
1657.20716873082
1040
4332.15000214176
1040
0.0
1040
4333.133480737982
1040
4332.15000214176
1040
0.0
1040
4319.686605512397
1040
1590.975764251321
1040
0.0
1040
1643.760293505234
1040
1564.10151732801
1040
0.0
1002
}
  0
MTEXT
  5
15F
330
BB
100
AcDbEntity
  8
TEKST
100
AcDbMText
 10
2062.002620041639
 20
5352.201376730787
 30
0.0
 40
100.0
 41
1657.8662
 71
     1
 72
     1
  1
{\FIMPACT.TTF;Hoogte: 34 cm\PMax. valhoogte: 34 cm}
1001
ACAD
1000
MTEXTBEGIN
1070
    73
1070
     1
1070
    44
1040
1.0
1070
    74
1070
     0
1000
MTEXTEND
1000
MTEXTBEGIN
1070
    73
1070
     1
1070
    44
1040
1.0
1070
    74
1070
     0
1000
MTEXTEND
1000
MTEXTBEGIN
1070
    73
1070
     1
1070
    44
1040
1.0
1070
    74
1070
     0
1000
MTEXTEND
  0
REGION
  5
160
330
BB
100
AcDbEntity
  8
SAFETY
 48
5.0
100
AcDbModelerGeometry
 70
     1
  1
noi ki n o          
  1
=0;& {rn {n {rn {rn |
  1
3*2/ {rn {rn {m {o |
  1
,7:33 {rn {rn {rn {l {n |
  1
9><: {rn {rn {k {m {rn {j -:):-,:; ;0*=3: 0*+ |
  1
300/ {rn {rn {i {l |
  1
/3>1:r,*-9><: {rn mfhjqooooomkjfmnng mfhjqoooookmofhgf lojqjoooooooooookj o o rn rn o o o V V V V |
  1
<0:;8: {rn {h {g {rn {f n {k {rn |
  1
<0:;8: {rn {no {i {rn {nn n {k {rn |
  1
<0:;8: {rn {i {nm {rn {nl n {k {rn |
  1
:;8: {rn {nk {nj {i {ni o |
  1
<0:;8: {rn {nh {h {rn {ng n {k {rn |
  1
:;8: {rn {nf {nk {h {mo o |
  1
<0:;8: {rn {g {mn {rn {mm n {k {rn |
  1
:;8: {rn {nj {ml {g {mk o |
  1
):-+:' {rn {f {mj |
  1
):-+:' {rn {f {mi |
  1
:336/,:r<*-): {rn kkjoqooooomkjfmnng njooqoooookmofhfmh lojqjoooooooooookj o o rn noioqiionhnhhfgmnm rnoioqiionhnhhfgmnm o n Y roqhgjlfgnillfhkkgmg Y oqhgjlfgnillfhkkgmg |
  1
<0:;8: {rn {mh {no {rn {mg n {k {rn |
  1
:;8: {rn {mf {nf {no {lo o |
  1
):-+:' {rn {nn {ln |
  1
,+->687+r<*-): {rn jfjoqooooomkjfmnng kkjoqoooookmofhfmh lojqjoooooooooookj o rn o V V |
  1
<0:;8: {rn {nm {mh {rn {lm n {k {rn |
  1
:;8: {rn {ml {ll {nm {lk o |
  1
):-+:' {rn {mm {lj |
  1
,+->687+r<*-): {rn kkjoqooooomkjfmnng kqmofhfmihgonnjgnl:rooi lojqjoooooooooookj rn o o V V |
  1
/061+ {rn jfjoqooooomkjfmnng njooqoooookmofhfmh lojqjoooooooooookj |
  1
/061+ {rn kkjoqooooomkjfmnng kqmofhfmihgonnjgnl:rooi lojqjoooooooooookj |
  1
<0:;8: {rn {mn {nh {rn {li n {k {rn |
  1
:;8: {rn {lh {mf {nh {lg o |
  1
):-+:' {rn {ng {lf |
  1
:336/,:r<*-): {rn kkjoqooooomkjfmnng kkjoqoooookmofhfmh lojqjoooooooooookj o o rn noioqiionhnhhfgmnm noioqiionhnhhfgmnm o n Y roqhgjlfgnillfhkkgmg Y oqhgjlfgnillfhkkgmg |
  1
/061+ {rn jfjoqooooomkjfmnng kkjoqoooookmofhfmh lojqjoooooooooookj |
  1
:;8: {rn {ll {ko {mn {kn o |
  1
):-+:' {rn {lm {km |
  1
:336/,:r<*-): {rn njooqooooomkjfmnng njooqoooookmofhfmh lojqjoooooooooookj o o rn rnoioqiionhnhhfgmnm rnoioqiionhnhhfgmnm o n Y roqhgjlfgnillfhkkgmg Y oqhgjlfgnillfhkkgmg |
  1
/061+ {rn njooqooooomkjfmnng kqmofhfmihgonnjgnl:rooi lojqjoooooooooookj |
  1
:;8: {rn {ko {lh {mh {kl o |
  1
):-+:' {rn {mg {kk |
  1
,+->687+r<*-): {rn njooqooooomkjfmnng jfjoqoooookmofhfmh lojqjoooooooooookj n o o V V |
  1
/061+ {rn kkjoqooooomkjfmnng jfjoqoooookmofhfmh lojqjoooooooooookj |
  1
):-+:' {rn {li {kj |
  1
,+->687+r<*-): {rn mqkjfmnngmhfjkmhhk:rooi njooqoooookmofhfmh lojqjoooooooooookj o n o V V |
  1
/061+ {rn mqkjfmnngmhfjkmhhk:rooi njooqoooookmofhfmh lojqjoooooooooookj |
  1
:336/,:r<*-): {rn njooqooooomkjfmnng kkjoqoooookmofhfmh lojqjoooooooooookj o o rn rnoioqiionhnhhfgmnm noioqiionhnhhfgmnm o n Y roqhgjlfgnillfhkkgmg Y oqhgjlfgnillfhkkgmg |
  1
/061+ {rn njooqooooomkjfmnng jfjoqoooookmofhfmh lojqjoooooooooookj |
  1
/061+ {rn mqkjfmnngmhfjkmhhk:rooi kkjoqoooookmofhfmh lojqjoooooooooookj |
1001
AVE_FINISH
1002
{
1070
     0
1005
0
1002
}
  0
LINE
  5
161
330
BB
100
AcDbEntity
  8
OBJECT
100
AcDbLine
 10
2967.000002459212
 20
1488.000004209796
 30
516.500000000004
 11
4206.411910739126
 21
1488.000004209796
 31
516.500000000004
  0
LINE
  5
162
330
BB
100
AcDbEntity
  8
OBJECT
100
AcDbLine
 10
2983.396851473424
 20
1688.000004209798
 30
516.500000000004
 11
1731.798890213352
 21
1688.000004209796
 31
516.500000000004
  0
LINE
  5
163
330
BB
100
AcDbEntity
  8
OBJECT
100
AcDbLine
 10
2967.000002459212
 20
4258.000004209796
 30
516.500000000004
 11
4197.273834571663
 21
4258.000004209796
 31
516.500000000004
  0
LINE
  5
164
330
BB
100
AcDbEntity
  8
OBJECT
100
AcDbLine
 10
2967.000002459211
 20
4458.000004209796
 30
516.500000000004
 11
4197.273834571663
 21
4458.000004209803
 31
516.500000000004
  0
LINE
  5
165
330
BB
100
AcDbEntity
  8
OBJECT
100
AcDbLine
 10
1684.886480661416
 20
1734.912413761731
 30
516.500000000004
 11
1684.886480661416
 21
4209.525434287505
 31
516.500000000004
  0
LINE
  5
166
330
BB
100
AcDbEntity
  8
OBJECT
100
AcDbLine
 10
1484.886480661416
 20
1734.912413761731
 30
516.500000000004
 11
1484.886480661416
 21
4202.234939979237
 31
516.500000000004
  0
LINE
  5
167
330
BB
100
AcDbEntity
  8
OBJECT
100
AcDbLine
 10
2967.000002459212
 20
1488.000004209796
 30
516.500000000004
 11
1731.798890213346
 21
1488.000004209794
 31
516.500000000004
  0
CIRCLE
  5
168
330
BB
100
AcDbEntity
  8
OBJECT
100
AcDbCircle
 10
1584.886480661417
 20
1588.0000042098
 30
516.500000000004
 40
177.7167861524475
  0
LINE
  5
169
330
BB
100
AcDbEntity
  8
OBJECT
100
AcDbLine
 10
2967.000002459212
 20
4258.000004209796
 30
516.500000000004
 11
1729.951308354153
 21
4258.000004209796
 31
516.500000000004
  0
LINE
  5
16A
330
BB
100
AcDbEntity
  8
OBJECT
100
AcDbLine
 10
2967.000002459212
 20
4458.000004209796
 30
516.500000000004
 11
1722.660814045888
 21
4458.000004209796
 31
516.500000000004
  0
CIRCLE
  5
16B
330
BB
100
AcDbEntity
  8
OBJECT
100
AcDbCircle
 10
1579.536362392504
 20
4352.649885940887
 30
516.500000000004
 40
177.7167861524475
  0
LINE
  5
16C
330
BB
100
AcDbEntity
  8
OBJECT
100
AcDbLine
 10
4244.186244123596
 20
1736.474574132091
 30
516.500000000004
 11
4244.186244123596
 21
4211.087594657867
 31
516.500000000004
  0
LINE
  5
16D
330
BB
100
AcDbEntity
  8
OBJECT
100
AcDbLine
 10
4444.186244123595
 20
1743.765068440358
 30
516.500000000004
 11
4444.186244123595
 21
4211.087594657867
 31
516.500000000004
  0
LINE
  5
16E
330
BB
100
AcDbEntity
  8
OBJECT
100
AcDbLine
 10
2983.396851473424
 20
1688.000004209798
 30
516.500000000004
 11
4199.121416430855
 21
1688.000004209796
 31
516.500000000004
  0
CIRCLE
  5
16F
330
BB
100
AcDbEntity
  8
OBJECT
100
AcDbCircle
 10
4349.536362392504
 20
1593.35012247871
 30
516.500000000004
 40
177.7167861524475
  0
CIRCLE
  5
170
330
BB
100
AcDbEntity
  8
OBJECT
100
AcDbCircle
 10
4344.186244123595
 20
4358.0000042098
 30
516.500000000004
 40
177.7167861524475
  0
ENDBLK
  5
BD
330
BB
100
AcDbEntity
  8
0
100
AcDbBlockEnd
  0
BLOCK
  5
1D1
330
1B4
100
AcDbEntity
  8
0
100
AcDbBlockBegin
  2
*U1
 70
     1
 10
0.0
 20
0.0
 30
0.0
  3
*U1
  1

  0
SOLID
  5
1B5
330
1B4
100
AcDbEntity
  8
HATCH
  6
CONTINUOUS
 62
   251
100
AcDbTrace
 10
1754.727667291509
 20
1535.681485457479
 30
0.0
 11
2967.000002459212
 21
1488.000004209796
 31
0.0
 12
4206.411910739124
 22
1488.000004209796
 32
0.0
 13
4206.411910739124
 23
1488.000004209796
 33
0.0
210
0.0
220
0.0
230
1.0
  0
SOLID
  5
1B6
330
1B4
100
AcDbEntity
  8
HATCH
  6
CONTINUOUS
 62
   251
100
AcDbTrace
 10
1754.727667291509
 20
1535.681485457479
 30
0.0
 11
1731.798890213345
 21
1488.000004209794
 31
0.0
 12
2967.000002459212
 22
1488.000004209796
 32
0.0
 13
2967.000002459212
 23
1488.000004209796
 33
0.0
210
0.0
220
0.0
230
1.0
  0
SOLID
  5
1B7
330
1B4
100
AcDbEntity
  8
HATCH
  6
CONTINUOUS
 62
   251
100
AcDbTrace
 10
4180.688985083846
 20
1537.908087375889
 30
0.0
 11
1754.727667291509
 21
1535.681485457479
 31
0.0
 12
4206.411910739124
 22
1488.000004209796
 32
0.0
 13
4206.411910739124
 23
1488.000004209796
 33
0.0
210
0.0
220
0.0
230
1.0
  0
SOLID
  5
1B8
330
1B4
100
AcDbEntity
  8
HATCH
  6
CONTINUOUS
 62
   251
100
AcDbTrace
 10
1762.603266813864
 20
1588.0000042098
 30
0.0
 11
1754.727667291509
 21
1535.681485457479
 31
0.0
 12
4180.688985083846
 22
1537.908087375889
 32
0.0
 13
4180.688985083846
 23
1537.908087375889
 33
0.0
  0
SOLID
  5
1B9
330
1B4
100
AcDbEntity
  8
HATCH
  6
CONTINUOUS
 62
   251
100
AcDbTrace
 10
4171.819576240056
 20
1593.35012247871
 30
0.0
 11
1762.603266813864
 21
1588.0000042098
 31
0.0
 12
4180.688985083846
 22
1537.908087375889
 32
0.0
 13
4180.688985083846
 23
1537.908087375889
 33
0.0
210
0.0
220
0.0
230
1.0
  0
SOLID
  5
1BA
330
1B4
100
AcDbEntity
  8
HATCH
  6
CONTINUOUS
 62
   251
100
AcDbTrace
 10
1754.727667291511
 20
1640.318522962115
 30
0.0
 11
1762.603266813864
 21
1588.0000042098
 31
0.0
 12
4171.819576240056
 22
1593.35012247871
 32
0.0
 13
4171.819576240056
 23
1593.35012247871
 33
0.0
  0
SOLID
  5
1BB
330
1B4
100
AcDbEntity
  8
HATCH
  6
CONTINUOUS
 62
   251
100
AcDbTrace
 10
4178.781396335945
 20
1642.60454002047
 30
0.0
 11
1754.727667291511
 21
1640.318522962115
 31
0.0
 12
4171.819576240056
 22
1593.35012247871
 32
0.0
 13
4171.819576240056
 23
1593.35012247871
 33
0.0
210
0.0
220
0.0
230
1.0
  0
SOLID
  5
1BC
330
1B4
100
AcDbEntity
  8
HATCH
  6
CONTINUOUS
 62
   251
100
AcDbTrace
 10
4199.121416430854
 20
1688.000004209796
 30
0.0
 11
1754.727667291511
 21
1640.318522962115
 31
0.0
 12
4178.781396335945
 22
1642.60454002047
 32
0.0
 13
4178.781396335945
 23
1642.60454002047
 33
0.0
210
0.0
220
0.0
230
1.0
  0
SOLID
  5
1BD
330
1B4
100
AcDbEntity
  8
HATCH
  6
CONTINUOUS
 62
   251
100
AcDbTrace
 10
1731.798890213352
 20
1688.000004209796
 30
0.0
 11
1754.727667291511
 21
1640.318522962115
 31
0.0
 12
4199.121416430854
 22
1688.000004209796
 32
0.0
 13
4199.121416430854
 23
1688.000004209796
 33
0.0
210
0.0
220
0.0
230
1.0
  0
SOLID
  5
1BE
330
1B4
100
AcDbEntity
  8
HATCH
  6
CONTINUOUS
 62
   251
100
AcDbTrace
 10
2983.396851473424
 20
1688.000004209798
 30
0.0
 11
1731.798890213352
 21
1688.000004209796
 31
0.0
 12
4199.121416430854
 22
1688.000004209796
 32
0.0
 13
4199.121416430854
 23
1688.000004209796
 33
0.0
210
0.0
220
0.0
230
1.0
  0
SOLID
  5
1BF
330
1B4
100
AcDbEntity
  8
HATCH
  6
CONTINUOUS
 62
   251
100
AcDbTrace
 10
1586.010278696107
 20
4175.051055741898
 30
0.0
 11
1584.886480661416
 21
1765.716790362247
 31
0.0
 12
1684.886480661416
 22
1734.912413761733
 32
0.0
 13
1684.886480661416
 23
1734.912413761733
 33
0.0
210
0.0
220
0.0
230
1.0
  0
SOLID
  5
1C0
330
1B4
100
AcDbEntity
  8
HATCH
  6
CONTINUOUS
 62
   251
100
AcDbTrace
 10
1586.010278696107
 20
4175.051055741898
 30
0.0
 11
1484.886480661416
 21
1734.912413761731
 31
0.0
 12
1584.886480661416
 22
1765.716790362247
 32
0.0
 13
1584.886480661416
 23
1765.716790362247
 33
0.0
210
0.0
220
0.0
230
1.0
  0
SOLID
  5
1C1
330
1B4
100
AcDbEntity
  8
HATCH
  6
CONTINUOUS
 62
   251
100
AcDbTrace
 10
4344.186244123596
 20
4180.283218057352
 30
0.0
 11
4343.062446088905
 21
1770.948952677697
 31
0.0
 12
4444.186244123595
 22
1743.765068440357
 32
0.0
 13
4444.186244123595
 23
1743.765068440357
 33
0.0
  0
SOLID
  5
1C2
330
1B4
100
AcDbEntity
  8
HATCH
  6
CONTINUOUS
 62
   251
100
AcDbTrace
 10
4344.186244123596
 20
4180.283218057352
 30
0.0
 11
4244.186244123596
 21
1736.474574132094
 31
0.0
 12
4343.062446088905
 22
1770.948952677697
 32
0.0
 13
4343.062446088905
 23
1770.948952677697
 33
0.0
210
0.0
220
0.0
230
1.0
  0
SOLID
  5
1C3
330
1B4
100
AcDbEntity
  8
HATCH
  6
CONTINUOUS
 62
   251
100
AcDbTrace
 10
1484.886480661416
 20
4202.234939979237
 30
0.0
 11
1484.886480661416
 21
1734.912413761731
 31
0.0
 12
1586.010278696107
 22
4175.051055741898
 32
0.0
 13
1586.010278696107
 23
4175.051055741898
 33
0.0
210
0.0
220
0.0
230
1.0
  0
SOLID
  5
1C4
330
1B4
100
AcDbEntity
  8
HATCH
  6
CONTINUOUS
 62
   251
100
AcDbTrace
 10
1684.886480661416
 20
4209.525434287505
 30
0.0
 11
1586.010278696107
 21
4175.051055741898
 31
0.0
 12
1684.886480661416
 22
1734.912413761733
 32
0.0
 13
1684.886480661416
 23
1734.912413761733
 33
0.0
  0
SOLID
  5
1C5
330
1B4
100
AcDbEntity
  8
HATCH
  6
CONTINUOUS
 62
   251
100
AcDbTrace
 10
4244.186244123596
 20
4211.087594657867
 30
0.0
 11
4244.186244123596
 21
1736.474574132094
 31
0.0
 12
4344.186244123596
 22
4180.283218057352
 32
0.0
 13
4344.186244123596
 23
4180.283218057352
 33
0.0
210
0.0
220
0.0
230
1.0
  0
SOLID
  5
1C6
330
1B4
100
AcDbEntity
  8
HATCH
  6
CONTINUOUS
 62
   251
100
AcDbTrace
 10
4444.186244123595
 20
4211.087594657867
 30
0.0
 11
4344.186244123596
 21
4180.283218057352
 31
0.0
 12
4444.186244123595
 22
1743.765068440357
 32
0.0
 13
4444.186244123595
 23
1743.765068440357
 33
0.0
210
0.0
220
0.0
230
1.0
  0
SOLID
  5
1C7
330
1B4
100
AcDbEntity
  8
HATCH
  6
CONTINUOUS
 62
   251
100
AcDbTrace
 10
1750.291328449062
 20
4303.395468399123
 30
0.0
 11
2967.000002459212
 21
4258.000004209796
 31
0.0
 12
4197.273834571666
 22
4258.000004209796
 32
0.0
 13
4197.273834571666
 23
4258.000004209796
 33
0.0
210
0.0
220
0.0
230
1.0
  0
SOLID
  5
1C8
330
1B4
100
AcDbEntity
  8
HATCH
  6
CONTINUOUS
 62
   251
100
AcDbTrace
 10
1750.291328449062
 20
4303.395468399123
 30
0.0
 11
1729.951308354151
 21
4258.000004209796
 31
0.0
 12
2967.000002459212
 22
4258.000004209796
 32
0.0
 13
2967.000002459212
 23
4258.000004209796
 33
0.0
210
0.0
220
0.0
230
1.0
  0
SOLID
  5
1C9
330
1B4
100
AcDbEntity
  8
HATCH
  6
CONTINUOUS
 62
   251
100
AcDbTrace
 10
4174.345057493503
 20
4305.68148545748
 30
0.0
 11
1750.291328449062
 21
4303.395468399123
 31
0.0
 12
4197.273834571666
 22
4258.000004209796
 32
0.0
 13
4197.273834571666
 23
4258.000004209796
 33
0.0
210
0.0
220
0.0
230
1.0
  0
SOLID
  5
1CA
330
1B4
100
AcDbEntity
  8
HATCH
  6
CONTINUOUS
 62
   251
100
AcDbTrace
 10
1757.253148544951
 20
4352.649885940887
 30
0.0
 11
1750.291328449062
 21
4303.395468399123
 31
0.0
 12
4174.345057493503
 22
4305.68148545748
 32
0.0
 13
4174.345057493503
 23
4305.68148545748
 33
0.0
210
0.0
220
0.0
230
1.0
  0
SOLID
  5
1CB
330
1B4
100
AcDbEntity
  8
HATCH
  6
CONTINUOUS
 62
   251
100
AcDbTrace
 10
4166.469457971148
 20
4358.0000042098
 30
0.0
 11
1757.253148544951
 21
4352.649885940887
 31
0.0
 12
4174.345057493503
 22
4305.68148545748
 32
0.0
 13
4174.345057493503
 23
4305.68148545748
 33
0.0
  0
SOLID
  5
1CC
330
1B4
100
AcDbEntity
  8
HATCH
  6
CONTINUOUS
 62
   251
100
AcDbTrace
 10
1748.383739701162
 20
4408.091921043705
 30
0.0
 11
1757.253148544951
 21
4352.649885940887
 31
0.0
 12
4166.469457971148
 22
4358.0000042098
 32
0.0
 13
4166.469457971148
 23
4358.0000042098
 33
0.0
210
0.0
220
0.0
230
1.0
  0
SOLID
  5
1CD
330
1B4
100
AcDbEntity
  8
HATCH
  6
CONTINUOUS
 62
   251
100
AcDbTrace
 10
4174.345057493503
 20
4410.318522962119
 30
0.0
 11
1748.383739701162
 21
4408.091921043705
 31
0.0
 12
4166.469457971148
 22
4358.0000042098
 32
0.0
 13
4166.469457971148
 23
4358.0000042098
 33
0.0
210
0.0
220
0.0
230
1.0
  0
SOLID
  5
1CE
330
1B4
100
AcDbEntity
  8
HATCH
  6
CONTINUOUS
 62
   251
100
AcDbTrace
 10
1722.660814045886
 20
4458.000004209796
 30
0.0
 11
1748.383739701162
 21
4408.091921043705
 31
0.0
 12
4174.345057493503
 22
4410.318522962119
 32
0.0
 13
4174.345057493503
 23
4410.318522962119
 33
0.0
210
0.0
220
0.0
230
1.0
  0
SOLID
  5
1CF
330
1B4
100
AcDbEntity
  8
HATCH
  6
CONTINUOUS
 62
   251
100
AcDbTrace
 10
4174.345057493503
 20
4410.318522962119
 30
0.0
 11
2967.000002459211
 21
4458.000004209796
 31
0.0
 12
1722.660814045886
 22
4458.000004209796
 32
0.0
 13
1722.660814045886
 23
4458.000004209796
 33
0.0
210
0.0
220
0.0
230
1.0
  0
SOLID
  5
1D0
330
1B4
100
AcDbEntity
  8
HATCH
  6
CONTINUOUS
 62
   251
100
AcDbTrace
 10
4197.273834571664
 20
4458.000004209803
 30
0.0
 11
2967.000002459211
 21
4458.000004209796
 31
0.0
 12
4174.345057493503
 22
4410.318522962119
 32
0.0
 13
4174.345057493503
 23
4410.318522962119
 33
0.0
210
0.0
220
0.0
230
1.0
  0
ENDBLK
  5
1D2
330
1B4
100
AcDbEntity
  8
0
100
AcDbBlockEnd
  0
BLOCK
  5
1FC
330
1D3
100
AcDbEntity
  8
0
100
AcDbBlockBegin
  2
*U2
 70
     1
 10
0.0
 20
0.0
 30
0.0
  3
*U2
  1

  0
SOLID
  5
1D4
330
1D3
100
AcDbEntity
  8
HATCH
  6
CONTINUOUS
 62
     1
100
AcDbTrace
 10
1496.028087585193
 20
1434.092752722854
 30
0.0
 11
1584.886480661417
 21
1410.283218057353
 31
0.0
 12
1673.74487373764
 22
1434.092752722854
 32
0.0
 13
1673.74487373764
 23
1434.092752722854
 33
0.0
210
0.0
220
0.0
230
1.0
  0
SOLID
  5
1D5
330
1D3
100
AcDbEntity
  8
HATCH
  6
CONTINUOUS
 62
     1
100
AcDbTrace
 10
4260.677969316279
 20
1439.442870991763
 30
0.0
 11
4349.536362392504
 21
1415.633336326262
 31
0.0
 12
4438.394755468727
 22
1439.442870991763
 32
0.0
 13
4438.394755468727
 23
1439.442870991763
 33
0.0
210
0.0
220
0.0
230
1.0
  0
SOLID
  5
1D6
330
1D3
100
AcDbEntity
  8
HATCH
  6
CONTINUOUS
 62
     1
100
AcDbTrace
 10
1738.793732148363
 20
1499.141611133576
 30
0.0
 11
1496.028087585193
 21
1434.092752722854
 31
0.0
 12
1673.74487373764
 22
1434.092752722854
 32
0.0
 13
1673.74487373764
 23
1434.092752722854
 33
0.0
210
0.0
220
0.0
230
1.0
  0
SOLID
  5
1D7
330
1D3
100
AcDbEntity
  8
HATCH
  6
CONTINUOUS
 62
     1
100
AcDbTrace
 10
1430.979229174471
 20
1499.141611133576
 30
0.0
 11
1496.028087585193
 21
1434.092752722854
 31
0.0
 12
1738.793732148363
 22
1499.141611133576
 32
0.0
 13
1738.793732148363
 23
1499.141611133576
 33
0.0
210
0.0
220
0.0
230
1.0
  0
SOLID
  5
1D8
330
1D3
100
AcDbEntity
  8
HATCH
  6
CONTINUOUS
 62
     1
100
AcDbTrace
 10
4503.44361387945
 20
1504.491729402486
 30
0.0
 11
4260.677969316279
 21
1439.442870991763
 31
0.0
 12
4438.394755468727
 22
1439.442870991763
 32
0.0
 13
4438.394755468727
 23
1439.442870991763
 33
0.0
210
0.0
220
0.0
230
1.0
  0
SOLID
  5
1D9
330
1D3
100
AcDbEntity
  8
HATCH
  6
CONTINUOUS
 62
     1
100
AcDbTrace
 10
4195.629110905558
 20
1504.491729402486
 30
0.0
 11
4260.677969316279
 21
1439.442870991763
 31
0.0
 12
4503.44361387945
 22
1504.491729402486
 32
0.0
 13
4503.44361387945
 23
1504.491729402486
 33
0.0
210
0.0
220
0.0
230
1.0
  0
SOLID
  5
1DA
330
1D3
100
AcDbEntity
  8
HATCH
  6
CONTINUOUS
 62
     1
100
AcDbTrace
 10
1762.603266813864
 20
1588.0000042098
 30
0.0
 11
1430.979229174471
 21
1499.141611133576
 31
0.0
 12
1738.793732148363
 22
1499.141611133576
 32
0.0
 13
1738.793732148363
 23
1499.141611133576
 33
0.0
210
0.0
220
0.0
230
1.0
  0
SOLID
  5
1DB
330
1D3
100
AcDbEntity
  8
HATCH
  6
CONTINUOUS
 62
     1
100
AcDbTrace
 10
1407.169694508969
 20
1588.0000042098
 30
0.0
 11
1430.979229174471
 21
1499.141611133576
 31
0.0
 12
1762.603266813864
 22
1588.0000042098
 32
0.0
 13
1762.603266813864
 23
1588.0000042098
 33
0.0
210
0.0
220
0.0
230
1.0
  0
SOLID
  5
1DC
330
1D3
100
AcDbEntity
  8
HATCH
  6
CONTINUOUS
 62
     1
100
AcDbTrace
 10
4527.253148544952
 20
1593.35012247871
 30
0.0
 11
4195.629110905558
 21
1504.491729402486
 31
0.0
 12
4503.44361387945
 22
1504.491729402486
 32
0.0
 13
4503.44361387945
 23
1504.491729402486
 33
0.0
210
0.0
220
0.0
230
1.0
  0
SOLID
  5
1DD
330
1D3
100
AcDbEntity
  8
HATCH
  6
CONTINUOUS
 62
     1
100
AcDbTrace
 10
4171.819576240056
 20
1593.35012247871
 30
0.0
 11
4195.629110905558
 21
1504.491729402486
 31
0.0
 12
4527.253148544952
 22
1593.35012247871
 32
0.0
 13
4527.253148544952
 23
1593.35012247871
 33
0.0
210
0.0
220
0.0
230
1.0
  0
SOLID
  5
1DE
330
1D3
100
AcDbEntity
  8
HATCH
  6
CONTINUOUS
 62
     1
100
AcDbTrace
 10
1738.793732148363
 20
1676.858397286023
 30
0.0
 11
1407.169694508969
 21
1588.0000042098
 31
0.0
 12
1762.603266813864
 22
1588.0000042098
 32
0.0
 13
1762.603266813864
 23
1588.0000042098
 33
0.0
210
0.0
220
0.0
230
1.0
  0
SOLID
  5
1DF
330
1D3
100
AcDbEntity
  8
HATCH
  6
CONTINUOUS
 62
     1
100
AcDbTrace
 10
1430.979229174471
 20
1676.858397286024
 30
0.0
 11
1407.169694508969
 21
1588.0000042098
 31
0.0
 12
1738.793732148363
 22
1676.858397286023
 32
0.0
 13
1738.793732148363
 23
1676.858397286023
 33
0.0
210
0.0
220
0.0
230
1.0
  0
SOLID
  5
1E0
330
1D3
100
AcDbEntity
  8
HATCH
  6
CONTINUOUS
 62
     1
100
AcDbTrace
 10
4503.44361387945
 20
1682.208515554934
 30
0.0
 11
4171.819576240056
 21
1593.35012247871
 31
0.0
 12
4527.253148544952
 22
1593.35012247871
 32
0.0
 13
4527.253148544952
 23
1593.35012247871
 33
0.0
210
0.0
220
0.0
230
1.0
  0
SOLID
  5
1E1
330
1D3
100
AcDbEntity
  8
HATCH
  6
CONTINUOUS
 62
     1
100
AcDbTrace
 10
4195.629110905558
 20
1682.208515554934
 30
0.0
 11
4171.819576240056
 21
1593.35012247871
 31
0.0
 12
4503.44361387945
 22
1682.208515554934
 32
0.0
 13
4503.44361387945
 23
1682.208515554934
 33
0.0
210
0.0
220
0.0
230
1.0
  0
SOLID
  5
1E2
330
1D3
100
AcDbEntity
  8
HATCH
  6
CONTINUOUS
 62
     1
100
AcDbTrace
 10
1673.74487373764
 20
1741.907255696746
 30
0.0
 11
1430.979229174471
 21
1676.858397286024
 31
0.0
 12
1738.793732148363
 22
1676.858397286023
 32
0.0
 13
1738.793732148363
 23
1676.858397286023
 33
0.0
210
0.0
220
0.0
230
1.0
  0
SOLID
  5
1E3
330
1D3
100
AcDbEntity
  8
HATCH
  6
CONTINUOUS
 62
     1
100
AcDbTrace
 10
1496.028087585193
 20
1741.907255696746
 30
0.0
 11
1430.979229174471
 21
1676.858397286024
 31
0.0
 12
1673.74487373764
 22
1741.907255696746
 32
0.0
 13
1673.74487373764
 23
1741.907255696746
 33
0.0
210
0.0
220
0.0
230
1.0
  0
SOLID
  5
1E4
330
1D3
100
AcDbEntity
  8
HATCH
  6
CONTINUOUS
 62
     1
100
AcDbTrace
 10
4438.394755468728
 20
1747.257373965656
 30
0.0
 11
4195.629110905558
 21
1682.208515554934
 31
0.0
 12
4503.44361387945
 22
1682.208515554934
 32
0.0
 13
4503.44361387945
 23
1682.208515554934
 33
0.0
210
0.0
220
0.0
230
1.0
  0
SOLID
  5
1E5
330
1D3
100
AcDbEntity
  8
HATCH
  6
CONTINUOUS
 62
     1
100
AcDbTrace
 10
4260.67796931628
 20
1747.257373965656
 30
0.0
 11
4195.629110905558
 21
1682.208515554934
 31
0.0
 12
4438.394755468728
 22
1747.257373965656
 32
0.0
 13
4438.394755468728
 23
1747.257373965656
 33
0.0
210
0.0
220
0.0
230
1.0
  0
SOLID
  5
1E6
330
1D3
100
AcDbEntity
  8
HATCH
  6
CONTINUOUS
 62
     1
100
AcDbTrace
 10
1584.886480661417
 20
1765.716790362247
 30
0.0
 11
1496.028087585193
 21
1741.907255696746
 31
0.0
 12
1673.74487373764
 22
1741.907255696746
 32
0.0
 13
1673.74487373764
 23
1741.907255696746
 33
0.0
210
0.0
220
0.0
230
1.0
  0
SOLID
  5
1E7
330
1D3
100
AcDbEntity
  8
HATCH
  6
CONTINUOUS
 62
     1
100
AcDbTrace
 10
4349.536362392504
 20
1771.066908631158
 30
0.0
 11
4260.67796931628
 21
1747.257373965656
 31
0.0
 12
4438.394755468728
 22
1747.257373965656
 32
0.0
 13
4438.394755468728
 23
1747.257373965656
 33
0.0
210
0.0
220
0.0
230
1.0
  0
SOLID
  5
1E8
330
1D3
100
AcDbEntity
  8
HATCH
  6
CONTINUOUS
 62
     1
100
AcDbTrace
 10
1490.67796931628
 20
4198.742634453941
 30
0.0
 11
1579.536362392504
 21
4174.933099788439
 31
0.0
 12
1668.394755468727
 22
4198.742634453941
 32
0.0
 13
1668.394755468727
 23
4198.742634453941
 33
0.0
210
0.0
220
0.0
230
1.0
  0
SOLID
  5
1E9
330
1D3
100
AcDbEntity
  8
HATCH
  6
CONTINUOUS
 62
     1
100
AcDbTrace
 10
4255.327851047371
 20
4204.092752722853
 30
0.0
 11
4344.186244123595
 21
4180.283218057352
 31
0.0
 12
4433.044637199818
 22
4204.092752722853
 32
0.0
 13
4433.044637199818
 23
4204.092752722853
 33
0.0
210
0.0
220
0.0
230
1.0
  0
SOLID
  5
1EA
330
1D3
100
AcDbEntity
  8
HATCH
  6
CONTINUOUS
 62
     1
100
AcDbTrace
 10
1733.443613879449
 20
4263.791492864662
 30
0.0
 11
1490.67796931628
 21
4198.742634453941
 31
0.0
 12
1668.394755468727
 22
4198.742634453941
 32
0.0
 13
1668.394755468727
 23
4198.742634453941
 33
0.0
210
0.0
220
0.0
230
1.0
  0
SOLID
  5
1EB
330
1D3
100
AcDbEntity
  8
HATCH
  6
CONTINUOUS
 62
     1
100
AcDbTrace
 10
1425.629110905557
 20
4263.791492864663
 30
0.0
 11
1490.67796931628
 21
4198.742634453941
 31
0.0
 12
1733.443613879449
 22
4263.791492864662
 32
0.0
 13
1733.443613879449
 23
4263.791492864662
 33
0.0
210
0.0
220
0.0
230
1.0
  0
SOLID
  5
1EC
330
1D3
100
AcDbEntity
  8
HATCH
  6
CONTINUOUS
 62
     1
100
AcDbTrace
 10
4498.093495610541
 20
4269.141611133576
 30
0.0
 11
4255.327851047371
 21
4204.092752722853
 31
0.0
 12
4433.044637199818
 22
4204.092752722853
 32
0.0
 13
4433.044637199818
 23
4204.092752722853
 33
0.0
210
0.0
220
0.0
230
1.0
  0
SOLID
  5
1ED
330
1D3
100
AcDbEntity
  8
HATCH
  6
CONTINUOUS
 62
     1
100
AcDbTrace
 10
4190.278992636649
 20
4269.141611133576
 30
0.0
 11
4255.327851047371
 21
4204.092752722853
 31
0.0
 12
4498.093495610541
 22
4269.141611133576
 32
0.0
 13
4498.093495610541
 23
4269.141611133576
 33
0.0
210
0.0
220
0.0
230
1.0
  0
SOLID
  5
1EE
330
1D3
100
AcDbEntity
  8
HATCH
  6
CONTINUOUS
 62
     1
100
AcDbTrace
 10
1757.253148544951
 20
4352.649885940887
 30
0.0
 11
1425.629110905557
 21
4263.791492864663
 31
0.0
 12
1733.443613879449
 22
4263.791492864662
 32
0.0
 13
1733.443613879449
 23
4263.791492864662
 33
0.0
210
0.0
220
0.0
230
1.0
  0
SOLID
  5
1EF
330
1D3
100
AcDbEntity
  8
HATCH
  6
CONTINUOUS
 62
     1
100
AcDbTrace
 10
1401.819576240056
 20
4352.649885940887
 30
0.0
 11
1425.629110905557
 21
4263.791492864663
 31
0.0
 12
1757.253148544951
 22
4352.649885940887
 32
0.0
 13
1757.253148544951
 23
4352.649885940887
 33
0.0
210
0.0
220
0.0
230
1.0
  0
SOLID
  5
1F0
330
1D3
100
AcDbEntity
  8
HATCH
  6
CONTINUOUS
 62
     1
100
AcDbTrace
 10
4521.903030276043
 20
4358.0000042098
 30
0.0
 11
4190.278992636649
 21
4269.141611133576
 31
0.0
 12
4498.093495610541
 22
4269.141611133576
 32
0.0
 13
4498.093495610541
 23
4269.141611133576
 33
0.0
210
0.0
220
0.0
230
1.0
  0
SOLID
  5
1F1
330
1D3
100
AcDbEntity
  8
HATCH
  6
CONTINUOUS
 62
     1
100
AcDbTrace
 10
4166.469457971148
 20
4358.0000042098
 30
0.0
 11
4190.278992636649
 21
4269.141611133576
 31
0.0
 12
4521.903030276043
 22
4358.0000042098
 32
0.0
 13
4521.903030276043
 23
4358.0000042098
 33
0.0
210
0.0
220
0.0
230
1.0
  0
SOLID
  5
1F2
330
1D3
100
AcDbEntity
  8
HATCH
  6
CONTINUOUS
 62
     1
100
AcDbTrace
 10
1733.443613879449
 20
4441.508279017109
 30
0.0
 11
1401.819576240056
 21
4352.649885940887
 31
0.0
 12
1757.253148544951
 22
4352.649885940887
 32
0.0
 13
1757.253148544951
 23
4352.649885940887
 33
0.0
210
0.0
220
0.0
230
1.0
  0
SOLID
  5
1F3
330
1D3
100
AcDbEntity
  8
HATCH
  6
CONTINUOUS
 62
     1
100
AcDbTrace
 10
1425.629110905557
 20
4441.508279017109
 30
0.0
 11
1401.819576240056
 21
4352.649885940887
 31
0.0
 12
1733.443613879449
 22
4441.508279017109
 32
0.0
 13
1733.443613879449
 23
4441.508279017109
 33
0.0
210
0.0
220
0.0
230
1.0
  0
SOLID
  5
1F4
330
1D3
100
AcDbEntity
  8
HATCH
  6
CONTINUOUS
 62
     1
100
AcDbTrace
 10
4498.093495610541
 20
4446.858397286024
 30
0.0
 11
4166.469457971148
 21
4358.0000042098
 31
0.0
 12
4521.903030276043
 22
4358.0000042098
 32
0.0
 13
4521.903030276043
 23
4358.0000042098
 33
0.0
210
0.0
220
0.0
230
1.0
  0
SOLID
  5
1F5
330
1D3
100
AcDbEntity
  8
HATCH
  6
CONTINUOUS
 62
     1
100
AcDbTrace
 10
4190.278992636649
 20
4446.858397286024
 30
0.0
 11
4166.469457971148
 21
4358.0000042098
 31
0.0
 12
4498.093495610541
 22
4446.858397286024
 32
0.0
 13
4498.093495610541
 23
4446.858397286024
 33
0.0
210
0.0
220
0.0
230
1.0
  0
SOLID
  5
1F6
330
1D3
100
AcDbEntity
  8
HATCH
  6
CONTINUOUS
 62
     1
100
AcDbTrace
 10
1668.394755468727
 20
4506.557137427832
 30
0.0
 11
1425.629110905557
 21
4441.508279017109
 31
0.0
 12
1733.443613879449
 22
4441.508279017109
 32
0.0
 13
1733.443613879449
 23
4441.508279017109
 33
0.0
210
0.0
220
0.0
230
1.0
  0
SOLID
  5
1F7
330
1D3
100
AcDbEntity
  8
HATCH
  6
CONTINUOUS
 62
     1
100
AcDbTrace
 10
1490.67796931628
 20
4506.557137427832
 30
0.0
 11
1425.629110905557
 21
4441.508279017109
 31
0.0
 12
1668.394755468727
 22
4506.557137427832
 32
0.0
 13
1668.394755468727
 23
4506.557137427832
 33
0.0
210
0.0
220
0.0
230
1.0
  0
SOLID
  5
1F8
330
1D3
100
AcDbEntity
  8
HATCH
  6
CONTINUOUS
 62
     1
100
AcDbTrace
 10
4433.044637199819
 20
4511.907255696746
 30
0.0
 11
4190.278992636649
 21
4446.858397286024
 31
0.0
 12
4498.093495610541
 22
4446.858397286024
 32
0.0
 13
4498.093495610541
 23
4446.858397286024
 33
0.0
210
0.0
220
0.0
230
1.0
  0
SOLID
  5
1F9
330
1D3
100
AcDbEntity
  8
HATCH
  6
CONTINUOUS
 62
     1
100
AcDbTrace
 10
4255.327851047371
 20
4511.907255696746
 30
0.0
 11
4190.278992636649
 21
4446.858397286024
 31
0.0
 12
4433.044637199819
 22
4511.907255696746
 32
0.0
 13
4433.044637199819
 23
4511.907255696746
 33
0.0
210
0.0
220
0.0
230
1.0
  0
SOLID
  5
1FA
330
1D3
100
AcDbEntity
  8
HATCH
  6
CONTINUOUS
 62
     1
100
AcDbTrace
 10
1579.536362392504
 20
4530.366672093334
 30
0.0
 11
1490.67796931628
 21
4506.557137427832
 31
0.0
 12
1668.394755468727
 22
4506.557137427832
 32
0.0
 13
1668.394755468727
 23
4506.557137427832
 33
0.0
210
0.0
220
0.0
230
1.0
  0
SOLID
  5
1FB
330
1D3
100
AcDbEntity
  8
HATCH
  6
CONTINUOUS
 62
     1
100
AcDbTrace
 10
4344.186244123595
 20
4535.716790362247
 30
0.0
 11
4255.327851047371
 21
4511.907255696746
 31
0.0
 12
4433.044637199819
 22
4511.907255696746
 32
0.0
 13
4433.044637199819
 23
4511.907255696746
 33
0.0
210
0.0
220
0.0
230
1.0
  0
ENDBLK
  5
1FD
330
1D3
100
AcDbEntity
  8
0
100
AcDbBlockEnd
  0
ENDSEC
  0
SECTION
  2
ENTITIES
  0
INSERT
  5
171
330
1F
100
AcDbEntity
  8
HATCH
100
AcDbBlockReference
  2
AFKD
 10
0.0
 20
0.0
 30
0.0
  0
ENDSEC
  0
SECTION
  2
OBJECTS
  0
DICTIONARY
  5
C
330
0
100
AcDbDictionary
  3
ACAD_GROUP
350
D
  3
ACAD_LAYOUT
350
1A
  3
ACAD_MLINESTYLE
350
17
  3
ACAD_PLOTSETTINGS
350
19
1001
ACAD
1000
TREAT_AS_HARD
1070
     0
1000
TREAT_AS_HARD
1070
     0
  0
DICTIONARY
  5
AD
330
1F
100
AcDbDictionary
  3
ACAD_LAYOUTSELFREF
350
1B1
  3
ACAD_SORTENTS
350
15C
1001
ACAD
1000
TREAT_AS_HARD
1070
     1
1000
TREAT_AS_HARD
1070
     0
  0
DICTIONARY
  5
AF
330
50
100
AcDbDictionary
  3
ACAD_LAYOUTSELFREF
350
1B2
1001
ACAD
1000
TREAT_AS_HARD
1070
     1
1000
TREAT_AS_HARD
1070
     0
  0
DICTIONARY
  5
D
102
{ACAD_REACTORS
330
C
102
}
330
C
100
AcDbDictionary
1001
ACAD
1000
TREAT_AS_HARD
1070
     0
1000
TREAT_AS_HARD
1070
     0
  0
DICTIONARY
  5
1A
102
{ACAD_REACTORS
330
C
102
}
330
C
100
AcDbDictionary
1001
ACAD
1000
TREAT_AS_HARD
1070
     0
1000
TREAT_AS_HARD
1070
     0
  0
DICTIONARY
  5
17
102
{ACAD_REACTORS
330
C
102
}
330
C
100
AcDbDictionary
  3
STANDARD
350
18
1001
ACAD
1000
TREAT_AS_HARD
1070
     0
1000
TREAT_AS_HARD
1070
     0
  0
DICTIONARY
  5
19
102
{ACAD_REACTORS
330
C
102
}
330
C
100
AcDbDictionary
1001
ACAD
1000
TREAT_AS_HARD
1070
     0
1000
TREAT_AS_HARD
1070
     0
  0
XRECORD
  5
1B1
102
{ACAD_REACTORS
330
AD
102
}
330
AD
100
AcDbXrecord
340
1F
  0
SORTENTSTABLE
  5
15C
102
{ACAD_REACTORS
330
AD
102
}
330
AD
100
AcDbSortentsTable
330
1F
331
119
  5
11B
331
117
  5
119
331
139
  5
115
331
115
  5
117
331
15B
  5
104
331
124
  5
139
331
122
  5
124
331
120
  5
122
331
11E
  5
120
331
11C
  5
11E
331
11A
  5
11C
331
118
  5
11A
331
116
  5
118
331
125
  5
15B
331
123
  5
125
331
121
  5
123
331
11F
  5
121
331
11D
  5
11F
331
11B
  5
11D
331
104
  5
116
  0
XRECORD
  5
1B2
102
{ACAD_REACTORS
330
AF
102
}
330
AF
100
AcDbXrecord
340
50
  0
MLINESTYLE
  5
18
102
{ACAD_REACTORS
330
17
102
}
330
17
100
AcDbMlineStyle
  2
STANDARD
 70
     0
  3

 62
   256
 51
90.0
 52
90.0
 71
     2
 49
0.5
 62
   256
  6
BYLAYER
 49
-0.5
 62
   256
  6
BYLAYER
  0
ENDSEC
  0
EOF
