  0
SECTION
  2
HEADER
  9
$ACADVER
  1
AC1012
  9
$DWGCODEPAGE
  3
ANSI_1252
  9
$INSBASE
 10
0.0
 20
0.0
 30
0.0
  9
$EXTMIN
 10
-5.335939256814754
 20
-4.339525432787468
 30
0.0
  9
$EXTMAX
 10
7398.542350906026
 20
5795.660474567216
 30
602.6897171888976
  9
$LIMMIN
 10
0.0
 20
0.0
  9
$LIMMAX
 10
420.0
 20
297.0
  9
$ORTHOMODE
 70
     0
  9
$REGENMODE
 70
     1
  9
$FILLMODE
 70
     1
  9
$QTEXTMODE
 70
     0
  9
$MIRRTEXT
 70
     1
  9
$DRAGMODE
 70
     2
  9
$LTSCALE
 40
1.0
  9
$OSMODE
 70
  3071
  9
$ATTMODE
 70
     1
  9
$TEXTSIZE
 40
2.5
  9
$TRACEWID
 40
1.0
  9
$TEXTSTYLE
  7
STANDARD
  9
$CLAYER
  8
HATCH
  9
$CELTYPE
  6
BYLAYER
  9
$CECOLOR
 62
   256
  9
$CELTSCALE
 40
1.0
  9
$DELOBJ
 70
     1
  9
$DISPSILH
 70
     0
  9
$DIMSCALE
 40
1.0
  9
$DIMASZ
 40
2.5
  9
$DIMEXO
 40
0.625
  9
$DIMDLI
 40
3.75
  9
$DIMRND
 40
0.0
  9
$DIMDLE
 40
0.0
  9
$DIMEXE
 40
1.25
  9
$DIMTP
 40
0.0
  9
$DIMTM
 40
0.0
  9
$DIMTXT
 40
2.5
  9
$DIMCEN
 40
2.5
  9
$DIMTSZ
 40
0.0
  9
$DIMTOL
 70
     0
  9
$DIMLIM
 70
     0
  9
$DIMTIH
 70
     0
  9
$DIMTOH
 70
     0
  9
$DIMSE1
 70
     0
  9
$DIMSE2
 70
     0
  9
$DIMTAD
 70
     1
  9
$DIMZIN
 70
     8
  9
$DIMBLK
  1

  9
$DIMASO
 70
     1
  9
$DIMSHO
 70
     1
  9
$DIMPOST
  1

  9
$DIMAPOST
  1

  9
$DIMALT
 70
     0
  9
$DIMALTD
 70
     3
  9
$DIMALTF
 40
0.03937007874016
  9
$DIMLFAC
 40
1.0
  9
$DIMTOFL
 70
     1
  9
$DIMTVP
 40
0.0
  9
$DIMTIX
 70
     0
  9
$DIMSOXD
 70
     0
  9
$DIMSAH
 70
     0
  9
$DIMBLK1
  1

  9
$DIMBLK2
  1

  9
$DIMSTYLE
  2
ISO-25
  9
$DIMCLRD
 70
     0
  9
$DIMCLRE
 70
     0
  9
$DIMCLRT
 70
     0
  9
$DIMTFAC
 40
1.0
  9
$DIMGAP
 40
0.625
  9
$DIMJUST
 70
     0
  9
$DIMSD1
 70
     0
  9
$DIMSD2
 70
     0
  9
$DIMTOLJ
 70
     0
  9
$DIMTZIN
 70
     8
  9
$DIMALTZ
 70
     0
  9
$DIMALTTZ
 70
     0
  9
$DIMFIT
 70
     3
  9
$DIMUPT
 70
     0
  9
$DIMUNIT
 70
     2
  9
$DIMDEC
 70
     2
  9
$DIMTDEC
 70
     2
  9
$DIMALTU
 70
     2
  9
$DIMALTTD
 70
     3
  9
$DIMTXSTY
  7
STANDARD
  9
$DIMAUNIT
 70
     0
  9
$LUNITS
 70
     2
  9
$LUPREC
 70
     4
  9
$SKETCHINC
 40
1.0
  9
$FILLETRAD
 40
10.0
  9
$AUNITS
 70
     0
  9
$AUPREC
 70
     0
  9
$MENU
  1
.
  9
$ELEVATION
 40
0.0
  9
$PELEVATION
 40
0.0
  9
$THICKNESS
 40
0.0
  9
$LIMCHECK
 70
     0
  9
$BLIPMODE
 70
     0
  9
$CHAMFERA
 40
10.0
  9
$CHAMFERB
 40
10.0
  9
$CHAMFERC
 40
20.0
  9
$CHAMFERD
 40
0.0
  9
$SKPOLY
 70
     0
  9
$TDCREATE
 40
2452628.491172454
  9
$TDUPDATE
 40
2452773.371634490
  9
$TDINDWG
 40
0.0092846065
  9
$TDUSRTIMER
 40
0.0092846065
  9
$USRTIMER
 70
     1
  9
$ANGBASE
 50
0.0
  9
$ANGDIR
 70
     0
  9
$PDMODE
 70
     0
  9
$PDSIZE
 40
0.0
  9
$PLINEWID
 40
0.0
  9
$COORDS
 70
     2
  9
$SPLFRAME
 70
     0
  9
$SPLINETYPE
 70
     6
  9
$SPLINESEGS
 70
     8
  9
$ATTDIA
 70
     0
  9
$ATTREQ
 70
     1
  9
$HANDLING
 70
-16383
  9
$HANDSEED
  5
191
  9
$SURFTAB1
 70
     6
  9
$SURFTAB2
 70
     6
  9
$SURFTYPE
 70
     6
  9
$SURFU
 70
     6
  9
$SURFV
 70
     6
  9
$UCSNAME
  2

  9
$UCSORG
 10
0.0
 20
0.0
 30
0.0
  9
$UCSXDIR
 10
1.0
 20
0.0
 30
0.0
  9
$UCSYDIR
 10
0.0
 20
1.0
 30
0.0
  9
$PUCSNAME
  2

  9
$PUCSORG
 10
0.0
 20
0.0
 30
0.0
  9
$PUCSXDIR
 10
1.0
 20
0.0
 30
0.0
  9
$PUCSYDIR
 10
0.0
 20
1.0
 30
0.0
  9
$USERI1
 70
     0
  9
$USERI2
 70
     0
  9
$USERI3
 70
     0
  9
$USERI4
 70
     0
  9
$USERI5
 70
     0
  9
$USERR1
 40
0.0
  9
$USERR2
 40
0.0
  9
$USERR3
 40
0.0
  9
$USERR4
 40
0.0
  9
$USERR5
 40
0.0
  9
$WORLDVIEW
 70
     1
  9
$SHADEDGE
 70
     3
  9
$SHADEDIF
 70
    70
  9
$TILEMODE
 70
     1
  9
$MAXACTVP
 70
    64
  9
$PINSBASE
 10
0.0
 20
0.0
 30
0.0
  9
$PLIMCHECK
 70
     0
  9
$PEXTMIN
 10
0.0
 20
0.0
 30
0.0
  9
$PEXTMAX
 10
0.0
 20
0.0
 30
0.0
  9
$PLIMMIN
 10
0.0
 20
0.0
  9
$PLIMMAX
 10
12.0
 20
9.0
  9
$UNITMODE
 70
     0
  9
$VISRETAIN
 70
     1
  9
$PLINEGEN
 70
     0
  9
$PSLTSCALE
 70
     1
  9
$TREEDEPTH
 70
  3020
  9
$PICKSTYLE
 70
     1
  9
$CMLSTYLE
  2
STANDARD
  9
$CMLJUST
 70
     0
  9
$CMLSCALE
 40
20.0
  9
$SAVEIMAGES
 70
     1
  0
ENDSEC
  0
SECTION
  2
CLASSES
  0
CLASS
  1
ACDBDICTIONARYWDFLT
  2
AcDbDictionaryWithDefault
  3
AutoCAD 2000
 90
    32768
280
     0
281
     0
  0
CLASS
  1
ACDBPLACEHOLDER
  2
AcDbPlaceHolder
  3
AutoCAD 2000
 90
    32768
280
     0
281
     0
  0
CLASS
  1
LAYOUT
  2
AcDbLayout
  3
AutoCAD 2000
 90
    32768
280
     0
281
     0
  0
CLASS
  1
LONG_TRANSACTION
  2
AcDbLongTransaction
  3
AutoCAD 2000
 90
    32768
280
     0
281
     0
  0
CLASS
  1
LWPOLYLINE
  2
AcDbPolyline
  3
AutoCAD 2000
 90
    32768
280
     0
281
     1
  0
CLASS
  1
HATCH
  2
AcDbHatch
  3
AutoCAD 2000
 90
    32768
280
     0
281
     1
  0
CLASS
  1
XRECORD
  2
AcDbXrecord
  3
AutoCAD 2000
 90
    32768
280
     0
281
     0
  0
CLASS
  1
LONG_TRANSACTION
  2
AcDbLongTransaction
  3
AutoCAD 2000
 90
    32768
280
     0
281
     0
  0
CLASS
  1
LWPOLYLINE
  2
AcDbPolyline
  3
AutoCAD 2000
 90
    32768
280
     0
281
     1
  0
CLASS
  1
HATCH
  2
AcDbHatch
  3
AutoCAD 2000
 90
    32768
280
     0
281
     1
  0
CLASS
  1
XRECORD
  2
AcDbXrecord
  3
AutoCAD 2000
 90
    32768
280
     0
281
     0
  0
CLASS
  1
DICTIONARYVAR
  2
AcDbDictionaryVar
  3
AutoCAD 2000
 90
    32768
280
     0
281
     0
  0
CLASS
  1
SORTENTSTABLE
  2
AcDbSortentsTable
  3
AutoCAD 2000
 90
    32768
280
     0
281
     0
  0
CLASS
  1
LONG_TRANSACTION
  2
AcDbLongTransaction
  3
AutoCAD 2000
 90
    32768
280
     0
281
     0
  0
CLASS
  1
LWPOLYLINE
  2
AcDbPolyline
  3
AutoCAD 2000
 90
    32768
280
     0
281
     1
  0
CLASS
  1
HATCH
  2
AcDbHatch
  3
AutoCAD 2000
 90
    32768
280
     0
281
     1
  0
CLASS
  1
XRECORD
  2
AcDbXrecord
  3
AutoCAD 2000
 90
    32768
280
     0
281
     0
  0
ENDSEC
  0
SECTION
  2
TABLES
  0
TABLE
  2
VPORT
  5
8
330
0
100
AcDbSymbolTable
 70
     2
  0
VPORT
  5
132
330
8
100
AcDbSymbolTableRecord
100
AcDbViewportTableRecord
  2
*ACTIVE
 70
     0
 10
0.0
 20
0.0
 11
1.0
 21
1.0
 12
3721.730886250712
 22
3056.05454480323
 13
0.0
 23
0.0
 14
10.0
 24
10.0
 15
10.0
 25
10.0
 16
0.0
 26
0.0
 36
1.0
 17
0.0
 27
0.0
 37
0.0
 40
12727.68432957479
 41
1.558704453441295
 42
50.0
 43
0.0
 44
0.0
 50
0.0
 51
0.0
 71
     0
 72
   100
 73
     1
 74
     3
 75
     0
 76
     0
 77
     0
 78
     0
  0
ENDTAB
  0
TABLE
  2
LTYPE
  5
5
330
0
100
AcDbSymbolTable
 70
     1
  0
LTYPE
  5
14
330
5
100
AcDbSymbolTableRecord
100
AcDbLinetypeTableRecord
  2
BYBLOCK
 70
     0
  3

 72
    65
 73
     0
 40
0.0
  0
LTYPE
  5
15
330
5
100
AcDbSymbolTableRecord
100
AcDbLinetypeTableRecord
  2
BYLAYER
 70
     0
  3

 72
    65
 73
     0
 40
0.0
  0
LTYPE
  5
16
330
5
100
AcDbSymbolTableRecord
100
AcDbLinetypeTableRecord
  2
CONTINUOUS
 70
     0
  3
Solid line
 72
    65
 73
     0
 40
0.0
  0
ENDTAB
  0
TABLE
  2
LAYER
  5
2
330
0
100
AcDbSymbolTable
 70
     5
  0
LAYER
  5
10
330
2
100
AcDbSymbolTableRecord
100
AcDbLayerTableRecord
  2
0
 70
     0
 62
     7
  6
CONTINUOUS
  0
LAYER
  5
5D
330
2
100
AcDbSymbolTableRecord
100
AcDbLayerTableRecord
  2
SAFETY
 70
     0
 62
     7
  6
CONTINUOUS
  0
LAYER
  5
5E
330
2
100
AcDbSymbolTableRecord
100
AcDbLayerTableRecord
  2
OBJECT
 70
     0
 62
     7
  6
CONTINUOUS
  0
LAYER
  5
AA
330
2
100
AcDbSymbolTableRecord
100
AcDbLayerTableRecord
  2
TEKST
 70
     0
 62
     7
  6
CONTINUOUS
  0
LAYER
  5
BF
330
2
100
AcDbSymbolTableRecord
100
AcDbLayerTableRecord
  2
HATCH
 70
     0
 62
     7
  6
CONTINUOUS
  0
ENDTAB
  0
TABLE
  2
STYLE
  5
3
330
0
100
AcDbSymbolTable
 70
     1
  0
STYLE
  5
11
330
3
100
AcDbSymbolTableRecord
100
AcDbTextStyleTableRecord
  2
STANDARD
 70
     0
 40
0.0
 41
1.0
 50
0.0
 71
     0
 42
2.5
  3
txt
  4

  0
ENDTAB
  0
TABLE
  2
VIEW
  5
6
330
0
100
AcDbSymbolTable
 70
     0
  0
ENDTAB
  0
TABLE
  2
UCS
  5
7
330
0
100
AcDbSymbolTable
 70
     0
  0
ENDTAB
  0
TABLE
  2
APPID
  5
9
330
0
100
AcDbSymbolTable
 70
     3
  0
APPID
  5
12
330
9
100
AcDbSymbolTableRecord
100
AcDbRegAppTableRecord
  2
ACAD
 70
     0
  0
APPID
  5
5F
330
9
100
AcDbSymbolTableRecord
100
AcDbRegAppTableRecord
  2
AVE_FINISH
 70
     0
  0
APPID
  5
135
330
9
100
AcDbSymbolTableRecord
100
AcDbRegAppTableRecord
  2
CONTENTBLOCKICON
 70
     0
  0
ENDTAB
  0
TABLE
  2
DIMSTYLE
  5
A
330
0
100
AcDbSymbolTable
 70
     1
  0
DIMSTYLE
105
27
330
A
100
AcDbSymbolTableRecord
100
AcDbDimStyleTableRecord
  2
ISO-25
 70
     0
  3

  4

  5

  6

  7

 40
1.0
 41
2.5
 42
0.625
 43
3.75
 44
1.25
 45
0.0
 46
0.0
 47
0.0
 48
0.0
140
2.5
141
2.5
142
0.0
143
0.03937007874016
144
1.0
145
0.0
146
1.0
147
0.625
 71
     0
 72
     0
 73
     0
 74
     0
 75
     0
 76
     0
 77
     1
 78
     8
170
     0
171
     3
172
     1
173
     0
174
     0
175
     0
176
     0
177
     0
178
     0
270
     2
271
     2
272
     2
273
     2
274
     3
340
11
275
     0
280
     0
281
     0
282
     0
283
     0
284
     8
285
     0
286
     0
287
     3
288
     0
  0
ENDTAB
  0
TABLE
  2
BLOCK_RECORD
  5
1
330
0
100
AcDbSymbolTable
 70
     4
  0
BLOCK_RECORD
  5
1F
102
{ACAD_XDICTIONARY
360
98
102
}
330
1
100
AcDbSymbolTableRecord
100
AcDbBlockTableRecord
  2
*MODEL_SPACE
  0
BLOCK_RECORD
  5
50
102
{ACAD_XDICTIONARY
360
9A
102
}
330
1
100
AcDbSymbolTableRecord
100
AcDbBlockTableRecord
  2
*PAPER_SPACE
  0
BLOCK_RECORD
  5
11D
330
1
100
AcDbSymbolTableRecord
100
AcDbBlockTableRecord
  2
AFKA
1001
CONTENTBLOCKICON
1071
        0
1004
28000000200000002000000001000800000000000004000000000000000000000000000000000000000000004000000080000000FF000000002000004020000080200000FF200000004000004040000080400000FF400000006000004060000080600000FF600000008000004080000080800000FF80000000A0000040A000
1004
0080A00000FFA0000000C0000040C0000080C00000FFC0000000FF000040FF000080FF0000FFFF0000000020004000200080002000FF002000002020004020200080202000FF202000004020004040200080402000FF402000006020004060200080602000FF602000008020004080200080802000FF80200000A0200040A0
1004
200080A02000FFA0200000C0200040C0200080C02000FFC0200000FF200040FF200080FF2000FFFF2000000040004000400080004000FF004000002040004020400080204000FF204000004040004040400080404000FF404000006040004060400080604000FF604000008040004080400080804000FF80400000A0400040
1004
A0400080A04000FFA0400000C0400040C0400080C04000FFC0400000FF400040FF400080FF4000FFFF4000000060004000600080006000FF006000002060004020600080206000FF206000004060004040600080406000FF406000006060004060600080606000FF606000008060004080600080806000FF80600000A06000
1004
40A0600080A06000FFA0600000C0600040C0600080C06000FFC0600000FF600040FF600080FF6000FFFF6000000080004000800080008000FF008000002080004020800080208000FF208000004080004040800080408000FF408000006080004060800080608000FF608000008080004080800080808000FF80800000A080
1004
0040A0800080A08000FFA0800000C0800040C0800080C08000FFC0800000FF800040FF800080FF8000FFFF80000000A0004000A0008000A000FF00A0000020A0004020A0008020A000FF20A0000040A0004040A0008040A000FF40A0000060A0004060A0008060A000FF60A0000080A0004080A0008080A000FF80A00000A0
1004
A00040A0A00080A0A000FFA0A00000C0A00040C0A00080C0A000FFC0A00000FFA00040FFA00080FFA000FFFFA0000000C0004000C0008000C000FF00C0000020C0004020C0008020C000FF20C0000040C0004040C0008040C000FF40C0000060C0004060C0008060C000FF60C0000080C0004080C0008080C000FF80C00000
1004
A0C00040A0C00080A0C000FFA0C00000C0C00040C0C00080C0C000FFC0C00000FFC00040FFC00080FFC000FFFFC0000000FF004000FF008000FF00FF00FF000020FF004020FF008020FF00FF20FF000040FF004040FF008040FF00FF40FF000060FF004060FF008060FF00FF60FF000080FF004080FF008080FF00FF80FF00
1004
00A0FF0040A0FF0080A0FF00FFA0FF0000C0FF0040C0FF0080C0FF00FFC0FF0000FFFF0040FFFF0080FFFF00FFFFFF0000000000000000000000000000000000000000000000000000000000000000000000000000000000000000000000000000000000000000000000000000000000000000000000000000000000000000
1004
000000000000000000000000000000000000000000000000000000000000000000000000000000000000000000000000000000000000000000000000000000FFFFFF000000000000000000000000000000000000000000000000000000FFFF000000FFFFFF00000000000000000000000000000000000000000000FFFF0000
1004
000000000000FFFF00000000000000000000000000000000000000FF000000000000000000000000FF0000000000000000000000000000000000FF0000000000000000000000000000FF000000000000000000000000000000FF0000000000001CFFFFFF000000000000FF000000000000000000000000FFFF00000000001C
1004
FFFF00FF00FFFF0000000000FFFF0000000000000000FFFF000000000000FFFF000000FF000000FF000000000000FFFF000000000000FF0000000000001CFFFF000000FF0000FFFF1C000000000000FF0000000000FF00000000000000FF0000FF001CFF00FF0000FF00000000000000FF00000000FF00000000FFFFFFFF00
1004
0000FFFFFFFF0000001CFFFFFF00000000FF00000000FF00000003FF00FFFFFFFFFFFFFFFFFFFFFFFFFFFF0000FF000000FF00000000FF000000FF000003FF000000FFFFFF1CFF000000FF0000FF000000FF00000000FF00000000FFFFFFFF000000FF1CFFFF000000FFFFFFFF00000000FF00000000FF00000000000000FF
1004
0000FF00FFFF00FF0000FF00000000000000FF0000000000FF0000000000001CFFFF000000FF0000FFFF1C000000000000FF000000000000FFFF000000000000FF00000000FF0000FFFF000000000000FFFF0000000000000000FFFF0000000000FFFFFF00FFFFFF1C0000000000FFFF000000000000000000000000FF0000
1004
0000000000FFFF00000000000000FF000000000000000000000000000000FF00000000FFFFFFFFFFFFFFFF0000FF0000000000000000000000000000000000FF000000FFFFFFFFFFFF000000FF00000000000000000000000000000000000000FFFF0000000000000000FFFF00000000000000000000000000000000000000
1004
000000FFFFFF000000FFFF000000000000000000000000000000000000000000000000000000FFFFFF0000000000000000000000000000000000000000000000000000000000000000000000000000000000000000000000000000000000000000000000000000000000000000000000000000000000000000000000000000
1004
0000000000000000000000000000000000000000000000000000000000000000000000000000000000000000000000000000000000000000
  0
BLOCK_RECORD
  5
136
330
1
100
AcDbSymbolTableRecord
100
AcDbBlockTableRecord
  2
*U1
  0
BLOCK_RECORD
  5
14D
330
1
100
AcDbSymbolTableRecord
100
AcDbBlockTableRecord
  2
*U2
  0
BLOCK_RECORD
  5
178
330
1
100
AcDbSymbolTableRecord
100
AcDbBlockTableRecord
  2
*U3
  0
ENDTAB
  0
ENDSEC
  0
SECTION
  2
BLOCKS
  0
BLOCK
  5
20
330
1F
100
AcDbEntity
  8
0
100
AcDbBlockBegin
  2
*MODEL_SPACE
 70
     0
 10
0.0
 20
0.0
 30
0.0
  3
*MODEL_SPACE
  1

  0
ENDBLK
  5
21
330
1F
100
AcDbEntity
  8
0
100
AcDbBlockEnd
  0
BLOCK
  5
52
330
50
100
AcDbEntity
 67
     1
  8
0
100
AcDbBlockBegin
  2
*PAPER_SPACE
 70
     0
 10
0.0
 20
0.0
 30
0.0
  3
*PAPER_SPACE
  1

  0
ENDBLK
  5
53
330
50
100
AcDbEntity
 67
     1
  8
0
100
AcDbBlockEnd
  0
BLOCK
  5
11E
330
11D
100
AcDbEntity
  8
0
100
AcDbBlockBegin
  2
AFKA
 70
     0
 10
0.0
 20
0.0
 30
0.0
  3
AFKA
  1

  0
INSERT
  5
120
330
11D
100
AcDbEntity
  8
HATCH
  6
CONTINUOUS
 62
     5
100
AcDbBlockReference
  2
*U1
 10
0.0
 20
0.0
 30
0.0
1001
ACAD
1002
{
1000
R14_HATCH_DATA
1000
120
1011
1.0
1021
0.0
1031
0.0
1011
0.0
1021
1.0
1031
0.0
1011
0.0
1021
0.0
1031
1.0
1040
0.0
1010
0.0
1020
0.0
1030
1.0
1000
SOLID
1070
     1
1070
     1
1071
        2
1071
        7
1070
     1
1070
     1
1071
        5
1040
5829.550687279597
1040
3243.728415870789
1040
0.0
1040
5282.716655192189
1040
3243.728415870789
1040
-0.0572357920610745
1040
5324.864597468353
1040
2876.738925497136
1040
-0.0509943618302138
1040
5291.362628887922
1040
2549.106143885896
1040
0.0
1040
5829.550687279597
1040
2549.106143885897
1040
1.0
1071
        4
1005
12B
1005
125
1005
12A
1005
129
1071
        7
1070
     1
1070
     1
1071
        5
1040
1565.169334991867
1040
2545.611806544491
1040
0.0
1040
2121.503265509061
1040
2545.611806544489
1040
-0.0515469922644725
1040
2087.275104042551
1040
2876.738925497136
1040
-0.0577918461786202
1040
2130.24049280235
1040
3247.222753212196
1040
0.0
1040
1565.169334991868
1040
3247.222753212196
1040
1.0
1071
        4
1005
128
1005
126
1005
127
1005
125
1070
     0
1070
     1
1040
18.36606688052207
1071
        2
1040
5965.47076531332
1040
2859.158393201396
1040
0.0
1040
1517.661810307334
1040
2895.890541356071
1040
0.0
1002
}
  0
INSERT
  5
121
330
11D
100
AcDbEntity
  8
HATCH
  6
CONTINUOUS
 62
     3
100
AcDbBlockReference
  2
*U2
 10
0.0
 20
0.0
 30
0.0
1001
ACAD
1002
{
1000
R14_HATCH_DATA
1000
121
1011
1.0
1021
0.0
1031
0.0
1011
0.0
1021
1.0
1031
0.0
1011
0.0
1021
0.0
1031
1.0
1040
0.0
1010
0.0
1020
0.0
1030
1.0
1000
SOLID
1070
     1
1070
     1
1071
        8
1071
        7
1070
     1
1070
     1
1071
        4
1040
3706.069850755452
1040
4495.533672210037
1040
0.0
1040
3706.069850755452
1040
3425.803800909483
1040
-0.2017885281951244
1040
4098.587784438371
1040
3260.668488241225
1040
0.0
1040
4857.715536536301
1040
4014.371839229699
1040
0.2005036402787886
1071
        4
1005
125
1005
12C
1005
123
1005
12F
1071
        7
1070
     1
1070
     1
1071
        4
1040
4098.587784438371
1040
3260.668488241225
1040
-0.199717213671793
1040
4255.079704839221
1040
2868.966054052561
1040
0.0
1040
5324.822973939104
1040
2865.130386895864
1040
0.1991853184184757
1040
4857.715536536301
1040
4014.3718392297
1040
0.0
1071
        4
1005
12F
1005
123
1005
12D
1005
125
1071
        7
1070
     1
1070
     1
1071
        4
1040
4847.814347548975
1040
1729.169347638351
1040
0.197710203011481
1040
5324.822973939104
1040
2865.130386895864
1040
0.0
1040
4255.079704839221
1040
2868.966054052561
1040
-0.1971833071441126
1040
4091.393882190782
1040
2485.589812996544
1040
0.0
1071
        4
1005
12D
1005
123
1005
12E
1005
125
1071
        7
1070
     1
1070
     1
1071
        4
1040
4091.393882190782
1040
2485.589812996545
1040
-0.1969634292961134
1040
3706.069850755452
1040
2327.674050084789
1040
0.0
1040
3706.069850755452
1040
1257.944178784235
1040
0.1982511672983207
1040
4847.814347548975
1040
1729.169347638351
1040
0.0
1071
        4
1005
123
1005
12C
1005
125
1005
12E
1071
        7
1070
     1
1070
     1
1071
        4
1040
2560.207622510615
1040
1733.280930699311
1040
0.1991853184184757
1040
3706.069850755452
1040
1257.944178784235
1040
0.0
1040
3706.069850755452
1040
2327.674050084789
1040
-0.1979017150924382
1040
3319.335374608545
1040
2486.984281687786
1040
0.0
1071
        4
1005
123
1005
12F
1005
125
1005
12C
1071
        7
1070
     1
1070
     1
1071
        4
1040
3319.335374608545
1040
2486.984281687785
1040
-0.1981077689049328
1040
3157.018373142433
1040
2872.903258340439
1040
0.0
1040
2087.275104042551
1040
2876.738925497136
1040
0.1986394448486468
1040
2560.207622510615
1040
1733.280930699311
1040
0.0
1071
        4
1005
123
1005
12D
1005
125
1005
12F
1071
        7
1070
     1
1070
     1
1071
        4
1040
3157.018373142433
1040
2872.903258340439
1040
-0.1987782776158207
1040
3314.920738254861
1040
3262.062956932466
1040
0.0
1040
2558.500272896667
1040
4018.48342229066
1040
0.1982511672983208
1040
2087.275104042551
1040
2876.738925497136
1040
0.0
1071
        4
1005
12E
1005
125
1005
12D
1005
123
1071
        7
1070
     1
1070
     1
1071
        4
1040
3706.069850755452
1040
4495.533672210037
1040
0.1995737348070047
1040
2558.500272896667
1040
4018.48342229066
1040
0.0
1040
3314.920738254861
1040
3262.062956932466
1040
-0.2008627601174318
1040
3706.069850755452
1040
3425.803800909483
1040
0.0
1071
        4
1005
125
1005
12E
1005
123
1005
12C
1070
     0
1070
     1
1040
18.36606688052207
1071
        8
1040
4182.671291644863
1040
3979.488477993352
1040
0.0
1040
4587.017560281772
1040
3318.310065214449
1040
0.0
1040
4752.431959402591
1040
2381.640657694555
1040
0.0
1040
4292.947546727661
1040
1959.221133836181
1040
0.0
1040
3171.805636549226
1040
1904.122922187718
1040
0.0
1040
2914.49437468938
1040
2308.176403719415
1040
0.0
1040
2620.424361135261
1040
3097.917282121922
1040
0.0
1040
3318.840643326282
1040
3942.756351005781
1040
0.0
1002
}
  0
INSERT
  5
122
330
11D
100
AcDbEntity
  8
HATCH
  6
CONTINUOUS
 62
     2
100
AcDbBlockReference
  2
*U3
 10
0.0
 20
0.0
 30
0.0
1001
ACAD
1002
{
1000
R14_HATCH_DATA
1000
122
1011
1.0
1021
0.0
1031
0.0
1011
0.0
1021
1.0
1031
0.0
1011
0.0
1021
0.0
1031
1.0
1040
0.0
1010
0.0
1020
0.0
1030
1.0
1000
SOLID
1070
     1
1070
     1
1071
        8
1071
        7
1070
     1
1070
     1
1071
        4
1040
3706.069850755452
1040
2870.955319249185
1040
0.0
1040
3706.069850755452
1040
2870.934581573921
1040
0.0
1040
4255.079704839221
1040
2868.966054052561
1040
0.199717213671793
1040
4098.587784438371
1040
3260.668488241225
1040
0.0
1071
        4
1005
12F
1005
12C
1005
12D
1005
123
1071
        7
1070
     1
1070
     1
1071
        3
1040
3706.069850755453
1040
2870.955319249185
1040
0.0
1040
4098.587784438371
1040
3260.668488241225
1040
0.2017885281951244
1040
3706.069850755452
1040
3425.803800909483
1040
0.0
1071
        3
1005
123
1005
12C
1005
12F
1071
        7
1070
     1
1070
     1
1071
        4
1040
3706.069850755452
1040
3425.803800909483
1040
0.2008627601174318
1040
3314.920738254861
1040
3262.062956932466
1040
0.0
1040
3706.049038990828
1040
2870.934656196499
1040
0.0
1040
3706.069850755452
1040
2870.955319249185
1040
0.0
1071
        4
1005
123
1005
12E
1005
12F
1005
12C
1071
        7
1070
     1
1070
     1
1071
        4
1040
3706.049038990826
1040
2870.934656196499
1040
0.0
1040
3314.920738254861
1040
3262.062956932466
1040
0.1969634292961131
1040
3157.004975343105
1040
2876.738925497136
1040
0.0017464704203408
1040
3157.018373142433
1040
2872.903258340439
1040
0.0
1071
        3
1005
123
1005
12D
1005
12E
1071
        7
1070
     1
1070
     1
1071
        3
1040
3157.018373142433
1040
2872.903258340439
1040
0.1981077689049328
1040
3319.335374608545
1040
2486.984281687786
1040
0.0
1040
3706.049038990828
1040
2870.9346561965
1040
0.0
1071
        3
1005
12D
1005
123
1005
12F
1071
        7
1070
     1
1070
     1
1071
        4
1040
3319.335374608545
1040
2486.984281687785
1040
0.1979017150924381
1040
3706.069850755452
1040
2327.674050084789
1040
0.0
1040
3706.069850755452
1040
2870.913844431875
1040
0.0
1040
3706.049038990828
1040
2870.934656196498
1040
0.0
1071
        4
1005
12E
1005
12F
1005
123
1005
12C
1071
        7
1070
     1
1070
     1
1071
        3
1040
3706.069850755452
1040
2327.674050084789
1040
0.196963429296113
1040
4091.393882190782
1040
2485.589812996544
1040
0.0
1040
3706.069850755452
1040
2870.913844431875
1040
0.0
1071
        3
1005
12C
1005
123
1005
12E
1071
        7
1070
     1
1070
     1
1071
        4
1040
4255.079704839221
1040
2868.966054052561
1040
0.0
1040
3706.069850755452
1040
2870.934581573921
1040
0.0
1040
3706.069850755453
1040
2870.913844431876
1040
0.0
1040
4091.393882190782
1040
2485.589812996545
1040
0.1971833071441123
1071
        4
1005
12D
1005
12C
1005
12E
1005
123
1070
     0
1070
     1
1040
18.36606688052207
1071
        8
1040
4054.01567721157
1040
3024.453006979674
1040
0.0
1040
3833.463167045989
1040
3208.11366308463
1040
0.0
1040
3612.910656880401
1040
3208.11366308463
1040
0.0
1040
3410.737506065317
1040
2914.256604849855
1040
0.0
1040
3373.978754371051
1040
2748.961991071577
1040
0.0
1040
3539.39315349187
1040
2528.56920797905
1040
0.0
1040
3833.463167045989
1040
2528.56920797905
1040
0.0
1040
4164.291932294367
1040
2693.863800590225
1040
0.0
1002
}
  0
CIRCLE
  5
123
330
11D
100
AcDbEntity
  8
OBJECT
100
AcDbCircle
 10
3706.069850755452
 20
2876.738925497136
 30
602.6897171888975
 40
549.0648754123467
  0
REGION
  5
124
330
11D
100
AcDbEntity
  8
SAFETY
 48
5.0
100
AcDbModelerGeometry
 70
     1
  1
noi mi n o          
  1
=0;& {rn {n {rn {rn |
  1
3*2/ {rn {rn {m {o |
  1
,7:33 {rn {rn {rn {l {n |
  1
9><: {rn {rn {k {m {rn {j 90-(>-; ;0*=3: 0*+ |
  1
300/ {rn {rn {i {l |
  1
/3>1:r,*-9><: {rn lifiqiolmojgmkioik mgfiqkogmgmnhinfih iomqigfhnhngggfhh o o n n o o o V V V V |
  1
<0:;8: {rn {h {g {rn {f o {k {rn |
  1
<0:;8: {rn {no {i {rn {nn o {k {rn |
  1
<0:;8: {rn {i {no {rn {nm o {k {rn |
  1
:;8: {rn {nl {nk {i {nj o |
  1
<0:;8: {rn {g {h {rn {ni o {k {rn |
  1
:;8: {rn {nk {nh {h {ng o |
  1
:;8: {rn {nf {nl {g {mo o |
  1
):-+:' {rn {f {mn |
  1
):-+:' {rn {f {mm |
  1
:336/,:r<*-): {rn jgfgqolhohiijhlknj mgfiqknhmhfghglklg iomqigfhnhngggfhh o o n nkffqffffnnlimlkn oqjnjiihkffjjgkjmh o n Y rnqlhojkiikmlhhfkfg Y nqlhojkiikmlhhfjom |
  1
:;8: {rn {nh {nf {no {ml o |
  1
):-+:' {rn {nn {mk |
  1
:336/,:r<*-): {rn lifiqiolmojgmkiojj mgfjqiiokhkjihmnjh iomqigfhnhngggfhh o o n nqojjlofjljikjmii:ronm mgffqffffffffffffj o n Y rnqolgginihgonfkijl Y nqolgginihgonfkijn |
  1
):-+:' {rn {ni {mj |
  1
:336/,:r<*-): {rn lifiqiolmojgmkiohk mgfjqiiokhkjihmnlf iomqigfhnhngggfhh o o n rnqojkggmflhnhonfmn:ronm rmfoo o n Y rnqolfjkfmlkiffogik Y nqolfjkfmlkiffogim |
  1
/061+ {rn infiqfnlkifgkonkih nkmiqkfkjmimimlkhg iomqigfhnhngggfhh |
  1
/061+ {rn infjqfomhkkoihkjgn kliiqjkjngokfhlnof iomqigfhnhngggfhh |
  1
:336/,:r<*-): {rn nkfjqnifllkffnghnk mgfiqknhmhfghglkhj iomqigfhnhngggfhh o o n rnkffqffffnnlimlkn oqjnjiihkffjjgigkhk o n Y rnqlhojkiikmlhhfj Y nqlhojkiikmlhhfj |
  1
/061+ {rn nnfhqloliihjgnhjkg kliiqjkjngokfhlnmh iomqigfhnhngggfhh |
  1
/061+ {rn nnfiqmfmfkngofoijh nkmiqkfkjmimimlkfi iomqigfhnhngggfhh |
1001
AVE_FINISH
1002
{
1070
     0
1005
0
1002
}
  0
CIRCLE
  5
125
330
11D
100
AcDbEntity
  8
OBJECT
100
AcDbCircle
 10
3706.069850755452
 20
2876.738925497136
 30
602.6897171888975
 40
1618.794746712901
  0
ARC
  5
126
330
11D
100
AcDbEntity
  8
OBJECT
100
AcDbCircle
 10
1565.169334991868
 20
2896.417279878344
 30
600.0
 40
350.8054733338521
100
AcDbArc
 50
90.0
 51
270.0
  0
LINE
  5
127
330
11D
100
AcDbEntity
  8
OBJECT
100
AcDbLine
 10
1565.169334991868
 20
2545.611806544491
 30
600.0
 11
2121.503265509061
 21
2545.611806544489
 31
600.0
  0
LINE
  5
128
330
11D
100
AcDbEntity
  8
OBJECT
100
AcDbLine
 10
1565.169334991868
 20
3247.222753212196
 30
600.0
 11
2130.24049280235
 21
3247.222753212196
 31
600.0
  0
ARC
  5
129
330
11D
100
AcDbEntity
  8
OBJECT
100
AcDbCircle
 10
5829.550687279597
 20
2896.417279878344
 30
600.0
 40
347.3111359924458
100
AcDbArc
 50
270.0
 51
90.0
  0
LINE
  5
12A
330
11D
100
AcDbEntity
  8
OBJECT
100
AcDbLine
 10
5829.550687279597
 20
2549.106143885897
 30
600.0
 11
5291.362628887921
 21
2549.106143885896
 31
600.0
  0
LINE
  5
12B
330
11D
100
AcDbEntity
  8
OBJECT
100
AcDbLine
 10
5829.550687279597
 20
3243.728415870789
 30
600.0
 11
5282.716655192189
 21
3243.728415870789
 31
600.0
  0
LINE
  5
12C
330
11D
100
AcDbEntity
  8
0
100
AcDbLine
 10
3706.069850755452
 20
4495.533672210037
 30
602.6897171888975
 11
3706.069850755452
 21
1257.944178784235
 31
602.6897171888975
  0
LINE
  5
12D
330
11D
100
AcDbEntity
  8
0
100
AcDbLine
 10
2087.275104042551
 20
2876.738925497136
 30
602.6897171888975
 11
5324.822973939103
 21
2865.130386895864
 31
602.6897171888975
  0
LINE
  5
12E
330
11D
100
AcDbEntity
  8
0
100
AcDbLine
 10
4847.814347548975
 20
1729.169347638351
 30
602.6897171888975
 11
2558.500272896667
 21
4018.48342229066
 31
602.6897171888975
  0
LINE
  5
12F
330
11D
100
AcDbEntity
  8
0
100
AcDbLine
 10
4857.715536536301
 20
4014.371839229699
 30
602.6897171888975
 11
2560.207622510615
 21
1733.280930699311
 31
602.6897171888975
  0
MTEXT
  5
130
330
11D
100
AcDbEntity
  8
TEKST
100
AcDbMText
 10
3107.715626552343
 20
5259.298107928562
 30
0.0
 40
150.0
 41
2101.128740937237
 71
     1
 72
     1
  1
{\FIMPACT.TTF;Hoogte: 265 cm\PMax. valhoogte: 42 cm}
1001
ACAD
1000
MTEXTBEGIN
1070
    73
1070
     1
1070
    44
1040
1.0
1070
    74
1070
     0
1000
MTEXTEND
1000
MTEXTBEGIN
1070
    73
1070
     1
1070
    44
1040
1.0
1070
    74
1070
     0
1000
MTEXTEND
1000
MTEXTBEGIN
1070
    73
1070
     1
1070
    44
1040
1.0
1070
    74
1070
     0
1000
MTEXTEND
  0
ENDBLK
  5
11F
330
11D
100
AcDbEntity
  8
0
100
AcDbBlockEnd
  0
BLOCK
  5
14B
330
136
100
AcDbEntity
  8
0
100
AcDbBlockBegin
  2
*U1
 70
     1
 10
0.0
 20
0.0
 30
0.0
  3
*U1
  1

  0
SOLID
  5
137
330
136
100
AcDbEntity
  8
HATCH
  6
CONTINUOUS
 62
     5
100
AcDbTrace
 10
1389.76659832494
 20
2592.610828184604
 30
0.0
 11
1565.169334991867
 21
2545.611806544491
 31
0.0
 12
2121.503265509061
 22
2545.611806544489
 32
0.0
 13
2121.503265509061
 23
2545.611806544489
 33
0.0
210
0.0
220
0.0
230
1.0
  0
SOLID
  5
138
330
136
100
AcDbEntity
  8
HATCH
  6
CONTINUOUS
 62
     5
100
AcDbTrace
 10
6003.20625527582
 20
2595.637013091652
 30
0.0
 11
5291.362628887922
 21
2549.106143885896
 31
0.0
 12
5829.550687279597
 22
2549.106143885897
 32
0.0
 13
5829.550687279597
 23
2549.106143885897
 33
0.0
210
0.0
220
0.0
230
1.0
  0
SOLID
  5
139
330
136
100
AcDbEntity
  8
HATCH
  6
CONTINUOUS
 62
     5
100
AcDbTrace
 10
2095.854881256202
 20
2710.293186633642
 30
0.0
 11
1389.76659832494
 21
2592.610828184604
 31
0.0
 12
2121.503265509061
 22
2545.611806544489
 32
0.0
 13
2121.503265509061
 23
2545.611806544489
 33
0.0
210
0.0
220
0.0
230
1.0
  0
SOLID
  5
13A
330
136
100
AcDbEntity
  8
HATCH
  6
CONTINUOUS
 62
     5
100
AcDbTrace
 10
5316.467325484599
 20
2712.068328937608
 30
0.0
 11
5291.362628887922
 21
2549.106143885896
 31
0.0
 12
6003.20625527582
 22
2595.637013091652
 32
0.0
 13
6003.20625527582
 23
2595.637013091652
 33
0.0
210
0.0
220
0.0
230
1.0
  0
SOLID
  5
13B
330
136
100
AcDbEntity
  8
HATCH
  6
CONTINUOUS
 62
     5
100
AcDbTrace
 10
1261.362883298126
 20
2721.014543211419
 30
0.0
 11
1389.76659832494
 21
2592.610828184604
 31
0.0
 12
2095.854881256202
 22
2710.293186633642
 32
0.0
 13
2095.854881256202
 23
2710.293186633642
 33
0.0
210
0.0
220
0.0
230
1.0
  0
SOLID
  5
13C
330
136
100
AcDbEntity
  8
HATCH
  6
CONTINUOUS
 62
     5
100
AcDbTrace
 10
6130.330954066288
 20
2722.76171188212
 30
0.0
 11
5316.467325484599
 21
2712.068328937608
 31
0.0
 12
6003.20625527582
 22
2595.637013091652
 32
0.0
 13
6003.20625527582
 23
2595.637013091652
 33
0.0
210
0.0
220
0.0
230
1.0
  0
SOLID
  5
13D
330
136
100
AcDbEntity
  8
HATCH
  6
CONTINUOUS
 62
     5
100
AcDbTrace
 10
2087.275104042551
 20
2876.738925497136
 30
0.0
 11
1261.362883298126
 21
2721.014543211419
 31
0.0
 12
2095.854881256202
 22
2710.293186633642
 32
0.0
 13
2095.854881256202
 23
2710.293186633642
 33
0.0
210
0.0
220
0.0
230
1.0
  0
SOLID
  5
13E
330
136
100
AcDbEntity
  8
HATCH
  6
CONTINUOUS
 62
     5
100
AcDbTrace
 10
5324.864597468353
 20
2876.738925497136
 30
0.0
 11
5316.467325484599
 21
2712.068328937608
 31
0.0
 12
6130.330954066288
 22
2722.76171188212
 32
0.0
 13
6130.330954066288
 23
2722.76171188212
 33
0.0
210
0.0
220
0.0
230
1.0
  0
SOLID
  5
13F
330
136
100
AcDbEntity
  8
HATCH
  6
CONTINUOUS
 62
     5
100
AcDbTrace
 10
6176.861823272044
 20
2896.417279878343
 30
0.0
 11
5324.864597468353
 21
2876.738925497136
 31
0.0
 12
6130.330954066288
 22
2722.76171188212
 32
0.0
 13
6130.330954066288
 23
2722.76171188212
 33
0.0
210
0.0
220
0.0
230
1.0
  0
SOLID
  5
140
330
136
100
AcDbEntity
  8
HATCH
  6
CONTINUOUS
 62
     5
100
AcDbTrace
 10
1214.363861658015
 20
2896.417279878344
 30
0.0
 11
1261.362883298126
 21
2721.014543211419
 31
0.0
 12
2087.275104042551
 22
2876.738925497136
 32
0.0
 13
2087.275104042551
 23
2876.738925497136
 33
0.0
210
0.0
220
0.0
230
1.0
  0
SOLID
  5
141
330
136
100
AcDbEntity
  8
HATCH
  6
CONTINUOUS
 62
     5
100
AcDbTrace
 10
5314.293093410084
 20
3061.439856113923
 30
0.0
 11
5324.864597468353
 21
2876.738925497136
 31
0.0
 12
6176.861823272044
 22
2896.417279878343
 32
0.0
 13
6176.861823272044
 23
2896.417279878343
 33
0.0
  0
SOLID
  5
142
330
136
100
AcDbEntity
  8
HATCH
  6
CONTINUOUS
 62
     5
100
AcDbTrace
 10
2098.052326230963
 20
3063.222363923771
 30
0.0
 11
1214.363861658015
 21
2896.417279878344
 31
0.0
 12
2087.275104042551
 22
2876.738925497136
 32
0.0
 13
2087.275104042551
 23
2876.738925497136
 33
0.0
  0
SOLID
  5
143
330
136
100
AcDbEntity
  8
HATCH
  6
CONTINUOUS
 62
     5
100
AcDbTrace
 10
6130.330954066288
 20
3070.072847874566
 30
0.0
 11
5314.293093410084
 21
3061.439856113923
 31
0.0
 12
6176.861823272044
 22
2896.417279878343
 32
0.0
 13
6176.861823272044
 23
2896.417279878343
 33
0.0
  0
SOLID
  5
144
330
136
100
AcDbEntity
  8
HATCH
  6
CONTINUOUS
 62
     5
100
AcDbTrace
 10
1261.362883298127
 20
3071.82001654527
 30
0.0
 11
1214.363861658015
 21
2896.417279878344
 31
0.0
 12
2098.052326230963
 22
3063.222363923771
 32
0.0
 13
2098.052326230963
 23
3063.222363923771
 33
0.0
210
0.0
220
0.0
230
1.0
  0
SOLID
  5
145
330
136
100
AcDbEntity
  8
HATCH
  6
CONTINUOUS
 62
     5
100
AcDbTrace
 10
6003.20625527582
 20
3197.197546665032
 30
0.0
 11
5314.293093410084
 21
3061.439856113923
 31
0.0
 12
6130.330954066288
 22
3070.072847874566
 32
0.0
 13
6130.330954066288
 23
3070.072847874566
 33
0.0
210
0.0
220
0.0
230
1.0
  0
SOLID
  5
146
330
136
100
AcDbEntity
  8
HATCH
  6
CONTINUOUS
 62
     5
100
AcDbTrace
 10
1389.766598324942
 20
3200.223731572084
 30
0.0
 11
1261.362883298127
 21
3071.82001654527
 31
0.0
 12
2098.052326230963
 22
3063.222363923771
 32
0.0
 13
2098.052326230963
 23
3063.222363923771
 33
0.0
210
0.0
220
0.0
230
1.0
  0
SOLID
  5
147
330
136
100
AcDbEntity
  8
HATCH
  6
CONTINUOUS
 62
     5
100
AcDbTrace
 10
5829.550687279597
 20
3243.728415870789
 30
0.0
 11
5314.293093410084
 21
3061.439856113923
 31
0.0
 12
6003.20625527582
 22
3197.197546665032
 32
0.0
 13
6003.20625527582
 23
3197.197546665032
 33
0.0
210
0.0
220
0.0
230
1.0
  0
SOLID
  5
148
330
136
100
AcDbEntity
  8
HATCH
  6
CONTINUOUS
 62
     5
100
AcDbTrace
 10
5282.716655192189
 20
3243.728415870789
 30
0.0
 11
5314.293093410084
 21
3061.439856113923
 31
0.0
 12
5829.550687279597
 22
3243.728415870789
 32
0.0
 13
5829.550687279597
 23
3243.728415870789
 33
0.0
  0
SOLID
  5
149
330
136
100
AcDbEntity
  8
HATCH
  6
CONTINUOUS
 62
     5
100
AcDbTrace
 10
1389.766598324942
 20
3200.223731572084
 30
0.0
 11
2130.24049280235
 21
3247.222753212196
 31
0.0
 12
1565.169334991868
 22
3247.222753212196
 32
0.0
 13
1565.169334991868
 23
3247.222753212196
 33
0.0
210
0.0
220
0.0
230
1.0
  0
SOLID
  5
14A
330
136
100
AcDbEntity
  8
HATCH
  6
CONTINUOUS
 62
     5
100
AcDbTrace
 10
2130.24049280235
 20
3247.222753212196
 30
0.0
 11
1389.766598324942
 21
3200.223731572084
 31
0.0
 12
2098.052326230963
 22
3063.222363923771
 32
0.0
 13
2098.052326230963
 23
3063.222363923771
 33
0.0
210
0.0
220
0.0
230
1.0
  0
ENDBLK
  5
14C
330
136
100
AcDbEntity
  8
0
100
AcDbBlockEnd
  0
BLOCK
  5
176
330
14D
100
AcDbEntity
  8
0
100
AcDbBlockBegin
  2
*U2
 70
     1
 10
0.0
 20
0.0
 30
0.0
  3
*U2
  1

  0
SOLID
  5
14E
330
14D
100
AcDbEntity
  8
HATCH
  6
CONTINUOUS
 62
     3
100
AcDbTrace
 10
4857.715536536301
 20
4014.371839229699
 30
0.0
 11
3706.069850755452
 21
3425.803800909483
 31
0.0
 12
3918.990023445095
 22
3382.838952639387
 32
0.0
 13
3918.990023445095
 23
3382.838952639387
 33
0.0
  0
SOLID
  5
14F
330
14D
100
AcDbEntity
  8
HATCH
  6
CONTINUOUS
 62
     3
100
AcDbTrace
 10
4857.715536536301
 20
4014.371839229699
 30
0.0
 11
3918.990023445095
 21
3382.838952639387
 31
0.0
 12
4098.587784438371
 22
3260.668488241225
 32
0.0
 13
4098.587784438371
 23
3260.668488241225
 33
0.0
210
0.0
220
0.0
230
1.0
  0
SOLID
  5
150
330
14D
100
AcDbEntity
  8
HATCH
  6
CONTINUOUS
 62
     3
100
AcDbTrace
 10
4521.181195296669
 20
4275.341774051898
 30
0.0
 11
3706.069850755452
 21
3425.803800909483
 31
0.0
 12
4857.715536536301
 22
4014.371839229699
 32
0.0
 13
4857.715536536301
 23
4014.371839229699
 33
0.0
210
0.0
220
0.0
230
1.0
  0
SOLID
  5
151
330
14D
100
AcDbEntity
  8
HATCH
  6
CONTINUOUS
 62
     3
100
AcDbTrace
 10
4128.234207379231
 20
4439.516480999427
 30
0.0
 11
3706.069850755452
 21
3425.803800909483
 31
0.0
 12
4521.181195296669
 22
4275.341774051898
 32
0.0
 13
4521.181195296669
 23
4275.341774051898
 33
0.0
210
0.0
220
0.0
230
1.0
  0
SOLID
  5
152
330
14D
100
AcDbEntity
  8
HATCH
  6
CONTINUOUS
 62
     3
100
AcDbTrace
 10
3706.069850755452
 20
4495.533672210037
 30
0.0
 11
3706.069850755452
 21
3425.803800909483
 31
0.0
 12
4128.234207379231
 22
4439.516480999427
 32
0.0
 13
4128.234207379231
 23
4439.516480999427
 33
0.0
210
0.0
220
0.0
230
1.0
  0
SOLID
  5
153
330
14D
100
AcDbEntity
  8
HATCH
  6
CONTINUOUS
 62
     3
100
AcDbTrace
 10
4215.948604011106
 20
3080.444336299196
 30
0.0
 11
4255.079704839221
 21
2868.966054052561
 31
0.0
 12
5324.822973939104
 22
2865.130386895863
 32
0.0
 13
5324.822973939104
 23
2865.130386895863
 33
0.0
210
0.0
220
0.0
230
1.0
  0
SOLID
  5
154
330
14D
100
AcDbEntity
  8
HATCH
  6
CONTINUOUS
 62
     3
100
AcDbTrace
 10
4098.587784438371
 20
3260.668488241225
 30
0.0
 11
4215.948604011106
 21
3080.444336299196
 31
0.0
 12
5324.822973939104
 22
2865.130386895863
 32
0.0
 13
5324.822973939104
 23
2865.130386895863
 33
0.0
210
0.0
220
0.0
230
1.0
  0
SOLID
  5
155
330
14D
100
AcDbEntity
  8
HATCH
  6
CONTINUOUS
 62
     3
100
AcDbTrace
 10
5272.526974312286
 20
3285.038462655013
 30
0.0
 11
4098.587784438371
 21
3260.668488241225
 31
0.0
 12
5324.822973939104
 22
2865.130386895863
 32
0.0
 13
5324.822973939104
 23
2865.130386895863
 33
0.0
210
0.0
220
0.0
230
1.0
  0
SOLID
  5
156
330
14D
100
AcDbEntity
  8
HATCH
  6
CONTINUOUS
 62
     3
100
AcDbTrace
 10
5113.195472041203
 20
3677.047564652353
 30
0.0
 11
4098.587784438371
 21
3260.668488241225
 31
0.0
 12
5272.526974312286
 22
3285.038462655013
 32
0.0
 13
5272.526974312286
 23
3285.038462655013
 33
0.0
210
0.0
220
0.0
230
1.0
  0
SOLID
  5
157
330
14D
100
AcDbEntity
  8
HATCH
  6
CONTINUOUS
 62
     3
100
AcDbTrace
 10
4857.715536536301
 20
4014.3718392297
 30
0.0
 11
4098.587784438371
 21
3260.668488241225
 31
0.0
 12
5113.195472041203
 22
3677.047564652353
 32
0.0
 13
5113.195472041203
 23
3677.047564652353
 33
0.0
  0
SOLID
  5
158
330
14D
100
AcDbEntity
  8
HATCH
  6
CONTINUOUS
 62
     3
100
AcDbTrace
 10
5267.322365415001
 20
2448.969107189999
 30
0.0
 11
4847.814347548975
 21
1729.169347638351
 31
0.0
 12
5104.667768115445
 22
2061.619119860214
 32
0.0
 13
5104.667768115445
 23
2061.619119860214
 33
0.0
210
0.0
220
0.0
230
1.0
  0
SOLID
  5
159
330
14D
100
AcDbEntity
  8
HATCH
  6
CONTINUOUS
 62
     3
100
AcDbTrace
 10
4091.393882190782
 20
2485.589812996544
 30
0.0
 11
4847.814347548975
 21
1729.169347638351
 31
0.0
 12
5267.322365415001
 22
2448.969107189999
 32
0.0
 13
5267.322365415001
 23
2448.969107189999
 33
0.0
  0
SOLID
  5
15A
330
14D
100
AcDbEntity
  8
HATCH
  6
CONTINUOUS
 62
     3
100
AcDbTrace
 10
4211.034491060954
 20
2661.139877603341
 30
0.0
 11
4091.393882190782
 21
2485.589812996544
 31
0.0
 12
5267.322365415001
 22
2448.969107189999
 32
0.0
 13
5267.322365415001
 23
2448.969107189999
 33
0.0
210
0.0
220
0.0
230
1.0
  0
SOLID
  5
15B
330
14D
100
AcDbEntity
  8
HATCH
  6
CONTINUOUS
 62
     3
100
AcDbTrace
 10
5324.822973939104
 20
2865.130386895864
 30
0.0
 11
4211.034491060954
 21
2661.139877603341
 31
0.0
 12
5267.322365415001
 22
2448.969107189999
 32
0.0
 13
5267.322365415001
 23
2448.969107189999
 33
0.0
210
0.0
220
0.0
230
1.0
  0
SOLID
  5
15C
330
14D
100
AcDbEntity
  8
HATCH
  6
CONTINUOUS
 62
     3
100
AcDbTrace
 10
4255.079704839221
 20
2868.966054052561
 30
0.0
 11
4211.034491060954
 21
2661.139877603341
 31
0.0
 12
5324.822973939104
 22
2865.130386895864
 32
0.0
 13
5324.822973939104
 23
2865.130386895864
 33
0.0
  0
SOLID
  5
15D
330
14D
100
AcDbEntity
  8
HATCH
  6
CONTINUOUS
 62
     3
100
AcDbTrace
 10
4513.087978796936
 20
1473.450582711626
 30
0.0
 11
3706.069850755452
 21
1257.944178784235
 31
0.0
 12
4123.718407894495
 22
1312.748479648773
 32
0.0
 13
4123.718407894495
 23
1312.748479648773
 33
0.0
210
0.0
220
0.0
230
1.0
  0
SOLID
  5
15E
330
14D
100
AcDbEntity
  8
HATCH
  6
CONTINUOUS
 62
     3
100
AcDbTrace
 10
4847.814347548975
 20
1729.169347638351
 30
0.0
 11
3706.069850755452
 21
1257.944178784235
 31
0.0
 12
4513.087978796936
 22
1473.450582711626
 32
0.0
 13
4513.087978796936
 23
1473.450582711626
 33
0.0
210
0.0
220
0.0
230
1.0
  0
SOLID
  5
15F
330
14D
100
AcDbEntity
  8
HATCH
  6
CONTINUOUS
 62
     3
100
AcDbTrace
 10
3706.069850755452
 20
2327.674050084789
 30
0.0
 11
3706.069850755452
 21
1257.944178784235
 31
0.0
 12
4847.814347548975
 22
1729.169347638351
 32
0.0
 13
4847.814347548975
 23
1729.169347638351
 33
0.0
210
0.0
220
0.0
230
1.0
  0
SOLID
  5
160
330
14D
100
AcDbEntity
  8
HATCH
  6
CONTINUOUS
 62
     3
100
AcDbTrace
 10
3914.283681574623
 20
2368.684560229814
 30
0.0
 11
3706.069850755452
 21
2327.674050084789
 31
0.0
 12
4847.814347548975
 22
1729.169347638351
 32
0.0
 13
4847.814347548975
 23
1729.169347638351
 33
0.0
210
0.0
220
0.0
230
1.0
  0
SOLID
  5
161
330
14D
100
AcDbEntity
  8
HATCH
  6
CONTINUOUS
 62
     3
100
AcDbTrace
 10
4091.393882190782
 20
2485.589812996545
 30
0.0
 11
3914.283681574623
 21
2368.684560229814
 31
0.0
 12
4847.814347548975
 22
1729.169347638351
 32
0.0
 13
4847.814347548975
 23
1729.169347638351
 33
0.0
  0
SOLID
  5
162
330
14D
100
AcDbEntity
  8
HATCH
  6
CONTINUOUS
 62
     3
100
AcDbTrace
 10
2895.691151480145
 20
1475.388578244121
 30
0.0
 11
3286.54759178234
 21
1313.250036437996
 31
0.0
 12
3706.069850755452
 22
1257.944178784235
 32
0.0
 13
3706.069850755452
 23
1257.944178784235
 33
0.0
210
0.0
220
0.0
230
1.0
  0
SOLID
  5
163
330
14D
100
AcDbEntity
  8
HATCH
  6
CONTINUOUS
 62
     3
100
AcDbTrace
 10
2560.207622510615
 20
1733.280930699311
 30
0.0
 11
2895.691151480145
 21
1475.388578244121
 31
0.0
 12
3706.069850755452
 22
1257.944178784235
 32
0.0
 13
3706.069850755452
 23
1257.944178784235
 33
0.0
210
0.0
220
0.0
230
1.0
  0
SOLID
  5
164
330
14D
100
AcDbEntity
  8
HATCH
  6
CONTINUOUS
 62
     3
100
AcDbTrace
 10
3706.069850755452
 20
2327.674050084789
 30
0.0
 11
2560.207622510615
 21
1733.280930699311
 31
0.0
 12
3706.069850755452
 22
1257.944178784235
 32
0.0
 13
3706.069850755452
 23
1257.944178784235
 33
0.0
210
0.0
220
0.0
230
1.0
  0
SOLID
  5
165
330
14D
100
AcDbEntity
  8
HATCH
  6
CONTINUOUS
 62
     3
100
AcDbTrace
 10
3496.938728648996
 20
2369.061457828864
 30
0.0
 11
2560.207622510615
 21
1733.280930699311
 31
0.0
 12
3706.069850755452
 22
2327.674050084789
 32
0.0
 13
3706.069850755452
 23
2327.674050084789
 33
0.0
210
0.0
220
0.0
230
1.0
  0
SOLID
  5
166
330
14D
100
AcDbEntity
  8
HATCH
  6
CONTINUOUS
 62
     3
100
AcDbTrace
 10
3319.335374608545
 20
2486.984281687786
 30
0.0
 11
2560.207622510615
 21
1733.280930699311
 31
0.0
 12
3496.938728648996
 22
2369.061457828864
 32
0.0
 13
3496.938728648996
 23
2369.061457828864
 33
0.0
210
0.0
220
0.0
230
1.0
  0
SOLID
  5
167
330
14D
100
AcDbEntity
  8
HATCH
  6
CONTINUOUS
 62
     3
100
AcDbTrace
 10
2142.287624808971
 20
2458.311414691315
 30
0.0
 11
2303.586136870738
 21
2068.323274811535
 31
0.0
 12
2560.207622510615
 22
1733.280930699311
 32
0.0
 13
2560.207622510615
 23
1733.280930699311
 33
0.0
210
0.0
220
0.0
230
1.0
  0
SOLID
  5
168
330
14D
100
AcDbEntity
  8
HATCH
  6
CONTINUOUS
 62
     3
100
AcDbTrace
 10
3319.335374608545
 20
2486.984281687785
 30
0.0
 11
2142.287624808971
 21
2458.311414691315
 31
0.0
 12
2560.207622510615
 22
1733.280930699311
 32
0.0
 13
2560.207622510615
 23
1733.280930699311
 33
0.0
210
0.0
220
0.0
230
1.0
  0
SOLID
  5
169
330
14D
100
AcDbEntity
  8
HATCH
  6
CONTINUOUS
 62
     3
100
AcDbTrace
 10
3199.950100154124
 20
2663.865640506217
 30
0.0
 11
2142.287624808971
 21
2458.311414691315
 31
0.0
 12
3319.335374608545
 22
2486.984281687785
 32
0.0
 13
3319.335374608545
 23
2486.984281687785
 33
0.0
210
0.0
220
0.0
230
1.0
  0
SOLID
  5
16A
330
14D
100
AcDbEntity
  8
HATCH
  6
CONTINUOUS
 62
     3
100
AcDbTrace
 10
3157.018373142433
 20
2872.903258340439
 30
0.0
 11
2142.287624808971
 21
2458.311414691315
 31
0.0
 12
3199.950100154124
 22
2663.865640506217
 32
0.0
 13
3199.950100154124
 23
2663.865640506217
 33
0.0
  0
SOLID
  5
16B
330
14D
100
AcDbEntity
  8
HATCH
  6
CONTINUOUS
 62
     3
100
AcDbTrace
 10
2087.275104042551
 20
2876.738925497136
 30
0.0
 11
2142.287624808971
 21
2458.311414691315
 31
0.0
 12
3157.018373142433
 22
2872.903258340439
 32
0.0
 13
3157.018373142433
 23
2872.903258340439
 33
0.0
210
0.0
220
0.0
230
1.0
  0
SOLID
  5
16C
330
14D
100
AcDbEntity
  8
HATCH
  6
CONTINUOUS
 62
     3
100
AcDbTrace
 10
3197.291308396839
 20
3083.176887720709
 30
0.0
 11
2087.275104042551
 21
2876.738925497136
 31
0.0
 12
3157.018373142433
 22
2872.903258340439
 32
0.0
 13
3157.018373142433
 23
2872.903258340439
 33
0.0
210
0.0
220
0.0
230
1.0
  0
SOLID
  5
16D
330
14D
100
AcDbEntity
  8
HATCH
  6
CONTINUOUS
 62
     3
100
AcDbTrace
 10
3314.920738254861
 20
3262.062956932466
 30
0.0
 11
2087.275104042551
 21
2876.738925497136
 31
0.0
 12
3197.291308396839
 22
3083.176887720709
 32
0.0
 13
3197.291308396839
 23
3083.176887720709
 33
0.0
  0
SOLID
  5
16E
330
14D
100
AcDbEntity
  8
HATCH
  6
CONTINUOUS
 62
     3
100
AcDbTrace
 10
2142.079404907089
 20
3294.38748263618
 30
0.0
 11
2087.275104042551
 21
2876.738925497136
 31
0.0
 12
3314.920738254861
 22
3262.062956932466
 32
0.0
 13
3314.920738254861
 23
3262.062956932466
 33
0.0
210
0.0
220
0.0
230
1.0
  0
SOLID
  5
16F
330
14D
100
AcDbEntity
  8
HATCH
  6
CONTINUOUS
 62
     3
100
AcDbTrace
 10
2302.781507969942
 20
3683.757053538622
 30
0.0
 11
2142.079404907089
 21
3294.38748263618
 31
0.0
 12
3314.920738254861
 22
3262.062956932466
 32
0.0
 13
3314.920738254861
 23
3262.062956932466
 33
0.0
210
0.0
220
0.0
230
1.0
  0
SOLID
  5
170
330
14D
100
AcDbEntity
  8
HATCH
  6
CONTINUOUS
 62
     3
100
AcDbTrace
 10
2558.500272896667
 20
4018.48342229066
 30
0.0
 11
2302.781507969942
 21
3683.757053538622
 31
0.0
 12
3314.920738254861
 22
3262.062956932466
 32
0.0
 13
3314.920738254861
 23
3262.062956932466
 33
0.0
  0
SOLID
  5
171
330
14D
100
AcDbEntity
  8
HATCH
  6
CONTINUOUS
 62
     3
100
AcDbTrace
 10
2558.500272896667
 20
4018.48342229066
 30
0.0
 11
3494.050575572566
 21
3383.217024098151
 31
0.0
 12
3706.069850755452
 22
3425.803800909483
 32
0.0
 13
3706.069850755452
 23
3425.803800909483
 33
0.0
210
0.0
220
0.0
230
1.0
  0
SOLID
  5
172
330
14D
100
AcDbEntity
  8
HATCH
  6
CONTINUOUS
 62
     3
100
AcDbTrace
 10
2558.500272896667
 20
4018.48342229066
 30
0.0
 11
3314.920738254861
 21
3262.062956932466
 31
0.0
 12
3494.050575572566
 22
3383.217024098151
 32
0.0
 13
3494.050575572566
 23
3383.217024098151
 33
0.0
210
0.0
220
0.0
230
1.0
  0
SOLID
  5
173
330
14D
100
AcDbEntity
  8
HATCH
  6
CONTINUOUS
 62
     3
100
AcDbTrace
 10
2894.295561089378
 20
4277.28129708838
 30
0.0
 11
2558.500272896667
 21
4018.48342229066
 31
0.0
 12
3706.069850755452
 22
3425.803800909483
 32
0.0
 13
3706.069850755452
 23
3425.803800909483
 33
0.0
210
0.0
220
0.0
230
1.0
  0
SOLID
  5
174
330
14D
100
AcDbEntity
  8
HATCH
  6
CONTINUOUS
 62
     3
100
AcDbTrace
 10
3285.768888167599
 20
4440.01866144749
 30
0.0
 11
2894.295561089378
 21
4277.28129708838
 31
0.0
 12
3706.069850755452
 22
3425.803800909483
 32
0.0
 13
3706.069850755452
 23
3425.803800909483
 33
0.0
  0
SOLID
  5
175
330
14D
100
AcDbEntity
  8
HATCH
  6
CONTINUOUS
 62
     3
100
AcDbTrace
 10
3706.069850755452
 20
4495.533672210037
 30
0.0
 11
3285.768888167599
 21
4440.01866144749
 31
0.0
 12
3706.069850755452
 22
3425.803800909483
 32
0.0
 13
3706.069850755452
 23
3425.803800909483
 33
0.0
210
0.0
220
0.0
230
1.0
  0
ENDBLK
  5
177
330
14D
100
AcDbEntity
  8
0
100
AcDbBlockEnd
  0
BLOCK
  5
18F
330
178
100
AcDbEntity
  8
0
100
AcDbBlockBegin
  2
*U3
 70
     1
 10
0.0
 20
0.0
 30
0.0
  3
*U3
  1

  0
SOLID
  5
179
330
178
100
AcDbEntity
  8
HATCH
  6
CONTINUOUS
 62
     2
100
AcDbTrace
 10
3706.069850755452
 20
2870.955319249185
 30
0.0
 11
3706.069850755452
 21
2870.934581573921
 31
0.0
 12
4098.587784438371
 22
3260.668488241225
 32
0.0
 13
4098.587784438371
 23
3260.668488241225
 33
0.0
  0
SOLID
  5
17A
330
178
100
AcDbEntity
  8
HATCH
  6
CONTINUOUS
 62
     2
100
AcDbTrace
 10
4255.079704839221
 20
2868.966054052561
 30
0.0
 11
4098.587784438371
 21
3260.668488241225
 31
0.0
 12
3706.069850755452
 22
2870.934581573921
 32
0.0
 13
3706.069850755452
 23
2870.934581573921
 33
0.0
210
0.0
220
0.0
230
1.0
  0
SOLID
  5
17B
330
178
100
AcDbEntity
  8
HATCH
  6
CONTINUOUS
 62
     2
100
AcDbTrace
 10
4098.587784438371
 20
3260.668488241225
 30
0.0
 11
4255.079704839221
 21
2868.966054052561
 31
0.0
 12
4215.948604011106
 22
3080.444336299196
 32
0.0
 13
4215.948604011106
 23
3080.444336299196
 33
0.0
210
0.0
220
0.0
230
1.0
  0
SOLID
  5
17C
330
178
100
AcDbEntity
  8
HATCH
  6
CONTINUOUS
 62
     2
100
AcDbTrace
 10
3706.069850755453
 20
2870.955319249185
 30
0.0
 11
4098.587784438371
 21
3260.668488241225
 31
0.0
 12
3706.069850755452
 22
3425.803800909483
 32
0.0
 13
3706.069850755452
 23
3425.803800909483
 33
0.0
210
0.0
220
0.0
230
1.0
  0
SOLID
  5
17D
330
178
100
AcDbEntity
  8
HATCH
  6
CONTINUOUS
 62
     2
100
AcDbTrace
 10
3918.990023445097
 20
3382.838952639387
 30
0.0
 11
3706.069850755452
 21
3425.803800909483
 31
0.0
 12
4098.587784438371
 22
3260.668488241225
 32
0.0
 13
4098.587784438371
 23
3260.668488241225
 33
0.0
210
0.0
220
0.0
230
1.0
  0
SOLID
  5
17E
330
178
100
AcDbEntity
  8
HATCH
  6
CONTINUOUS
 62
     2
100
AcDbTrace
 10
3706.069850755452
 20
3425.803800909483
 30
0.0
 11
3494.050575572566
 21
3383.217024098151
 31
0.0
 12
3706.069850755452
 22
2870.955319249185
 32
0.0
 13
3706.069850755452
 23
2870.955319249185
 33
0.0
  0
SOLID
  5
17F
330
178
100
AcDbEntity
  8
HATCH
  6
CONTINUOUS
 62
     2
100
AcDbTrace
 10
3314.920738254861
 20
3262.062956932466
 30
0.0
 11
3706.069850755452
 21
2870.955319249185
 31
0.0
 12
3494.050575572566
 22
3383.217024098151
 32
0.0
 13
3494.050575572566
 23
3383.217024098151
 33
0.0
210
0.0
220
0.0
230
1.0
  0
SOLID
  5
180
330
178
100
AcDbEntity
  8
HATCH
  6
CONTINUOUS
 62
     2
100
AcDbTrace
 10
3706.069850755452
 20
2870.955319249185
 30
0.0
 11
3314.920738254861
 21
3262.062956932466
 31
0.0
 12
3706.049038990828
 22
2870.934656196499
 32
0.0
 13
3706.049038990828
 23
2870.934656196499
 33
0.0
210
0.0
220
0.0
230
1.0
  0
SOLID
  5
181
330
178
100
AcDbEntity
  8
HATCH
  6
CONTINUOUS
 62
     2
100
AcDbTrace
 10
3706.049038990826
 20
2870.934656196499
 30
0.0
 11
3314.920738254861
 21
3262.062956932466
 31
0.0
 12
3157.018373142433
 22
2872.903258340439
 32
0.0
 13
3157.018373142433
 23
2872.903258340439
 33
0.0
210
0.0
220
0.0
230
1.0
  0
SOLID
  5
182
330
178
100
AcDbEntity
  8
HATCH
  6
CONTINUOUS
 62
     2
100
AcDbTrace
 10
3198.01548548813
 20
3084.952756316306
 30
0.0
 11
3157.018373142433
 21
2872.903258340439
 31
0.0
 12
3314.920738254861
 22
3262.062956932466
 32
0.0
 13
3314.920738254861
 23
3262.062956932466
 33
0.0
  0
SOLID
  5
183
330
178
100
AcDbEntity
  8
HATCH
  6
CONTINUOUS
 62
     2
100
AcDbTrace
 10
3157.018373142433
 20
2872.903258340439
 30
0.0
 11
3198.01548548813
 21
3084.952756316306
 31
0.0
 12
3157.008324803153
 22
2874.821080219357
 32
0.0
 13
3157.008324803153
 23
2874.821080219357
 33
0.0
210
0.0
220
0.0
230
1.0
  0
SOLID
  5
184
330
178
100
AcDbEntity
  8
HATCH
  6
CONTINUOUS
 62
     2
100
AcDbTrace
 10
3157.004975343105
 20
2876.738925497136
 30
0.0
 11
3157.008324803153
 21
2874.821080219357
 31
0.0
 12
3198.01548548813
 22
3084.952756316306
 32
0.0
 13
3198.01548548813
 23
3084.952756316306
 33
0.0
210
0.0
220
0.0
230
1.0
  0
SOLID
  5
185
330
178
100
AcDbEntity
  8
HATCH
  6
CONTINUOUS
 62
     2
100
AcDbTrace
 10
3157.018373142433
 20
2872.903258340439
 30
0.0
 11
3199.950100154124
 21
2663.865640506217
 31
0.0
 12
3706.049038990828
 22
2870.9346561965
 32
0.0
 13
3706.049038990828
 23
2870.9346561965
 33
0.0
210
0.0
220
0.0
230
1.0
  0
SOLID
  5
186
330
178
100
AcDbEntity
  8
HATCH
  6
CONTINUOUS
 62
     2
100
AcDbTrace
 10
3319.335374608545
 20
2486.984281687786
 30
0.0
 11
3706.049038990828
 21
2870.9346561965
 31
0.0
 12
3199.950100154124
 22
2663.865640506217
 32
0.0
 13
3199.950100154124
 23
2663.865640506217
 33
0.0
210
0.0
220
0.0
230
1.0
  0
SOLID
  5
187
330
178
100
AcDbEntity
  8
HATCH
  6
CONTINUOUS
 62
     2
100
AcDbTrace
 10
3319.335374608545
 20
2486.984281687785
 30
0.0
 11
3496.938728648995
 21
2369.061457828863
 31
0.0
 12
3706.049038990828
 22
2870.934656196498
 32
0.0
 13
3706.049038990828
 23
2870.934656196498
 33
0.0
  0
SOLID
  5
188
330
178
100
AcDbEntity
  8
HATCH
  6
CONTINUOUS
 62
     2
100
AcDbTrace
 10
3706.069850755452
 20
2327.674050084789
 30
0.0
 11
3706.049038990828
 21
2870.934656196498
 31
0.0
 12
3496.938728648995
 22
2369.061457828863
 32
0.0
 13
3496.938728648995
 23
2369.061457828863
 33
0.0
210
0.0
220
0.0
230
1.0
  0
SOLID
  5
189
330
178
100
AcDbEntity
  8
HATCH
  6
CONTINUOUS
 62
     2
100
AcDbTrace
 10
3706.049038990828
 20
2870.934656196498
 30
0.0
 11
3706.069850755452
 21
2327.674050084789
 31
0.0
 12
3706.069850755452
 22
2870.913844431875
 32
0.0
 13
3706.069850755452
 23
2870.913844431875
 33
0.0
210
0.0
220
0.0
230
1.0
  0
SOLID
  5
18A
330
178
100
AcDbEntity
  8
HATCH
  6
CONTINUOUS
 62
     2
100
AcDbTrace
 10
3706.069850755452
 20
2327.674050084789
 30
0.0
 11
3914.283681574623
 21
2368.684560229814
 31
0.0
 12
3706.069850755452
 22
2870.913844431875
 32
0.0
 13
3706.069850755452
 23
2870.913844431875
 33
0.0
210
0.0
220
0.0
230
1.0
  0
SOLID
  5
18B
330
178
100
AcDbEntity
  8
HATCH
  6
CONTINUOUS
 62
     2
100
AcDbTrace
 10
4091.393882190782
 20
2485.589812996544
 30
0.0
 11
3706.069850755452
 21
2870.913844431875
 31
0.0
 12
3914.283681574623
 22
2368.684560229814
 32
0.0
 13
3914.283681574623
 23
2368.684560229814
 33
0.0
210
0.0
220
0.0
230
1.0
  0
SOLID
  5
18C
330
178
100
AcDbEntity
  8
HATCH
  6
CONTINUOUS
 62
     2
100
AcDbTrace
 10
4255.079704839221
 20
2868.966054052561
 30
0.0
 11
3706.069850755452
 21
2870.934581573921
 31
0.0
 12
4211.034491060954
 22
2661.139877603341
 32
0.0
 13
4211.034491060954
 23
2661.139877603341
 33
0.0
210
0.0
220
0.0
230
1.0
  0
SOLID
  5
18D
330
178
100
AcDbEntity
  8
HATCH
  6
CONTINUOUS
 62
     2
100
AcDbTrace
 10
3706.069850755453
 20
2870.913844431876
 30
0.0
 11
4211.034491060954
 21
2661.139877603341
 31
0.0
 12
3706.069850755452
 22
2870.934581573921
 32
0.0
 13
3706.069850755452
 23
2870.934581573921
 33
0.0
210
0.0
220
0.0
230
1.0
  0
SOLID
  5
18E
330
178
100
AcDbEntity
  8
HATCH
  6
CONTINUOUS
 62
     2
100
AcDbTrace
 10
4211.034491060954
 20
2661.139877603341
 30
0.0
 11
3706.069850755453
 21
2870.913844431876
 31
0.0
 12
4091.393882190782
 22
2485.589812996544
 32
0.0
 13
4091.393882190782
 23
2485.589812996544
 33
0.0
210
0.0
220
0.0
230
1.0
  0
ENDBLK
  5
190
330
178
100
AcDbEntity
  8
0
100
AcDbBlockEnd
  0
ENDSEC
  0
SECTION
  2
ENTITIES
  0
INSERT
  5
131
330
1F
100
AcDbEntity
  8
HATCH
100
AcDbBlockReference
  2
AFKA
 10
0.0
 20
0.0
 30
0.0
  0
ENDSEC
  0
SECTION
  2
OBJECTS
  0
DICTIONARY
  5
C
330
0
100
AcDbDictionary
  3
ACAD_GROUP
350
D
  3
ACAD_LAYOUT
350
1A
  3
ACAD_MLINESTYLE
350
17
  3
ACAD_PLOTSETTINGS
350
19
1001
ACAD
1000
TREAT_AS_HARD
1070
     0
1000
TREAT_AS_HARD
1070
     0
  0
DICTIONARY
  5
98
330
1F
100
AcDbDictionary
  3
ACAD_LAYOUTSELFREF
350
133
  3
ACAD_SORTENTS
350
11C
1001
ACAD
1000
TREAT_AS_HARD
1070
     1
1000
TREAT_AS_HARD
1070
     0
  0
DICTIONARY
  5
9A
330
50
100
AcDbDictionary
  3
ACAD_LAYOUTSELFREF
350
134
1001
ACAD
1000
TREAT_AS_HARD
1070
     1
1000
TREAT_AS_HARD
1070
     0
  0
DICTIONARY
  5
D
102
{ACAD_REACTORS
330
C
102
}
330
C
100
AcDbDictionary
1001
ACAD
1000
TREAT_AS_HARD
1070
     0
1000
TREAT_AS_HARD
1070
     0
  0
DICTIONARY
  5
1A
102
{ACAD_REACTORS
330
C
102
}
330
C
100
AcDbDictionary
1001
ACAD
1000
TREAT_AS_HARD
1070
     0
1000
TREAT_AS_HARD
1070
     0
  0
DICTIONARY
  5
17
102
{ACAD_REACTORS
330
C
102
}
330
C
100
AcDbDictionary
  3
STANDARD
350
18
1001
ACAD
1000
TREAT_AS_HARD
1070
     0
1000
TREAT_AS_HARD
1070
     0
  0
DICTIONARY
  5
19
102
{ACAD_REACTORS
330
C
102
}
330
C
100
AcDbDictionary
1001
ACAD
1000
TREAT_AS_HARD
1070
     0
1000
TREAT_AS_HARD
1070
     0
  0
XRECORD
  5
133
102
{ACAD_REACTORS
330
98
102
}
330
98
100
AcDbXrecord
340
1F
  0
SORTENTSTABLE
  5
11C
102
{ACAD_REACTORS
330
98
102
}
330
98
100
AcDbSortentsTable
330
1F
331
E4
  5
6F
331
75
  5
A7
331
73
  5
A4
331
71
  5
74
331
6F
  5
72
331
6D
  5
70
331
A4
  5
A9
331
10B
  5
6E
331
A9
  5
10B
331
74
  5
A5
331
72
  5
75
331
70
  5
73
331
A7
  5
E4
331
6E
  5
71
331
A5
  5
B1
331
B1
  5
11B
331
11B
  5
6D
  0
XRECORD
  5
134
102
{ACAD_REACTORS
330
9A
102
}
330
9A
100
AcDbXrecord
340
50
  0
MLINESTYLE
  5
18
102
{ACAD_REACTORS
330
17
102
}
330
17
100
AcDbMlineStyle
  2
STANDARD
 70
     0
  3

 62
   256
 51
90.0
 52
90.0
 71
     2
 49
0.5
 62
   256
  6
BYLAYER
 49
-0.5
 62
   256
  6
BYLAYER
  0
ENDSEC
  0
EOF
