  0
SECTION
  2
HEADER
  9
$ACADVER
  1
AC1012
  9
$DWGCODEPAGE
  3
ANSI_1252
  9
$INSBASE
 10
0.0
 20
0.0
 30
0.0
  9
$EXTMIN
 10
-0.2312502058503014
 20
-0.2312136190939782
 30
-0.0311255548510872
  9
$EXTMAX
 10
7577.217144650811
 20
7577.21718873481
 30
1020.031130304598
  9
$LIMMIN
 10
0.0
 20
0.0
  9
$LIMMAX
 10
420.0
 20
297.0
  9
$ORTHOMODE
 70
     0
  9
$REGENMODE
 70
     1
  9
$FILLMODE
 70
     1
  9
$QTEXTMODE
 70
     0
  9
$MIRRTEXT
 70
     1
  9
$DRAGMODE
 70
     2
  9
$LTSCALE
 40
1.0
  9
$OSMODE
 70
  3071
  9
$ATTMODE
 70
     1
  9
$TEXTSIZE
 40
2.5
  9
$TRACEWID
 40
1.0
  9
$TEXTSTYLE
  7
STANDARD
  9
$CLAYER
  8
HATCH
  9
$CELTYPE
  6
BYLAYER
  9
$CECOLOR
 62
   256
  9
$CELTSCALE
 40
1.0
  9
$DELOBJ
 70
     1
  9
$DISPSILH
 70
     0
  9
$DIMSCALE
 40
1.0
  9
$DIMASZ
 40
2.5
  9
$DIMEXO
 40
0.625
  9
$DIMDLI
 40
3.75
  9
$DIMRND
 40
0.0
  9
$DIMDLE
 40
0.0
  9
$DIMEXE
 40
1.25
  9
$DIMTP
 40
0.0
  9
$DIMTM
 40
0.0
  9
$DIMTXT
 40
2.5
  9
$DIMCEN
 40
2.5
  9
$DIMTSZ
 40
0.0
  9
$DIMTOL
 70
     0
  9
$DIMLIM
 70
     0
  9
$DIMTIH
 70
     0
  9
$DIMTOH
 70
     0
  9
$DIMSE1
 70
     0
  9
$DIMSE2
 70
     0
  9
$DIMTAD
 70
     1
  9
$DIMZIN
 70
     8
  9
$DIMBLK
  1

  9
$DIMASO
 70
     1
  9
$DIMSHO
 70
     1
  9
$DIMPOST
  1

  9
$DIMAPOST
  1

  9
$DIMALT
 70
     0
  9
$DIMALTD
 70
     3
  9
$DIMALTF
 40
0.03937007874016
  9
$DIMLFAC
 40
1.0
  9
$DIMTOFL
 70
     1
  9
$DIMTVP
 40
0.0
  9
$DIMTIX
 70
     0
  9
$DIMSOXD
 70
     0
  9
$DIMSAH
 70
     0
  9
$DIMBLK1
  1

  9
$DIMBLK2
  1

  9
$DIMSTYLE
  2
ISO-25
  9
$DIMCLRD
 70
     0
  9
$DIMCLRE
 70
     0
  9
$DIMCLRT
 70
     0
  9
$DIMTFAC
 40
1.0
  9
$DIMGAP
 40
0.625
  9
$DIMJUST
 70
     0
  9
$DIMSD1
 70
     0
  9
$DIMSD2
 70
     0
  9
$DIMTOLJ
 70
     0
  9
$DIMTZIN
 70
     8
  9
$DIMALTZ
 70
     0
  9
$DIMALTTZ
 70
     0
  9
$DIMFIT
 70
     3
  9
$DIMUPT
 70
     0
  9
$DIMUNIT
 70
     2
  9
$DIMDEC
 70
     2
  9
$DIMTDEC
 70
     2
  9
$DIMALTU
 70
     2
  9
$DIMALTTD
 70
     3
  9
$DIMTXSTY
  7
STANDARD
  9
$DIMAUNIT
 70
     0
  9
$LUNITS
 70
     2
  9
$LUPREC
 70
     4
  9
$SKETCHINC
 40
1.0
  9
$FILLETRAD
 40
10.0
  9
$AUNITS
 70
     0
  9
$AUPREC
 70
     0
  9
$MENU
  1
.
  9
$ELEVATION
 40
0.0
  9
$PELEVATION
 40
0.0
  9
$THICKNESS
 40
0.0
  9
$LIMCHECK
 70
     0
  9
$BLIPMODE
 70
     0
  9
$CHAMFERA
 40
10.0
  9
$CHAMFERB
 40
10.0
  9
$CHAMFERC
 40
20.0
  9
$CHAMFERD
 40
0.0
  9
$SKPOLY
 70
     0
  9
$TDCREATE
 40
2452626.613940393
  9
$TDUPDATE
 40
2452773.375892476
  9
$TDINDWG
 40
0.0034329861
  9
$TDUSRTIMER
 40
0.0034315972
  9
$USRTIMER
 70
     1
  9
$ANGBASE
 50
0.0
  9
$ANGDIR
 70
     0
  9
$PDMODE
 70
     0
  9
$PDSIZE
 40
0.0
  9
$PLINEWID
 40
0.0
  9
$COORDS
 70
     2
  9
$SPLFRAME
 70
     0
  9
$SPLINETYPE
 70
     6
  9
$SPLINESEGS
 70
     8
  9
$ATTDIA
 70
     0
  9
$ATTREQ
 70
     1
  9
$HANDLING
 70
-16383
  9
$HANDSEED
  5
28E
  9
$SURFTAB1
 70
     6
  9
$SURFTAB2
 70
     6
  9
$SURFTYPE
 70
     6
  9
$SURFU
 70
     6
  9
$SURFV
 70
     6
  9
$UCSNAME
  2

  9
$UCSORG
 10
0.0
 20
0.0
 30
0.0
  9
$UCSXDIR
 10
1.0
 20
0.0
 30
0.0
  9
$UCSYDIR
 10
0.0
 20
1.0
 30
0.0
  9
$PUCSNAME
  2

  9
$PUCSORG
 10
0.0
 20
0.0
 30
0.0
  9
$PUCSXDIR
 10
1.0
 20
0.0
 30
0.0
  9
$PUCSYDIR
 10
0.0
 20
1.0
 30
0.0
  9
$USERI1
 70
     0
  9
$USERI2
 70
     0
  9
$USERI3
 70
     0
  9
$USERI4
 70
     0
  9
$USERI5
 70
     0
  9
$USERR1
 40
0.0
  9
$USERR2
 40
0.0
  9
$USERR3
 40
0.0
  9
$USERR4
 40
0.0
  9
$USERR5
 40
0.0
  9
$WORLDVIEW
 70
     1
  9
$SHADEDGE
 70
     3
  9
$SHADEDIF
 70
    70
  9
$TILEMODE
 70
     1
  9
$MAXACTVP
 70
    64
  9
$PINSBASE
 10
0.0
 20
0.0
 30
0.0
  9
$PLIMCHECK
 70
     0
  9
$PEXTMIN
 10
0.0
 20
0.0
 30
0.0
  9
$PEXTMAX
 10
0.0
 20
0.0
 30
0.0
  9
$PLIMMIN
 10
0.0
 20
0.0
  9
$PLIMMAX
 10
12.0
 20
9.0
  9
$UNITMODE
 70
     0
  9
$VISRETAIN
 70
     1
  9
$PLINEGEN
 70
     0
  9
$PSLTSCALE
 70
     1
  9
$TREEDEPTH
 70
  3020
  9
$PICKSTYLE
 70
     1
  9
$CMLSTYLE
  2
STANDARD
  9
$CMLJUST
 70
     0
  9
$CMLSCALE
 40
20.0
  9
$SAVEIMAGES
 70
     1
  0
ENDSEC
  0
SECTION
  2
CLASSES
  0
CLASS
  1
ACDBDICTIONARYWDFLT
  2
AcDbDictionaryWithDefault
  3
AutoCAD 2000
 90
    32768
280
     0
281
     0
  0
CLASS
  1
ACDBPLACEHOLDER
  2
AcDbPlaceHolder
  3
AutoCAD 2000
 90
    32768
280
     0
281
     0
  0
CLASS
  1
LAYOUT
  2
AcDbLayout
  3
AutoCAD 2000
 90
    32768
280
     0
281
     0
  0
CLASS
  1
LONG_TRANSACTION
  2
AcDbLongTransaction
  3
AutoCAD 2000
 90
    32768
280
     0
281
     0
  0
CLASS
  1
LWPOLYLINE
  2
AcDbPolyline
  3
AutoCAD 2000
 90
    32768
280
     0
281
     1
  0
CLASS
  1
HATCH
  2
AcDbHatch
  3
AutoCAD 2000
 90
    32768
280
     0
281
     1
  0
CLASS
  1
XRECORD
  2
AcDbXrecord
  3
AutoCAD 2000
 90
    32768
280
     0
281
     0
  0
CLASS
  1
LONG_TRANSACTION
  2
AcDbLongTransaction
  3
AutoCAD 2000
 90
    32768
280
     0
281
     0
  0
CLASS
  1
LWPOLYLINE
  2
AcDbPolyline
  3
AutoCAD 2000
 90
    32768
280
     0
281
     1
  0
CLASS
  1
HATCH
  2
AcDbHatch
  3
AutoCAD 2000
 90
    32768
280
     0
281
     1
  0
CLASS
  1
XRECORD
  2
AcDbXrecord
  3
AutoCAD 2000
 90
    32768
280
     0
281
     0
  0
CLASS
  1
LONG_TRANSACTION
  2
AcDbLongTransaction
  3
AutoCAD 2000
 90
    32768
280
     0
281
     0
  0
CLASS
  1
LWPOLYLINE
  2
AcDbPolyline
  3
AutoCAD 2000
 90
    32768
280
     0
281
     1
  0
CLASS
  1
HATCH
  2
AcDbHatch
  3
AutoCAD 2000
 90
    32768
280
     0
281
     1
  0
CLASS
  1
XRECORD
  2
AcDbXrecord
  3
AutoCAD 2000
 90
    32768
280
     0
281
     0
  0
CLASS
  1
DICTIONARYVAR
  2
AcDbDictionaryVar
  3
AutoCAD 2000
 90
    32768
280
     0
281
     0
  0
CLASS
  1
SORTENTSTABLE
  2
AcDbSortentsTable
  3
AutoCAD 2000
 90
    32768
280
     0
281
     0
  0
CLASS
  1
LONG_TRANSACTION
  2
AcDbLongTransaction
  3
AutoCAD 2000
 90
    32768
280
     0
281
     0
  0
CLASS
  1
LWPOLYLINE
  2
AcDbPolyline
  3
AutoCAD 2000
 90
    32768
280
     0
281
     1
  0
CLASS
  1
HATCH
  2
AcDbHatch
  3
AutoCAD 2000
 90
    32768
280
     0
281
     1
  0
CLASS
  1
XRECORD
  2
AcDbXrecord
  3
AutoCAD 2000
 90
    32768
280
     0
281
     0
  0
ENDSEC
  0
SECTION
  2
TABLES
  0
TABLE
  2
VPORT
  5
8
330
0
100
AcDbSymbolTable
 70
     2
  0
VPORT
  5
1F1
330
8
100
AcDbSymbolTableRecord
100
AcDbViewportTableRecord
  2
*ACTIVE
 70
     0
 10
0.0
 20
0.0
 11
1.0
 21
1.0
 12
3788.49294722248
 22
3788.492987557857
 13
0.0
 23
0.0
 14
10.0
 24
10.0
 15
10.0
 25
10.0
 16
0.0
 26
0.0
 36
1.0
 17
0.0
 27
0.0
 37
0.0
 40
7669.296261776375
 41
1.558704453441295
 42
50.0
 43
0.0
 44
0.0
 50
0.0
 51
0.0
 71
     0
 72
   100
 73
     1
 74
     3
 75
     0
 76
     0
 77
     0
 78
     0
  0
ENDTAB
  0
TABLE
  2
LTYPE
  5
5
330
0
100
AcDbSymbolTable
 70
     1
  0
LTYPE
  5
14
330
5
100
AcDbSymbolTableRecord
100
AcDbLinetypeTableRecord
  2
BYBLOCK
 70
     0
  3

 72
    65
 73
     0
 40
0.0
  0
LTYPE
  5
15
330
5
100
AcDbSymbolTableRecord
100
AcDbLinetypeTableRecord
  2
BYLAYER
 70
     0
  3

 72
    65
 73
     0
 40
0.0
  0
LTYPE
  5
16
330
5
100
AcDbSymbolTableRecord
100
AcDbLinetypeTableRecord
  2
CONTINUOUS
 70
     0
  3
Solid line
 72
    65
 73
     0
 40
0.0
  0
ENDTAB
  0
TABLE
  2
LAYER
  5
2
330
0
100
AcDbSymbolTable
 70
     5
  0
LAYER
  5
10
330
2
100
AcDbSymbolTableRecord
100
AcDbLayerTableRecord
  2
0
 70
     0
 62
     7
  6
CONTINUOUS
  0
LAYER
  5
5D
330
2
100
AcDbSymbolTableRecord
100
AcDbLayerTableRecord
  2
SAFETY
 70
     0
 62
     7
  6
CONTINUOUS
  0
LAYER
  5
5E
330
2
100
AcDbSymbolTableRecord
100
AcDbLayerTableRecord
  2
OBJECT
 70
     0
 62
     7
  6
CONTINUOUS
  0
LAYER
  5
11E
330
2
100
AcDbSymbolTableRecord
100
AcDbLayerTableRecord
  2
TEKST
 70
     0
 62
     7
  6
CONTINUOUS
  0
LAYER
  5
153
330
2
100
AcDbSymbolTableRecord
100
AcDbLayerTableRecord
  2
HATCH
 70
     0
 62
     7
  6
CONTINUOUS
  0
ENDTAB
  0
TABLE
  2
STYLE
  5
3
330
0
100
AcDbSymbolTable
 70
     1
  0
STYLE
  5
11
330
3
100
AcDbSymbolTableRecord
100
AcDbTextStyleTableRecord
  2
STANDARD
 70
     0
 40
0.0
 41
1.0
 50
0.0
 71
     0
 42
2.5
  3
txt
  4

  0
ENDTAB
  0
TABLE
  2
VIEW
  5
6
330
0
100
AcDbSymbolTable
 70
     0
  0
ENDTAB
  0
TABLE
  2
UCS
  5
7
330
0
100
AcDbSymbolTable
 70
     0
  0
ENDTAB
  0
TABLE
  2
APPID
  5
9
330
0
100
AcDbSymbolTable
 70
     3
  0
APPID
  5
12
330
9
100
AcDbSymbolTableRecord
100
AcDbRegAppTableRecord
  2
ACAD
 70
     0
  0
APPID
  5
5F
330
9
100
AcDbSymbolTableRecord
100
AcDbRegAppTableRecord
  2
AVE_FINISH
 70
     0
  0
APPID
  5
117
330
9
100
AcDbSymbolTableRecord
100
AcDbRegAppTableRecord
  2
CONTENTBLOCKICON
 70
     0
  0
ENDTAB
  0
TABLE
  2
DIMSTYLE
  5
A
330
0
100
AcDbSymbolTable
 70
     1
  0
DIMSTYLE
105
27
330
A
100
AcDbSymbolTableRecord
100
AcDbDimStyleTableRecord
  2
ISO-25
 70
     0
  3

  4

  5

  6

  7

 40
1.0
 41
2.5
 42
0.625
 43
3.75
 44
1.25
 45
0.0
 46
0.0
 47
0.0
 48
0.0
140
2.5
141
2.5
142
0.0
143
0.03937007874016
144
1.0
145
0.0
146
1.0
147
0.625
 71
     0
 72
     0
 73
     0
 74
     0
 75
     0
 76
     0
 77
     1
 78
     8
170
     0
171
     3
172
     1
173
     0
174
     0
175
     0
176
     0
177
     0
178
     0
270
     2
271
     2
272
     2
273
     2
274
     3
340
11
275
     0
280
     0
281
     0
282
     0
283
     0
284
     8
285
     0
286
     0
287
     3
288
     0
  0
ENDTAB
  0
TABLE
  2
BLOCK_RECORD
  5
1
330
0
100
AcDbSymbolTable
 70
     4
  0
BLOCK_RECORD
  5
1F
102
{ACAD_XDICTIONARY
360
C4
102
}
330
1
100
AcDbSymbolTableRecord
100
AcDbBlockTableRecord
  2
*MODEL_SPACE
  0
BLOCK_RECORD
  5
50
102
{ACAD_XDICTIONARY
360
C6
102
}
330
1
100
AcDbSymbolTableRecord
100
AcDbBlockTableRecord
  2
*PAPER_SPACE
  0
BLOCK_RECORD
  5
D0
330
1
100
AcDbSymbolTableRecord
100
AcDbBlockTableRecord
  2
AFKC
1001
ACAD
1000
DesignCenter Data
1002
{
1070
     1
1070
     4
1002
}
1001
CONTENTBLOCKICON
1071
        0
1004
28000000200000002000000001000800000000000004000000000000000000000000000000000000000000004000000080000000FF000000002000004020000080200000FF200000004000004040000080400000FF400000006000004060000080600000FF600000008000004080000080800000FF80000000A0000040A000
1004
0080A00000FFA0000000C0000040C0000080C00000FFC0000000FF000040FF000080FF0000FFFF0000000020004000200080002000FF002000002020004020200080202000FF202000004020004040200080402000FF402000006020004060200080602000FF602000008020004080200080802000FF80200000A0200040A0
1004
200080A02000FFA0200000C0200040C0200080C02000FFC0200000FF200040FF200080FF2000FFFF2000000040004000400080004000FF004000002040004020400080204000FF204000004040004040400080404000FF404000006040004060400080604000FF604000008040004080400080804000FF80400000A0400040
1004
A0400080A04000FFA0400000C0400040C0400080C04000FFC0400000FF400040FF400080FF4000FFFF4000000060004000600080006000FF006000002060004020600080206000FF206000004060004040600080406000FF406000006060004060600080606000FF606000008060004080600080806000FF80600000A06000
1004
40A0600080A06000FFA0600000C0600040C0600080C06000FFC0600000FF600040FF600080FF6000FFFF6000000080004000800080008000FF008000002080004020800080208000FF208000004080004040800080408000FF408000006080004060800080608000FF608000008080004080800080808000FF80800000A080
1004
0040A0800080A08000FFA0800000C0800040C0800080C08000FFC0800000FF800040FF800080FF8000FFFF80000000A0004000A0008000A000FF00A0000020A0004020A0008020A000FF20A0000040A0004040A0008040A000FF40A0000060A0004060A0008060A000FF60A0000080A0004080A0008080A000FF80A00000A0
1004
A00040A0A00080A0A000FFA0A00000C0A00040C0A00080C0A000FFC0A00000FFA00040FFA00080FFA000FFFFA0000000C0004000C0008000C000FF00C0000020C0004020C0008020C000FF20C0000040C0004040C0008040C000FF40C0000060C0004060C0008060C000FF60C0000080C0004080C0008080C000FF80C00000
1004
A0C00040A0C00080A0C000FFA0C00000C0C00040C0C00080C0C000FFC0C00000FFC00040FFC00080FFC000FFFFC0000000FF004000FF008000FF00FF00FF000020FF004020FF008020FF00FF20FF000040FF004040FF008040FF00FF40FF000060FF004060FF008060FF00FF60FF000080FF004080FF008080FF00FF80FF00
1004
00A0FF0040A0FF0080A0FF00FFA0FF0000C0FF0040C0FF0080C0FF00FFC0FF0000FFFF0040FFFF0080FFFF00FFFFFF0000000000000000000000000000000000000000000000000000000000000000000000000000000000000000000000000000000000000000000000000000000000000000000000000000000000000000
1004
00000000000000000000000000000000000000000000000000000000FFFFFFFFFFFFFFFFFFFF0000000000000000000000000000000000000000FFFF00000000000000000000FFFF0000000000000000000000000000000000FF0000000000000000000000000000FF000000000000000000000000000000FF000000000000
1004
00000000000000000000FF00000000000000000000000000FF00000000000000FFFFFFFF00000000000000FF0000000000000000000000FF000000000000FFFFFFFFFFFFFFFF000000000000FF000000000000000000FF00000000FFFFFFFFFF00000000FFFFFFFFFC00000000FF0000000000000000FF00000000FFFFFF00
1004
00000000000000FFFFFF00000000FF00000000000000FF0000000000FFFF00000000000000000000FFFF0000000000FF000000000000FF00000000FFFF030000000000000000000000FFFF00000000FF000000000000FF00000000FFFFFFFFFF000000000000000000FFFF00000000FF000000000000FF000000FFFF00FFFF
1004
FF00000000000000000000FFFF000000FF000000000000FF000000FFFF0000000000000000000000000000FFFF000000FF000000000000FF000000FFFF0000000000000000000000000000FFFF000000FF000000000000FF000000FFFF00000000000000000000FFFF0000FFFF000000FF000000000000FF00000000FFFF00
1004
0000000000000000FFFFFFFFFF00000000FF000000000000FF00000000FFFF0000000000000000000000FFFFFF00000000FF000000000000FF0000000000FFFF00000000000000000000FFFF0000000000FF00000000000000FF00000000FFFFFF0000000000000000FFFFFF00000000FF0000000000000000FF00000000FF
1004
FFFFFFFF00000000FFFFFFFFFC00000000FF000000000000000000FF000000000000FFFFFFFFFFFFFFFF000000000000FF0000000000000000000000FF00000000000000FFFFFFFF00000000000000FF00000000000000000000000000FF00000000000000000000000000000000FF000000000000000000000000000000FF
1004
00000000FFFFFFFFFFFF00000000FF0000000000000000000000000000000000FFFF0000FFFFFFFF00000000FFFF0000000000000000000000000000000000000000FFFFFFFFFFFFFFFFFFFF000000000000000000000000000000000000000000000000000000000000000000000000000000000000000000000000000000
1004
0000000000000000000000000000000000000000000000000000000000000000000000000000000000000000000000000000000000000000
  0
BLOCK_RECORD
  5
1F5
330
1
100
AcDbSymbolTableRecord
100
AcDbBlockTableRecord
  2
*U1
  0
BLOCK_RECORD
  5
248
330
1
100
AcDbSymbolTableRecord
100
AcDbBlockTableRecord
  2
*U2
  0
BLOCK_RECORD
  5
27B
330
1
100
AcDbSymbolTableRecord
100
AcDbBlockTableRecord
  2
*U3
  0
ENDTAB
  0
ENDSEC
  0
SECTION
  2
BLOCKS
  0
BLOCK
  5
20
330
1F
100
AcDbEntity
  8
0
100
AcDbBlockBegin
  2
*MODEL_SPACE
 70
     0
 10
0.0
 20
0.0
 30
0.0
  3
*MODEL_SPACE
  1

  0
ENDBLK
  5
21
330
1F
100
AcDbEntity
  8
0
100
AcDbBlockEnd
  0
BLOCK
  5
52
330
50
100
AcDbEntity
 67
     1
  8
0
100
AcDbBlockBegin
  2
*PAPER_SPACE
 70
     0
 10
0.0
 20
0.0
 30
0.0
  3
*PAPER_SPACE
  1

  0
ENDBLK
  5
53
330
50
100
AcDbEntity
 67
     1
  8
0
100
AcDbBlockEnd
  0
BLOCK
  5
D1
330
D0
100
AcDbEntity
  8
0
100
AcDbBlockBegin
  2
AFKC
 70
     0
 10
0.0
 20
0.0
 30
0.0
  3
AFKC
  1

  0
INSERT
  5
1CD
330
D0
100
AcDbEntity
  8
HATCH
  6
CONTINUOUS
 62
     2
100
AcDbBlockReference
  2
*U1
 10
0.0
 20
0.0
 30
0.0
1001
ACAD
1002
{
1000
R14_HATCH_DATA
1000
1CD
1011
1.0
1021
0.0
1031
0.0
1011
0.0
1021
1.0
1031
0.0
1011
0.0
1021
0.0
1031
1.0
1040
0.0
1010
0.0
1020
0.0
1030
1.0
1000
SOLID
1070
     1
1070
     1
1071
        8
1071
        7
1070
     1
1070
     1
1071
        2
1040
5137.426029701455
1040
5330.165182266727
1040
1.0
1040
5522.904246664431
1040
5330.165182266727
1040
1.0
1071
        1
1005
1EF
1071
        7
1070
     1
1070
     1
1071
        2
1040
5776.007567238123
1040
3788.492973664703
1040
1.0
1040
6161.485784201099
1040
3788.492973664703
1040
1.0
1071
        1
1005
1E2
1071
        7
1070
     1
1070
     1
1071
        2
1040
5522.904246664438
1040
2246.820765062708
1040
1.0
1040
5137.426029701463
1040
2246.820765062708
1040
1.0
1071
        1
1005
1E7
1071
        7
1070
     1
1070
     1
1071
        2
1040
3595.753821099439
1040
1608.239227526041
1040
1.0
1040
3981.232038062415
1040
1608.239227526041
1040
1.0
1071
        1
1005
1D2
1071
        7
1070
     1
1070
     1
1071
        2
1040
2439.559829460398
1040
2246.820765062663
1040
1.0
1040
2054.081612497422
1040
2246.820765062663
1040
1.0
1071
        1
1005
1DB
1071
        7
1070
     1
1070
     1
1071
        2
1040
1415.500074960771
1040
3788.492973664703
1040
1.0
1040
1800.978291923747
1040
3788.492973664703
1040
1.0
1071
        1
1005
1D4
1071
        7
1070
     1
1070
     1
1071
        2
1040
2439.55982946039
1040
5330.165182266727
1040
1.0
1040
2054.081612497414
1040
5330.165182266727
1040
1.0
1071
        1
1005
1E1
1071
        7
1070
     1
1070
     1
1071
        2
1040
3981.232038062421
1040
5968.74671980337
1040
1.0
1040
3595.753821099445
1040
5968.74671980337
1040
1.0
1071
        1
1005
1D1
1070
     0
1070
     1
1040
15.49352780156843
1071
        8
1040
5261.444701466782
1040
5353.339305236811
1040
0.0
1040
5912.644431628869
1040
3803.986532550785
1040
0.0
1040
5323.463691012628
1040
2208.153134375606
1040
0.0
1040
3710.969146986943
1040
1619.399097329398
1040
0.0
1040
2300.036420964475
1040
2177.166079794224
1040
0.0
1040
1648.836690802389
1040
3865.960641713543
1040
0.0
1040
2175.998373886643
1040
5291.365196074053
1040
0.0
1040
3819.502480671377
1040
5942.09334228302
1040
0.0
1002
}
  0
INSERT
  5
1CE
330
D0
100
AcDbEntity
  8
HATCH
  6
CONTINUOUS
 62
     1
100
AcDbBlockReference
  2
*U2
 10
0.0
 20
0.0
 30
0.0
1001
ACAD
1002
{
1000
R14_HATCH_DATA
1000
1CE
1011
1.0
1021
0.0
1031
0.0
1011
0.0
1021
1.0
1031
0.0
1011
0.0
1021
0.0
1031
1.0
1040
0.0
1010
0.0
1020
0.0
1030
1.0
1000
SOLID
1070
     1
1070
     1
1071
        8
1071
        7
1070
     1
1070
     1
1071
        6
1040
3978.986691485101
1040
5998.080840104428
1040
-0.0382160314352148
1040
3981.232038062421
1040
5968.74671980337
1040
-0.2389447712527682
1040
3902.45000501209
1040
5813.30493360218
1040
0.0
1040
5139.671376278773
1040
5300.831061965681
1040
-0.0382160314351992
1040
5137.426029701455
1040
5330.165182266727
1040
-0.2389447712527832
1040
5216.208062751795
1040
5485.606968467923
1040
0.0
1071
        4
1005
1D1
1005
1E8
1005
1EF
1005
1EB
1071
        7
1070
     1
1070
     1
1071
        4
1040
5813.304889518405
1040
3902.450049095837
1040
-0.2797150262937188
1040
5998.080796020666
1040
3978.986735568871
1040
0.0
1040
5485.606924384149
1040
5216.20810683559
1040
-0.2797150262937193
1040
5300.831017881886
1040
5139.671420362559
1040
0.0
1071
        4
1005
1EF
1005
1EC
1005
1E2
1005
1ED
1071
        7
1070
     1
1070
     1
1071
        4
1040
5300.831017881907
1040
2437.314526966878
1040
-0.2797150262937015
1040
5485.606924384156
1040
2360.777840493843
1040
0.0
1040
5998.080796020659
1040
3597.999211760533
1040
-0.2797150262936892
1040
5813.304889518413
1040
3674.535898233556
1040
0.0
1071
        4
1005
1E2
1005
1E5
1005
1E7
1005
1E6
1071
        7
1070
     1
1070
     1
1071
        6
1040
5216.208062751846
1040
2091.37897886148
1040
-0.2389447712528566
1040
5137.426029701463
1040
2246.820765062708
1040
-0.0382160314351657
1040
5139.671376278776
1040
2276.154885363728
1040
0.0
1040
3902.45000501209
1040
1763.681013727225
1040
-0.2389447712527573
1040
3981.232038062415
1040
1608.239227526041
1040
-0.0382160314352611
1040
3978.98669148509
1040
1578.905107224947
1040
0.0
1071
        4
1005
1E7
1005
1E3
1005
1D2
1005
1E4
1071
        7
1070
     1
1070
     1
1071
        6
1040
3597.999167676761
1040
1578.90510722497
1040
-0.0382160314352309
1040
3595.753821099439
1040
1608.239227526041
1040
-0.2389447712527525
1040
3674.535854149761
1040
1763.681013727223
1040
0.0
1040
2437.314482883076
1040
2276.154885363728
1040
-0.0382160314352249
1040
2439.559829460398
1040
2246.820765062663
1040
-0.2389447712527692
1040
2360.777796410066
1040
2091.378978861472
1040
0.0
1071
        4
1005
1DB
1005
1D7
1005
1D2
1005
1D6
1071
        7
1070
     1
1070
     1
1071
        4
1040
1763.680969643442
1040
3674.535898233537
1040
-0.2797150262936998
1040
1578.90506314118
1040
3597.999211760537
1040
0.0
1040
2091.378934777705
1040
2360.777840493799
1040
-0.2797150262937305
1040
2276.154841279975
1040
2437.314526966829
1040
0.0
1071
        4
1005
1D4
1005
1DA
1005
1DB
1005
1D9
1071
        7
1070
     1
1070
     1
1071
        4
1040
1578.905063141188
1040
3978.986735568869
1040
-0.2797150262937049
1040
1763.680969643449
1040
3902.450049095858
1040
0.0
1040
2276.154841279959
1040
5139.671420362559
1040
-0.279715026293667
1040
2091.378934777719
1040
5216.20810683556
1040
0.0
1071
        4
1005
1E1
1005
1E0
1005
1D4
1005
1DF
1071
        7
1070
     1
1070
     1
1071
        6
1040
3674.535854149779
1040
5813.304933602179
1040
-0.2389447712527726
1040
3595.753821099445
1040
5968.74671980337
1040
-0.0382160314352148
1040
3597.999167676765
1040
5998.080840104428
1040
0.0
1040
2360.777796410059
1040
5485.606968467917
1040
-0.2389447712527679
1040
2439.55982946039
1040
5330.165182266727
1040
-0.038216031435204
1040
2437.314482883071
1040
5300.831061965677
1040
0.0
1071
        4
1005
1D1
1005
1DE
1005
1E1
1005
1DD
1070
     0
1070
     1
1040
15.49352780156843
1071
        8
1040
4842.816284080836
1040
5616.729269178541
1040
0.0
1040
5587.044566547819
1040
4578.662897085261
1040
0.0
1040
5664.568337473204
1040
3075.790706271298
1040
0.0
1040
4207.121335298274
1040
1743.347315654915
1040
0.0
1040
3137.293255736367
1040
1836.308479399056
1040
0.0
1040
2005.446118642488
1040
2905.361906073711
1040
0.0
1040
1834.893795412208
1040
4377.247042306299
1040
0.0
1040
2935.731437733164
1040
5585.742214597157
1040
0.0
1002
}
  0
INSERT
  5
1CF
330
D0
100
AcDbEntity
  8
HATCH
  6
CONTINUOUS
 62
     5
100
AcDbBlockReference
  2
*U3
 10
0.0
 20
0.0
 30
0.0
1001
ACAD
1002
{
1000
R14_HATCH_DATA
1000
1CF
1011
1.0
1021
0.0
1031
0.0
1011
0.0
1021
1.0
1031
0.0
1011
0.0
1021
0.0
1031
1.0
1040
0.0
1010
0.0
1020
0.0
1030
1.0
1000
SOLID,_I
1070
     1
1070
     1
1071
        2
1071
        7
1070
     1
1070
     1
1071
        4
1040
4865.800366436411
1040
4452.329651779424
1040
1.189369875915906
1040
5015.17371693382
1040
4081.251689785763
1040
0.0
1040
5633.620109223498
1040
4336.247482635829
1040
0.0
1040
5480.546535380978
1040
4705.799780647352
1040
0.0
1071
        4
1005
1EA
1005
1E9
1005
1EE
1005
1EC
1071
        7
1070
     1
1070
     1
1071
        4
1040
2558.731174022006
1040
3495.587416082912
1040
0.0
1040
1943.381218988684
1040
3240.701119102447
1040
0.0
1040
2096.45459193473
1040
2871.149306097927
1040
0.0
1040
2714.90356947646
1040
3127.31926023149
1040
1.189369875915935
1071
        4
1005
1DC
1005
1D9
1005
1D5
1005
1D8
1070
     2
1070
     1
1040
15.49352780156843
1071
        2
1040
5261.444701466782
1040
4408.234096887674
1040
0.0
1040
2718.664838350421
1040
3230.725979178191
1040
0.0
1002
}
  0
MTEXT
  5
1D0
330
D0
100
AcDbEntity
  8
TEKST
100
AcDbMText
 10
3075.056426719587
 20
6769.482704743039
 30
0.0
 40
100.0
 41
1657.8662
 71
     1
 72
     1
  1
{\FIMPACT.TTF;Hoogte: 32/44 cm\PMax. valhoogte: 32/44 cm}
1001
ACAD
1000
MTEXTBEGIN
1070
    73
1070
     1
1070
    44
1040
1.0
1070
    74
1070
     0
1000
MTEXTEND
1000
MTEXTBEGIN
1070
    73
1070
     1
1070
    44
1040
1.0
1070
    74
1070
     0
1000
MTEXTEND
1000
MTEXTBEGIN
1070
    73
1070
     1
1070
    44
1040
1.0
1070
    74
1070
     0
1000
MTEXTEND
  0
CIRCLE
  5
1D1
330
D0
100
AcDbEntity
  8
OBJECT
  6
CONTINUOUS
 62
     7
 48
5.0
100
AcDbCircle
 10
3788.492929580933
 20
5968.74671980337
 30
1020.000000000001
 40
192.7391084814879
  0
CIRCLE
  5
1D2
330
D0
100
AcDbEntity
  8
OBJECT
  6
CONTINUOUS
 62
     7
 48
5.0
100
AcDbCircle
 10
3788.492929580927
 20
1608.239227526041
 30
1020.000000000001
 40
192.7391084814879
  0
REGION
  5
1D3
330
D0
100
AcDbEntity
  8
SAFETY
 48
5.0
100
AcDbModelerGeometry
 70
     1
  1
noi gi n o          
  1
=0;& {rn {n {rn {rn |
  1
3*2/ {rn {rn {m {o |
  1
,7:33 {rn {rn {rn {l {n |
  1
9><: {rn {rn {k {m {rn {j 90-(>-; ;0*=3: 0*+ |
  1
300/ {rn {rn {i {l |
  1
/3>1:r,*-9><: {rn lhggqkfmfmfjgoflkl lhggqkfmfhliikhomh jffqffffffffffffm o o n n o o o V V V V |
  1
<0:;8: {rn {h {g {rn {f o {k {rn |
  1
<0:;8: {rn {no {i {rn {nn o {k {rn |
  1
<0:;8: {rn {i {nm {rn {nl o {k {rn |
  1
:;8: {rn {nk {nj {i {ni o |
  1
<0:;8: {rn {nh {h {rn {ng o {k {rn |
  1
:;8: {rn {nj {nf {h {mo o |
  1
<0:;8: {rn {g {mn {rn {mm o {k {rn |
  1
:;8: {rn {ml {nk {g {mk o |
  1
):-+:' {rn {f {mj |
  1
):-+:' {rn {f {mi |
  1
:336/,:r<*-): {rn kjgfqomfghglmkiif jhmnqnionlmjomijig jffqffffffffffffjj o o n jhkqomjnkgjkhikfnn nlgjqgnfmfghiiflmf o n Y roqmhohhgoigglmgmlf Y oqmhohhgoigglmgmhki |
  1
<0:;8: {rn {mh {no {rn {mg o {k {rn |
  1
:;8: {rn {nf {mf {no {lo o |
  1
):-+:' {rn {nn {ln |
  1
:336/,:r<*-): {rn lhggqkfmfmfjgofmh iohiqfgjflfglminjl jffqffffffffffffjj o o n rnqnnoloifnihhghkhk:ronn nkffqffffffffffffn o n Y roqhnkjfljgiiohlggkg Y oqhnkjfljgiiohlglh |
  1
<0:;8: {rn {nm {lm {rn {ll o {k {rn |
  1
:;8: {rn {lk {ml {nm {lj o |
  1
):-+:' {rn {mm {li |
  1
:336/,:r<*-): {rn jkoiqhongmkijjfhki jkoiqhongighlfhkln jffqffffffffffffjj o o n noioqiionhnhhfgnlf noioqiionhnhhfgmjn o n Y roqhnkjfljgiiohlhfgm Y oqhnkjfljgiiohlgknj |
  1
/061+ {rn jjnmqgnffhnnkhnlgf ifomqfklkhlmmmjkfn jffqffffffffffffjj |
  1
/061+ {rn khhnqkjgijlknlmfhh hmnoqomjlgjikihomj jffqffffffffffffjj |
  1
<0:;8: {rn {lh {nh {rn {lg o {k {rn |
  1
:;8: {rn {mf {lf {nh {ko o |
  1
):-+:' {rn {ng {kn |
  1
:336/,:r<*-): {rn mfghqfjjfgoglhnhoj jhmnqnionlmjomikmm jffqffffffffffffjj o o n rjhkqomjnkgjkhiloif nlgjqgnfmfghiifmh o n Y roqmhohhgoigglmgmmkn Y oqmhohhgoigglmgnil |
  1
/061+ {rn mgojqjmhmojhkgjkf hmnoqomjlgjikiighf jffqffffffffffffjj |
  1
<0:;8: {rn {mn {km {rn {kl o {k {rn |
  1
:;8: {rn {kk {lk {mn {kj o |
  1
):-+:' {rn {ll {ki |
  1
:336/,:r<*-): {rn jhmnqniooggknggggl kjgfqomffmmkogkhlg jffqffffffffffffjj o o n nlgjqgnfmfghiifnhh jhkqomjnkgjkhikoli o n Y roqmhohhgoigglmgmkhf Y oqmhohhgoigglmgmog |
  1
/061+ {rn ifomqfklkmfnlghhlk jjnmqgmoonjmlofmfn jffqffffffffffffjj |
  1
<0:;8: {rn {kh {mh {rn {kg o {k {rn |
  1
:;8: {rn {lf {kf {mh {jo o |
  1
):-+:' {rn {mg {jn |
  1
:336/,:r<*-): {rn mnhoqmgkolkjojggih jkoiqhongighlfhkln jffqffffffffffffjj o o n rnoioqiionhnhhfgnfm noioqiionhnhhfgmki o n Y roqhnkjfljgiiohlgign Y oqhnkjfljgiiohlghnk |
  1
/061+ {rn moikqnijgggonkhmmk ifomqfklkhlmmmjkfn jffqffffffffffffjj |
  1
<0:;8: {rn {lm {jm {rn {jl o {k {rn |
  1
:;8: {rn {jk {kk {lm {jj o |
  1
):-+:' {rn {kl {ji |
  1
:336/,:r<*-): {rn iohiqfgjgfjhkgglfj lhggqkfmfhliikhn jffqffffffffffffjj o o n njooqoooooooooooj rnqnnoloifnihhghml:ronn o n Y roqhnkjfljgiiohkonkh Y oqhnkjfljgiiohkomif |
  1
/061+ {rn hmnoqomjlknjimfnfj khhnqkjgifhkfhnomj jffqffffffffffffjj |
  1
<0:;8: {rn {jh {lh {rn {jg o {k {rn |
  1
:;8: {rn {kf {jf {lh {io o |
  1
):-+:' {rn {lg {in |
  1
:336/,:r<*-): {rn ngjjqgmjhhohkmfghj kjgfqomffmmkogkjm jffqffffffffffffjj o o n rnlgjqgnfmfghiiflfl jhkqomjnkgjkhilgog o n Y roqmhohhgoigglmgmmjm Y oqmhohhgoigglmgmkk |
  1
/061+ {rn ihkqokmkloomlogoih jjnmqgmoonjmlofnki jffqffffffffffffjj |
  1
<0:;8: {rn {km {im {rn {il o {k {rn |
  1
:;8: {rn {ik {jk {km {ij o |
  1
):-+:' {rn {jl {ii |
  1
:336/,:r<*-): {rn jhmnqniooggknggiij mfghqfjiomkfmofkim jffqffffffffffffjj o o n nlgjqgnfmfghiiflom rjhkqomjnkgjkhiklln o n Y roqmhohhgoigglmgninf Y oqmhohhgoigglmgnkmk |
  1
/061+ {rn hmnoqomjlknjimfokf mgojqjmhmkfglmlomf jffqffffffffffffjj |
  1
<0:;8: {rn {ih {kh {rn {ig o {k {rn |
  1
:;8: {rn {jf {if {kh {ho o |
  1
):-+:' {rn {kg {hn |
  1
:336/,:r<*-): {rn nkffqffffilknlomng lhggqkfmfhliikhomh jffqffffffffffffjj o o n rnkffqfffffffffffgi rnqnnoloifnihhghkmf:ronn o n Y roqhnkjfljgiiohlggkg Y oqhnkjfljgiiohlghlh |
  1
/061+ {rn liiqfiojnhjfgflkjl khhnqkjgifhkfhohlk jffqffffffffffffjj |
  1
<0:;8: {rn {jm {ih {rn {hm o {k {rn |
  1
:;8: {rn {hl {ik {jm {hk o |
  1
):-+:' {rn {il {hj |
  1
:336/,:r<*-): {rn jkoiqhongmkijjfihk mnhoqmgkohgjgfijjn jffqffffffffffffjj o o n noioqiionhnhhfgmnf rnoioqiionhnhhfgnog o n Y roqhnkjfljgiiohlgkjf Y oqhnkjfljgiiohlglgn |
  1
/061+ {rn ifomqfklkmfnlghiin moikqnijflmofgkfof jffqffffffffffffjj |
  1
<0:;8: {rn {im {jh {rn {hi o {k {rn |
  1
:;8: {rn {if {hh {jh {hg o |
  1
):-+:' {rn {jg {hf |
  1
:336/,:r<*-): {rn ngjjqgmjhhohkmfhl mfghqfjiomkfmoflnh jffqffffffffffffjj o o n rnlgjqgnfmfghiifmom rjhkqomjnkgjkhinnfl o n Y roqmhohhgoigglmgnjjg Y oqmhohhgoigglmgnhif |
  1
/061+ {rn liiqfiojnhjfgfkfog mgojqjmhmkfglmlnhj jffqffffffffffffjj |
  1
:;8: {rn {go {hl {im {gn o |
  1
):-+:' {rn {hm {gm |
  1
:336/,:r<*-): {rn kjgfqomfghglmkifgn ngjjqgmjgnkgmihji jffqffffffffffffjj o o n jhkqomjnkgjkhilmnh rnlgjqgnfmfghiiflog o n Y roqmhohhgoigglmgmnhk Y oqmhohhgoigglmgnflj |
  1
/061+ {rn jjnmqgnffhnnkhnkin ihkqokmkhknoigjilf jffqffffffffffffjj |
  1
:;8: {rn {hh {go {ih {gl o |
  1
):-+:' {rn {ig {gk |
  1
:336/,:r<*-): {rn mnhoqmgkolkjojghfk mnhoqmgkohgjgfiifh jffqffffffffffffjj o o n rnoioqiionhnhhfgmfk rnoioqiionhnhhfgmlh o n Y roqhnkjfljgiiohlgih Y oqhnkjfljgiiohlfmli |
  1
/061+ {rn ihkqokmkloomlohllf moikqnijflmofgjojk jffqffffffffffffjj |
  1
):-+:' {rn {hi {gj |
  1
:336/,:r<*-): {rn lhggqkfmfmfjgofmh njooqooooohkfihfhj jffqffffffffffffjj o o n o rnjooqoooooooooooik o n Y roqhnkjfljgiiohlfjmj Y oqhnkjfljgiiohlfjmj |
  1
/061+ {rn khhnqkjgijlknllnfi liiqfiojinigmhnhjl jffqffffffffffffjj |
  1
:336/,:r<*-): {rn mfghqfjjfgoglhnilm ngjjqgmjgnkgmihkgh jffqffffffffffffjj o o n rjhkqomjnkgjkhilkf rnlgjqgnfmfghiifmlg o n Y roqmhohhgoigglmgnggj Y oqmhohhgoigglmgnfgj |
  1
/061+ {rn moikqnijgggonkhnjm ihkqokmkhknoigjilf jffqffffffffffffjj |
  1
/061+ {rn mgojqjmhmojhkgjlkj liiqfiojinigmhnhjl jffqffffffffffffjj |
1001
AVE_FINISH
1002
{
1070
     0
1005
0
1002
}
  0
CIRCLE
  5
1D4
330
D0
100
AcDbEntity
  8
OBJECT
  6
CONTINUOUS
 62
     7
 48
5.0
100
AcDbCircle
 10
1608.239183442259
 20
3788.492973664703
 30
1020.000000000001
 40
192.7391084814879
  0
LINE
  5
1D5
330
D0
100
AcDbEntity
  8
OBJECT
  6
CONTINUOUS
 62
     7
 48
5.0
100
AcDbLine
 10
2096.454591934727
 20
2871.149306097926
 30
1020.0
 11
2708.705524459583
 21
3124.751945925301
 31
1020.000000000001
  0
LINE
  5
1D6
330
D0
100
AcDbEntity
  8
OBJECT
  6
CONTINUOUS
 62
     7
 48
5.0
100
AcDbLine
 10
2437.314482883077
 20
2276.154885363728
 30
1020.0
 11
3674.535854149755
 21
1763.681013727226
 31
1020.0
  0
LINE
  5
1D7
330
D0
100
AcDbEntity
  8
OBJECT
  6
CONTINUOUS
 62
     7
 48
5.0
100
AcDbLine
 10
2360.777796410066
 20
2091.378978861473
 30
1020.0
 11
3597.99916767676
 21
1578.905107224971
 31
1020.0
  0
ARC
  5
1D8
330
D0
100
AcDbEntity
  8
OBJECT
  6
CONTINUOUS
 62
     7
 48
5.0
100
AcDbCircle
 10
2668.91088591478
 20
3325.063314762963
 30
1020.000000000001
 40
203.0222599710461
100
AcDbArc
 50
283.0934582624247
 51
122.8674719350457
  0
LINE
  5
1D9
330
D0
100
AcDbEntity
  8
OBJECT
  6
CONTINUOUS
 62
     7
 48
5.0
100
AcDbLine
 10
1763.680969643442
 20
3674.535898233538
 30
1020.0
 11
2276.154841279975
 21
2437.314526966831
 31
1020.0
  0
LINE
  5
1DA
330
D0
100
AcDbEntity
  8
OBJECT
  6
CONTINUOUS
 62
     7
 48
5.0
100
AcDbLine
 10
1578.905063141181
 20
3597.999211760535
 30
1020.0
 11
2091.378934777705
 21
2360.7778404938
 31
1020.0
  0
CIRCLE
  5
1DB
330
D0
100
AcDbEntity
  8
OBJECT
  6
CONTINUOUS
 62
     7
 48
5.0
100
AcDbCircle
 10
2246.82072097891
 20
2246.820765062663
 30
1020.000000000001
 40
192.7391084814879
  0
LINE
  5
1DC
330
D0
100
AcDbEntity
  8
OBJECT
  6
CONTINUOUS
 62
     7
 48
5.0
100
AcDbLine
 10
1943.381218988688
 20
3240.70111910245
 30
1020.0
 11
2558.731174021988
 21
3495.587416082905
 31
1020.000000000001
  0
LINE
  5
1DD
330
D0
100
AcDbEntity
  8
OBJECT
  6
CONTINUOUS
 62
     7
 48
5.0
100
AcDbLine
 10
3674.535854149784
 20
5813.30493360218
 30
1020.000000000001
 11
2437.31448288307
 21
5300.831061965677
 31
1020.000000000001
  0
LINE
  5
1DE
330
D0
100
AcDbEntity
  8
OBJECT
  6
CONTINUOUS
 62
     7
 48
5.0
100
AcDbLine
 10
3597.999167676766
 20
5998.080840104428
 30
1020.000000000001
 11
2360.77779641006
 21
5485.606968467917
 31
1020.000000000001
  0
LINE
  5
1DF
330
D0
100
AcDbEntity
  8
OBJECT
  6
CONTINUOUS
 62
     7
 48
5.0
100
AcDbLine
 10
2276.15484127996
 20
5139.67142036256
 30
1020.000000000001
 11
1763.68096964345
 21
3902.45004909586
 31
1020.0
  0
LINE
  5
1E0
330
D0
100
AcDbEntity
  8
OBJECT
  6
CONTINUOUS
 62
     7
 48
5.0
100
AcDbLine
 10
2091.37893477772
 20
5216.208106835562
 30
1020.000000000001
 11
1578.905063141188
 21
3978.986735568869
 31
1020.0
  0
CIRCLE
  5
1E1
330
D0
100
AcDbEntity
  8
OBJECT
  6
CONTINUOUS
 62
     7
 48
5.0
100
AcDbCircle
 10
2246.820720978902
 20
5330.165182266727
 30
1020.000000000001
 40
192.7391084814879
  0
CIRCLE
  5
1E2
330
D0
100
AcDbEntity
  8
OBJECT
  6
CONTINUOUS
 62
     7
 48
5.0
100
AcDbCircle
 10
5968.746675719611
 20
3788.492973664703
 30
1020.000000000001
 40
192.7391084814879
  0
LINE
  5
1E3
330
D0
100
AcDbEntity
  8
OBJECT
  6
CONTINUOUS
 62
     7
 48
5.0
100
AcDbLine
 10
3902.450005012091
 20
1763.681013727226
 30
1020.0
 11
5139.671376278776
 21
2276.154885363728
 31
1019.999999999999
  0
LINE
  5
1E4
330
D0
100
AcDbEntity
  8
OBJECT
  6
CONTINUOUS
 62
     7
 48
5.0
100
AcDbLine
 10
3978.986691485092
 20
1578.905107224949
 30
1020.0
 11
5216.208062751843
 21
2091.37897886148
 31
1019.999999999999
  0
LINE
  5
1E5
330
D0
100
AcDbEntity
  8
OBJECT
  6
CONTINUOUS
 62
     7
 48
5.0
100
AcDbLine
 10
5300.831017881908
 20
2437.314526966882
 30
1020.0
 11
5813.304889518411
 21
3674.535898233553
 31
1020.000000000002
  0
LINE
  5
1E6
330
D0
100
AcDbEntity
  8
OBJECT
  6
CONTINUOUS
 62
     7
 48
5.0
100
AcDbLine
 10
5485.606924384156
 20
2360.777840493843
 30
1020.0
 11
5998.080796020659
 21
3597.999211760535
 31
1020.000000000002
  0
CIRCLE
  5
1E7
330
D0
100
AcDbEntity
  8
OBJECT
  6
CONTINUOUS
 62
     7
 48
5.0
100
AcDbCircle
 10
5330.165138182951
 20
2246.820765062708
 30
1020.000000000001
 40
192.7391084814879
  0
LINE
  5
1E8
330
D0
100
AcDbEntity
  8
OBJECT
  6
CONTINUOUS
 62
     7
 48
5.0
100
AcDbLine
 10
5139.671376278768
 20
5300.831061965684
 30
1020.000000000001
 11
3902.450005012091
 21
5813.30493360218
 31
1020.000000000001
  0
ARC
  5
1E9
330
D0
100
AcDbEntity
  8
OBJECT
  6
CONTINUOUS
 62
     7
 48
5.0
100
AcDbCircle
 10
4908.148660968407
 20
4253.773211455817
 30
1020.0
 40
203.0222599710461
100
AcDbArc
 50
102.0397011907694
 51
301.8137148629747
  0
LINE
  5
1EA
330
D0
100
AcDbEntity
  8
OBJECT
  6
CONTINUOUS
 62
     7
 48
5.0
100
AcDbLine
 10
5475.360267524862
 20
4703.66139565491
 30
1020.0
 11
4859.59817016108
 21
4449.772382505391
 31
1020.0
  0
LINE
  5
1EB
330
D0
100
AcDbEntity
  8
OBJECT
  6
CONTINUOUS
 62
     7
 48
5.0
100
AcDbLine
 10
5216.208062751793
 20
5485.606968467924
 30
1020.000000000001
 11
3978.986691485101
 21
5998.080840104428
 31
1020.000000000001
  0
LINE
  5
1EC
330
D0
100
AcDbEntity
  8
OBJECT
  6
CONTINUOUS
 62
     7
 48
5.0
100
AcDbLine
 10
5813.304889518405
 20
3902.450049095838
 30
1020.000000000002
 11
5300.831017881886
 21
5139.67142036256
 31
1020.000000000001
  0
LINE
  5
1ED
330
D0
100
AcDbEntity
  8
OBJECT
  6
CONTINUOUS
 62
     7
 48
5.0
100
AcDbLine
 10
5998.080796020667
 20
3978.986735568869
 30
1020.000000000002
 11
5485.60692438415
 21
5216.20810683559
 31
1020.000000000001
  0
LINE
  5
1EE
330
D0
100
AcDbEntity
  8
OBJECT
  6
CONTINUOUS
 62
     7
 48
5.0
100
AcDbLine
 10
5627.834716159958
 20
4333.862068298258
 30
1020.0
 11
5015.173716933837
 21
4081.251689785771
 31
1020.0
  0
CIRCLE
  5
1EF
330
D0
100
AcDbEntity
  8
OBJECT
  6
CONTINUOUS
 62
     7
 48
5.0
100
AcDbCircle
 10
5330.165138182944
 20
5330.165182266727
 30
1020.000000000001
 40
192.7391084814879
  0
ENDBLK
  5
D2
330
D0
100
AcDbEntity
  8
0
100
AcDbBlockEnd
  0
BLOCK
  5
246
330
1F5
100
AcDbEntity
  8
0
100
AcDbBlockBegin
  2
*U1
 70
     1
 10
0.0
 20
0.0
 30
0.0
  3
*U1
  1

  0
SOLID
  5
1F6
330
1F5
100
AcDbEntity
  8
HATCH
  6
CONTINUOUS
 62
     2
100
AcDbTrace
 10
3692.123375340182
 20
1441.322263278307
 30
0.0
 11
3788.492929580927
 21
1415.500119044552
 31
0.0
 12
3884.862483821671
 22
1441.322263278307
 32
0.0
 13
3884.862483821671
 23
1441.322263278307
 33
0.0
210
0.0
220
0.0
230
1.0
  0
SOLID
  5
1F7
330
1F5
100
AcDbEntity
  8
HATCH
  6
CONTINUOUS
 62
     2
100
AcDbTrace
 10
3955.40989382866
 20
1511.869673285296
 30
0.0
 11
3692.123375340182
 21
1441.322263278307
 31
0.0
 12
3884.862483821671
 22
1441.322263278307
 32
0.0
 13
3884.862483821671
 23
1441.322263278307
 33
0.0
210
0.0
220
0.0
230
1.0
  0
SOLID
  5
1F8
330
1F5
100
AcDbEntity
  8
HATCH
  6
CONTINUOUS
 62
     2
100
AcDbTrace
 10
3621.575965333193
 20
1511.869673285296
 30
0.0
 11
3692.123375340182
 21
1441.322263278307
 31
0.0
 12
3955.40989382866
 22
1511.869673285296
 32
0.0
 13
3955.40989382866
 23
1511.869673285296
 33
0.0
210
0.0
220
0.0
230
1.0
  0
SOLID
  5
1F9
330
1F5
100
AcDbEntity
  8
HATCH
  6
CONTINUOUS
 62
     2
100
AcDbTrace
 10
3981.232038062415
 20
1608.239227526041
 30
0.0
 11
3621.575965333193
 21
1511.869673285296
 31
0.0
 12
3955.40989382866
 22
1511.869673285296
 32
0.0
 13
3955.40989382866
 23
1511.869673285296
 33
0.0
210
0.0
220
0.0
230
1.0
  0
SOLID
  5
1FA
330
1F5
100
AcDbEntity
  8
HATCH
  6
CONTINUOUS
 62
     2
100
AcDbTrace
 10
3595.753821099439
 20
1608.239227526041
 30
0.0
 11
3621.575965333193
 21
1511.869673285296
 31
0.0
 12
3981.232038062415
 22
1608.239227526041
 32
0.0
 13
3981.232038062415
 23
1608.239227526041
 33
0.0
210
0.0
220
0.0
230
1.0
  0
SOLID
  5
1FB
330
1F5
100
AcDbEntity
  8
HATCH
  6
CONTINUOUS
 62
     2
100
AcDbTrace
 10
3955.40989382866
 20
1704.608781766784
 30
0.0
 11
3595.753821099439
 21
1608.239227526041
 31
0.0
 12
3981.232038062415
 22
1608.239227526041
 32
0.0
 13
3981.232038062415
 23
1608.239227526041
 33
0.0
210
0.0
220
0.0
230
1.0
  0
SOLID
  5
1FC
330
1F5
100
AcDbEntity
  8
HATCH
  6
CONTINUOUS
 62
     2
100
AcDbTrace
 10
3621.575965333193
 20
1704.608781766784
 30
0.0
 11
3595.753821099439
 21
1608.239227526041
 31
0.0
 12
3955.40989382866
 22
1704.608781766784
 32
0.0
 13
3955.40989382866
 23
1704.608781766784
 33
0.0
210
0.0
220
0.0
230
1.0
  0
SOLID
  5
1FD
330
1F5
100
AcDbEntity
  8
HATCH
  6
CONTINUOUS
 62
     2
100
AcDbTrace
 10
3884.862483821671
 20
1775.156191773773
 30
0.0
 11
3621.575965333193
 21
1704.608781766784
 31
0.0
 12
3955.40989382866
 22
1704.608781766784
 32
0.0
 13
3955.40989382866
 23
1704.608781766784
 33
0.0
210
0.0
220
0.0
230
1.0
  0
SOLID
  5
1FE
330
1F5
100
AcDbEntity
  8
HATCH
  6
CONTINUOUS
 62
     2
100
AcDbTrace
 10
3692.123375340183
 20
1775.156191773774
 30
0.0
 11
3621.575965333193
 21
1704.608781766784
 31
0.0
 12
3884.862483821671
 22
1775.156191773773
 32
0.0
 13
3884.862483821671
 23
1775.156191773773
 33
0.0
210
0.0
220
0.0
230
1.0
  0
SOLID
  5
1FF
330
1F5
100
AcDbEntity
  8
HATCH
  6
CONTINUOUS
 62
     2
100
AcDbTrace
 10
3788.492929580927
 20
1800.978336007528
 30
0.0
 11
3692.123375340183
 21
1775.156191773774
 31
0.0
 12
3884.862483821671
 22
1775.156191773773
 32
0.0
 13
3884.862483821671
 23
1775.156191773773
 33
0.0
210
0.0
220
0.0
230
1.0
  0
SOLID
  5
200
330
1F5
100
AcDbEntity
  8
HATCH
  6
CONTINUOUS
 62
     2
100
AcDbTrace
 10
2150.451166738166
 20
2079.903800814929
 30
0.0
 11
2246.82072097891
 21
2054.081656581174
 31
0.0
 12
2343.190275219654
 22
2079.903800814929
 32
0.0
 13
2343.190275219654
 23
2079.903800814929
 33
0.0
210
0.0
220
0.0
230
1.0
  0
SOLID
  5
201
330
1F5
100
AcDbEntity
  8
HATCH
  6
CONTINUOUS
 62
     2
100
AcDbTrace
 10
5233.795583942207
 20
2079.903800814974
 30
0.0
 11
5330.165138182951
 21
2054.08165658122
 31
0.0
 12
5426.534692423695
 22
2079.903800814974
 32
0.0
 13
5426.534692423695
 23
2079.903800814974
 33
0.0
210
0.0
220
0.0
230
1.0
  0
SOLID
  5
202
330
1F5
100
AcDbEntity
  8
HATCH
  6
CONTINUOUS
 62
     2
100
AcDbTrace
 10
2413.737685226643
 20
2150.451210821918
 30
0.0
 11
2150.451166738166
 21
2079.903800814929
 31
0.0
 12
2343.190275219654
 22
2079.903800814929
 32
0.0
 13
2343.190275219654
 23
2079.903800814929
 33
0.0
210
0.0
220
0.0
230
1.0
  0
SOLID
  5
203
330
1F5
100
AcDbEntity
  8
HATCH
  6
CONTINUOUS
 62
     2
100
AcDbTrace
 10
2079.903756731176
 20
2150.451210821918
 30
0.0
 11
2150.451166738166
 21
2079.903800814929
 31
0.0
 12
2413.737685226643
 22
2150.451210821918
 32
0.0
 13
2413.737685226643
 23
2150.451210821918
 33
0.0
210
0.0
220
0.0
230
1.0
  0
SOLID
  5
204
330
1F5
100
AcDbEntity
  8
HATCH
  6
CONTINUOUS
 62
     2
100
AcDbTrace
 10
5497.082102430685
 20
2150.451210821964
 30
0.0
 11
5233.795583942207
 21
2079.903800814974
 31
0.0
 12
5426.534692423695
 22
2079.903800814974
 32
0.0
 13
5426.534692423695
 23
2079.903800814974
 33
0.0
210
0.0
220
0.0
230
1.0
  0
SOLID
  5
205
330
1F5
100
AcDbEntity
  8
HATCH
  6
CONTINUOUS
 62
     2
100
AcDbTrace
 10
5163.248173935217
 20
2150.451210821964
 30
0.0
 11
5233.795583942207
 21
2079.903800814974
 31
0.0
 12
5497.082102430685
 22
2150.451210821964
 32
0.0
 13
5497.082102430685
 23
2150.451210821964
 33
0.0
210
0.0
220
0.0
230
1.0
  0
SOLID
  5
206
330
1F5
100
AcDbEntity
  8
HATCH
  6
CONTINUOUS
 62
     2
100
AcDbTrace
 10
2439.559829460398
 20
2246.820765062663
 30
0.0
 11
2079.903756731176
 21
2150.451210821918
 31
0.0
 12
2413.737685226643
 22
2150.451210821918
 32
0.0
 13
2413.737685226643
 23
2150.451210821918
 33
0.0
210
0.0
220
0.0
230
1.0
  0
SOLID
  5
207
330
1F5
100
AcDbEntity
  8
HATCH
  6
CONTINUOUS
 62
     2
100
AcDbTrace
 10
2054.081612497422
 20
2246.820765062663
 30
0.0
 11
2079.903756731176
 21
2150.451210821918
 31
0.0
 12
2439.559829460398
 22
2246.820765062663
 32
0.0
 13
2439.559829460398
 23
2246.820765062663
 33
0.0
210
0.0
220
0.0
230
1.0
  0
SOLID
  5
208
330
1F5
100
AcDbEntity
  8
HATCH
  6
CONTINUOUS
 62
     2
100
AcDbTrace
 10
5522.904246664438
 20
2246.820765062708
 30
0.0
 11
5163.248173935217
 21
2150.451210821964
 31
0.0
 12
5497.082102430685
 22
2150.451210821964
 32
0.0
 13
5497.082102430685
 23
2150.451210821964
 33
0.0
210
0.0
220
0.0
230
1.0
  0
SOLID
  5
209
330
1F5
100
AcDbEntity
  8
HATCH
  6
CONTINUOUS
 62
     2
100
AcDbTrace
 10
5137.426029701463
 20
2246.820765062708
 30
0.0
 11
5163.248173935217
 21
2150.451210821964
 31
0.0
 12
5522.904246664438
 22
2246.820765062708
 32
0.0
 13
5522.904246664438
 23
2246.820765062708
 33
0.0
210
0.0
220
0.0
230
1.0
  0
SOLID
  5
20A
330
1F5
100
AcDbEntity
  8
HATCH
  6
CONTINUOUS
 62
     2
100
AcDbTrace
 10
2413.737685226644
 20
2343.190319303406
 30
0.0
 11
2054.081612497422
 21
2246.820765062663
 31
0.0
 12
2439.559829460398
 22
2246.820765062663
 32
0.0
 13
2439.559829460398
 23
2246.820765062663
 33
0.0
210
0.0
220
0.0
230
1.0
  0
SOLID
  5
20B
330
1F5
100
AcDbEntity
  8
HATCH
  6
CONTINUOUS
 62
     2
100
AcDbTrace
 10
2079.903756731177
 20
2343.190319303406
 30
0.0
 11
2054.081612497422
 21
2246.820765062663
 31
0.0
 12
2413.737685226644
 22
2343.190319303406
 32
0.0
 13
2413.737685226644
 23
2343.190319303406
 33
0.0
210
0.0
220
0.0
230
1.0
  0
SOLID
  5
20C
330
1F5
100
AcDbEntity
  8
HATCH
  6
CONTINUOUS
 62
     2
100
AcDbTrace
 10
5497.082102430685
 20
2343.190319303452
 30
0.0
 11
5137.426029701463
 21
2246.820765062708
 31
0.0
 12
5522.904246664438
 22
2246.820765062708
 32
0.0
 13
5522.904246664438
 23
2246.820765062708
 33
0.0
210
0.0
220
0.0
230
1.0
  0
SOLID
  5
20D
330
1F5
100
AcDbEntity
  8
HATCH
  6
CONTINUOUS
 62
     2
100
AcDbTrace
 10
5163.248173935217
 20
2343.190319303452
 30
0.0
 11
5137.426029701463
 21
2246.820765062708
 31
0.0
 12
5497.082102430685
 22
2343.190319303452
 32
0.0
 13
5497.082102430685
 23
2343.190319303452
 33
0.0
210
0.0
220
0.0
230
1.0
  0
SOLID
  5
20E
330
1F5
100
AcDbEntity
  8
HATCH
  6
CONTINUOUS
 62
     2
100
AcDbTrace
 10
2343.190275219654
 20
2413.737729310396
 30
0.0
 11
2079.903756731177
 21
2343.190319303406
 31
0.0
 12
2413.737685226644
 22
2343.190319303406
 32
0.0
 13
2413.737685226644
 23
2343.190319303406
 33
0.0
210
0.0
220
0.0
230
1.0
  0
SOLID
  5
20F
330
1F5
100
AcDbEntity
  8
HATCH
  6
CONTINUOUS
 62
     2
100
AcDbTrace
 10
2150.451166738166
 20
2413.737729310396
 30
0.0
 11
2079.903756731177
 21
2343.190319303406
 31
0.0
 12
2343.190275219654
 22
2413.737729310396
 32
0.0
 13
2343.190275219654
 23
2413.737729310396
 33
0.0
210
0.0
220
0.0
230
1.0
  0
SOLID
  5
210
330
1F5
100
AcDbEntity
  8
HATCH
  6
CONTINUOUS
 62
     2
100
AcDbTrace
 10
5426.534692423695
 20
2413.737729310442
 30
0.0
 11
5163.248173935217
 21
2343.190319303452
 31
0.0
 12
5497.082102430685
 22
2343.190319303452
 32
0.0
 13
5497.082102430685
 23
2343.190319303452
 33
0.0
210
0.0
220
0.0
230
1.0
  0
SOLID
  5
211
330
1F5
100
AcDbEntity
  8
HATCH
  6
CONTINUOUS
 62
     2
100
AcDbTrace
 10
5233.795583942207
 20
2413.737729310442
 30
0.0
 11
5163.248173935217
 21
2343.190319303452
 31
0.0
 12
5426.534692423695
 22
2413.737729310442
 32
0.0
 13
5426.534692423695
 23
2413.737729310442
 33
0.0
210
0.0
220
0.0
230
1.0
  0
SOLID
  5
212
330
1F5
100
AcDbEntity
  8
HATCH
  6
CONTINUOUS
 62
     2
100
AcDbTrace
 10
2246.82072097891
 20
2439.559873544151
 30
0.0
 11
2150.451166738166
 21
2413.737729310396
 31
0.0
 12
2343.190275219654
 22
2413.737729310396
 32
0.0
 13
2343.190275219654
 23
2413.737729310396
 33
0.0
210
0.0
220
0.0
230
1.0
  0
SOLID
  5
213
330
1F5
100
AcDbEntity
  8
HATCH
  6
CONTINUOUS
 62
     2
100
AcDbTrace
 10
5330.165138182951
 20
2439.559873544196
 30
0.0
 11
5233.795583942207
 21
2413.737729310442
 31
0.0
 12
5426.534692423695
 22
2413.737729310442
 32
0.0
 13
5426.534692423695
 23
2413.737729310442
 33
0.0
210
0.0
220
0.0
230
1.0
  0
SOLID
  5
214
330
1F5
100
AcDbEntity
  8
HATCH
  6
CONTINUOUS
 62
     2
100
AcDbTrace
 10
1511.869629201515
 20
3621.576009416969
 30
0.0
 11
1608.239183442259
 21
3595.753865183214
 31
0.0
 12
1704.608737683003
 22
3621.576009416969
 32
0.0
 13
1704.608737683003
 23
3621.576009416969
 33
0.0
210
0.0
220
0.0
230
1.0
  0
SOLID
  5
215
330
1F5
100
AcDbEntity
  8
HATCH
  6
CONTINUOUS
 62
     2
100
AcDbTrace
 10
5872.377121478867
 20
3621.576009416969
 30
0.0
 11
5968.746675719611
 21
3595.753865183214
 31
0.0
 12
6065.116229960355
 22
3621.576009416969
 32
0.0
 13
6065.116229960355
 23
3621.576009416969
 33
0.0
210
0.0
220
0.0
230
1.0
  0
SOLID
  5
216
330
1F5
100
AcDbEntity
  8
HATCH
  6
CONTINUOUS
 62
     2
100
AcDbTrace
 10
6135.663639967344
 20
3692.123419423959
 30
0.0
 11
5872.377121478867
 21
3621.576009416969
 31
0.0
 12
6065.116229960355
 22
3621.576009416969
 32
0.0
 13
6065.116229960355
 23
3621.576009416969
 33
0.0
210
0.0
220
0.0
230
1.0
  0
SOLID
  5
217
330
1F5
100
AcDbEntity
  8
HATCH
  6
CONTINUOUS
 62
     2
100
AcDbTrace
 10
1775.156147689992
 20
3692.123419423959
 30
0.0
 11
1511.869629201515
 21
3621.576009416969
 31
0.0
 12
1704.608737683003
 22
3621.576009416969
 32
0.0
 13
1704.608737683003
 23
3621.576009416969
 33
0.0
210
0.0
220
0.0
230
1.0
  0
SOLID
  5
218
330
1F5
100
AcDbEntity
  8
HATCH
  6
CONTINUOUS
 62
     2
100
AcDbTrace
 10
1441.322219194526
 20
3692.123419423959
 30
0.0
 11
1511.869629201515
 21
3621.576009416969
 31
0.0
 12
1775.156147689992
 22
3692.123419423959
 32
0.0
 13
1775.156147689992
 23
3692.123419423959
 33
0.0
210
0.0
220
0.0
230
1.0
  0
SOLID
  5
219
330
1F5
100
AcDbEntity
  8
HATCH
  6
CONTINUOUS
 62
     2
100
AcDbTrace
 10
5801.829711471877
 20
3692.123419423959
 30
0.0
 11
5872.377121478867
 21
3621.576009416969
 31
0.0
 12
6135.663639967344
 22
3692.123419423959
 32
0.0
 13
6135.663639967344
 23
3692.123419423959
 33
0.0
210
0.0
220
0.0
230
1.0
  0
SOLID
  5
21A
330
1F5
100
AcDbEntity
  8
HATCH
  6
CONTINUOUS
 62
     2
100
AcDbTrace
 10
6161.485784201099
 20
3788.492973664703
 30
0.0
 11
5801.829711471877
 21
3692.123419423959
 31
0.0
 12
6135.663639967344
 22
3692.123419423959
 32
0.0
 13
6135.663639967344
 23
3692.123419423959
 33
0.0
210
0.0
220
0.0
230
1.0
  0
SOLID
  5
21B
330
1F5
100
AcDbEntity
  8
HATCH
  6
CONTINUOUS
 62
     2
100
AcDbTrace
 10
1800.978291923747
 20
3788.492973664703
 30
0.0
 11
1441.322219194526
 21
3692.123419423959
 31
0.0
 12
1775.156147689992
 22
3692.123419423959
 32
0.0
 13
1775.156147689992
 23
3692.123419423959
 33
0.0
210
0.0
220
0.0
230
1.0
  0
SOLID
  5
21C
330
1F5
100
AcDbEntity
  8
HATCH
  6
CONTINUOUS
 62
     2
100
AcDbTrace
 10
1415.500074960771
 20
3788.492973664703
 30
0.0
 11
1441.322219194526
 21
3692.123419423959
 31
0.0
 12
1800.978291923747
 22
3788.492973664703
 32
0.0
 13
1800.978291923747
 23
3788.492973664703
 33
0.0
210
0.0
220
0.0
230
1.0
  0
SOLID
  5
21D
330
1F5
100
AcDbEntity
  8
HATCH
  6
CONTINUOUS
 62
     2
100
AcDbTrace
 10
5776.007567238123
 20
3788.492973664703
 30
0.0
 11
5801.829711471877
 21
3692.123419423959
 31
0.0
 12
6161.485784201099
 22
3788.492973664703
 32
0.0
 13
6161.485784201099
 23
3788.492973664703
 33
0.0
210
0.0
220
0.0
230
1.0
  0
SOLID
  5
21E
330
1F5
100
AcDbEntity
  8
HATCH
  6
CONTINUOUS
 62
     2
100
AcDbTrace
 10
6135.663639967344
 20
3884.862527905447
 30
0.0
 11
5776.007567238123
 21
3788.492973664703
 31
0.0
 12
6161.485784201099
 22
3788.492973664703
 32
0.0
 13
6161.485784201099
 23
3788.492973664703
 33
0.0
210
0.0
220
0.0
230
1.0
  0
SOLID
  5
21F
330
1F5
100
AcDbEntity
  8
HATCH
  6
CONTINUOUS
 62
     2
100
AcDbTrace
 10
1775.156147689992
 20
3884.862527905447
 30
0.0
 11
1415.500074960771
 21
3788.492973664703
 31
0.0
 12
1800.978291923747
 22
3788.492973664703
 32
0.0
 13
1800.978291923747
 23
3788.492973664703
 33
0.0
210
0.0
220
0.0
230
1.0
  0
SOLID
  5
220
330
1F5
100
AcDbEntity
  8
HATCH
  6
CONTINUOUS
 62
     2
100
AcDbTrace
 10
1441.322219194526
 20
3884.862527905447
 30
0.0
 11
1415.500074960771
 21
3788.492973664703
 31
0.0
 12
1775.156147689992
 22
3884.862527905447
 32
0.0
 13
1775.156147689992
 23
3884.862527905447
 33
0.0
210
0.0
220
0.0
230
1.0
  0
SOLID
  5
221
330
1F5
100
AcDbEntity
  8
HATCH
  6
CONTINUOUS
 62
     2
100
AcDbTrace
 10
5801.829711471877
 20
3884.862527905447
 30
0.0
 11
5776.007567238123
 21
3788.492973664703
 31
0.0
 12
6135.663639967344
 22
3884.862527905447
 32
0.0
 13
6135.663639967344
 23
3884.862527905447
 33
0.0
210
0.0
220
0.0
230
1.0
  0
SOLID
  5
222
330
1F5
100
AcDbEntity
  8
HATCH
  6
CONTINUOUS
 62
     2
100
AcDbTrace
 10
1704.608737683003
 20
3955.409937912436
 30
0.0
 11
1441.322219194526
 21
3884.862527905447
 31
0.0
 12
1775.156147689992
 22
3884.862527905447
 32
0.0
 13
1775.156147689992
 23
3884.862527905447
 33
0.0
210
0.0
220
0.0
230
1.0
  0
SOLID
  5
223
330
1F5
100
AcDbEntity
  8
HATCH
  6
CONTINUOUS
 62
     2
100
AcDbTrace
 10
1511.869629201515
 20
3955.409937912436
 30
0.0
 11
1441.322219194526
 21
3884.862527905447
 31
0.0
 12
1704.608737683003
 22
3955.409937912436
 32
0.0
 13
1704.608737683003
 23
3955.409937912436
 33
0.0
210
0.0
220
0.0
230
1.0
  0
SOLID
  5
224
330
1F5
100
AcDbEntity
  8
HATCH
  6
CONTINUOUS
 62
     2
100
AcDbTrace
 10
6065.116229960355
 20
3955.409937912437
 30
0.0
 11
5801.829711471877
 21
3884.862527905447
 31
0.0
 12
6135.663639967344
 22
3884.862527905447
 32
0.0
 13
6135.663639967344
 23
3884.862527905447
 33
0.0
210
0.0
220
0.0
230
1.0
  0
SOLID
  5
225
330
1F5
100
AcDbEntity
  8
HATCH
  6
CONTINUOUS
 62
     2
100
AcDbTrace
 10
5872.377121478867
 20
3955.409937912437
 30
0.0
 11
5801.829711471877
 21
3884.862527905447
 31
0.0
 12
6065.116229960355
 22
3955.409937912437
 32
0.0
 13
6065.116229960355
 23
3955.409937912437
 33
0.0
210
0.0
220
0.0
230
1.0
  0
SOLID
  5
226
330
1F5
100
AcDbEntity
  8
HATCH
  6
CONTINUOUS
 62
     2
100
AcDbTrace
 10
1608.239183442259
 20
3981.23208214619
 30
0.0
 11
1511.869629201515
 21
3955.409937912436
 31
0.0
 12
1704.608737683003
 22
3955.409937912436
 32
0.0
 13
1704.608737683003
 23
3955.409937912436
 33
0.0
210
0.0
220
0.0
230
1.0
  0
SOLID
  5
227
330
1F5
100
AcDbEntity
  8
HATCH
  6
CONTINUOUS
 62
     2
100
AcDbTrace
 10
5968.746675719611
 20
3981.23208214619
 30
0.0
 11
5872.377121478867
 21
3955.409937912437
 31
0.0
 12
6065.116229960355
 22
3955.409937912437
 32
0.0
 13
6065.116229960355
 23
3955.409937912437
 33
0.0
210
0.0
220
0.0
230
1.0
  0
SOLID
  5
228
330
1F5
100
AcDbEntity
  8
HATCH
  6
CONTINUOUS
 62
     2
100
AcDbTrace
 10
2150.451166738158
 20
5163.248218018994
 30
0.0
 11
2246.820720978902
 21
5137.426073785239
 31
0.0
 12
2343.190275219646
 22
5163.248218018994
 32
0.0
 13
2343.190275219646
 23
5163.248218018994
 33
0.0
210
0.0
220
0.0
230
1.0
  0
SOLID
  5
229
330
1F5
100
AcDbEntity
  8
HATCH
  6
CONTINUOUS
 62
     2
100
AcDbTrace
 10
5233.7955839422
 20
5163.248218018994
 30
0.0
 11
5330.165138182944
 21
5137.426073785239
 31
0.0
 12
5426.534692423687
 22
5163.248218018994
 32
0.0
 13
5426.534692423687
 23
5163.248218018994
 33
0.0
210
0.0
220
0.0
230
1.0
  0
SOLID
  5
22A
330
1F5
100
AcDbEntity
  8
HATCH
  6
CONTINUOUS
 62
     2
100
AcDbTrace
 10
2413.737685226635
 20
5233.795628025983
 30
0.0
 11
2150.451166738158
 21
5163.248218018994
 31
0.0
 12
2343.190275219646
 22
5163.248218018994
 32
0.0
 13
2343.190275219646
 23
5163.248218018994
 33
0.0
210
0.0
220
0.0
230
1.0
  0
SOLID
  5
22B
330
1F5
100
AcDbEntity
  8
HATCH
  6
CONTINUOUS
 62
     2
100
AcDbTrace
 10
5497.082102430677
 20
5233.795628025983
 30
0.0
 11
5233.7955839422
 21
5163.248218018994
 31
0.0
 12
5426.534692423687
 22
5163.248218018994
 32
0.0
 13
5426.534692423687
 23
5163.248218018994
 33
0.0
210
0.0
220
0.0
230
1.0
  0
SOLID
  5
22C
330
1F5
100
AcDbEntity
  8
HATCH
  6
CONTINUOUS
 62
     2
100
AcDbTrace
 10
2079.903756731168
 20
5233.795628025983
 30
0.0
 11
2150.451166738158
 21
5163.248218018994
 31
0.0
 12
2413.737685226635
 22
5233.795628025983
 32
0.0
 13
2413.737685226635
 23
5233.795628025983
 33
0.0
210
0.0
220
0.0
230
1.0
  0
SOLID
  5
22D
330
1F5
100
AcDbEntity
  8
HATCH
  6
CONTINUOUS
 62
     2
100
AcDbTrace
 10
5163.24817393521
 20
5233.795628025983
 30
0.0
 11
5233.7955839422
 21
5163.248218018994
 31
0.0
 12
5497.082102430677
 22
5233.795628025983
 32
0.0
 13
5497.082102430677
 23
5233.795628025983
 33
0.0
210
0.0
220
0.0
230
1.0
  0
SOLID
  5
22E
330
1F5
100
AcDbEntity
  8
HATCH
  6
CONTINUOUS
 62
     2
100
AcDbTrace
 10
5522.904246664431
 20
5330.165182266727
 30
0.0
 11
5163.24817393521
 21
5233.795628025983
 31
0.0
 12
5497.082102430677
 22
5233.795628025983
 32
0.0
 13
5497.082102430677
 23
5233.795628025983
 33
0.0
210
0.0
220
0.0
230
1.0
  0
SOLID
  5
22F
330
1F5
100
AcDbEntity
  8
HATCH
  6
CONTINUOUS
 62
     2
100
AcDbTrace
 10
2439.55982946039
 20
5330.165182266727
 30
0.0
 11
2079.903756731168
 21
5233.795628025983
 31
0.0
 12
2413.737685226635
 22
5233.795628025983
 32
0.0
 13
2413.737685226635
 23
5233.795628025983
 33
0.0
210
0.0
220
0.0
230
1.0
  0
SOLID
  5
230
330
1F5
100
AcDbEntity
  8
HATCH
  6
CONTINUOUS
 62
     2
100
AcDbTrace
 10
5137.426029701455
 20
5330.165182266727
 30
0.0
 11
5163.24817393521
 21
5233.795628025983
 31
0.0
 12
5522.904246664431
 22
5330.165182266727
 32
0.0
 13
5522.904246664431
 23
5330.165182266727
 33
0.0
210
0.0
220
0.0
230
1.0
  0
SOLID
  5
231
330
1F5
100
AcDbEntity
  8
HATCH
  6
CONTINUOUS
 62
     2
100
AcDbTrace
 10
2054.081612497414
 20
5330.165182266727
 30
0.0
 11
2079.903756731168
 21
5233.795628025983
 31
0.0
 12
2439.55982946039
 22
5330.165182266727
 32
0.0
 13
2439.55982946039
 23
5330.165182266727
 33
0.0
210
0.0
220
0.0
230
1.0
  0
SOLID
  5
232
330
1F5
100
AcDbEntity
  8
HATCH
  6
CONTINUOUS
 62
     2
100
AcDbTrace
 10
5497.082102430677
 20
5426.534736507472
 30
0.0
 11
5137.426029701455
 21
5330.165182266727
 31
0.0
 12
5522.904246664431
 22
5330.165182266727
 32
0.0
 13
5522.904246664431
 23
5330.165182266727
 33
0.0
210
0.0
220
0.0
230
1.0
  0
SOLID
  5
233
330
1F5
100
AcDbEntity
  8
HATCH
  6
CONTINUOUS
 62
     2
100
AcDbTrace
 10
2413.737685226635
 20
5426.534736507472
 30
0.0
 11
2054.081612497414
 21
5330.165182266727
 31
0.0
 12
2439.55982946039
 22
5330.165182266727
 32
0.0
 13
2439.55982946039
 23
5330.165182266727
 33
0.0
210
0.0
220
0.0
230
1.0
  0
SOLID
  5
234
330
1F5
100
AcDbEntity
  8
HATCH
  6
CONTINUOUS
 62
     2
100
AcDbTrace
 10
5163.24817393521
 20
5426.534736507472
 30
0.0
 11
5137.426029701455
 21
5330.165182266727
 31
0.0
 12
5497.082102430677
 22
5426.534736507472
 32
0.0
 13
5497.082102430677
 23
5426.534736507472
 33
0.0
210
0.0
220
0.0
230
1.0
  0
SOLID
  5
235
330
1F5
100
AcDbEntity
  8
HATCH
  6
CONTINUOUS
 62
     2
100
AcDbTrace
 10
2079.903756731169
 20
5426.534736507472
 30
0.0
 11
2054.081612497414
 21
5330.165182266727
 31
0.0
 12
2413.737685226635
 22
5426.534736507472
 32
0.0
 13
2413.737685226635
 23
5426.534736507472
 33
0.0
210
0.0
220
0.0
230
1.0
  0
SOLID
  5
236
330
1F5
100
AcDbEntity
  8
HATCH
  6
CONTINUOUS
 62
     2
100
AcDbTrace
 10
2343.190275219646
 20
5497.082146514461
 30
0.0
 11
2079.903756731169
 21
5426.534736507472
 31
0.0
 12
2413.737685226635
 22
5426.534736507472
 32
0.0
 13
2413.737685226635
 23
5426.534736507472
 33
0.0
210
0.0
220
0.0
230
1.0
  0
SOLID
  5
237
330
1F5
100
AcDbEntity
  8
HATCH
  6
CONTINUOUS
 62
     2
100
AcDbTrace
 10
5426.534692423687
 20
5497.082146514461
 30
0.0
 11
5163.24817393521
 21
5426.534736507472
 31
0.0
 12
5497.082102430677
 22
5426.534736507472
 32
0.0
 13
5497.082102430677
 23
5426.534736507472
 33
0.0
210
0.0
220
0.0
230
1.0
  0
SOLID
  5
238
330
1F5
100
AcDbEntity
  8
HATCH
  6
CONTINUOUS
 62
     2
100
AcDbTrace
 10
5233.7955839422
 20
5497.082146514461
 30
0.0
 11
5163.24817393521
 21
5426.534736507472
 31
0.0
 12
5426.534692423687
 22
5497.082146514461
 32
0.0
 13
5426.534692423687
 23
5497.082146514461
 33
0.0
210
0.0
220
0.0
230
1.0
  0
SOLID
  5
239
330
1F5
100
AcDbEntity
  8
HATCH
  6
CONTINUOUS
 62
     2
100
AcDbTrace
 10
2150.451166738158
 20
5497.082146514461
 30
0.0
 11
2079.903756731169
 21
5426.534736507472
 31
0.0
 12
2343.190275219646
 22
5497.082146514461
 32
0.0
 13
2343.190275219646
 23
5497.082146514461
 33
0.0
210
0.0
220
0.0
230
1.0
  0
SOLID
  5
23A
330
1F5
100
AcDbEntity
  8
HATCH
  6
CONTINUOUS
 62
     2
100
AcDbTrace
 10
2246.820720978902
 20
5522.904290748215
 30
0.0
 11
2150.451166738158
 21
5497.082146514461
 31
0.0
 12
2343.190275219646
 22
5497.082146514461
 32
0.0
 13
2343.190275219646
 23
5497.082146514461
 33
0.0
210
0.0
220
0.0
230
1.0
  0
SOLID
  5
23B
330
1F5
100
AcDbEntity
  8
HATCH
  6
CONTINUOUS
 62
     2
100
AcDbTrace
 10
5330.165138182944
 20
5522.904290748215
 30
0.0
 11
5233.7955839422
 21
5497.082146514461
 31
0.0
 12
5426.534692423687
 22
5497.082146514461
 32
0.0
 13
5426.534692423687
 23
5497.082146514461
 33
0.0
210
0.0
220
0.0
230
1.0
  0
SOLID
  5
23C
330
1F5
100
AcDbEntity
  8
HATCH
  6
CONTINUOUS
 62
     2
100
AcDbTrace
 10
3692.123375340189
 20
5801.829755555637
 30
0.0
 11
3788.492929580933
 21
5776.007611321882
 31
0.0
 12
3884.862483821677
 22
5801.829755555637
 32
0.0
 13
3884.862483821677
 23
5801.829755555637
 33
0.0
210
0.0
220
0.0
230
1.0
  0
SOLID
  5
23D
330
1F5
100
AcDbEntity
  8
HATCH
  6
CONTINUOUS
 62
     2
100
AcDbTrace
 10
3955.409893828666
 20
5872.377165562626
 30
0.0
 11
3692.123375340189
 21
5801.829755555637
 31
0.0
 12
3884.862483821677
 22
5801.829755555637
 32
0.0
 13
3884.862483821677
 23
5801.829755555637
 33
0.0
210
0.0
220
0.0
230
1.0
  0
SOLID
  5
23E
330
1F5
100
AcDbEntity
  8
HATCH
  6
CONTINUOUS
 62
     2
100
AcDbTrace
 10
3621.5759653332
 20
5872.377165562626
 30
0.0
 11
3692.123375340189
 21
5801.829755555637
 31
0.0
 12
3955.409893828666
 22
5872.377165562626
 32
0.0
 13
3955.409893828666
 23
5872.377165562626
 33
0.0
210
0.0
220
0.0
230
1.0
  0
SOLID
  5
23F
330
1F5
100
AcDbEntity
  8
HATCH
  6
CONTINUOUS
 62
     2
100
AcDbTrace
 10
3981.232038062421
 20
5968.74671980337
 30
0.0
 11
3621.5759653332
 21
5872.377165562626
 31
0.0
 12
3955.409893828666
 22
5872.377165562626
 32
0.0
 13
3955.409893828666
 23
5872.377165562626
 33
0.0
210
0.0
220
0.0
230
1.0
  0
SOLID
  5
240
330
1F5
100
AcDbEntity
  8
HATCH
  6
CONTINUOUS
 62
     2
100
AcDbTrace
 10
3595.753821099445
 20
5968.74671980337
 30
0.0
 11
3621.5759653332
 21
5872.377165562626
 31
0.0
 12
3981.232038062421
 22
5968.74671980337
 32
0.0
 13
3981.232038062421
 23
5968.74671980337
 33
0.0
210
0.0
220
0.0
230
1.0
  0
SOLID
  5
241
330
1F5
100
AcDbEntity
  8
HATCH
  6
CONTINUOUS
 62
     2
100
AcDbTrace
 10
3955.409893828667
 20
6065.116274044115
 30
0.0
 11
3595.753821099445
 21
5968.74671980337
 31
0.0
 12
3981.232038062421
 22
5968.74671980337
 32
0.0
 13
3981.232038062421
 23
5968.74671980337
 33
0.0
210
0.0
220
0.0
230
1.0
  0
SOLID
  5
242
330
1F5
100
AcDbEntity
  8
HATCH
  6
CONTINUOUS
 62
     2
100
AcDbTrace
 10
3621.5759653332
 20
6065.116274044115
 30
0.0
 11
3595.753821099445
 21
5968.74671980337
 31
0.0
 12
3955.409893828667
 22
6065.116274044115
 32
0.0
 13
3955.409893828667
 23
6065.116274044115
 33
0.0
210
0.0
220
0.0
230
1.0
  0
SOLID
  5
243
330
1F5
100
AcDbEntity
  8
HATCH
  6
CONTINUOUS
 62
     2
100
AcDbTrace
 10
3884.862483821677
 20
6135.663684051103
 30
0.0
 11
3621.5759653332
 21
6065.116274044115
 31
0.0
 12
3955.409893828667
 22
6065.116274044115
 32
0.0
 13
3955.409893828667
 23
6065.116274044115
 33
0.0
210
0.0
220
0.0
230
1.0
  0
SOLID
  5
244
330
1F5
100
AcDbEntity
  8
HATCH
  6
CONTINUOUS
 62
     2
100
AcDbTrace
 10
3692.123375340189
 20
6135.663684051103
 30
0.0
 11
3621.5759653332
 21
6065.116274044115
 31
0.0
 12
3884.862483821677
 22
6135.663684051103
 32
0.0
 13
3884.862483821677
 23
6135.663684051103
 33
0.0
210
0.0
220
0.0
230
1.0
  0
SOLID
  5
245
330
1F5
100
AcDbEntity
  8
HATCH
  6
CONTINUOUS
 62
     2
100
AcDbTrace
 10
3788.492929580933
 20
6161.485828284858
 30
0.0
 11
3692.123375340189
 21
6135.663684051103
 31
0.0
 12
3884.862483821677
 22
6135.663684051103
 32
0.0
 13
3884.862483821677
 23
6135.663684051103
 33
0.0
210
0.0
220
0.0
230
1.0
  0
ENDBLK
  5
247
330
1F5
100
AcDbEntity
  8
0
100
AcDbBlockEnd
  0
BLOCK
  5
279
330
248
100
AcDbEntity
  8
0
100
AcDbBlockBegin
  2
*U2
 70
     1
 10
0.0
 20
0.0
 30
0.0
  3
*U2
  1

  0
SOLID
  5
249
330
248
100
AcDbEntity
  8
HATCH
  6
CONTINUOUS
 62
     1
100
AcDbTrace
 10
2360.777796410066
 20
2091.378978861472
 30
0.0
 11
3616.573836601119
 21
1695.37239805965
 31
0.0
 12
3674.535854149761
 22
1763.681013727223
 32
0.0
 13
3674.535854149761
 23
1763.681013727223
 33
0.0
210
0.0
220
0.0
230
1.0
  0
SOLID
  5
24A
330
248
100
AcDbEntity
  8
HATCH
  6
CONTINUOUS
 62
     1
100
AcDbTrace
 10
2360.777796410066
 20
2091.378978861472
 30
0.0
 11
3595.753821099439
 21
1608.239227526041
 31
0.0
 12
3616.573836601119
 22
1695.37239805965
 32
0.0
 13
3616.573836601119
 23
1695.37239805965
 33
0.0
210
0.0
220
0.0
230
1.0
  0
SOLID
  5
24B
330
248
100
AcDbEntity
  8
HATCH
  6
CONTINUOUS
 62
     1
100
AcDbTrace
 10
2360.777796410066
 20
2091.378978861472
 30
0.0
 11
3596.315977556324
 21
1593.529263257814
 31
0.0
 12
3595.753821099439
 22
1608.239227526041
 32
0.0
 13
3595.753821099439
 23
1608.239227526041
 33
0.0
210
0.0
220
0.0
230
1.0
  0
SOLID
  5
24C
330
248
100
AcDbEntity
  8
HATCH
  6
CONTINUOUS
 62
     1
100
AcDbTrace
 10
2360.777796410066
 20
2091.378978861472
 30
0.0
 11
3597.999167676761
 21
1578.90510722497
 31
0.0
 12
3596.315977556324
 22
1593.529263257814
 32
0.0
 13
3596.315977556324
 23
1593.529263257814
 33
0.0
210
0.0
220
0.0
230
1.0
  0
SOLID
  5
24D
330
248
100
AcDbEntity
  8
HATCH
  6
CONTINUOUS
 62
     1
100
AcDbTrace
 10
5216.208062751846
 20
2091.37897886148
 30
0.0
 11
3902.45000501209
 21
1763.681013727225
 31
0.0
 12
3960.412022560733
 22
1695.372398059651
 32
0.0
 13
3960.412022560733
 23
1695.372398059651
 33
0.0
  0
SOLID
  5
24E
330
248
100
AcDbEntity
  8
HATCH
  6
CONTINUOUS
 62
     1
100
AcDbTrace
 10
5216.208062751846
 20
2091.37897886148
 30
0.0
 11
3960.412022560733
 21
1695.372398059651
 31
0.0
 12
3981.232038062415
 22
1608.239227526041
 32
0.0
 13
3981.232038062415
 23
1608.239227526041
 33
0.0
210
0.0
220
0.0
230
1.0
  0
SOLID
  5
24F
330
248
100
AcDbEntity
  8
HATCH
  6
CONTINUOUS
 62
     1
100
AcDbTrace
 10
5216.208062751846
 20
2091.37897886148
 30
0.0
 11
3981.232038062415
 21
1608.239227526041
 31
0.0
 12
3980.669881605528
 22
1593.529263257803
 32
0.0
 13
3980.669881605528
 23
1593.529263257803
 33
0.0
210
0.0
220
0.0
230
1.0
  0
SOLID
  5
250
330
248
100
AcDbEntity
  8
HATCH
  6
CONTINUOUS
 62
     1
100
AcDbTrace
 10
5216.208062751846
 20
2091.37897886148
 30
0.0
 11
3980.669881605528
 21
1593.529263257803
 31
0.0
 12
3978.98669148509
 22
1578.905107224947
 32
0.0
 13
3978.98669148509
 23
1578.905107224947
 33
0.0
210
0.0
220
0.0
230
1.0
  0
SOLID
  5
251
330
248
100
AcDbEntity
  8
HATCH
  6
CONTINUOUS
 62
     1
100
AcDbTrace
 10
2418.739813958715
 20
2159.687594529048
 30
0.0
 11
2360.777796410066
 21
2091.378978861472
 31
0.0
 12
3674.535854149761
 22
1763.681013727223
 32
0.0
 13
3674.535854149761
 23
1763.681013727223
 33
0.0
210
0.0
220
0.0
230
1.0
  0
SOLID
  5
252
330
248
100
AcDbEntity
  8
HATCH
  6
CONTINUOUS
 62
     1
100
AcDbTrace
 10
5158.24604520316
 20
2159.687594529065
 30
0.0
 11
3902.45000501209
 21
1763.681013727225
 31
0.0
 12
5216.208062751846
 22
2091.37897886148
 32
0.0
 13
5216.208062751846
 23
2091.37897886148
 33
0.0
210
0.0
220
0.0
230
1.0
  0
SOLID
  5
253
330
248
100
AcDbEntity
  8
HATCH
  6
CONTINUOUS
 62
     1
100
AcDbTrace
 10
2439.559829460398
 20
2246.820765062663
 30
0.0
 11
2418.739813958715
 21
2159.687594529048
 31
0.0
 12
3674.535854149761
 22
1763.681013727223
 32
0.0
 13
3674.535854149761
 23
1763.681013727223
 33
0.0
  0
SOLID
  5
254
330
248
100
AcDbEntity
  8
HATCH
  6
CONTINUOUS
 62
     1
100
AcDbTrace
 10
5137.426029701463
 20
2246.820765062708
 30
0.0
 11
3902.45000501209
 21
1763.681013727225
 31
0.0
 12
5158.24604520316
 22
2159.687594529065
 32
0.0
 13
5158.24604520316
 23
2159.687594529065
 33
0.0
210
0.0
220
0.0
230
1.0
  0
SOLID
  5
255
330
248
100
AcDbEntity
  8
HATCH
  6
CONTINUOUS
 62
     1
100
AcDbTrace
 10
2438.997673003513
 20
2261.530729330886
 30
0.0
 11
2439.559829460398
 21
2246.820765062663
 31
0.0
 12
3674.535854149761
 22
1763.681013727223
 32
0.0
 13
3674.535854149761
 23
1763.681013727223
 33
0.0
210
0.0
220
0.0
230
1.0
  0
SOLID
  5
256
330
248
100
AcDbEntity
  8
HATCH
  6
CONTINUOUS
 62
     1
100
AcDbTrace
 10
5137.988186158346
 20
2261.530729330909
 30
0.0
 11
3902.45000501209
 21
1763.681013727225
 31
0.0
 12
5137.426029701463
 22
2246.820765062708
 32
0.0
 13
5137.426029701463
 23
2246.820765062708
 33
0.0
  0
SOLID
  5
257
330
248
100
AcDbEntity
  8
HATCH
  6
CONTINUOUS
 62
     1
100
AcDbTrace
 10
2437.314482883076
 20
2276.154885363728
 30
0.0
 11
2438.997673003513
 21
2261.530729330886
 31
0.0
 12
3674.535854149761
 22
1763.681013727223
 32
0.0
 13
3674.535854149761
 23
1763.681013727223
 33
0.0
210
0.0
220
0.0
230
1.0
  0
SOLID
  5
258
330
248
100
AcDbEntity
  8
HATCH
  6
CONTINUOUS
 62
     1
100
AcDbTrace
 10
5139.671376278776
 20
2276.154885363728
 30
0.0
 11
3902.45000501209
 21
1763.681013727225
 31
0.0
 12
5137.988186158346
 22
2261.530729330909
 32
0.0
 13
5137.988186158346
 23
2261.530729330909
 33
0.0
210
0.0
220
0.0
230
1.0
  0
SOLID
  5
259
330
248
100
AcDbEntity
  8
HATCH
  6
CONTINUOUS
 62
     1
100
AcDbTrace
 10
5998.080796020659
 20
3597.999211760533
 30
0.0
 11
5300.831017881907
 21
2437.314526966878
 31
0.0
 12
5403.92320176765
 22
2424.888482503221
 32
0.0
 13
5403.92320176765
 23
2424.888482503221
 33
0.0
210
0.0
220
0.0
230
1.0
  0
SOLID
  5
25A
330
248
100
AcDbEntity
  8
HATCH
  6
CONTINUOUS
 62
     1
100
AcDbTrace
 10
5998.080796020659
 20
3597.999211760533
 30
0.0
 11
5403.92320176765
 21
2424.888482503221
 31
0.0
 12
5485.606924384156
 22
2360.777840493843
 32
0.0
 13
5485.606924384156
 23
2360.777840493843
 33
0.0
  0
SOLID
  5
25B
330
248
100
AcDbEntity
  8
HATCH
  6
CONTINUOUS
 62
     1
100
AcDbTrace
 10
1578.90506314118
 20
3597.999211760537
 30
0.0
 11
2173.062657394221
 21
2424.888482503179
 31
0.0
 12
2276.154841279975
 22
2437.314526966829
 32
0.0
 13
2276.154841279975
 23
2437.314526966829
 33
0.0
  0
SOLID
  5
25C
330
248
100
AcDbEntity
  8
HATCH
  6
CONTINUOUS
 62
     1
100
AcDbTrace
 10
1578.90506314118
 20
3597.999211760537
 30
0.0
 11
2091.378934777705
 21
2360.777840493799
 31
0.0
 12
2173.062657394221
 22
2424.888482503179
 32
0.0
 13
2173.062657394221
 23
2424.888482503179
 33
0.0
210
0.0
220
0.0
230
1.0
  0
SOLID
  5
25D
330
248
100
AcDbEntity
  8
HATCH
  6
CONTINUOUS
 62
     1
100
AcDbTrace
 10
1681.997247026925
 20
3610.425256224176
 30
0.0
 11
1578.90506314118
 21
3597.999211760537
 31
0.0
 12
2276.154841279975
 22
2437.314526966829
 32
0.0
 13
2276.154841279975
 23
2437.314526966829
 33
0.0
210
0.0
220
0.0
230
1.0
  0
SOLID
  5
25E
330
248
100
AcDbEntity
  8
HATCH
  6
CONTINUOUS
 62
     1
100
AcDbTrace
 10
5894.98861213492
 20
3610.425256224187
 30
0.0
 11
5300.831017881907
 21
2437.314526966878
 31
0.0
 12
5998.080796020659
 22
3597.999211760533
 32
0.0
 13
5998.080796020659
 23
3597.999211760533
 33
0.0
210
0.0
220
0.0
230
1.0
  0
SOLID
  5
25F
330
248
100
AcDbEntity
  8
HATCH
  6
CONTINUOUS
 62
     1
100
AcDbTrace
 10
1763.680969643442
 20
3674.535898233537
 30
0.0
 11
1681.997247026925
 21
3610.425256224176
 31
0.0
 12
2276.154841279975
 22
2437.314526966829
 32
0.0
 13
2276.154841279975
 23
2437.314526966829
 33
0.0
210
0.0
220
0.0
230
1.0
  0
SOLID
  5
260
330
248
100
AcDbEntity
  8
HATCH
  6
CONTINUOUS
 62
     1
100
AcDbTrace
 10
5813.304889518413
 20
3674.535898233556
 30
0.0
 11
5300.831017881907
 21
2437.314526966878
 31
0.0
 12
5894.98861213492
 22
3610.425256224187
 32
0.0
 13
5894.98861213492
 23
3610.425256224187
 33
0.0
210
0.0
220
0.0
230
1.0
  0
SOLID
  5
261
330
248
100
AcDbEntity
  8
HATCH
  6
CONTINUOUS
 62
     1
100
AcDbTrace
 10
2276.154841279959
 20
5139.671420362559
 30
0.0
 11
1578.905063141188
 21
3978.986735568869
 31
0.0
 12
1681.997247026934
 22
3966.560691105225
 32
0.0
 13
1681.997247026934
 23
3966.560691105225
 33
0.0
  0
SOLID
  5
262
330
248
100
AcDbEntity
  8
HATCH
  6
CONTINUOUS
 62
     1
100
AcDbTrace
 10
2276.154841279959
 20
5139.671420362559
 30
0.0
 11
1681.997247026934
 21
3966.560691105225
 31
0.0
 12
1763.680969643449
 22
3902.450049095858
 32
0.0
 13
1763.680969643449
 23
3902.450049095858
 33
0.0
210
0.0
220
0.0
230
1.0
  0
SOLID
  5
263
330
248
100
AcDbEntity
  8
HATCH
  6
CONTINUOUS
 62
     1
100
AcDbTrace
 10
5300.831017881886
 20
5139.671420362559
 30
0.0
 11
5894.988612134915
 21
3966.560691105217
 31
0.0
 12
5998.080796020666
 22
3978.986735568871
 32
0.0
 13
5998.080796020666
 23
3978.986735568871
 33
0.0
210
0.0
220
0.0
230
1.0
  0
SOLID
  5
264
330
248
100
AcDbEntity
  8
HATCH
  6
CONTINUOUS
 62
     1
100
AcDbTrace
 10
5300.831017881886
 20
5139.671420362559
 30
0.0
 11
5813.304889518405
 21
3902.450049095837
 31
0.0
 12
5894.988612134915
 22
3966.560691105217
 32
0.0
 13
5894.988612134915
 23
3966.560691105217
 33
0.0
210
0.0
220
0.0
230
1.0
  0
SOLID
  5
265
330
248
100
AcDbEntity
  8
HATCH
  6
CONTINUOUS
 62
     1
100
AcDbTrace
 10
2173.062657394226
 20
5152.097464826205
 30
0.0
 11
1578.905063141188
 21
3978.986735568869
 31
0.0
 12
2276.154841279959
 22
5139.671420362559
 32
0.0
 13
2276.154841279959
 23
5139.671420362559
 33
0.0
210
0.0
220
0.0
230
1.0
  0
SOLID
  5
266
330
248
100
AcDbEntity
  8
HATCH
  6
CONTINUOUS
 62
     1
100
AcDbTrace
 10
5403.923201767637
 20
5152.097464826212
 30
0.0
 11
5300.831017881886
 21
5139.671420362559
 31
0.0
 12
5998.080796020666
 22
3978.986735568871
 32
0.0
 13
5998.080796020666
 23
3978.986735568871
 33
0.0
  0
SOLID
  5
267
330
248
100
AcDbEntity
  8
HATCH
  6
CONTINUOUS
 62
     1
100
AcDbTrace
 10
2091.378934777719
 20
5216.20810683556
 30
0.0
 11
1578.905063141188
 21
3978.986735568869
 31
0.0
 12
2173.062657394226
 22
5152.097464826205
 32
0.0
 13
2173.062657394226
 23
5152.097464826205
 33
0.0
210
0.0
220
0.0
230
1.0
  0
SOLID
  5
268
330
248
100
AcDbEntity
  8
HATCH
  6
CONTINUOUS
 62
     1
100
AcDbTrace
 10
5485.606924384149
 20
5216.20810683559
 30
0.0
 11
5403.923201767637
 21
5152.097464826212
 31
0.0
 12
5998.080796020666
 22
3978.986735568871
 32
0.0
 13
5998.080796020666
 23
3978.986735568871
 33
0.0
210
0.0
220
0.0
230
1.0
  0
SOLID
  5
269
330
248
100
AcDbEntity
  8
HATCH
  6
CONTINUOUS
 62
     1
100
AcDbTrace
 10
3674.535854149779
 20
5813.304933602179
 30
0.0
 11
2360.777796410059
 21
5485.606968467917
 31
0.0
 12
2418.739813958707
 22
5417.298352800341
 32
0.0
 13
2418.739813958707
 23
5417.298352800341
 33
0.0
210
0.0
220
0.0
230
1.0
  0
SOLID
  5
26A
330
248
100
AcDbEntity
  8
HATCH
  6
CONTINUOUS
 62
     1
100
AcDbTrace
 10
3674.535854149779
 20
5813.304933602179
 30
0.0
 11
2418.739813958707
 21
5417.298352800341
 31
0.0
 12
2439.55982946039
 22
5330.165182266727
 32
0.0
 13
2439.55982946039
 23
5330.165182266727
 33
0.0
210
0.0
220
0.0
230
1.0
  0
SOLID
  5
26B
330
248
100
AcDbEntity
  8
HATCH
  6
CONTINUOUS
 62
     1
100
AcDbTrace
 10
3674.535854149779
 20
5813.304933602179
 30
0.0
 11
2439.55982946039
 21
5330.165182266727
 31
0.0
 12
2438.997673003505
 22
5315.455217998511
 32
0.0
 13
2438.997673003505
 23
5315.455217998511
 33
0.0
210
0.0
220
0.0
230
1.0
  0
SOLID
  5
26C
330
248
100
AcDbEntity
  8
HATCH
  6
CONTINUOUS
 62
     1
100
AcDbTrace
 10
3674.535854149779
 20
5813.304933602179
 30
0.0
 11
2438.997673003505
 21
5315.455217998511
 31
0.0
 12
2437.314482883071
 22
5300.831061965677
 32
0.0
 13
2437.314482883071
 23
5300.831061965677
 33
0.0
210
0.0
220
0.0
230
1.0
  0
SOLID
  5
26D
330
248
100
AcDbEntity
  8
HATCH
  6
CONTINUOUS
 62
     1
100
AcDbTrace
 10
3902.45000501209
 20
5813.30493360218
 30
0.0
 11
5158.246045203141
 21
5417.298352800346
 31
0.0
 12
5216.208062751795
 22
5485.606968467923
 32
0.0
 13
5216.208062751795
 23
5485.606968467923
 33
0.0
210
0.0
220
0.0
230
1.0
  0
SOLID
  5
26E
330
248
100
AcDbEntity
  8
HATCH
  6
CONTINUOUS
 62
     1
100
AcDbTrace
 10
3902.45000501209
 20
5813.30493360218
 30
0.0
 11
5137.426029701455
 21
5330.165182266727
 31
0.0
 12
5158.246045203141
 22
5417.298352800346
 32
0.0
 13
5158.246045203141
 23
5417.298352800346
 33
0.0
210
0.0
220
0.0
230
1.0
  0
SOLID
  5
26F
330
248
100
AcDbEntity
  8
HATCH
  6
CONTINUOUS
 62
     1
100
AcDbTrace
 10
3902.45000501209
 20
5813.30493360218
 30
0.0
 11
5137.98818615834
 21
5315.455217998513
 31
0.0
 12
5137.426029701455
 22
5330.165182266727
 32
0.0
 13
5137.426029701455
 23
5330.165182266727
 33
0.0
  0
SOLID
  5
270
330
248
100
AcDbEntity
  8
HATCH
  6
CONTINUOUS
 62
     1
100
AcDbTrace
 10
3902.45000501209
 20
5813.30493360218
 30
0.0
 11
5139.671376278773
 21
5300.831061965681
 31
0.0
 12
5137.98818615834
 22
5315.455217998513
 32
0.0
 13
5137.98818615834
 23
5315.455217998513
 33
0.0
210
0.0
220
0.0
230
1.0
  0
SOLID
  5
271
330
248
100
AcDbEntity
  8
HATCH
  6
CONTINUOUS
 62
     1
100
AcDbTrace
 10
3616.573836601129
 20
5881.613549269754
 30
0.0
 11
2360.777796410059
 21
5485.606968467917
 31
0.0
 12
3674.535854149779
 22
5813.304933602179
 32
0.0
 13
3674.535854149779
 23
5813.304933602179
 33
0.0
210
0.0
220
0.0
230
1.0
  0
SOLID
  5
272
330
248
100
AcDbEntity
  8
HATCH
  6
CONTINUOUS
 62
     1
100
AcDbTrace
 10
3960.412022560738
 20
5881.613549269756
 30
0.0
 11
3902.45000501209
 21
5813.30493360218
 31
0.0
 12
5216.208062751795
 22
5485.606968467923
 32
0.0
 13
5216.208062751795
 23
5485.606968467923
 33
0.0
210
0.0
220
0.0
230
1.0
  0
SOLID
  5
273
330
248
100
AcDbEntity
  8
HATCH
  6
CONTINUOUS
 62
     1
100
AcDbTrace
 10
3595.753821099445
 20
5968.74671980337
 30
0.0
 11
2360.777796410059
 21
5485.606968467917
 31
0.0
 12
3616.573836601129
 22
5881.613549269754
 32
0.0
 13
3616.573836601129
 23
5881.613549269754
 33
0.0
210
0.0
220
0.0
230
1.0
  0
SOLID
  5
274
330
248
100
AcDbEntity
  8
HATCH
  6
CONTINUOUS
 62
     1
100
AcDbTrace
 10
3981.232038062421
 20
5968.74671980337
 30
0.0
 11
3960.412022560738
 21
5881.613549269756
 31
0.0
 12
5216.208062751795
 22
5485.606968467923
 32
0.0
 13
5216.208062751795
 23
5485.606968467923
 33
0.0
210
0.0
220
0.0
230
1.0
  0
SOLID
  5
275
330
248
100
AcDbEntity
  8
HATCH
  6
CONTINUOUS
 62
     1
100
AcDbTrace
 10
3596.31597755633
 20
5983.45668407159
 30
0.0
 11
2360.777796410059
 21
5485.606968467917
 31
0.0
 12
3595.753821099445
 22
5968.74671980337
 32
0.0
 13
3595.753821099445
 23
5968.74671980337
 33
0.0
210
0.0
220
0.0
230
1.0
  0
SOLID
  5
276
330
248
100
AcDbEntity
  8
HATCH
  6
CONTINUOUS
 62
     1
100
AcDbTrace
 10
3980.669881605535
 20
5983.45668407159
 30
0.0
 11
3981.232038062421
 21
5968.74671980337
 31
0.0
 12
5216.208062751795
 22
5485.606968467923
 32
0.0
 13
5216.208062751795
 23
5485.606968467923
 33
0.0
210
0.0
220
0.0
230
1.0
  0
SOLID
  5
277
330
248
100
AcDbEntity
  8
HATCH
  6
CONTINUOUS
 62
     1
100
AcDbTrace
 10
3978.986691485101
 20
5998.080840104428
 30
0.0
 11
3980.669881605535
 21
5983.45668407159
 31
0.0
 12
5216.208062751795
 22
5485.606968467923
 32
0.0
 13
5216.208062751795
 23
5485.606968467923
 33
0.0
210
0.0
220
0.0
230
1.0
  0
SOLID
  5
278
330
248
100
AcDbEntity
  8
HATCH
  6
CONTINUOUS
 62
     1
100
AcDbTrace
 10
3597.999167676765
 20
5998.080840104428
 30
0.0
 11
2360.777796410059
 21
5485.606968467917
 31
0.0
 12
3596.31597755633
 22
5983.45668407159
 32
0.0
 13
3596.31597755633
 23
5983.45668407159
 33
0.0
210
0.0
220
0.0
230
1.0
  0
ENDBLK
  5
27A
330
248
100
AcDbEntity
  8
0
100
AcDbBlockEnd
  0
BLOCK
  5
28C
330
27B
100
AcDbEntity
  8
0
100
AcDbBlockBegin
  2
*U3
 70
     1
 10
0.0
 20
0.0
 30
0.0
  3
*U3
  1

  0
SOLID
  5
27C
330
27B
100
AcDbEntity
  8
HATCH
  6
CONTINUOUS
 62
     5
100
AcDbTrace
 10
2803.7890543213
 20
3173.320381711525
 30
0.0
 11
2096.45459193473
 21
2871.149306097927
 31
0.0
 12
2714.90356947646
 22
3127.31926023149
 32
0.0
 13
2714.90356947646
 23
3127.31926023149
 33
0.0
210
0.0
220
0.0
230
1.0
  0
SOLID
  5
27D
330
27B
100
AcDbEntity
  8
HATCH
  6
CONTINUOUS
 62
     5
100
AcDbTrace
 10
1943.381218988684
 20
3240.701119102447
 30
0.0
 11
2096.45459193473
 21
2871.149306097927
 31
0.0
 12
2803.7890543213
 22
3173.320381711525
 32
0.0
 13
2803.7890543213
 23
3173.320381711525
 33
0.0
210
0.0
220
0.0
230
1.0
  0
SOLID
  5
27E
330
27B
100
AcDbEntity
  8
HATCH
  6
CONTINUOUS
 62
     5
100
AcDbTrace
 10
2859.896692142023
 20
3256.197794627844
 30
0.0
 11
1943.381218988684
 21
3240.701119102447
 31
0.0
 12
2803.7890543213
 22
3173.320381711525
 32
0.0
 13
2803.7890543213
 23
3173.320381711525
 33
0.0
210
0.0
220
0.0
230
1.0
  0
SOLID
  5
27F
330
27B
100
AcDbEntity
  8
HATCH
  6
CONTINUOUS
 62
     5
100
AcDbTrace
 10
2869.591306904585
 20
3355.810780920439
 30
0.0
 11
1943.381218988684
 21
3240.701119102447
 31
0.0
 12
2859.896692142023
 22
3256.197794627844
 32
0.0
 13
2859.896692142023
 23
3256.197794627844
 33
0.0
  0
SOLID
  5
280
330
27B
100
AcDbEntity
  8
HATCH
  6
CONTINUOUS
 62
     5
100
AcDbTrace
 10
2830.516930972421
 20
3447.951573944134
 30
0.0
 11
1943.381218988684
 21
3240.701119102447
 31
0.0
 12
2869.591306904585
 22
3355.810780920439
 32
0.0
 13
2869.591306904585
 23
3355.810780920439
 33
0.0
  0
SOLID
  5
281
330
27B
100
AcDbEntity
  8
HATCH
  6
CONTINUOUS
 62
     5
100
AcDbTrace
 10
2558.731174022006
 20
3495.587416082912
 30
0.0
 11
1943.381218988684
 21
3240.701119102447
 31
0.0
 12
2830.516930972421
 22
3447.951573944134
 32
0.0
 13
2830.516930972421
 23
3447.951573944134
 33
0.0
210
0.0
220
0.0
230
1.0
  0
SOLID
  5
282
330
27B
100
AcDbEntity
  8
HATCH
  6
CONTINUOUS
 62
     5
100
AcDbTrace
 10
2752.169348073902
 20
3510.228285863463
 30
0.0
 11
2558.731174022006
 21
3495.587416082912
 31
0.0
 12
2830.516930972421
 22
3447.951573944134
 32
0.0
 13
2830.516930972421
 23
3447.951573944134
 33
0.0
210
0.0
220
0.0
230
1.0
  0
SOLID
  5
283
330
27B
100
AcDbEntity
  8
HATCH
  6
CONTINUOUS
 62
     5
100
AcDbTrace
 10
2653.588445221856
 20
3527.506543483913
 30
0.0
 11
2558.731174022006
 21
3495.587416082912
 31
0.0
 12
2752.169348073902
 22
3510.228285863463
 32
0.0
 13
2752.169348073902
 23
3510.228285863463
 33
0.0
210
0.0
220
0.0
230
1.0
  0
SOLID
  5
284
330
27B
100
AcDbEntity
  8
HATCH
  6
CONTINUOUS
 62
     5
100
AcDbTrace
 10
5015.17371693382
 20
4081.251689785763
 30
0.0
 11
4821.499004213073
 21
4070.170719566589
 31
0.0
 12
4919.745479432627
 22
4051.082432570199
 32
0.0
 13
4919.745479432627
 23
4051.082432570199
 33
0.0
210
0.0
220
0.0
230
1.0
  0
SOLID
  5
285
330
27B
100
AcDbEntity
  8
HATCH
  6
CONTINUOUS
 62
     5
100
AcDbTrace
 10
4744.309970886251
 20
4133.877750007459
 30
0.0
 11
4821.499004213073
 21
4070.170719566589
 31
0.0
 12
5015.17371693382
 22
4081.251689785763
 32
0.0
 13
5015.17371693382
 23
4081.251689785763
 33
0.0
  0
SOLID
  5
286
330
27B
100
AcDbEntity
  8
HATCH
  6
CONTINUOUS
 62
     5
100
AcDbTrace
 10
4706.936717856494
 20
4226.721557294196
 30
0.0
 11
4744.309970886251
 21
4133.877750007459
 31
0.0
 12
5015.17371693382
 22
4081.251689785763
 32
0.0
 13
5015.17371693382
 23
4081.251689785763
 33
0.0
210
0.0
220
0.0
230
1.0
  0
SOLID
  5
287
330
27B
100
AcDbEntity
  8
HATCH
  6
CONTINUOUS
 62
     5
100
AcDbTrace
 10
4718.461625060269
 20
4326.139408344534
 30
0.0
 11
4706.936717856494
 21
4226.721557294196
 31
0.0
 12
5015.17371693382
 22
4081.251689785763
 32
0.0
 13
5015.17371693382
 23
4081.251689785763
 33
0.0
210
0.0
220
0.0
230
1.0
  0
SOLID
  5
288
330
27B
100
AcDbEntity
  8
HATCH
  6
CONTINUOUS
 62
     5
100
AcDbTrace
 10
5633.620109223498
 20
4336.247482635829
 30
0.0
 11
4718.461625060269
 21
4326.139408344534
 31
0.0
 12
5015.17371693382
 22
4081.251689785763
 32
0.0
 13
5015.17371693382
 23
4081.251689785763
 33
0.0
210
0.0
220
0.0
230
1.0
  0
SOLID
  5
289
330
27B
100
AcDbEntity
  8
HATCH
  6
CONTINUOUS
 62
     5
100
AcDbTrace
 10
4776.083930522861
 20
4407.970957924749
 30
0.0
 11
4718.461625060269
 21
4326.139408344534
 31
0.0
 12
5633.620109223498
 22
4336.247482635829
 32
0.0
 13
5633.620109223498
 23
4336.247482635829
 33
0.0
210
0.0
220
0.0
230
1.0
  0
SOLID
  5
28A
330
27B
100
AcDbEntity
  8
HATCH
  6
CONTINUOUS
 62
     5
100
AcDbTrace
 10
4865.800366436411
 20
4452.329651779424
 30
0.0
 11
4776.083930522861
 21
4407.970957924749
 31
0.0
 12
5633.620109223498
 22
4336.247482635829
 32
0.0
 13
5633.620109223498
 23
4336.247482635829
 33
0.0
210
0.0
220
0.0
230
1.0
  0
SOLID
  5
28B
330
27B
100
AcDbEntity
  8
HATCH
  6
CONTINUOUS
 62
     5
100
AcDbTrace
 10
5480.546535380978
 20
4705.799780647352
 30
0.0
 11
4865.800366436411
 21
4452.329651779424
 31
0.0
 12
5633.620109223498
 22
4336.247482635829
 32
0.0
 13
5633.620109223498
 23
4336.247482635829
 33
0.0
210
0.0
220
0.0
230
1.0
  0
ENDBLK
  5
28D
330
27B
100
AcDbEntity
  8
0
100
AcDbBlockEnd
  0
ENDSEC
  0
SECTION
  2
ENTITIES
  0
INSERT
  5
1F0
330
1F
100
AcDbEntity
  8
HATCH
100
AcDbBlockReference
  2
AFKC
 10
0.0
 20
0.0
 30
0.0
  0
ENDSEC
  0
SECTION
  2
OBJECTS
  0
DICTIONARY
  5
C
330
0
100
AcDbDictionary
  3
ACAD_GROUP
350
D
  3
ACAD_LAYOUT
350
1A
  3
ACAD_MLINESTYLE
350
17
  3
ACAD_PLOTSETTINGS
350
19
1001
ACAD
1000
TREAT_AS_HARD
1070
     0
1000
TREAT_AS_HARD
1070
     0
  0
DICTIONARY
  5
C4
330
1F
100
AcDbDictionary
  3
ACAD_LAYOUTSELFREF
350
1F2
  3
ACAD_SORTENTS
350
1CC
1001
ACAD
1000
TREAT_AS_HARD
1070
     1
1000
TREAT_AS_HARD
1070
     0
  0
DICTIONARY
  5
C6
330
50
100
AcDbDictionary
  3
ACAD_LAYOUTSELFREF
350
1F3
1001
ACAD
1000
TREAT_AS_HARD
1070
     1
1000
TREAT_AS_HARD
1070
     0
  0
DICTIONARY
  5
D
102
{ACAD_REACTORS
330
C
102
}
330
C
100
AcDbDictionary
1001
ACAD
1000
TREAT_AS_HARD
1070
     0
1000
TREAT_AS_HARD
1070
     0
  0
DICTIONARY
  5
1A
102
{ACAD_REACTORS
330
C
102
}
330
C
100
AcDbDictionary
1001
ACAD
1000
TREAT_AS_HARD
1070
     0
1000
TREAT_AS_HARD
1070
     0
  0
DICTIONARY
  5
17
102
{ACAD_REACTORS
330
C
102
}
330
C
100
AcDbDictionary
  3
STANDARD
350
18
1001
ACAD
1000
TREAT_AS_HARD
1070
     0
1000
TREAT_AS_HARD
1070
     0
  0
DICTIONARY
  5
19
102
{ACAD_REACTORS
330
C
102
}
330
C
100
AcDbDictionary
1001
ACAD
1000
TREAT_AS_HARD
1070
     0
1000
TREAT_AS_HARD
1070
     0
  0
XRECORD
  5
1F2
102
{ACAD_REACTORS
330
C4
102
}
330
C4
100
AcDbXrecord
340
1F
  0
SORTENTSTABLE
  5
1CC
102
{ACAD_REACTORS
330
C4
102
}
330
C4
100
AcDbSortentsTable
330
1F
331
14E
  5
151
331
13D
  5
140
331
14C
  5
14F
331
13B
  5
13E
331
14A
  5
14D
331
139
  5
13C
331
1B1
  5
134
331
148
  5
14B
331
137
  5
13A
331
146
  5
149
331
135
  5
138
331
144
  5
147
331
177
  5
125
331
142
  5
145
331
1CB
  5
135
331
151
  5
1B1
331
140
  5
143
331
14F
  5
152
331
13E
  5
141
331
14D
  5
150
331
13C
  5
13F
331
14B
  5
14E
331
13A
  5
13D
331
149
  5
14C
331
138
  5
13B
331
147
  5
14A
331
136
  5
139
331
145
  5
148
331
134
  5
137
331
125
  5
136
331
143
  5
146
331
152
  5
1CB
331
141
  5
144
331
150
  5
177
331
13F
  5
142
  0
XRECORD
  5
1F3
102
{ACAD_REACTORS
330
C6
102
}
330
C6
100
AcDbXrecord
340
50
  0
MLINESTYLE
  5
18
102
{ACAD_REACTORS
330
17
102
}
330
17
100
AcDbMlineStyle
  2
STANDARD
 70
     0
  3

 62
   256
 51
90.0
 52
90.0
 71
     2
 49
0.5
 62
   256
  6
BYLAYER
 49
-0.5
 62
   256
  6
BYLAYER
  0
ENDSEC
  0
EOF
