  0
SECTION
  2
HEADER
  9
$ACADVER
  1
AC1012
  9
$DWGCODEPAGE
  3
ANSI_1252
  9
$INSBASE
 10
0.0
 20
0.0
 30
0.0
  9
$EXTMIN
 10
4053.726200154243
 20
1047.390242688405
 30
-0.0311255548513145
  9
$EXTMAX
 10
8754.22125606944
 20
5747.622953044015
 30
1020.031130304596
  9
$LIMMIN
 10
0.0
 20
0.0
  9
$LIMMAX
 10
420.0
 20
297.0
  9
$ORTHOMODE
 70
     0
  9
$REGENMODE
 70
     1
  9
$FILLMODE
 70
     1
  9
$QTEXTMODE
 70
     0
  9
$MIRRTEXT
 70
     1
  9
$DRAGMODE
 70
     2
  9
$LTSCALE
 40
1.0
  9
$OSMODE
 70
  3071
  9
$ATTMODE
 70
     1
  9
$TEXTSIZE
 40
2.5
  9
$TRACEWID
 40
1.0
  9
$TEXTSTYLE
  7
STANDARD
  9
$CLAYER
  8
HATCH
  9
$CELTYPE
  6
BYLAYER
  9
$CECOLOR
 62
   256
  9
$CELTSCALE
 40
1.0
  9
$DELOBJ
 70
     1
  9
$DISPSILH
 70
     0
  9
$DIMSCALE
 40
1.0
  9
$DIMASZ
 40
2.5
  9
$DIMEXO
 40
0.625
  9
$DIMDLI
 40
3.75
  9
$DIMRND
 40
0.0
  9
$DIMDLE
 40
0.0
  9
$DIMEXE
 40
1.25
  9
$DIMTP
 40
0.0
  9
$DIMTM
 40
0.0
  9
$DIMTXT
 40
2.5
  9
$DIMCEN
 40
2.5
  9
$DIMTSZ
 40
0.0
  9
$DIMTOL
 70
     0
  9
$DIMLIM
 70
     0
  9
$DIMTIH
 70
     0
  9
$DIMTOH
 70
     0
  9
$DIMSE1
 70
     0
  9
$DIMSE2
 70
     0
  9
$DIMTAD
 70
     1
  9
$DIMZIN
 70
     8
  9
$DIMBLK
  1

  9
$DIMASO
 70
     1
  9
$DIMSHO
 70
     1
  9
$DIMPOST
  1

  9
$DIMAPOST
  1

  9
$DIMALT
 70
     0
  9
$DIMALTD
 70
     3
  9
$DIMALTF
 40
0.03937007874016
  9
$DIMLFAC
 40
1.0
  9
$DIMTOFL
 70
     1
  9
$DIMTVP
 40
0.0
  9
$DIMTIX
 70
     0
  9
$DIMSOXD
 70
     0
  9
$DIMSAH
 70
     0
  9
$DIMBLK1
  1

  9
$DIMBLK2
  1

  9
$DIMSTYLE
  2
ISO-25
  9
$DIMCLRD
 70
     0
  9
$DIMCLRE
 70
     0
  9
$DIMCLRT
 70
     0
  9
$DIMTFAC
 40
1.0
  9
$DIMGAP
 40
0.625
  9
$DIMJUST
 70
     0
  9
$DIMSD1
 70
     0
  9
$DIMSD2
 70
     0
  9
$DIMTOLJ
 70
     0
  9
$DIMTZIN
 70
     8
  9
$DIMALTZ
 70
     0
  9
$DIMALTTZ
 70
     0
  9
$DIMFIT
 70
     3
  9
$DIMUPT
 70
     0
  9
$DIMUNIT
 70
     2
  9
$DIMDEC
 70
     2
  9
$DIMTDEC
 70
     2
  9
$DIMALTU
 70
     2
  9
$DIMALTTD
 70
     3
  9
$DIMTXSTY
  7
STANDARD
  9
$DIMAUNIT
 70
     0
  9
$LUNITS
 70
     2
  9
$LUPREC
 70
     4
  9
$SKETCHINC
 40
1.0
  9
$FILLETRAD
 40
10.0
  9
$AUNITS
 70
     0
  9
$AUPREC
 70
     0
  9
$MENU
  1
.
  9
$ELEVATION
 40
0.0
  9
$PELEVATION
 40
0.0
  9
$THICKNESS
 40
0.0
  9
$LIMCHECK
 70
     0
  9
$BLIPMODE
 70
     0
  9
$CHAMFERA
 40
10.0
  9
$CHAMFERB
 40
10.0
  9
$CHAMFERC
 40
20.0
  9
$CHAMFERD
 40
0.0
  9
$SKPOLY
 70
     0
  9
$TDCREATE
 40
2452626.608533101
  9
$TDUPDATE
 40
2452773.373796528
  9
$TDINDWG
 40
0.0050348380
  9
$TDUSRTIMER
 40
0.0050334491
  9
$USRTIMER
 70
     1
  9
$ANGBASE
 50
0.0
  9
$ANGDIR
 70
     0
  9
$PDMODE
 70
     0
  9
$PDSIZE
 40
0.0
  9
$PLINEWID
 40
0.0
  9
$COORDS
 70
     2
  9
$SPLFRAME
 70
     0
  9
$SPLINETYPE
 70
     6
  9
$SPLINESEGS
 70
     8
  9
$ATTDIA
 70
     0
  9
$ATTREQ
 70
     1
  9
$HANDLING
 70
-16383
  9
$HANDSEED
  5
7B1
  9
$SURFTAB1
 70
     6
  9
$SURFTAB2
 70
     6
  9
$SURFTYPE
 70
     6
  9
$SURFU
 70
     6
  9
$SURFV
 70
     6
  9
$UCSNAME
  2

  9
$UCSORG
 10
0.0
 20
0.0
 30
0.0
  9
$UCSXDIR
 10
1.0
 20
0.0
 30
0.0
  9
$UCSYDIR
 10
0.0
 20
1.0
 30
0.0
  9
$PUCSNAME
  2

  9
$PUCSORG
 10
0.0
 20
0.0
 30
0.0
  9
$PUCSXDIR
 10
1.0
 20
0.0
 30
0.0
  9
$PUCSYDIR
 10
0.0
 20
1.0
 30
0.0
  9
$USERI1
 70
     0
  9
$USERI2
 70
     0
  9
$USERI3
 70
     0
  9
$USERI4
 70
     0
  9
$USERI5
 70
     0
  9
$USERR1
 40
0.0
  9
$USERR2
 40
0.0
  9
$USERR3
 40
0.0
  9
$USERR4
 40
0.0
  9
$USERR5
 40
0.0
  9
$WORLDVIEW
 70
     1
  9
$SHADEDGE
 70
     3
  9
$SHADEDIF
 70
    70
  9
$TILEMODE
 70
     1
  9
$MAXACTVP
 70
    64
  9
$PINSBASE
 10
0.0
 20
0.0
 30
0.0
  9
$PLIMCHECK
 70
     0
  9
$PEXTMIN
 10
0.0
 20
0.0
 30
0.0
  9
$PEXTMAX
 10
0.0
 20
0.0
 30
0.0
  9
$PLIMMIN
 10
0.0
 20
0.0
  9
$PLIMMAX
 10
12.0
 20
9.0
  9
$UNITMODE
 70
     0
  9
$VISRETAIN
 70
     1
  9
$PLINEGEN
 70
     0
  9
$PSLTSCALE
 70
     1
  9
$TREEDEPTH
 70
  3020
  9
$PICKSTYLE
 70
     1
  9
$CMLSTYLE
  2
STANDARD
  9
$CMLJUST
 70
     0
  9
$CMLSCALE
 40
20.0
  9
$SAVEIMAGES
 70
     1
  0
ENDSEC
  0
SECTION
  2
CLASSES
  0
CLASS
  1
ACDBDICTIONARYWDFLT
  2
AcDbDictionaryWithDefault
  3
AutoCAD 2000
 90
    32768
280
     0
281
     0
  0
CLASS
  1
ACDBPLACEHOLDER
  2
AcDbPlaceHolder
  3
AutoCAD 2000
 90
    32768
280
     0
281
     0
  0
CLASS
  1
LAYOUT
  2
AcDbLayout
  3
AutoCAD 2000
 90
    32768
280
     0
281
     0
  0
CLASS
  1
LONG_TRANSACTION
  2
AcDbLongTransaction
  3
AutoCAD 2000
 90
    32768
280
     0
281
     0
  0
CLASS
  1
LWPOLYLINE
  2
AcDbPolyline
  3
AutoCAD 2000
 90
    32768
280
     0
281
     1
  0
CLASS
  1
HATCH
  2
AcDbHatch
  3
AutoCAD 2000
 90
    32768
280
     0
281
     1
  0
CLASS
  1
XRECORD
  2
AcDbXrecord
  3
AutoCAD 2000
 90
    32768
280
     0
281
     0
  0
CLASS
  1
LONG_TRANSACTION
  2
AcDbLongTransaction
  3
AutoCAD 2000
 90
    32768
280
     0
281
     0
  0
CLASS
  1
LWPOLYLINE
  2
AcDbPolyline
  3
AutoCAD 2000
 90
    32768
280
     0
281
     1
  0
CLASS
  1
HATCH
  2
AcDbHatch
  3
AutoCAD 2000
 90
    32768
280
     0
281
     1
  0
CLASS
  1
XRECORD
  2
AcDbXrecord
  3
AutoCAD 2000
 90
    32768
280
     0
281
     0
  0
CLASS
  1
LONG_TRANSACTION
  2
AcDbLongTransaction
  3
AutoCAD 2000
 90
    32768
280
     0
281
     0
  0
CLASS
  1
LWPOLYLINE
  2
AcDbPolyline
  3
AutoCAD 2000
 90
    32768
280
     0
281
     1
  0
CLASS
  1
HATCH
  2
AcDbHatch
  3
AutoCAD 2000
 90
    32768
280
     0
281
     1
  0
CLASS
  1
XRECORD
  2
AcDbXrecord
  3
AutoCAD 2000
 90
    32768
280
     0
281
     0
  0
CLASS
  1
DICTIONARYVAR
  2
AcDbDictionaryVar
  3
AutoCAD 2000
 90
    32768
280
     0
281
     0
  0
CLASS
  1
SORTENTSTABLE
  2
AcDbSortentsTable
  3
AutoCAD 2000
 90
    32768
280
     0
281
     0
  0
CLASS
  1
LONG_TRANSACTION
  2
AcDbLongTransaction
  3
AutoCAD 2000
 90
    32768
280
     0
281
     0
  0
CLASS
  1
LWPOLYLINE
  2
AcDbPolyline
  3
AutoCAD 2000
 90
    32768
280
     0
281
     1
  0
CLASS
  1
HATCH
  2
AcDbHatch
  3
AutoCAD 2000
 90
    32768
280
     0
281
     1
  0
CLASS
  1
XRECORD
  2
AcDbXrecord
  3
AutoCAD 2000
 90
    32768
280
     0
281
     0
  0
ENDSEC
  0
SECTION
  2
TABLES
  0
TABLE
  2
VPORT
  5
8
330
0
100
AcDbSymbolTable
 70
     2
  0
VPORT
  5
71F
330
8
100
AcDbSymbolTableRecord
100
AcDbViewportTableRecord
  2
*ACTIVE
 70
     0
 10
0.0
 20
0.0
 11
1.0
 21
1.0
 12
6403.973728111842
 22
3397.506597866209
 13
0.0
 23
0.0
 14
10.0
 24
10.0
 15
10.0
 25
10.0
 16
0.0
 26
0.0
 36
1.0
 17
0.0
 27
0.0
 37
0.0
 40
4757.205228056889
 41
1.558704453441295
 42
50.0
 43
0.0
 44
0.0
 50
0.0
 51
0.0
 71
     0
 72
   100
 73
     1
 74
     3
 75
     0
 76
     0
 77
     0
 78
     0
  0
ENDTAB
  0
TABLE
  2
LTYPE
  5
5
330
0
100
AcDbSymbolTable
 70
     1
  0
LTYPE
  5
14
330
5
100
AcDbSymbolTableRecord
100
AcDbLinetypeTableRecord
  2
BYBLOCK
 70
     0
  3

 72
    65
 73
     0
 40
0.0
  0
LTYPE
  5
15
330
5
100
AcDbSymbolTableRecord
100
AcDbLinetypeTableRecord
  2
BYLAYER
 70
     0
  3

 72
    65
 73
     0
 40
0.0
  0
LTYPE
  5
16
330
5
100
AcDbSymbolTableRecord
100
AcDbLinetypeTableRecord
  2
CONTINUOUS
 70
     0
  3
Solid line
 72
    65
 73
     0
 40
0.0
  0
ENDTAB
  0
TABLE
  2
LAYER
  5
2
330
0
100
AcDbSymbolTable
 70
     5
  0
LAYER
  5
10
330
2
100
AcDbSymbolTableRecord
100
AcDbLayerTableRecord
  2
0
 70
     0
 62
     7
  6
CONTINUOUS
  0
LAYER
  5
5D
330
2
100
AcDbSymbolTableRecord
100
AcDbLayerTableRecord
  2
SAFETY
 70
     0
 62
     7
  6
CONTINUOUS
  0
LAYER
  5
5E
330
2
100
AcDbSymbolTableRecord
100
AcDbLayerTableRecord
  2
OBJECT
 70
     0
 62
     7
  6
CONTINUOUS
  0
LAYER
  5
14B
330
2
100
AcDbSymbolTableRecord
100
AcDbLayerTableRecord
  2
TEKST
 70
     0
 62
     7
  6
CONTINUOUS
  0
LAYER
  5
167
330
2
100
AcDbSymbolTableRecord
100
AcDbLayerTableRecord
  2
HATCH
 70
     0
 62
     7
  6
CONTINUOUS
  0
ENDTAB
  0
TABLE
  2
STYLE
  5
3
330
0
100
AcDbSymbolTable
 70
     3
  0
STYLE
  5
11
330
3
100
AcDbSymbolTableRecord
100
AcDbTextStyleTableRecord
  2
STANDARD
 70
     0
 40
0.0
 41
1.0
 50
0.0
 71
     0
 42
2.5
  3
txt
  4

  0
STYLE
  5
5F
330
3
100
AcDbSymbolTableRecord
100
AcDbTextStyleTableRecord
  2
STYLE1
 70
     0
 40
5.0
 41
1.0
 50
0.0
 71
     0
 42
2.5
  3
romans.shx
  4

  0
STYLE
  5
60
330
3
100
AcDbSymbolTableRecord
100
AcDbTextStyleTableRecord
  2
STYLE2
 70
     0
 40
3.0
 41
1.0
 50
0.0
 71
     0
 42
1.5
  3
romand.shx
  4

  0
ENDTAB
  0
TABLE
  2
VIEW
  5
6
330
0
100
AcDbSymbolTable
 70
     0
  0
ENDTAB
  0
TABLE
  2
UCS
  5
7
330
0
100
AcDbSymbolTable
 70
     0
  0
ENDTAB
  0
TABLE
  2
APPID
  5
9
330
0
100
AcDbSymbolTable
 70
     3
  0
APPID
  5
12
330
9
100
AcDbSymbolTableRecord
100
AcDbRegAppTableRecord
  2
ACAD
 70
     0
  0
APPID
  5
62
330
9
100
AcDbSymbolTableRecord
100
AcDbRegAppTableRecord
  2
AVE_FINISH
 70
     0
  0
APPID
  5
142
330
9
100
AcDbSymbolTableRecord
100
AcDbRegAppTableRecord
  2
CONTENTBLOCKICON
 70
     0
  0
ENDTAB
  0
TABLE
  2
DIMSTYLE
  5
A
330
0
100
AcDbSymbolTable
 70
     2
  0
DIMSTYLE
105
27
330
A
100
AcDbSymbolTableRecord
100
AcDbDimStyleTableRecord
  2
ISO-25
 70
     0
  3

  4

  5

  6

  7

 40
1.0
 41
2.5
 42
0.625
 43
3.75
 44
1.25
 45
0.0
 46
0.0
 47
0.0
 48
0.0
140
2.5
141
2.5
142
0.0
143
0.03937007874016
144
1.0
145
0.0
146
1.0
147
0.625
 71
     0
 72
     0
 73
     0
 74
     0
 75
     0
 76
     0
 77
     1
 78
     8
170
     0
171
     3
172
     1
173
     0
174
     0
175
     0
176
     0
177
     0
178
     0
270
     2
271
     2
272
     2
273
     2
274
     3
340
11
275
     0
280
     0
281
     0
282
     0
283
     0
284
     8
285
     0
286
     0
287
     3
288
     0
  0
DIMSTYLE
105
61
330
A
100
AcDbSymbolTableRecord
100
AcDbDimStyleTableRecord
  2
STANDARD
 70
     0
  3

  4

  5

  6

  7

 40
1.0
 41
4.0
 42
2.0
 43
7.0
 44
2.0
 45
0.0
 46
0.0
 47
0.0
 48
0.0
140
5.0
141
0.09
142
0.0
143
25.4
144
1.0
145
0.0
146
1.0
147
2.0
 71
     0
 72
     0
 73
     0
 74
     0
 75
     0
 76
     0
 77
     1
 78
     8
170
     0
171
     2
172
     1
173
     0
174
     0
175
     0
176
     1
177
     1
178
     1
270
     2
271
     1
272
     0
273
     2
274
     2
340
5F
275
     0
280
     0
281
     0
282
     0
283
     1
284
     0
285
     0
286
     0
287
     3
288
     0
  0
ENDTAB
  0
TABLE
  2
BLOCK_RECORD
  5
1
330
0
100
AcDbSymbolTable
 70
     3
  0
BLOCK_RECORD
  5
1F
102
{ACAD_XDICTIONARY
360
F3
102
}
330
1
100
AcDbSymbolTableRecord
100
AcDbBlockTableRecord
  2
*MODEL_SPACE
  0
BLOCK_RECORD
  5
50
102
{ACAD_XDICTIONARY
360
F5
102
}
330
1
100
AcDbSymbolTableRecord
100
AcDbBlockTableRecord
  2
*PAPER_SPACE
  0
BLOCK_RECORD
  5
101
330
1
100
AcDbSymbolTableRecord
100
AcDbBlockTableRecord
  2
AFKB
1001
ACAD
1000
DesignCenter Data
1002
{
1070
     1
1070
     4
1002
}
1001
CONTENTBLOCKICON
1071
        0
1004
28000000200000002000000001000800000000000004000000000000000000000000000000000000000000004000000080000000FF000000002000004020000080200000FF200000004000004040000080400000FF400000006000004060000080600000FF600000008000004080000080800000FF80000000A0000040A000
1004
0080A00000FFA0000000C0000040C0000080C00000FFC0000000FF000040FF000080FF0000FFFF0000000020004000200080002000FF002000002020004020200080202000FF202000004020004040200080402000FF402000006020004060200080602000FF602000008020004080200080802000FF80200000A0200040A0
1004
200080A02000FFA0200000C0200040C0200080C02000FFC0200000FF200040FF200080FF2000FFFF2000000040004000400080004000FF004000002040004020400080204000FF204000004040004040400080404000FF404000006040004060400080604000FF604000008040004080400080804000FF80400000A0400040
1004
A0400080A04000FFA0400000C0400040C0400080C04000FFC0400000FF400040FF400080FF4000FFFF4000000060004000600080006000FF006000002060004020600080206000FF206000004060004040600080406000FF406000006060004060600080606000FF606000008060004080600080806000FF80600000A06000
1004
40A0600080A06000FFA0600000C0600040C0600080C06000FFC0600000FF600040FF600080FF6000FFFF6000000080004000800080008000FF008000002080004020800080208000FF208000004080004040800080408000FF408000006080004060800080608000FF608000008080004080800080808000FF80800000A080
1004
0040A0800080A08000FFA0800000C0800040C0800080C08000FFC0800000FF800040FF800080FF8000FFFF80000000A0004000A0008000A000FF00A0000020A0004020A0008020A000FF20A0000040A0004040A0008040A000FF40A0000060A0004060A0008060A000FF60A0000080A0004080A0008080A000FF80A00000A0
1004
A00040A0A00080A0A000FFA0A00000C0A00040C0A00080C0A000FFC0A00000FFA00040FFA00080FFA000FFFFA0000000C0004000C0008000C000FF00C0000020C0004020C0008020C000FF20C0000040C0004040C0008040C000FF40C0000060C0004060C0008060C000FF60C0000080C0004080C0008080C000FF80C00000
1004
A0C00040A0C00080A0C000FFA0C00000C0C00040C0C00080C0C000FFC0C00000FFC00040FFC00080FFC000FFFFC0000000FF004000FF008000FF00FF00FF000020FF004020FF008020FF00FF20FF000040FF004040FF008040FF00FF40FF000060FF004060FF008060FF00FF60FF000080FF004080FF008080FF00FF80FF00
1004
00A0FF0040A0FF0080A0FF00FFA0FF0000C0FF0040C0FF0080C0FF00FFC0FF0000FFFF0040FFFF0080FFFF00FFFFFF0000000000000000000000000000000000000000000000000000000000000000000000000000000000000000000000000000000000000000000000000000000000000000000000000000000000000000
1004
000000000000000000000000000000000000000000000000000000FFFFFFFFFFFFFFFFFFFFFFFF00000000000000000000000000000000000000FF000000000000000000000000FF0000000000000000000000000000000000FF0000000000000000000000000000FF000000000000000000000000000000FF000000000000
1004
00000000000000000000FF00000000000000000000000000FF000000000000000000000000000000000000FF0000000000000000000000FF0000000000000000000000000000000000000000FF000000000000000000FF00000000000000000000000000000000000000000000FF00000000000000FF000000000000000000
1004
0000FFFC0000000000000000000000FF000000000000FF0000000000000000FC0000FFFFFF00FC0000000000000000FF000000000000FF0000000000000000FFFFFFFFFF00FFFFFF00000000000000FF000000000000FF0000000000000000FFFFFF0000FFFFFFFF00000000000000FF000000000000FF0000000000000000
1004
FFFF0000000000FFFF00000000000000FF000000000000FF000000000000FCFFFF000000000000FFFFFF000000000000FF000000000000FF000000000000FCFFFF000000000000FFFFFC000000000000FF000000000000FF0000000000000000FFFF0000000000FFFF00000000000000FF000000000000FF00000000000000
1004
00FFFF00000000FFE0FF00000000000000FF000000000000FF0000000000000000FFFFFFFFFFFFFFFFFF00000000000000FF000000000000FF0000000000000000FC00FFFFFFFF00FC0000000000000000FF000000000000FF0000000000000000000000FFFF0000000000000000000000FF00000000000000FF0000000000
1004
0000000000000000000000000000000000FF000000000000000000FF000000000000000000FF00000000000000000000FF0000000000000000000000FF00000000FFFFFFFFFFFFFFFF000000000000FF00000000000000000000000000FF000000FFFFFFFFFF0000000000000000FF000000000000000000000000000000FF
1004
0000000000000000000000000000FF0000000000000000000000000000000000FF000000000000000000000000FF00000000000000000000000000000000000000FFFFFFFFFFFFFFFFFFFFFFFF0000000000000000000000000000000000000000000000000000000000000000000000000000000000000000000000000000
1004
0000000000000000000000000000000000000000000000000000000000000000000000000000000000000000000000000000000000000000
  0
BLOCK_RECORD
  5
723
330
1
100
AcDbSymbolTableRecord
100
AcDbBlockTableRecord
  2
*U1
  0
BLOCK_RECORD
  5
75E
330
1
100
AcDbSymbolTableRecord
100
AcDbBlockTableRecord
  2
*U2
  0
ENDTAB
  0
ENDSEC
  0
SECTION
  2
BLOCKS
  0
BLOCK
  5
20
330
1F
100
AcDbEntity
  8
0
100
AcDbBlockBegin
  2
*MODEL_SPACE
 70
     0
 10
0.0
 20
0.0
 30
0.0
  3
*MODEL_SPACE
  1

  0
ENDBLK
  5
21
330
1F
100
AcDbEntity
  8
0
100
AcDbBlockEnd
  0
BLOCK
  5
52
330
50
100
AcDbEntity
 67
     1
  8
0
100
AcDbBlockBegin
  2
*PAPER_SPACE
 70
     0
 10
0.0
 20
0.0
 30
0.0
  3
*PAPER_SPACE
  1

  0
ENDBLK
  5
53
330
50
100
AcDbEntity
 67
     1
  8
0
100
AcDbBlockEnd
  0
BLOCK
  5
102
330
101
100
AcDbEntity
  8
0
100
AcDbBlockBegin
  2
AFKB
 70
     0
 10
0.0
 20
0.0
 30
0.0
  3
AFKB
  1

  0
INSERT
  5
702
330
101
100
AcDbEntity
  8
HATCH
  6
CONTINUOUS
 62
     1
100
AcDbBlockReference
  2
*U1
 10
0.0
 20
0.0
 30
0.0
1001
ACAD
1002
{
1000
R14_HATCH_DATA
1000
702
1011
1.0
1021
0.0
1031
0.0
1011
0.0
1021
1.0
1031
0.0
1011
0.0
1021
0.0
1031
1.0
1040
0.0
1010
0.0
1020
0.0
1030
1.0
1000
SOLID
1070
     1
1070
     0
1071
        8
1071
        7
1070
     1
1070
     1
1071
        6
1040
6870.620790231881
1040
4062.143908939579
1040
0.0
1040
6576.936468555614
1040
4183.79193803423
1040
-0.0707072449385222
1040
6583.27291711765
1040
4139.208321453383
1040
-0.2734657842788299
1040
6500.3997820826
1040
3999.016031531978
1040
0.0
1040
6794.084103758866
1040
3877.368002437327
1040
-0.0707072449385207
1040
6787.74765519683
1040
3921.951619018173
1040
-0.2734657842788333
1071
        0
1071
        7
1070
     1
1070
     1
1071
        6
1040
5975.895704547052
1040
4062.143908939577
1040
-0.2734657842788373
1040
6058.768839582103
1040
3921.95161901817
1040
-0.0707072449385273
1040
6052.432391020069
1040
3877.36800243732
1040
0.0
1040
6346.116712696336
1040
3999.016031531974
1040
-0.2734657842788407
1040
6263.243577661282
1040
4139.208321453383
1040
-0.0707072449385238
1040
6269.580026223318
1040
4183.791938034231
1040
0.0
1071
        0
1071
        7
1070
     1
1070
     1
1071
        4
1040
5636.913850837856
1040
3551.125762648772
1040
-0.3509591802044506
1040
5821.689757340115
1040
3474.589076175755
1040
0.0
1040
5943.337786434771
1040
3768.273397852022
1040
-0.3509591802044557
1040
5758.561879932511
1040
3844.810084325043
1040
0.0
1071
        0
1071
        7
1070
     1
1070
     1
1071
        4
1040
5758.56187993251
1040
2950.084998640209
1040
-0.3509591802044488
1040
5943.337786434767
1040
3026.621685113226
1040
0.0
1040
5821.689757340113
1040
3320.306006789492
1040
-0.350959180204443
1040
5636.913850837857
1040
3243.769320316478
1040
0.0
1071
        0
1071
        7
1070
     1
1070
     1
1071
        6
1040
6052.432391020063
1040
2917.527080527932
1040
-0.0707072449385335
1040
6058.7688395821
1040
2872.943463947078
1040
-0.273465784278839
1040
5975.895704547047
1040
2732.75117402567
1040
0.0
1040
6269.580026223319
1040
2611.103144931015
1040
-0.0707072449385311
1040
6263.243577661282
1040
2655.686761511867
1040
-0.2734657842788373
1040
6346.116712696335
1040
2795.879051433275
1040
0.0
1071
        0
1071
        7
1070
     1
1070
     1
1071
        6
1040
6870.620790231888
1040
2732.75117402567
1040
-0.2734657842788515
1040
6787.747655196828
1040
2872.943463947082
1040
-0.0707072449385148
1040
6794.084103758862
1040
2917.527080527924
1040
0.0
1040
6500.399782082594
1040
2795.879051433276
1040
-0.2734657842788407
1040
6583.27291711765
1040
2655.686761511867
1040
-0.0707072449385281
1040
6576.936468555612
1040
2611.103144931016
1040
0.0
1071
        0
1071
        7
1070
     1
1070
     1
1071
        4
1040
7024.826737438816
1040
3320.306006789492
1040
0.0
1040
6903.178708344166
1040
3026.62168511323
1040
-0.3509591802044489
1040
7087.954614846421
1040
2950.084998640209
1040
0.0
1040
7209.602643941074
1040
3243.769320316477
1040
-0.3509591802044513
1071
        0
1071
        7
1070
     1
1070
     1
1071
        4
1040
6903.178708344166
1040
3768.273397852025
1040
0.0
1040
7024.826737438814
1040
3474.589076175754
1040
-0.3509591802044503
1040
7209.602643941074
1040
3551.12576264877
1040
0.0
1040
7087.95461484642
1040
3844.810084325041
1040
-0.3509591802044442
1071
        0
1070
     0
1070
     1
1040
4.601969501428083
1071
        8
1040
6714.595859096604
1040
4008.797496671064
1040
0.0
1040
6152.748725650479
1040
4045.613254568574
1040
0.0
1040
5775.113767384348
1040
3714.271444434016
1040
0.0
1040
5775.113767384348
1040
3111.413447162915
1040
0.0
1040
6221.828293475097
1040
2789.275576502734
1040
0.0
1040
6696.174643284303
1040
2752.459818605224
1040
0.0
1040
7106.046720693481
1040
3231.064649386786
1040
0.0
1040
7041.572465350423
1040
3741.883262857149
1040
0.0
1002
}
  0
INSERT
  5
703
330
101
100
AcDbEntity
  8
HATCH
  6
CONTINUOUS
 62
     2
100
AcDbBlockReference
  2
*U2
 10
0.0
 20
0.0
 30
0.0
1001
ACAD
1002
{
1000
R14_HATCH_DATA
1000
703
1011
1.0
1021
0.0
1031
0.0
1011
0.0
1021
1.0
1031
0.0
1011
0.0
1021
0.0
1031
1.0
1040
0.0
1010
0.0
1020
0.0
1030
1.0
1000
SOLID
1070
     1
1070
     0
1071
        8
1071
        7
1070
     1
1070
     1
1071
        2
1040
6583.27291711765
1040
4139.208321453383
1040
1.0
1040
6263.243577661282
1040
4139.208321453383
1040
1.0
1071
        0
1071
        7
1070
     1
1070
     1
1071
        2
1040
7107.776994653197
1040
3921.951619018173
1040
1.0
1040
6787.74765519683
1040
3921.951619018173
1040
1.0
1071
        0
1071
        7
1070
     1
1070
     1
1071
        2
1040
7325.033697088406
1040
3397.447541482623
1040
1.0
1040
7005.004357632039
1040
3397.447541482623
1040
1.0
1071
        0
1071
        7
1070
     1
1070
     1
1071
        2
1040
7107.776994653196
1040
2872.943463947082
1040
1.0
1040
6787.747655196828
1040
2872.943463947082
1040
1.0
1071
        0
1071
        7
1070
     1
1070
     1
1071
        2
1040
6583.27291711765
1040
2655.686761511867
1040
1.0
1040
6263.243577661282
1040
2655.686761511867
1040
1.0
1071
        0
1071
        7
1070
     1
1070
     1
1071
        2
1040
6058.7688395821
1040
2872.943463947078
1040
1.0
1040
5738.739500125734
1040
2872.943463947078
1040
1.0
1071
        0
1071
        7
1070
     1
1070
     1
1071
        2
1040
5841.51213714689
1040
3397.447541482625
1040
1.0
1040
5521.482797690524
1040
3397.447541482625
1040
1.0
1071
        0
1071
        7
1070
     1
1070
     1
1071
        2
1040
6058.768839582103
1040
3921.95161901817
1040
1.0
1040
5738.739500125737
1040
3921.95161901817
1040
1.0
1071
        0
1070
     0
1070
     1
1040
4.601969501428083
1071
        8
1040
6511.962468104309
1040
4100.836891414841
1040
0.0
1040
6875.781505982733
1040
3893.748258712861
1040
0.0
1040
7138.283856893493
1040
3364.521766293743
1040
0.0
1040
6995.519425819669
1040
2830.693298665914
1040
0.0
1040
6470.514723998146
1040
2646.6145201214
1040
0.0
1040
5922.483510939732
1040
2858.305117089048
1040
0.0
1040
5706.03419955973
1040
3350.715862553696
1040
0.0
1040
5917.878198458173
1040
3898.350233921572
1040
0.0
1002
}
  0
MTEXT
  5
704
330
101
100
AcDbEntity
  8
TEKST
100
AcDbMText
 10
5695.588079786539
 20
5007.034097400694
 30
0.0
 40
100.0
 41
1657.8662
 71
     1
 72
     1
  1
{\FIMPACT.TTF;Hoogte: 34cm\PMax. valhoogte: 34 cm}
1001
ACAD
1000
MTEXTBEGIN
1070
    73
1070
     1
1070
    44
1040
1.0
1070
    74
1070
     0
1000
MTEXTEND
1000
MTEXTBEGIN
1070
    73
1070
     1
1070
    44
1040
1.0
1070
    74
1070
     0
1000
MTEXTEND
1000
MTEXTBEGIN
1070
    73
1070
     1
1070
    44
1040
1.0
1070
    74
1070
     0
1000
MTEXTEND
  0
REGION
  5
705
330
101
100
AcDbEntity
  8
SAFETY
 48
5.0
100
AcDbModelerGeometry
 70
     1
  1
noi ki n o          
  1
=0;& {rn {n {rn {rn |
  1
3*2/ {rn {rn {m {o |
  1
,7:33 {rn {rn {rn {l {n |
  1
9><: {rn {rn {k {m {rn {j 90-(>-; ;0*=3: 0*+ |
  1
300/ {rn {rn {i {l |
  1
/3>1:r,*-9><: {rn ikolqfjkogimofjnof llfhqkkhjknkgmimij ggjqlmihonmllmiljm o o n n o o o V V V V |
  1
<0:;8: {rn {h {g {rn {f o {k {rn |
  1
<0:;8: {rn {no {i {rn {nn o {k {rn |
  1
<0:;8: {rn {i {nm {rn {nl o {k {rn |
  1
:;8: {rn {nk {nj {i {ni o |
  1
<0:;8: {rn {nh {h {rn {ng o {k {rn |
  1
:;8: {rn {nj {nf {h {mo o |
  1
<0:;8: {rn {g {mn {rn {mm o {k {rn |
  1
:;8: {rn {ml {nk {g {mk o |
  1
):-+:' {rn {f {mj |
  1
):-+:' {rn {f {mi |
  1
:336/,:r<*-): {rn ikolqfjkogimofjnof kmkhqkkhjknkgmimkh ggjqlmihonmllmiljm o o n nqjgkifjmkgknilhli:ronm nkffqffffffffffffn o n Y roqinnmgfikfoomfhjih Y oqinnmgfikfoomfhjnn |
  1
<0:;8: {rn {mh {no {rn {mg o {k {rn |
  1
:;8: {rn {nf {mf {no {lo o |
  1
):-+:' {rn {nn {ln |
  1
:336/,:r<*-): {rn jgomqfnllmmmoofkjf lffgqkgglojkfnngfh ggjqlmihonmllmiljm o o n rnoioqiionhnhhfgmon noioqiionhnhhfgmll o n Y roqinnmgfikfoomfhhkk Y oqinnmgfikfoomfhiii |
  1
<0:;8: {rn {nm {mh {rn {lm o {k {rn |
  1
:;8: {rn {ll {ml {nm {lk o |
  1
):-+:' {rn {mm {lj |
  1
:336/,:r<*-): {rn hookqffkgjomngohi lffgqkgglojkfnngfh ggjqlmihonmllmiljm o o n noioqiionhnhhfgmnf noioqiionhnhhfgmol o n Y roqinnmgfikfoomfhihg Y oqinnmgfikfoomfhhnn |
  1
/061+ {rn hmikqgkonkghonhgfn jkhjqgnolkfmofkjkm ggjqlmihonmllmiljm |
  1
/061+ {rn jjklqoigomlhnhmlik jkhjqgnolkfmofkji ggjqlmihonmllmiljm |
  1
<0:;8: {rn {mn {nh {rn {li o {k {rn |
  1
:;8: {rn {mf {lh {nh {lg o |
  1
):-+:' {rn {ng {lf |
  1
:336/,:r<*-): {rn jjjlqfjkogimofjofn llfhqkkhjknkgmimij ggjqlmihonmllmiljm o o n rnkffqfffffffffffgi lqniflfokfiglmhkik:ronm o n Y roqinnmgfikfoomfhjmm Y oqinnmgfikfoomfhinn |
  1
/061+ {rn klmjqjfnmhgkgmignk kmjgqllliolfhkfokh ggjqlmihonmllmiljm |
  1
:;8: {rn {ko {ll {mn {kn o |
  1
):-+:' {rn {lm {km |
  1
:336/,:r<*-): {rn hmjlqfjkogimofjnmg llfhqkkhjknkgmimmf ggjqlmihonmllmiljm o o n nkffqfffffffffffhh rnqjgkifjmkgknilihn:ronm o n Y roqinnmgfikfoomfhg Y oqinnmgfikfoomfhgkk |
  1
/061+ {rn gkgmqlnigflflilkok kmjgqllliolfhkfonn ggjqlmihonmllmiljm |
  1
:;8: {rn {lh {ko {mh {kl o |
  1
):-+:' {rn {mg {kk |
  1
:336/,:r<*-): {rn jgomqfnllmmmoofkkn mhfiqkoihhhkhkojfh ggjqlmihonmllmiljm o o n rnoioqiionhnhhfgmmn rnoioqiionhnhhfgmoj o n Y roqinnmgfikfoomfhfkk Y oqinnmgfikfoomfhgll |
  1
/061+ {rn klmjqjfnmhgkgmihhg mjliqjinkhgffoljm ggjqlmihonmllmiljm |
  1
):-+:' {rn {li {kj |
  1
:336/,:r<*-): {rn hookqffkgjomngohi mhfiqkoihhhkhkoill ggjqlmihonmllmiljm o o n noioqiionhnhhfgnfk rnoioqiionhnhhfgmmi o n Y roqinnmgfikfoomfhlih Y oqinnmgfikfoomfhmhg |
  1
/061+ {rn gkgmqlnigflflillgi mjliqjinkhgffolkmf ggjqlmihonmllmiljm |
  1
:336/,:r<*-): {rn ikolqfjkogimofjofn mjkhqkkhjknkgmimij ggjqlmihonmllmiljm o o n lqniflfokfiglmhlgl:ronm rnkffqffffffffffffg o n Y roqinnmgfikfoomfhhnn Y oqinnmgfikfoomfhhmm |
  1
/061+ {rn jjklqoigomlhnhmlmg nlnfqogkhllhjjhfjm ggjqlmihonmllmiljm |
  1
/061+ {rn hmikqgkonkghonhfof nlnfqogkhllhjjhfgf ggjqlmihonmllmiljm |
1001
AVE_FINISH
1002
{
1070
     0
1005
0
1002
}
  0
LINE
  5
706
330
101
100
AcDbEntity
  8
OBJECT
100
AcDbLine
 10
6500.399782082595
 20
2795.879051433276
 30
1020.0
 11
6794.084103758864
 21
2917.527080527925
 31
1020.0
  0
CIRCLE
  5
707
330
101
100
AcDbEntity
  8
OBJECT
100
AcDbCircle
 10
6947.762324925012
 20
2872.943463947082
 30
1020.0
 40
160.0146697281831
  0
LINE
  5
708
330
101
100
AcDbEntity
  8
OBJECT
100
AcDbLine
 10
6052.432391020063
 20
2917.527080527932
 30
1020.0
 11
6346.116712696332
 21
2795.879051433276
 31
1020.0
  0
CIRCLE
  5
709
330
101
100
AcDbEntity
  8
OBJECT
100
AcDbCircle
 10
5898.754169853917
 20
2872.943463947078
 30
1020.0
 40
160.0146697281831
  0
CIRCLE
  5
70A
330
101
100
AcDbEntity
  8
OBJECT
100
AcDbCircle
 10
6423.258247389465
 20
2655.686761511867
 30
1020.0
 40
160.0146697281831
  0
LINE
  5
70B
330
101
100
AcDbEntity
  8
OBJECT
100
AcDbLine
 10
5975.895704547047
 20
2732.75117402567
 30
1020.0
 11
6269.580026223317
 21
2611.103144931016
 31
1020.0
  0
LINE
  5
70C
330
101
100
AcDbEntity
  8
OBJECT
100
AcDbLine
 10
6576.93646855561
 20
2611.103144931016
 30
1020.0
 11
6870.620790231888
 21
2732.75117402567
 31
1020.0
  0
LINE
  5
70D
330
101
100
AcDbEntity
  8
OBJECT
100
AcDbLine
 10
7209.602643941074
 20
3551.125762648769
 30
1020.0
 11
7087.95461484642
 21
3844.810084325041
 31
1020.0
  0
LINE
  5
70E
330
101
100
AcDbEntity
  8
OBJECT
100
AcDbLine
 10
7087.95461484642
 20
2950.084998640208
 30
1020.0
 11
7209.602643941074
 21
3243.769320316475
 31
1020.0
  0
CIRCLE
  5
70F
330
101
100
AcDbEntity
  8
OBJECT
100
AcDbCircle
 10
7165.019027360223
 20
3397.447541482623
 30
1020.0
 40
160.0146697281831
  0
LINE
  5
710
330
101
100
AcDbEntity
  8
OBJECT
100
AcDbLine
 10
5758.561879932511
 20
3844.810084325043
 30
1020.0
 11
5636.913850837856
 21
3551.125762648773
 31
1020.0
  0
LINE
  5
711
330
101
100
AcDbEntity
  8
OBJECT
100
AcDbLine
 10
5636.913850837856
 20
3243.769320316479
 30
1020.0
 11
5758.56187993251
 21
2950.08499864021
 31
1020.0
  0
CIRCLE
  5
712
330
101
100
AcDbEntity
  8
OBJECT
100
AcDbCircle
 10
5681.497467418707
 20
3397.447541482625
 30
1020.0
 40
160.0146697281831
  0
CIRCLE
  5
713
330
101
100
AcDbEntity
  8
OBJECT
100
AcDbCircle
 10
5898.754169853921
 20
3921.95161901817
 30
1020.0
 40
160.0146697281831
  0
CIRCLE
  5
714
330
101
100
AcDbEntity
  8
OBJECT
100
AcDbCircle
 10
6947.762324925014
 20
3921.951619018173
 30
1020.0
 40
160.0146697281831
  0
LINE
  5
715
330
101
100
AcDbEntity
  8
OBJECT
100
AcDbLine
 10
5821.689757340114
 20
3320.306006789491
 30
1020.0
 11
5943.337786434767
 21
3026.621685113225
 31
1020.0
  0
LINE
  5
716
330
101
100
AcDbEntity
  8
OBJECT
100
AcDbLine
 10
5943.337786434771
 20
3768.273397852022
 30
1020.0
 11
5821.689757340115
 21
3474.589076175756
 31
1020.0
  0
LINE
  5
717
330
101
100
AcDbEntity
  8
OBJECT
100
AcDbLine
 10
6903.178708344166
 20
3026.62168511323
 30
1020.0
 11
7024.826737438816
 21
3320.306006789492
 31
1020.0
  0
LINE
  5
718
330
101
100
AcDbEntity
  8
OBJECT
100
AcDbLine
 10
7024.826737438816
 20
3474.589076175753
 30
1020.0
 11
6903.178708344166
 21
3768.273397852022
 31
1020.0
  0
CIRCLE
  5
719
330
101
100
AcDbEntity
  8
OBJECT
100
AcDbCircle
 10
6423.258247389465
 20
4139.208321453383
 30
1020.0
 40
160.0146697281831
  0
LINE
  5
71A
330
101
100
AcDbEntity
  8
OBJECT
100
AcDbLine
 10
6346.116712696336
 20
3999.016031531974
 30
1020.0
 11
6052.432391020069
 21
3877.36800243732
 31
1020.0
  0
LINE
  5
71B
330
101
100
AcDbEntity
  8
OBJECT
100
AcDbLine
 10
6269.580026223317
 20
4183.791938034231
 30
1020.0
 11
5975.895704547053
 21
4062.143908939579
 31
1020.0
  0
LINE
  5
71C
330
101
100
AcDbEntity
  8
OBJECT
100
AcDbLine
 10
6794.084103758867
 20
3877.368002437326
 30
1020.0
 11
6500.399782082602
 21
3999.016031531977
 31
1020.0
  0
LINE
  5
71D
330
101
100
AcDbEntity
  8
OBJECT
100
AcDbLine
 10
6870.620790231882
 20
4062.143908939579
 30
1020.0
 11
6576.936468555612
 21
4183.791938034231
 31
1020.0
  0
ENDBLK
  5
103
330
101
100
AcDbEntity
  8
0
100
AcDbBlockEnd
  0
BLOCK
  5
75C
330
723
100
AcDbEntity
  8
0
100
AcDbBlockBegin
  2
*U1
 70
     1
 10
0.0
 20
0.0
 30
0.0
  3
*U1
  1

  0
SOLID
  5
724
330
723
100
AcDbEntity
  8
HATCH
  6
CONTINUOUS
 62
     1
100
AcDbTrace
 10
6870.620790231888
 20
2732.75117402567
 30
0.0
 11
6583.27291711765
 21
2655.686761511867
 31
0.0
 12
6581.680885185545
 22
2633.170936811183
 32
0.0
 13
6581.680885185545
 23
2633.170936811183
 33
0.0
210
0.0
220
0.0
230
1.0
  0
SOLID
  5
725
330
723
100
AcDbEntity
  8
HATCH
  6
CONTINUOUS
 62
     1
100
AcDbTrace
 10
6870.620790231888
 20
2732.75117402567
 30
0.0
 11
6581.680885185545
 21
2633.170936811183
 31
0.0
 12
6576.936468555612
 22
2611.103144931016
 32
0.0
 13
6576.936468555612
 23
2611.103144931016
 33
0.0
  0
SOLID
  5
726
330
723
100
AcDbEntity
  8
HATCH
  6
CONTINUOUS
 62
     1
100
AcDbTrace
 10
5975.895704547047
 20
2732.75117402567
 30
0.0
 11
6264.835609593387
 21
2633.170936811183
 31
0.0
 12
6263.243577661282
 22
2655.686761511867
 32
0.0
 13
6263.243577661282
 23
2655.686761511867
 33
0.0
210
0.0
220
0.0
230
1.0
  0
SOLID
  5
727
330
723
100
AcDbEntity
  8
HATCH
  6
CONTINUOUS
 62
     1
100
AcDbTrace
 10
5975.895704547047
 20
2732.75117402567
 30
0.0
 11
6269.580026223319
 21
2611.103144931015
 31
0.0
 12
6264.835609593387
 22
2633.170936811183
 32
0.0
 13
6264.835609593387
 23
2633.170936811183
 33
0.0
210
0.0
220
0.0
230
1.0
  0
SOLID
  5
728
330
723
100
AcDbEntity
  8
HATCH
  6
CONTINUOUS
 62
     1
100
AcDbTrace
 10
6285.511247922206
 20
2737.114389906574
 30
0.0
 11
5975.895704547047
 21
2732.75117402567
 31
0.0
 12
6263.243577661282
 22
2655.686761511867
 32
0.0
 13
6263.243577661282
 23
2655.686761511867
 33
0.0
210
0.0
220
0.0
230
1.0
  0
SOLID
  5
729
330
723
100
AcDbEntity
  8
HATCH
  6
CONTINUOUS
 62
     1
100
AcDbTrace
 10
6561.005246856723
 20
2737.114389906575
 30
0.0
 11
6583.27291711765
 21
2655.686761511867
 31
0.0
 12
6870.620790231888
 22
2732.75117402567
 32
0.0
 13
6870.620790231888
 23
2732.75117402567
 33
0.0
210
0.0
220
0.0
230
1.0
  0
SOLID
  5
72A
330
723
100
AcDbEntity
  8
HATCH
  6
CONTINUOUS
 62
     1
100
AcDbTrace
 10
6036.501169321176
 20
2791.51583555237
 30
0.0
 11
5975.895704547047
 21
2732.75117402567
 31
0.0
 12
6285.511247922206
 22
2737.114389906574
 32
0.0
 13
6285.511247922206
 23
2737.114389906574
 33
0.0
210
0.0
220
0.0
230
1.0
  0
SOLID
  5
72B
330
723
100
AcDbEntity
  8
HATCH
  6
CONTINUOUS
 62
     1
100
AcDbTrace
 10
6810.015325457754
 20
2791.515835552371
 30
0.0
 11
6561.005246856723
 21
2737.114389906575
 31
0.0
 12
6870.620790231888
 22
2732.75117402567
 32
0.0
 13
6870.620790231888
 23
2732.75117402567
 33
0.0
210
0.0
220
0.0
230
1.0
  0
SOLID
  5
72C
330
723
100
AcDbEntity
  8
HATCH
  6
CONTINUOUS
 62
     1
100
AcDbTrace
 10
6346.116712696335
 20
2795.879051433275
 30
0.0
 11
6036.501169321176
 21
2791.51583555237
 31
0.0
 12
6285.511247922206
 22
2737.114389906574
 32
0.0
 13
6285.511247922206
 23
2737.114389906574
 33
0.0
210
0.0
220
0.0
230
1.0
  0
SOLID
  5
72D
330
723
100
AcDbEntity
  8
HATCH
  6
CONTINUOUS
 62
     1
100
AcDbTrace
 10
6500.399782082594
 20
2795.879051433276
 30
0.0
 11
6561.005246856723
 21
2737.114389906575
 31
0.0
 12
6810.015325457754
 22
2791.515835552371
 32
0.0
 13
6810.015325457754
 23
2791.515835552371
 33
0.0
  0
SOLID
  5
72E
330
723
100
AcDbEntity
  8
HATCH
  6
CONTINUOUS
 62
     1
100
AcDbTrace
 10
6058.7688395821
 20
2872.943463947078
 30
0.0
 11
6036.501169321176
 21
2791.51583555237
 31
0.0
 12
6346.116712696335
 22
2795.879051433275
 32
0.0
 13
6346.116712696335
 23
2795.879051433275
 33
0.0
210
0.0
220
0.0
230
1.0
  0
SOLID
  5
72F
330
723
100
AcDbEntity
  8
HATCH
  6
CONTINUOUS
 62
     1
100
AcDbTrace
 10
6787.747655196828
 20
2872.943463947082
 30
0.0
 11
6500.399782082594
 21
2795.879051433276
 31
0.0
 12
6810.015325457754
 22
2791.515835552371
 32
0.0
 13
6810.015325457754
 23
2791.515835552371
 33
0.0
210
0.0
220
0.0
230
1.0
  0
SOLID
  5
730
330
723
100
AcDbEntity
  8
HATCH
  6
CONTINUOUS
 62
     1
100
AcDbTrace
 10
6789.339687128933
 20
2895.459288647761
 30
0.0
 11
6500.399782082594
 21
2795.879051433276
 31
0.0
 12
6787.747655196828
 22
2872.943463947082
 32
0.0
 13
6787.747655196828
 23
2872.943463947082
 33
0.0
210
0.0
220
0.0
230
1.0
  0
SOLID
  5
731
330
723
100
AcDbEntity
  8
HATCH
  6
CONTINUOUS
 62
     1
100
AcDbTrace
 10
6057.176807649995
 20
2895.459288647763
 30
0.0
 11
6058.7688395821
 21
2872.943463947078
 31
0.0
 12
6346.116712696335
 22
2795.879051433275
 32
0.0
 13
6346.116712696335
 23
2795.879051433275
 33
0.0
210
0.0
220
0.0
230
1.0
  0
SOLID
  5
732
330
723
100
AcDbEntity
  8
HATCH
  6
CONTINUOUS
 62
     1
100
AcDbTrace
 10
6794.084103758862
 20
2917.527080527924
 30
0.0
 11
6500.399782082594
 21
2795.879051433276
 31
0.0
 12
6789.339687128933
 22
2895.459288647761
 32
0.0
 13
6789.339687128933
 23
2895.459288647761
 33
0.0
210
0.0
220
0.0
230
1.0
  0
SOLID
  5
733
330
723
100
AcDbEntity
  8
HATCH
  6
CONTINUOUS
 62
     1
100
AcDbTrace
 10
6052.432391020063
 20
2917.527080527932
 30
0.0
 11
6057.176807649995
 21
2895.459288647763
 31
0.0
 12
6346.116712696335
 22
2795.879051433275
 32
0.0
 13
6346.116712696335
 23
2795.879051433275
 33
0.0
210
0.0
220
0.0
230
1.0
  0
SOLID
  5
734
330
723
100
AcDbEntity
  8
HATCH
  6
CONTINUOUS
 62
     1
100
AcDbTrace
 10
7138.313371556414
 20
3239.677130833769
 30
0.0
 11
6974.467980728826
 21
3030.713874595935
 31
0.0
 12
7040.439101850497
 22
3003.387741502381
 32
0.0
 13
7040.439101850497
 23
3003.387741502381
 33
0.0
210
0.0
220
0.0
230
1.0
  0
SOLID
  5
735
330
723
100
AcDbEntity
  8
HATCH
  6
CONTINUOUS
 62
     1
100
AcDbTrace
 10
7138.313371556414
 20
3239.677130833769
 30
0.0
 11
7040.439101850497
 21
3003.387741502381
 31
0.0
 12
7087.954614846421
 22
2950.084998640209
 32
0.0
 13
7087.954614846421
 23
2950.084998640209
 33
0.0
210
0.0
220
0.0
230
1.0
  0
SOLID
  5
736
330
723
100
AcDbEntity
  8
HATCH
  6
CONTINUOUS
 62
     1
100
AcDbTrace
 10
7138.313371556414
 20
3239.677130833769
 30
0.0
 11
6903.178708344166
 21
3026.62168511323
 31
0.0
 12
6974.467980728826
 22
3030.713874595935
 32
0.0
 13
6974.467980728826
 23
3030.713874595935
 33
0.0
210
0.0
220
0.0
230
1.0
  0
SOLID
  5
737
330
723
100
AcDbEntity
  8
HATCH
  6
CONTINUOUS
 62
     1
100
AcDbTrace
 10
5708.203123222516
 20
3239.677130833772
 30
0.0
 11
5872.048514050106
 21
3030.713874595932
 31
0.0
 12
5943.337786434767
 22
3026.621685113226
 32
0.0
 13
5943.337786434767
 23
3026.621685113226
 33
0.0
210
0.0
220
0.0
230
1.0
  0
SOLID
  5
738
330
723
100
AcDbEntity
  8
HATCH
  6
CONTINUOUS
 62
     1
100
AcDbTrace
 10
5708.203123222516
 20
3239.677130833772
 30
0.0
 11
5806.077392928436
 21
3003.387741502379
 31
0.0
 12
5872.048514050106
 22
3030.713874595932
 32
0.0
 13
5872.048514050106
 23
3030.713874595932
 33
0.0
210
0.0
220
0.0
230
1.0
  0
SOLID
  5
739
330
723
100
AcDbEntity
  8
HATCH
  6
CONTINUOUS
 62
     1
100
AcDbTrace
 10
5708.203123222516
 20
3239.677130833772
 30
0.0
 11
5758.56187993251
 21
2950.084998640209
 31
0.0
 12
5806.077392928436
 22
3003.387741502379
 32
0.0
 13
5806.077392928436
 23
3003.387741502379
 33
0.0
210
0.0
220
0.0
230
1.0
  0
SOLID
  5
73A
330
723
100
AcDbEntity
  8
HATCH
  6
CONTINUOUS
 62
     1
100
AcDbTrace
 10
7209.602643941074
 20
3243.769320316477
 30
0.0
 11
7138.313371556414
 21
3239.677130833769
 31
0.0
 12
7087.954614846421
 22
2950.084998640209
 32
0.0
 13
7087.954614846421
 23
2950.084998640209
 33
0.0
210
0.0
220
0.0
230
1.0
  0
SOLID
  5
73B
330
723
100
AcDbEntity
  8
HATCH
  6
CONTINUOUS
 62
     1
100
AcDbTrace
 10
5636.913850837857
 20
3243.769320316478
 30
0.0
 11
5758.56187993251
 21
2950.084998640209
 31
0.0
 12
5708.203123222516
 22
3239.677130833772
 32
0.0
 13
5708.203123222516
 23
3239.677130833772
 33
0.0
210
0.0
220
0.0
230
1.0
  0
SOLID
  5
73C
330
723
100
AcDbEntity
  8
HATCH
  6
CONTINUOUS
 62
     1
100
AcDbTrace
 10
7072.342250434743
 20
3267.003263927322
 30
0.0
 11
6903.178708344166
 21
3026.62168511323
 31
0.0
 12
7138.313371556414
 22
3239.677130833769
 32
0.0
 13
7138.313371556414
 23
3239.677130833769
 33
0.0
  0
SOLID
  5
73D
330
723
100
AcDbEntity
  8
HATCH
  6
CONTINUOUS
 62
     1
100
AcDbTrace
 10
5774.174244344187
 20
3267.003263927324
 30
0.0
 11
5708.203123222516
 21
3239.677130833772
 31
0.0
 12
5943.337786434767
 22
3026.621685113226
 32
0.0
 13
5943.337786434767
 23
3026.621685113226
 33
0.0
210
0.0
220
0.0
230
1.0
  0
SOLID
  5
73E
330
723
100
AcDbEntity
  8
HATCH
  6
CONTINUOUS
 62
     1
100
AcDbTrace
 10
7024.826737438816
 20
3320.306006789492
 30
0.0
 11
6903.178708344166
 21
3026.62168511323
 31
0.0
 12
7072.342250434743
 22
3267.003263927322
 32
0.0
 13
7072.342250434743
 23
3267.003263927322
 33
0.0
  0
SOLID
  5
73F
330
723
100
AcDbEntity
  8
HATCH
  6
CONTINUOUS
 62
     1
100
AcDbTrace
 10
5821.689757340113
 20
3320.306006789492
 30
0.0
 11
5774.174244344187
 21
3267.003263927324
 31
0.0
 12
5943.337786434767
 22
3026.621685113226
 32
0.0
 13
5943.337786434767
 23
3026.621685113226
 33
0.0
210
0.0
220
0.0
230
1.0
  0
SOLID
  5
740
330
723
100
AcDbEntity
  8
HATCH
  6
CONTINUOUS
 62
     1
100
AcDbTrace
 10
5872.048514050109
 20
3764.181208369316
 30
0.0
 11
5708.203123222517
 21
3555.217952131479
 31
0.0
 12
5774.174244344187
 22
3527.891819037925
 32
0.0
 13
5774.174244344187
 23
3527.891819037925
 33
0.0
210
0.0
220
0.0
230
1.0
  0
SOLID
  5
741
330
723
100
AcDbEntity
  8
HATCH
  6
CONTINUOUS
 62
     1
100
AcDbTrace
 10
5872.048514050109
 20
3764.181208369316
 30
0.0
 11
5774.174244344187
 21
3527.891819037925
 31
0.0
 12
5821.689757340115
 22
3474.589076175755
 32
0.0
 13
5821.689757340115
 23
3474.589076175755
 33
0.0
210
0.0
220
0.0
230
1.0
  0
SOLID
  5
742
330
723
100
AcDbEntity
  8
HATCH
  6
CONTINUOUS
 62
     1
100
AcDbTrace
 10
5872.048514050109
 20
3764.181208369316
 30
0.0
 11
5636.913850837856
 21
3551.125762648772
 31
0.0
 12
5708.203123222517
 22
3555.217952131479
 32
0.0
 13
5708.203123222517
 23
3555.217952131479
 33
0.0
  0
SOLID
  5
743
330
723
100
AcDbEntity
  8
HATCH
  6
CONTINUOUS
 62
     1
100
AcDbTrace
 10
6974.467980728825
 20
3764.181208369319
 30
0.0
 11
7138.313371556413
 21
3555.217952131477
 31
0.0
 12
7209.602643941074
 22
3551.12576264877
 32
0.0
 13
7209.602643941074
 23
3551.12576264877
 33
0.0
  0
SOLID
  5
744
330
723
100
AcDbEntity
  8
HATCH
  6
CONTINUOUS
 62
     1
100
AcDbTrace
 10
6974.467980728825
 20
3764.181208369319
 30
0.0
 11
7072.342250434743
 21
3527.891819037924
 31
0.0
 12
7138.313371556413
 22
3555.217952131477
 32
0.0
 13
7138.313371556413
 23
3555.217952131477
 33
0.0
210
0.0
220
0.0
230
1.0
  0
SOLID
  5
745
330
723
100
AcDbEntity
  8
HATCH
  6
CONTINUOUS
 62
     1
100
AcDbTrace
 10
6974.467980728825
 20
3764.181208369319
 30
0.0
 11
7024.826737438814
 21
3474.589076175754
 31
0.0
 12
7072.342250434743
 22
3527.891819037924
 32
0.0
 13
7072.342250434743
 23
3527.891819037924
 33
0.0
210
0.0
220
0.0
230
1.0
  0
SOLID
  5
746
330
723
100
AcDbEntity
  8
HATCH
  6
CONTINUOUS
 62
     1
100
AcDbTrace
 10
5943.337786434771
 20
3768.273397852022
 30
0.0
 11
5872.048514050109
 21
3764.181208369316
 31
0.0
 12
5821.689757340115
 22
3474.589076175755
 32
0.0
 13
5821.689757340115
 23
3474.589076175755
 33
0.0
210
0.0
220
0.0
230
1.0
  0
SOLID
  5
747
330
723
100
AcDbEntity
  8
HATCH
  6
CONTINUOUS
 62
     1
100
AcDbTrace
 10
6903.178708344166
 20
3768.273397852025
 30
0.0
 11
7024.826737438814
 21
3474.589076175754
 31
0.0
 12
6974.467980728825
 22
3764.181208369319
 32
0.0
 13
6974.467980728825
 23
3764.181208369319
 33
0.0
  0
SOLID
  5
748
330
723
100
AcDbEntity
  8
HATCH
  6
CONTINUOUS
 62
     1
100
AcDbTrace
 10
5806.077392928437
 20
3791.507341462871
 30
0.0
 11
5636.913850837856
 21
3551.125762648772
 31
0.0
 12
5872.048514050109
 22
3764.181208369316
 32
0.0
 13
5872.048514050109
 23
3764.181208369316
 33
0.0
210
0.0
220
0.0
230
1.0
  0
SOLID
  5
749
330
723
100
AcDbEntity
  8
HATCH
  6
CONTINUOUS
 62
     1
100
AcDbTrace
 10
7040.439101850494
 20
3791.507341462872
 30
0.0
 11
6974.467980728825
 21
3764.181208369319
 31
0.0
 12
7209.602643941074
 22
3551.12576264877
 32
0.0
 13
7209.602643941074
 23
3551.12576264877
 33
0.0
  0
SOLID
  5
74A
330
723
100
AcDbEntity
  8
HATCH
  6
CONTINUOUS
 62
     1
100
AcDbTrace
 10
7087.95461484642
 20
3844.810084325041
 30
0.0
 11
7040.439101850494
 21
3791.507341462872
 31
0.0
 12
7209.602643941074
 22
3551.12576264877
 32
0.0
 13
7209.602643941074
 23
3551.12576264877
 33
0.0
210
0.0
220
0.0
230
1.0
  0
SOLID
  5
74B
330
723
100
AcDbEntity
  8
HATCH
  6
CONTINUOUS
 62
     1
100
AcDbTrace
 10
5758.561879932511
 20
3844.810084325043
 30
0.0
 11
5636.913850837856
 21
3551.125762648772
 31
0.0
 12
5806.077392928437
 22
3791.507341462871
 32
0.0
 13
5806.077392928437
 23
3791.507341462871
 33
0.0
210
0.0
220
0.0
230
1.0
  0
SOLID
  5
74C
330
723
100
AcDbEntity
  8
HATCH
  6
CONTINUOUS
 62
     1
100
AcDbTrace
 10
6346.116712696336
 20
3999.016031531974
 30
0.0
 11
6058.768839582103
 21
3921.95161901817
 31
0.0
 12
6057.176807650001
 22
3899.435794317487
 32
0.0
 13
6057.176807650001
 23
3899.435794317487
 33
0.0
210
0.0
220
0.0
230
1.0
  0
SOLID
  5
74D
330
723
100
AcDbEntity
  8
HATCH
  6
CONTINUOUS
 62
     1
100
AcDbTrace
 10
6346.116712696336
 20
3999.016031531974
 30
0.0
 11
6057.176807650001
 21
3899.435794317487
 31
0.0
 12
6052.432391020069
 22
3877.36800243732
 32
0.0
 13
6052.432391020069
 23
3877.36800243732
 33
0.0
210
0.0
220
0.0
230
1.0
  0
SOLID
  5
74E
330
723
100
AcDbEntity
  8
HATCH
  6
CONTINUOUS
 62
     1
100
AcDbTrace
 10
6500.3997820826
 20
3999.016031531978
 30
0.0
 11
6789.339687128934
 21
3899.435794317492
 31
0.0
 12
6787.74765519683
 22
3921.951619018173
 32
0.0
 13
6787.74765519683
 23
3921.951619018173
 33
0.0
210
0.0
220
0.0
230
1.0
  0
SOLID
  5
74F
330
723
100
AcDbEntity
  8
HATCH
  6
CONTINUOUS
 62
     1
100
AcDbTrace
 10
6500.3997820826
 20
3999.016031531978
 30
0.0
 11
6794.084103758866
 21
3877.368002437327
 31
0.0
 12
6789.339687128934
 22
3899.435794317492
 32
0.0
 13
6789.339687128934
 23
3899.435794317492
 33
0.0
210
0.0
220
0.0
230
1.0
  0
SOLID
  5
750
330
723
100
AcDbEntity
  8
HATCH
  6
CONTINUOUS
 62
     1
100
AcDbTrace
 10
6036.50116932118
 20
4003.379247412878
 30
0.0
 11
6058.768839582103
 21
3921.95161901817
 31
0.0
 12
6346.116712696336
 22
3999.016031531974
 32
0.0
 13
6346.116712696336
 23
3999.016031531974
 33
0.0
210
0.0
220
0.0
230
1.0
  0
SOLID
  5
751
330
723
100
AcDbEntity
  8
HATCH
  6
CONTINUOUS
 62
     1
100
AcDbTrace
 10
6810.015325457754
 20
4003.379247412879
 30
0.0
 11
6500.3997820826
 21
3999.016031531978
 31
0.0
 12
6787.74765519683
 22
3921.951619018173
 32
0.0
 13
6787.74765519683
 23
3921.951619018173
 33
0.0
210
0.0
220
0.0
230
1.0
  0
SOLID
  5
752
330
723
100
AcDbEntity
  8
HATCH
  6
CONTINUOUS
 62
     1
100
AcDbTrace
 10
6285.511247922207
 20
4057.780693058674
 30
0.0
 11
6036.50116932118
 21
4003.379247412878
 31
0.0
 12
6346.116712696336
 22
3999.016031531974
 32
0.0
 13
6346.116712696336
 23
3999.016031531974
 33
0.0
210
0.0
220
0.0
230
1.0
  0
SOLID
  5
753
330
723
100
AcDbEntity
  8
HATCH
  6
CONTINUOUS
 62
     1
100
AcDbTrace
 10
6561.005246856726
 20
4057.780693058677
 30
0.0
 11
6500.3997820826
 21
3999.016031531978
 31
0.0
 12
6810.015325457754
 22
4003.379247412879
 32
0.0
 13
6810.015325457754
 23
4003.379247412879
 33
0.0
210
0.0
220
0.0
230
1.0
  0
SOLID
  5
754
330
723
100
AcDbEntity
  8
HATCH
  6
CONTINUOUS
 62
     1
100
AcDbTrace
 10
5975.895704547052
 20
4062.143908939577
 30
0.0
 11
6036.50116932118
 21
4003.379247412878
 31
0.0
 12
6285.511247922207
 22
4057.780693058674
 32
0.0
 13
6285.511247922207
 23
4057.780693058674
 33
0.0
210
0.0
220
0.0
230
1.0
  0
SOLID
  5
755
330
723
100
AcDbEntity
  8
HATCH
  6
CONTINUOUS
 62
     1
100
AcDbTrace
 10
6870.620790231881
 20
4062.143908939579
 30
0.0
 11
6561.005246856726
 21
4057.780693058677
 31
0.0
 12
6810.015325457754
 22
4003.379247412879
 32
0.0
 13
6810.015325457754
 23
4003.379247412879
 33
0.0
210
0.0
220
0.0
230
1.0
  0
SOLID
  5
756
330
723
100
AcDbEntity
  8
HATCH
  6
CONTINUOUS
 62
     1
100
AcDbTrace
 10
6263.243577661282
 20
4139.208321453383
 30
0.0
 11
5975.895704547052
 21
4062.143908939577
 31
0.0
 12
6285.511247922207
 22
4057.780693058674
 32
0.0
 13
6285.511247922207
 23
4057.780693058674
 33
0.0
210
0.0
220
0.0
230
1.0
  0
SOLID
  5
757
330
723
100
AcDbEntity
  8
HATCH
  6
CONTINUOUS
 62
     1
100
AcDbTrace
 10
6583.27291711765
 20
4139.208321453383
 30
0.0
 11
6561.005246856726
 21
4057.780693058677
 31
0.0
 12
6870.620790231881
 22
4062.143908939579
 32
0.0
 13
6870.620790231881
 23
4062.143908939579
 33
0.0
210
0.0
220
0.0
230
1.0
  0
SOLID
  5
758
330
723
100
AcDbEntity
  8
HATCH
  6
CONTINUOUS
 62
     1
100
AcDbTrace
 10
6581.680885185545
 20
4161.724146154064
 30
0.0
 11
6583.27291711765
 21
4139.208321453383
 31
0.0
 12
6870.620790231881
 22
4062.143908939579
 32
0.0
 13
6870.620790231881
 23
4062.143908939579
 33
0.0
210
0.0
220
0.0
230
1.0
  0
SOLID
  5
759
330
723
100
AcDbEntity
  8
HATCH
  6
CONTINUOUS
 62
     1
100
AcDbTrace
 10
6264.835609593387
 20
4161.724146154065
 30
0.0
 11
5975.895704547052
 21
4062.143908939577
 31
0.0
 12
6263.243577661282
 22
4139.208321453383
 32
0.0
 13
6263.243577661282
 23
4139.208321453383
 33
0.0
210
0.0
220
0.0
230
1.0
  0
SOLID
  5
75A
330
723
100
AcDbEntity
  8
HATCH
  6
CONTINUOUS
 62
     1
100
AcDbTrace
 10
6576.936468555614
 20
4183.79193803423
 30
0.0
 11
6581.680885185545
 21
4161.724146154064
 31
0.0
 12
6870.620790231881
 22
4062.143908939579
 32
0.0
 13
6870.620790231881
 23
4062.143908939579
 33
0.0
210
0.0
220
0.0
230
1.0
  0
SOLID
  5
75B
330
723
100
AcDbEntity
  8
HATCH
  6
CONTINUOUS
 62
     1
100
AcDbTrace
 10
6269.580026223318
 20
4183.791938034231
 30
0.0
 11
5975.895704547052
 21
4062.143908939577
 31
0.0
 12
6264.835609593387
 22
4161.724146154065
 32
0.0
 13
6264.835609593387
 23
4161.724146154065
 33
0.0
210
0.0
220
0.0
230
1.0
  0
ENDBLK
  5
75D
330
723
100
AcDbEntity
  8
0
100
AcDbBlockEnd
  0
BLOCK
  5
7AF
330
75E
100
AcDbEntity
  8
0
100
AcDbBlockBegin
  2
*U2
 70
     1
 10
0.0
 20
0.0
 30
0.0
  3
*U2
  1

  0
SOLID
  5
75F
330
75E
100
AcDbEntity
  8
HATCH
  6
CONTINUOUS
 62
     2
100
AcDbTrace
 10
6343.250912525373
 20
2517.109992549083
 30
0.0
 11
6423.258247389465
 21
2495.672091783683
 31
0.0
 12
6503.265582253558
 22
2517.109992549083
 32
0.0
 13
6503.265582253558
 23
2517.109992549083
 33
0.0
210
0.0
220
0.0
230
1.0
  0
SOLID
  5
760
330
75E
100
AcDbEntity
  8
HATCH
  6
CONTINUOUS
 62
     2
100
AcDbTrace
 10
6561.835016352249
 20
2575.679426647775
 30
0.0
 11
6343.250912525373
 21
2517.109992549083
 31
0.0
 12
6503.265582253558
 22
2517.109992549083
 32
0.0
 13
6503.265582253558
 23
2517.109992549083
 33
0.0
210
0.0
220
0.0
230
1.0
  0
SOLID
  5
761
330
75E
100
AcDbEntity
  8
HATCH
  6
CONTINUOUS
 62
     2
100
AcDbTrace
 10
6284.681478426682
 20
2575.679426647775
 30
0.0
 11
6343.250912525373
 21
2517.109992549083
 31
0.0
 12
6561.835016352249
 22
2575.679426647775
 32
0.0
 13
6561.835016352249
 23
2575.679426647775
 33
0.0
210
0.0
220
0.0
230
1.0
  0
SOLID
  5
762
330
75E
100
AcDbEntity
  8
HATCH
  6
CONTINUOUS
 62
     2
100
AcDbTrace
 10
6583.27291711765
 20
2655.686761511867
 30
0.0
 11
6284.681478426682
 21
2575.679426647775
 31
0.0
 12
6561.835016352249
 22
2575.679426647775
 32
0.0
 13
6561.835016352249
 23
2575.679426647775
 33
0.0
210
0.0
220
0.0
230
1.0
  0
SOLID
  5
763
330
75E
100
AcDbEntity
  8
HATCH
  6
CONTINUOUS
 62
     2
100
AcDbTrace
 10
6263.243577661282
 20
2655.686761511867
 30
0.0
 11
6284.681478426682
 21
2575.679426647775
 31
0.0
 12
6583.27291711765
 22
2655.686761511867
 32
0.0
 13
6583.27291711765
 23
2655.686761511867
 33
0.0
210
0.0
220
0.0
230
1.0
  0
SOLID
  5
764
330
75E
100
AcDbEntity
  8
HATCH
  6
CONTINUOUS
 62
     2
100
AcDbTrace
 10
5818.746834989825
 20
2734.366694984294
 30
0.0
 11
5898.754169853917
 21
2712.928794218894
 31
0.0
 12
5978.761504718009
 22
2734.366694984294
 32
0.0
 13
5978.761504718009
 23
2734.366694984294
 33
0.0
210
0.0
220
0.0
230
1.0
  0
SOLID
  5
765
330
75E
100
AcDbEntity
  8
HATCH
  6
CONTINUOUS
 62
     2
100
AcDbTrace
 10
6867.75499006092
 20
2734.366694984298
 30
0.0
 11
6947.762324925012
 21
2712.928794218898
 31
0.0
 12
7027.769659789104
 22
2734.366694984298
 32
0.0
 13
7027.769659789104
 23
2734.366694984298
 33
0.0
210
0.0
220
0.0
230
1.0
  0
SOLID
  5
766
330
75E
100
AcDbEntity
  8
HATCH
  6
CONTINUOUS
 62
     2
100
AcDbTrace
 10
6561.835016352249
 20
2735.694096375959
 30
0.0
 11
6263.243577661282
 21
2655.686761511867
 31
0.0
 12
6583.27291711765
 22
2655.686761511867
 32
0.0
 13
6583.27291711765
 23
2655.686761511867
 33
0.0
210
0.0
220
0.0
230
1.0
  0
SOLID
  5
767
330
75E
100
AcDbEntity
  8
HATCH
  6
CONTINUOUS
 62
     2
100
AcDbTrace
 10
6284.681478426682
 20
2735.694096375959
 30
0.0
 11
6263.243577661282
 21
2655.686761511867
 31
0.0
 12
6561.835016352249
 22
2735.694096375959
 32
0.0
 13
6561.835016352249
 23
2735.694096375959
 33
0.0
210
0.0
220
0.0
230
1.0
  0
SOLID
  5
768
330
75E
100
AcDbEntity
  8
HATCH
  6
CONTINUOUS
 62
     2
100
AcDbTrace
 10
6037.330938816701
 20
2792.936129082987
 30
0.0
 11
5818.746834989825
 21
2734.366694984294
 31
0.0
 12
5978.761504718009
 22
2734.366694984294
 32
0.0
 13
5978.761504718009
 23
2734.366694984294
 33
0.0
210
0.0
220
0.0
230
1.0
  0
SOLID
  5
769
330
75E
100
AcDbEntity
  8
HATCH
  6
CONTINUOUS
 62
     2
100
AcDbTrace
 10
5760.177400891134
 20
2792.936129082987
 30
0.0
 11
5818.746834989825
 21
2734.366694984294
 31
0.0
 12
6037.330938816701
 22
2792.936129082987
 32
0.0
 13
6037.330938816701
 23
2792.936129082987
 33
0.0
210
0.0
220
0.0
230
1.0
  0
SOLID
  5
76A
330
75E
100
AcDbEntity
  8
HATCH
  6
CONTINUOUS
 62
     2
100
AcDbTrace
 10
7086.339093887795
 20
2792.93612908299
 30
0.0
 11
6867.75499006092
 21
2734.366694984298
 31
0.0
 12
7027.769659789104
 22
2734.366694984298
 32
0.0
 13
7027.769659789104
 23
2734.366694984298
 33
0.0
210
0.0
220
0.0
230
1.0
  0
SOLID
  5
76B
330
75E
100
AcDbEntity
  8
HATCH
  6
CONTINUOUS
 62
     2
100
AcDbTrace
 10
6809.185555962229
 20
2792.93612908299
 30
0.0
 11
6867.75499006092
 21
2734.366694984298
 31
0.0
 12
7086.339093887795
 22
2792.93612908299
 32
0.0
 13
7086.339093887795
 23
2792.93612908299
 33
0.0
210
0.0
220
0.0
230
1.0
  0
SOLID
  5
76C
330
75E
100
AcDbEntity
  8
HATCH
  6
CONTINUOUS
 62
     2
100
AcDbTrace
 10
6503.265582253558
 20
2794.263530474651
 30
0.0
 11
6284.681478426682
 21
2735.694096375959
 31
0.0
 12
6561.835016352249
 22
2735.694096375959
 32
0.0
 13
6561.835016352249
 23
2735.694096375959
 33
0.0
210
0.0
220
0.0
230
1.0
  0
SOLID
  5
76D
330
75E
100
AcDbEntity
  8
HATCH
  6
CONTINUOUS
 62
     2
100
AcDbTrace
 10
6343.250912525373
 20
2794.263530474651
 30
0.0
 11
6284.681478426682
 21
2735.694096375959
 31
0.0
 12
6503.265582253558
 22
2794.263530474651
 32
0.0
 13
6503.265582253558
 23
2794.263530474651
 33
0.0
210
0.0
220
0.0
230
1.0
  0
SOLID
  5
76E
330
75E
100
AcDbEntity
  8
HATCH
  6
CONTINUOUS
 62
     2
100
AcDbTrace
 10
6423.258247389465
 20
2815.70143124005
 30
0.0
 11
6343.250912525373
 21
2794.263530474651
 31
0.0
 12
6503.265582253558
 22
2794.263530474651
 32
0.0
 13
6503.265582253558
 23
2794.263530474651
 33
0.0
210
0.0
220
0.0
230
1.0
  0
SOLID
  5
76F
330
75E
100
AcDbEntity
  8
HATCH
  6
CONTINUOUS
 62
     2
100
AcDbTrace
 10
6058.7688395821
 20
2872.943463947078
 30
0.0
 11
5760.177400891134
 21
2792.936129082987
 31
0.0
 12
6037.330938816701
 22
2792.936129082987
 32
0.0
 13
6037.330938816701
 23
2792.936129082987
 33
0.0
210
0.0
220
0.0
230
1.0
  0
SOLID
  5
770
330
75E
100
AcDbEntity
  8
HATCH
  6
CONTINUOUS
 62
     2
100
AcDbTrace
 10
5738.739500125734
 20
2872.943463947078
 30
0.0
 11
5760.177400891134
 21
2792.936129082987
 31
0.0
 12
6058.7688395821
 22
2872.943463947078
 32
0.0
 13
6058.7688395821
 23
2872.943463947078
 33
0.0
210
0.0
220
0.0
230
1.0
  0
SOLID
  5
771
330
75E
100
AcDbEntity
  8
HATCH
  6
CONTINUOUS
 62
     2
100
AcDbTrace
 10
7107.776994653196
 20
2872.943463947082
 30
0.0
 11
6809.185555962229
 21
2792.93612908299
 31
0.0
 12
7086.339093887795
 22
2792.93612908299
 32
0.0
 13
7086.339093887795
 23
2792.93612908299
 33
0.0
210
0.0
220
0.0
230
1.0
  0
SOLID
  5
772
330
75E
100
AcDbEntity
  8
HATCH
  6
CONTINUOUS
 62
     2
100
AcDbTrace
 10
6787.747655196828
 20
2872.943463947082
 30
0.0
 11
6809.185555962229
 21
2792.93612908299
 31
0.0
 12
7107.776994653196
 22
2872.943463947082
 32
0.0
 13
7107.776994653196
 23
2872.943463947082
 33
0.0
210
0.0
220
0.0
230
1.0
  0
SOLID
  5
773
330
75E
100
AcDbEntity
  8
HATCH
  6
CONTINUOUS
 62
     2
100
AcDbTrace
 10
6037.330938816701
 20
2952.950798811169
 30
0.0
 11
5738.739500125734
 21
2872.943463947078
 31
0.0
 12
6058.7688395821
 22
2872.943463947078
 32
0.0
 13
6058.7688395821
 23
2872.943463947078
 33
0.0
210
0.0
220
0.0
230
1.0
  0
SOLID
  5
774
330
75E
100
AcDbEntity
  8
HATCH
  6
CONTINUOUS
 62
     2
100
AcDbTrace
 10
5760.177400891134
 20
2952.950798811169
 30
0.0
 11
5738.739500125734
 21
2872.943463947078
 31
0.0
 12
6037.330938816701
 22
2952.950798811169
 32
0.0
 13
6037.330938816701
 23
2952.950798811169
 33
0.0
210
0.0
220
0.0
230
1.0
  0
SOLID
  5
775
330
75E
100
AcDbEntity
  8
HATCH
  6
CONTINUOUS
 62
     2
100
AcDbTrace
 10
7086.339093887795
 20
2952.950798811173
 30
0.0
 11
6787.747655196828
 21
2872.943463947082
 31
0.0
 12
7107.776994653196
 22
2872.943463947082
 32
0.0
 13
7107.776994653196
 23
2872.943463947082
 33
0.0
210
0.0
220
0.0
230
1.0
  0
SOLID
  5
776
330
75E
100
AcDbEntity
  8
HATCH
  6
CONTINUOUS
 62
     2
100
AcDbTrace
 10
6809.185555962229
 20
2952.950798811173
 30
0.0
 11
6787.747655196828
 21
2872.943463947082
 31
0.0
 12
7086.339093887795
 22
2952.950798811173
 32
0.0
 13
7086.339093887795
 23
2952.950798811173
 33
0.0
210
0.0
220
0.0
230
1.0
  0
SOLID
  5
777
330
75E
100
AcDbEntity
  8
HATCH
  6
CONTINUOUS
 62
     2
100
AcDbTrace
 10
5978.761504718009
 20
3011.520232909862
 30
0.0
 11
5760.177400891134
 21
2952.950798811169
 31
0.0
 12
6037.330938816701
 22
2952.950798811169
 32
0.0
 13
6037.330938816701
 23
2952.950798811169
 33
0.0
210
0.0
220
0.0
230
1.0
  0
SOLID
  5
778
330
75E
100
AcDbEntity
  8
HATCH
  6
CONTINUOUS
 62
     2
100
AcDbTrace
 10
5818.746834989825
 20
3011.520232909862
 30
0.0
 11
5760.177400891134
 21
2952.950798811169
 31
0.0
 12
5978.761504718009
 22
3011.520232909862
 32
0.0
 13
5978.761504718009
 23
3011.520232909862
 33
0.0
210
0.0
220
0.0
230
1.0
  0
SOLID
  5
779
330
75E
100
AcDbEntity
  8
HATCH
  6
CONTINUOUS
 62
     2
100
AcDbTrace
 10
7027.769659789104
 20
3011.520232909866
 30
0.0
 11
6809.185555962229
 21
2952.950798811173
 31
0.0
 12
7086.339093887795
 22
2952.950798811173
 32
0.0
 13
7086.339093887795
 23
2952.950798811173
 33
0.0
210
0.0
220
0.0
230
1.0
  0
SOLID
  5
77A
330
75E
100
AcDbEntity
  8
HATCH
  6
CONTINUOUS
 62
     2
100
AcDbTrace
 10
6867.75499006092
 20
3011.520232909866
 30
0.0
 11
6809.185555962229
 21
2952.950798811173
 31
0.0
 12
7027.769659789104
 22
3011.520232909866
 32
0.0
 13
7027.769659789104
 23
3011.520232909866
 33
0.0
210
0.0
220
0.0
230
1.0
  0
SOLID
  5
77B
330
75E
100
AcDbEntity
  8
HATCH
  6
CONTINUOUS
 62
     2
100
AcDbTrace
 10
5898.754169853917
 20
3032.958133675261
 30
0.0
 11
5818.746834989825
 21
3011.520232909862
 31
0.0
 12
5978.761504718009
 22
3011.520232909862
 32
0.0
 13
5978.761504718009
 23
3011.520232909862
 33
0.0
210
0.0
220
0.0
230
1.0
  0
SOLID
  5
77C
330
75E
100
AcDbEntity
  8
HATCH
  6
CONTINUOUS
 62
     2
100
AcDbTrace
 10
6947.762324925012
 20
3032.958133675265
 30
0.0
 11
6867.75499006092
 21
3011.520232909866
 31
0.0
 12
7027.769659789104
 22
3011.520232909866
 32
0.0
 13
7027.769659789104
 23
3011.520232909866
 33
0.0
210
0.0
220
0.0
230
1.0
  0
SOLID
  5
77D
330
75E
100
AcDbEntity
  8
HATCH
  6
CONTINUOUS
 62
     2
100
AcDbTrace
 10
7085.011692496131
 20
3258.87077251984
 30
0.0
 11
7165.019027360223
 21
3237.43287175444
 31
0.0
 12
7245.026362224314
 22
3258.87077251984
 32
0.0
 13
7245.026362224314
 23
3258.87077251984
 33
0.0
210
0.0
220
0.0
230
1.0
  0
SOLID
  5
77E
330
75E
100
AcDbEntity
  8
HATCH
  6
CONTINUOUS
 62
     2
100
AcDbTrace
 10
5601.490132554616
 20
3258.870772519841
 30
0.0
 11
5681.497467418707
 21
3237.432871754441
 31
0.0
 12
5761.504802282798
 22
3258.870772519841
 32
0.0
 13
5761.504802282798
 23
3258.870772519841
 33
0.0
210
0.0
220
0.0
230
1.0
  0
SOLID
  5
77F
330
75E
100
AcDbEntity
  8
HATCH
  6
CONTINUOUS
 62
     2
100
AcDbTrace
 10
7303.595796323008
 20
3317.440206618531
 30
0.0
 11
7085.011692496131
 21
3258.87077251984
 31
0.0
 12
7245.026362224314
 22
3258.87077251984
 32
0.0
 13
7245.026362224314
 23
3258.87077251984
 33
0.0
210
0.0
220
0.0
230
1.0
  0
SOLID
  5
780
330
75E
100
AcDbEntity
  8
HATCH
  6
CONTINUOUS
 62
     2
100
AcDbTrace
 10
7026.442258397439
 20
3317.440206618531
 30
0.0
 11
7085.011692496131
 21
3258.87077251984
 31
0.0
 12
7303.595796323008
 22
3317.440206618531
 32
0.0
 13
7303.595796323008
 23
3317.440206618531
 33
0.0
210
0.0
220
0.0
230
1.0
  0
SOLID
  5
781
330
75E
100
AcDbEntity
  8
HATCH
  6
CONTINUOUS
 62
     2
100
AcDbTrace
 10
5820.074236381491
 20
3317.440206618533
 30
0.0
 11
5601.490132554616
 21
3258.870772519841
 31
0.0
 12
5761.504802282798
 22
3258.870772519841
 32
0.0
 13
5761.504802282798
 23
3258.870772519841
 33
0.0
210
0.0
220
0.0
230
1.0
  0
SOLID
  5
782
330
75E
100
AcDbEntity
  8
HATCH
  6
CONTINUOUS
 62
     2
100
AcDbTrace
 10
5542.920698455923
 20
3317.440206618533
 30
0.0
 11
5601.490132554616
 21
3258.870772519841
 31
0.0
 12
5820.074236381491
 22
3317.440206618533
 32
0.0
 13
5820.074236381491
 23
3317.440206618533
 33
0.0
210
0.0
220
0.0
230
1.0
  0
SOLID
  5
783
330
75E
100
AcDbEntity
  8
HATCH
  6
CONTINUOUS
 62
     2
100
AcDbTrace
 10
7325.033697088406
 20
3397.447541482623
 30
0.0
 11
7026.442258397439
 21
3317.440206618531
 31
0.0
 12
7303.595796323008
 22
3317.440206618531
 32
0.0
 13
7303.595796323008
 23
3317.440206618531
 33
0.0
210
0.0
220
0.0
230
1.0
  0
SOLID
  5
784
330
75E
100
AcDbEntity
  8
HATCH
  6
CONTINUOUS
 62
     2
100
AcDbTrace
 10
7005.004357632039
 20
3397.447541482623
 30
0.0
 11
7026.442258397439
 21
3317.440206618531
 31
0.0
 12
7325.033697088406
 22
3397.447541482623
 32
0.0
 13
7325.033697088406
 23
3397.447541482623
 33
0.0
210
0.0
220
0.0
230
1.0
  0
SOLID
  5
785
330
75E
100
AcDbEntity
  8
HATCH
  6
CONTINUOUS
 62
     2
100
AcDbTrace
 10
5841.51213714689
 20
3397.447541482625
 30
0.0
 11
5542.920698455923
 21
3317.440206618533
 31
0.0
 12
5820.074236381491
 22
3317.440206618533
 32
0.0
 13
5820.074236381491
 23
3317.440206618533
 33
0.0
210
0.0
220
0.0
230
1.0
  0
SOLID
  5
786
330
75E
100
AcDbEntity
  8
HATCH
  6
CONTINUOUS
 62
     2
100
AcDbTrace
 10
5521.482797690524
 20
3397.447541482625
 30
0.0
 11
5542.920698455923
 21
3317.440206618533
 31
0.0
 12
5841.51213714689
 22
3397.447541482625
 32
0.0
 13
5841.51213714689
 23
3397.447541482625
 33
0.0
210
0.0
220
0.0
230
1.0
  0
SOLID
  5
787
330
75E
100
AcDbEntity
  8
HATCH
  6
CONTINUOUS
 62
     2
100
AcDbTrace
 10
7303.595796323008
 20
3477.454876346715
 30
0.0
 11
7005.004357632039
 21
3397.447541482623
 31
0.0
 12
7325.033697088406
 22
3397.447541482623
 32
0.0
 13
7325.033697088406
 23
3397.447541482623
 33
0.0
210
0.0
220
0.0
230
1.0
  0
SOLID
  5
788
330
75E
100
AcDbEntity
  8
HATCH
  6
CONTINUOUS
 62
     2
100
AcDbTrace
 10
7026.442258397439
 20
3477.454876346715
 30
0.0
 11
7005.004357632039
 21
3397.447541482623
 31
0.0
 12
7303.595796323008
 22
3477.454876346715
 32
0.0
 13
7303.595796323008
 23
3477.454876346715
 33
0.0
210
0.0
220
0.0
230
1.0
  0
SOLID
  5
789
330
75E
100
AcDbEntity
  8
HATCH
  6
CONTINUOUS
 62
     2
100
AcDbTrace
 10
5820.074236381491
 20
3477.454876346717
 30
0.0
 11
5521.482797690524
 21
3397.447541482625
 31
0.0
 12
5841.51213714689
 22
3397.447541482625
 32
0.0
 13
5841.51213714689
 23
3397.447541482625
 33
0.0
210
0.0
220
0.0
230
1.0
  0
SOLID
  5
78A
330
75E
100
AcDbEntity
  8
HATCH
  6
CONTINUOUS
 62
     2
100
AcDbTrace
 10
5542.920698455923
 20
3477.454876346717
 30
0.0
 11
5521.482797690524
 21
3397.447541482625
 31
0.0
 12
5820.074236381491
 22
3477.454876346717
 32
0.0
 13
5820.074236381491
 23
3477.454876346717
 33
0.0
210
0.0
220
0.0
230
1.0
  0
SOLID
  5
78B
330
75E
100
AcDbEntity
  8
HATCH
  6
CONTINUOUS
 62
     2
100
AcDbTrace
 10
7245.026362224314
 20
3536.024310445407
 30
0.0
 11
7026.442258397439
 21
3477.454876346715
 31
0.0
 12
7303.595796323008
 22
3477.454876346715
 32
0.0
 13
7303.595796323008
 23
3477.454876346715
 33
0.0
210
0.0
220
0.0
230
1.0
  0
SOLID
  5
78C
330
75E
100
AcDbEntity
  8
HATCH
  6
CONTINUOUS
 62
     2
100
AcDbTrace
 10
7085.011692496131
 20
3536.024310445407
 30
0.0
 11
7026.442258397439
 21
3477.454876346715
 31
0.0
 12
7245.026362224314
 22
3536.024310445407
 32
0.0
 13
7245.026362224314
 23
3536.024310445407
 33
0.0
210
0.0
220
0.0
230
1.0
  0
SOLID
  5
78D
330
75E
100
AcDbEntity
  8
HATCH
  6
CONTINUOUS
 62
     2
100
AcDbTrace
 10
5761.504802282798
 20
3536.024310445409
 30
0.0
 11
5542.920698455923
 21
3477.454876346717
 31
0.0
 12
5820.074236381491
 22
3477.454876346717
 32
0.0
 13
5820.074236381491
 23
3477.454876346717
 33
0.0
210
0.0
220
0.0
230
1.0
  0
SOLID
  5
78E
330
75E
100
AcDbEntity
  8
HATCH
  6
CONTINUOUS
 62
     2
100
AcDbTrace
 10
5601.490132554616
 20
3536.024310445409
 30
0.0
 11
5542.920698455923
 21
3477.454876346717
 31
0.0
 12
5761.504802282798
 22
3536.024310445409
 32
0.0
 13
5761.504802282798
 23
3536.024310445409
 33
0.0
210
0.0
220
0.0
230
1.0
  0
SOLID
  5
78F
330
75E
100
AcDbEntity
  8
HATCH
  6
CONTINUOUS
 62
     2
100
AcDbTrace
 10
7165.019027360223
 20
3557.462211210806
 30
0.0
 11
7085.011692496131
 21
3536.024310445407
 31
0.0
 12
7245.026362224314
 22
3536.024310445407
 32
0.0
 13
7245.026362224314
 23
3536.024310445407
 33
0.0
210
0.0
220
0.0
230
1.0
  0
SOLID
  5
790
330
75E
100
AcDbEntity
  8
HATCH
  6
CONTINUOUS
 62
     2
100
AcDbTrace
 10
5681.497467418707
 20
3557.462211210808
 30
0.0
 11
5601.490132554616
 21
3536.024310445409
 31
0.0
 12
5761.504802282798
 22
3536.024310445409
 32
0.0
 13
5761.504802282798
 23
3536.024310445409
 33
0.0
210
0.0
220
0.0
230
1.0
  0
SOLID
  5
791
330
75E
100
AcDbEntity
  8
HATCH
  6
CONTINUOUS
 62
     2
100
AcDbTrace
 10
5818.746834989829
 20
3783.374850055386
 30
0.0
 11
5898.754169853921
 21
3761.936949289987
 31
0.0
 12
5978.761504718012
 22
3783.374850055386
 32
0.0
 13
5978.761504718012
 23
3783.374850055386
 33
0.0
210
0.0
220
0.0
230
1.0
  0
SOLID
  5
792
330
75E
100
AcDbEntity
  8
HATCH
  6
CONTINUOUS
 62
     2
100
AcDbTrace
 10
6867.754990060922
 20
3783.374850055389
 30
0.0
 11
6947.762324925014
 21
3761.93694928999
 31
0.0
 12
7027.769659789105
 22
3783.374850055389
 32
0.0
 13
7027.769659789105
 23
3783.374850055389
 33
0.0
210
0.0
220
0.0
230
1.0
  0
SOLID
  5
793
330
75E
100
AcDbEntity
  8
HATCH
  6
CONTINUOUS
 62
     2
100
AcDbTrace
 10
6037.330938816705
 20
3841.944284154078
 30
0.0
 11
5818.746834989829
 21
3783.374850055386
 31
0.0
 12
5978.761504718012
 22
3783.374850055386
 32
0.0
 13
5978.761504718012
 23
3783.374850055386
 33
0.0
210
0.0
220
0.0
230
1.0
  0
SOLID
  5
794
330
75E
100
AcDbEntity
  8
HATCH
  6
CONTINUOUS
 62
     2
100
AcDbTrace
 10
5760.177400891137
 20
3841.944284154078
 30
0.0
 11
5818.746834989829
 21
3783.374850055386
 31
0.0
 12
6037.330938816705
 22
3841.944284154078
 32
0.0
 13
6037.330938816705
 23
3841.944284154078
 33
0.0
210
0.0
220
0.0
230
1.0
  0
SOLID
  5
795
330
75E
100
AcDbEntity
  8
HATCH
  6
CONTINUOUS
 62
     2
100
AcDbTrace
 10
7086.339093887797
 20
3841.944284154081
 30
0.0
 11
6867.754990060922
 21
3783.374850055389
 31
0.0
 12
7027.769659789105
 22
3783.374850055389
 32
0.0
 13
7027.769659789105
 23
3783.374850055389
 33
0.0
210
0.0
220
0.0
230
1.0
  0
SOLID
  5
796
330
75E
100
AcDbEntity
  8
HATCH
  6
CONTINUOUS
 62
     2
100
AcDbTrace
 10
6809.18555596223
 20
3841.944284154081
 30
0.0
 11
6867.754990060922
 21
3783.374850055389
 31
0.0
 12
7086.339093887797
 22
3841.944284154081
 32
0.0
 13
7086.339093887797
 23
3841.944284154081
 33
0.0
210
0.0
220
0.0
230
1.0
  0
SOLID
  5
797
330
75E
100
AcDbEntity
  8
HATCH
  6
CONTINUOUS
 62
     2
100
AcDbTrace
 10
6058.768839582103
 20
3921.95161901817
 30
0.0
 11
5760.177400891137
 21
3841.944284154078
 31
0.0
 12
6037.330938816705
 22
3841.944284154078
 32
0.0
 13
6037.330938816705
 23
3841.944284154078
 33
0.0
210
0.0
220
0.0
230
1.0
  0
SOLID
  5
798
330
75E
100
AcDbEntity
  8
HATCH
  6
CONTINUOUS
 62
     2
100
AcDbTrace
 10
5738.739500125737
 20
3921.95161901817
 30
0.0
 11
5760.177400891137
 21
3841.944284154078
 31
0.0
 12
6058.768839582103
 22
3921.95161901817
 32
0.0
 13
6058.768839582103
 23
3921.95161901817
 33
0.0
210
0.0
220
0.0
230
1.0
  0
SOLID
  5
799
330
75E
100
AcDbEntity
  8
HATCH
  6
CONTINUOUS
 62
     2
100
AcDbTrace
 10
7107.776994653197
 20
3921.951619018173
 30
0.0
 11
6809.18555596223
 21
3841.944284154081
 31
0.0
 12
7086.339093887797
 22
3841.944284154081
 32
0.0
 13
7086.339093887797
 23
3841.944284154081
 33
0.0
210
0.0
220
0.0
230
1.0
  0
SOLID
  5
79A
330
75E
100
AcDbEntity
  8
HATCH
  6
CONTINUOUS
 62
     2
100
AcDbTrace
 10
6787.74765519683
 20
3921.951619018173
 30
0.0
 11
6809.18555596223
 21
3841.944284154081
 31
0.0
 12
7107.776994653197
 22
3921.951619018173
 32
0.0
 13
7107.776994653197
 23
3921.951619018173
 33
0.0
210
0.0
220
0.0
230
1.0
  0
SOLID
  5
79B
330
75E
100
AcDbEntity
  8
HATCH
  6
CONTINUOUS
 62
     2
100
AcDbTrace
 10
6343.250912525373
 20
4000.631552490599
 30
0.0
 11
6423.258247389465
 21
3979.1936517252
 31
0.0
 12
6503.265582253558
 22
4000.631552490599
 32
0.0
 13
6503.265582253558
 23
4000.631552490599
 33
0.0
210
0.0
220
0.0
230
1.0
  0
SOLID
  5
79C
330
75E
100
AcDbEntity
  8
HATCH
  6
CONTINUOUS
 62
     2
100
AcDbTrace
 10
6037.330938816705
 20
4001.958953882262
 30
0.0
 11
5738.739500125737
 21
3921.95161901817
 31
0.0
 12
6058.768839582103
 22
3921.95161901817
 32
0.0
 13
6058.768839582103
 23
3921.95161901817
 33
0.0
210
0.0
220
0.0
230
1.0
  0
SOLID
  5
79D
330
75E
100
AcDbEntity
  8
HATCH
  6
CONTINUOUS
 62
     2
100
AcDbTrace
 10
5760.177400891137
 20
4001.958953882262
 30
0.0
 11
5738.739500125737
 21
3921.95161901817
 31
0.0
 12
6037.330938816705
 22
4001.958953882262
 32
0.0
 13
6037.330938816705
 23
4001.958953882262
 33
0.0
210
0.0
220
0.0
230
1.0
  0
SOLID
  5
79E
330
75E
100
AcDbEntity
  8
HATCH
  6
CONTINUOUS
 62
     2
100
AcDbTrace
 10
7086.339093887797
 20
4001.958953882264
 30
0.0
 11
6787.74765519683
 21
3921.951619018173
 31
0.0
 12
7107.776994653197
 22
3921.951619018173
 32
0.0
 13
7107.776994653197
 23
3921.951619018173
 33
0.0
210
0.0
220
0.0
230
1.0
  0
SOLID
  5
79F
330
75E
100
AcDbEntity
  8
HATCH
  6
CONTINUOUS
 62
     2
100
AcDbTrace
 10
6809.18555596223
 20
4001.958953882264
 30
0.0
 11
6787.74765519683
 21
3921.951619018173
 31
0.0
 12
7086.339093887797
 22
4001.958953882264
 32
0.0
 13
7086.339093887797
 23
4001.958953882264
 33
0.0
210
0.0
220
0.0
230
1.0
  0
SOLID
  5
7A0
330
75E
100
AcDbEntity
  8
HATCH
  6
CONTINUOUS
 62
     2
100
AcDbTrace
 10
6561.835016352249
 20
4059.200986589291
 30
0.0
 11
6343.250912525373
 21
4000.631552490599
 31
0.0
 12
6503.265582253558
 22
4000.631552490599
 32
0.0
 13
6503.265582253558
 23
4000.631552490599
 33
0.0
210
0.0
220
0.0
230
1.0
  0
SOLID
  5
7A1
330
75E
100
AcDbEntity
  8
HATCH
  6
CONTINUOUS
 62
     2
100
AcDbTrace
 10
6284.681478426682
 20
4059.200986589291
 30
0.0
 11
6343.250912525373
 21
4000.631552490599
 31
0.0
 12
6561.835016352249
 22
4059.200986589291
 32
0.0
 13
6561.835016352249
 23
4059.200986589291
 33
0.0
210
0.0
220
0.0
230
1.0
  0
SOLID
  5
7A2
330
75E
100
AcDbEntity
  8
HATCH
  6
CONTINUOUS
 62
     2
100
AcDbTrace
 10
5978.761504718012
 20
4060.528387980954
 30
0.0
 11
5760.177400891137
 21
4001.958953882262
 31
0.0
 12
6037.330938816705
 22
4001.958953882262
 32
0.0
 13
6037.330938816705
 23
4001.958953882262
 33
0.0
210
0.0
220
0.0
230
1.0
  0
SOLID
  5
7A3
330
75E
100
AcDbEntity
  8
HATCH
  6
CONTINUOUS
 62
     2
100
AcDbTrace
 10
5818.746834989829
 20
4060.528387980954
 30
0.0
 11
5760.177400891137
 21
4001.958953882262
 31
0.0
 12
5978.761504718012
 22
4060.528387980954
 32
0.0
 13
5978.761504718012
 23
4060.528387980954
 33
0.0
210
0.0
220
0.0
230
1.0
  0
SOLID
  5
7A4
330
75E
100
AcDbEntity
  8
HATCH
  6
CONTINUOUS
 62
     2
100
AcDbTrace
 10
7027.769659789105
 20
4060.528387980957
 30
0.0
 11
6809.18555596223
 21
4001.958953882264
 31
0.0
 12
7086.339093887797
 22
4001.958953882264
 32
0.0
 13
7086.339093887797
 23
4001.958953882264
 33
0.0
210
0.0
220
0.0
230
1.0
  0
SOLID
  5
7A5
330
75E
100
AcDbEntity
  8
HATCH
  6
CONTINUOUS
 62
     2
100
AcDbTrace
 10
6867.754990060922
 20
4060.528387980957
 30
0.0
 11
6809.18555596223
 21
4001.958953882264
 31
0.0
 12
7027.769659789105
 22
4060.528387980957
 32
0.0
 13
7027.769659789105
 23
4060.528387980957
 33
0.0
210
0.0
220
0.0
230
1.0
  0
SOLID
  5
7A6
330
75E
100
AcDbEntity
  8
HATCH
  6
CONTINUOUS
 62
     2
100
AcDbTrace
 10
5898.754169853921
 20
4081.966288746353
 30
0.0
 11
5818.746834989829
 21
4060.528387980954
 31
0.0
 12
5978.761504718012
 22
4060.528387980954
 32
0.0
 13
5978.761504718012
 23
4060.528387980954
 33
0.0
210
0.0
220
0.0
230
1.0
  0
SOLID
  5
7A7
330
75E
100
AcDbEntity
  8
HATCH
  6
CONTINUOUS
 62
     2
100
AcDbTrace
 10
6947.762324925014
 20
4081.966288746357
 30
0.0
 11
6867.754990060922
 21
4060.528387980957
 31
0.0
 12
7027.769659789105
 22
4060.528387980957
 32
0.0
 13
7027.769659789105
 23
4060.528387980957
 33
0.0
210
0.0
220
0.0
230
1.0
  0
SOLID
  5
7A8
330
75E
100
AcDbEntity
  8
HATCH
  6
CONTINUOUS
 62
     2
100
AcDbTrace
 10
6583.27291711765
 20
4139.208321453383
 30
0.0
 11
6284.681478426682
 21
4059.200986589291
 31
0.0
 12
6561.835016352249
 22
4059.200986589291
 32
0.0
 13
6561.835016352249
 23
4059.200986589291
 33
0.0
210
0.0
220
0.0
230
1.0
  0
SOLID
  5
7A9
330
75E
100
AcDbEntity
  8
HATCH
  6
CONTINUOUS
 62
     2
100
AcDbTrace
 10
6263.243577661282
 20
4139.208321453383
 30
0.0
 11
6284.681478426682
 21
4059.200986589291
 31
0.0
 12
6583.27291711765
 22
4139.208321453383
 32
0.0
 13
6583.27291711765
 23
4139.208321453383
 33
0.0
210
0.0
220
0.0
230
1.0
  0
SOLID
  5
7AA
330
75E
100
AcDbEntity
  8
HATCH
  6
CONTINUOUS
 62
     2
100
AcDbTrace
 10
6561.835016352249
 20
4219.215656317475
 30
0.0
 11
6263.243577661282
 21
4139.208321453383
 31
0.0
 12
6583.27291711765
 22
4139.208321453383
 32
0.0
 13
6583.27291711765
 23
4139.208321453383
 33
0.0
210
0.0
220
0.0
230
1.0
  0
SOLID
  5
7AB
330
75E
100
AcDbEntity
  8
HATCH
  6
CONTINUOUS
 62
     2
100
AcDbTrace
 10
6284.681478426682
 20
4219.215656317475
 30
0.0
 11
6263.243577661282
 21
4139.208321453383
 31
0.0
 12
6561.835016352249
 22
4219.215656317475
 32
0.0
 13
6561.835016352249
 23
4219.215656317475
 33
0.0
210
0.0
220
0.0
230
1.0
  0
SOLID
  5
7AC
330
75E
100
AcDbEntity
  8
HATCH
  6
CONTINUOUS
 62
     2
100
AcDbTrace
 10
6503.265582253558
 20
4277.785090416166
 30
0.0
 11
6284.681478426682
 21
4219.215656317475
 31
0.0
 12
6561.835016352249
 22
4219.215656317475
 32
0.0
 13
6561.835016352249
 23
4219.215656317475
 33
0.0
210
0.0
220
0.0
230
1.0
  0
SOLID
  5
7AD
330
75E
100
AcDbEntity
  8
HATCH
  6
CONTINUOUS
 62
     2
100
AcDbTrace
 10
6343.250912525373
 20
4277.785090416166
 30
0.0
 11
6284.681478426682
 21
4219.215656317475
 31
0.0
 12
6503.265582253558
 22
4277.785090416166
 32
0.0
 13
6503.265582253558
 23
4277.785090416166
 33
0.0
210
0.0
220
0.0
230
1.0
  0
SOLID
  5
7AE
330
75E
100
AcDbEntity
  8
HATCH
  6
CONTINUOUS
 62
     2
100
AcDbTrace
 10
6423.258247389465
 20
4299.222991181567
 30
0.0
 11
6343.250912525373
 21
4277.785090416166
 31
0.0
 12
6503.265582253558
 22
4277.785090416166
 32
0.0
 13
6503.265582253558
 23
4277.785090416166
 33
0.0
210
0.0
220
0.0
230
1.0
  0
ENDBLK
  5
7B0
330
75E
100
AcDbEntity
  8
0
100
AcDbBlockEnd
  0
ENDSEC
  0
SECTION
  2
ENTITIES
  0
INSERT
  5
71E
330
1F
100
AcDbEntity
  8
HATCH
100
AcDbBlockReference
  2
AFKB
 10
0.0
 20
0.0
 30
0.0
  0
ENDSEC
  0
SECTION
  2
OBJECTS
  0
DICTIONARY
  5
C
330
0
100
AcDbDictionary
  3
ACAD_GROUP
350
D
  3
ACAD_LAYOUT
350
1A
  3
ACAD_MLINESTYLE
350
17
  3
ACAD_PLOTSETTINGS
350
19
1001
ACAD
1000
TREAT_AS_HARD
1070
     0
1000
TREAT_AS_HARD
1070
     0
  0
DICTIONARY
  5
F3
330
1F
100
AcDbDictionary
  3
ACAD_LAYOUTSELFREF
350
720
  3
ACAD_SORTENTS
350
1D8
1001
ACAD
1000
TREAT_AS_HARD
1070
     1
1000
TREAT_AS_HARD
1070
     0
  0
DICTIONARY
  5
F5
330
50
100
AcDbDictionary
  3
ACAD_LAYOUTSELFREF
350
721
1001
ACAD
1000
TREAT_AS_HARD
1070
     1
1000
TREAT_AS_HARD
1070
     0
  0
DICTIONARY
  5
D
102
{ACAD_REACTORS
330
C
102
}
330
C
100
AcDbDictionary
1001
ACAD
1000
TREAT_AS_HARD
1070
     0
1000
TREAT_AS_HARD
1070
     0
  0
DICTIONARY
  5
1A
102
{ACAD_REACTORS
330
C
102
}
330
C
100
AcDbDictionary
1001
ACAD
1000
TREAT_AS_HARD
1070
     0
1000
TREAT_AS_HARD
1070
     0
  0
DICTIONARY
  5
17
102
{ACAD_REACTORS
330
C
102
}
330
C
100
AcDbDictionary
  3
STANDARD
350
18
1001
ACAD
1000
TREAT_AS_HARD
1070
     0
1000
TREAT_AS_HARD
1070
     0
  0
DICTIONARY
  5
19
102
{ACAD_REACTORS
330
C
102
}
330
C
100
AcDbDictionary
1001
ACAD
1000
TREAT_AS_HARD
1070
     0
1000
TREAT_AS_HARD
1070
     0
  0
XRECORD
  5
720
102
{ACAD_REACTORS
330
F3
102
}
330
F3
100
AcDbXrecord
340
1F
  0
SORTENTSTABLE
  5
1D8
102
{ACAD_REACTORS
330
F3
102
}
330
F3
100
AcDbSortentsTable
330
1F
331
194
  5
152
331
11D
  5
194
331
152
  5
1D7
331
1D7
  5
11D
  0
XRECORD
  5
721
102
{ACAD_REACTORS
330
F5
102
}
330
F5
100
AcDbXrecord
340
50
  0
MLINESTYLE
  5
18
102
{ACAD_REACTORS
330
17
102
}
330
17
100
AcDbMlineStyle
  2
STANDARD
 70
     0
  3

 62
   256
 51
90.0
 52
90.0
 71
     2
 49
0.5
 62
   256
  6
BYLAYER
 49
-0.5
 62
   256
  6
BYLAYER
  0
ENDSEC
  0
EOF
