  0
SECTION
  2
HEADER
  9
$ACADVER
  1
AC1012
  9
$DWGCODEPAGE
  3
ANSI_1252
  9
$INSBASE
 10
0.0
 20
0.0
 30
0.0
  9
$EXTMIN
 10
6286.456376205344
 20
1427.63272558563
 30
-175.1063322863429
  9
$EXTMAX
 10
12328.24786337313
 20
7468.406173272862
 30
0.0053440658075488
  9
$LIMMIN
 10
0.0
 20
0.0
  9
$LIMMAX
 10
420.0
 20
297.0
  9
$ORTHOMODE
 70
     1
  9
$REGENMODE
 70
     1
  9
$FILLMODE
 70
     1
  9
$QTEXTMODE
 70
     0
  9
$MIRRTEXT
 70
     1
  9
$DRAGMODE
 70
     2
  9
$LTSCALE
 40
1.0
  9
$OSMODE
 70
  3071
  9
$ATTMODE
 70
     1
  9
$TEXTSIZE
 40
2.5
  9
$TRACEWID
 40
1.0
  9
$TEXTSTYLE
  7
STANDARD
  9
$CLAYER
  8
HATCH
  9
$CELTYPE
  6
BYLAYER
  9
$CECOLOR
 62
   256
  9
$CELTSCALE
 40
1.0
  9
$DELOBJ
 70
     1
  9
$DISPSILH
 70
     0
  9
$DIMSCALE
 40
1.0
  9
$DIMASZ
 40
2.5
  9
$DIMEXO
 40
0.625
  9
$DIMDLI
 40
3.75
  9
$DIMRND
 40
0.0
  9
$DIMDLE
 40
0.0
  9
$DIMEXE
 40
1.25
  9
$DIMTP
 40
0.0
  9
$DIMTM
 40
0.0
  9
$DIMTXT
 40
2.5
  9
$DIMCEN
 40
2.5
  9
$DIMTSZ
 40
0.0
  9
$DIMTOL
 70
     0
  9
$DIMLIM
 70
     0
  9
$DIMTIH
 70
     0
  9
$DIMTOH
 70
     0
  9
$DIMSE1
 70
     0
  9
$DIMSE2
 70
     0
  9
$DIMTAD
 70
     1
  9
$DIMZIN
 70
     8
  9
$DIMBLK
  1

  9
$DIMASO
 70
     1
  9
$DIMSHO
 70
     1
  9
$DIMPOST
  1

  9
$DIMAPOST
  1

  9
$DIMALT
 70
     0
  9
$DIMALTD
 70
     3
  9
$DIMALTF
 40
0.03937007874016
  9
$DIMLFAC
 40
1.0
  9
$DIMTOFL
 70
     1
  9
$DIMTVP
 40
0.0
  9
$DIMTIX
 70
     0
  9
$DIMSOXD
 70
     0
  9
$DIMSAH
 70
     0
  9
$DIMBLK1
  1

  9
$DIMBLK2
  1

  9
$DIMSTYLE
  2
ISO-25
  9
$DIMCLRD
 70
     0
  9
$DIMCLRE
 70
     0
  9
$DIMCLRT
 70
     0
  9
$DIMTFAC
 40
1.0
  9
$DIMGAP
 40
0.625
  9
$DIMJUST
 70
     0
  9
$DIMSD1
 70
     0
  9
$DIMSD2
 70
     0
  9
$DIMTOLJ
 70
     0
  9
$DIMTZIN
 70
     8
  9
$DIMALTZ
 70
     0
  9
$DIMALTTZ
 70
     0
  9
$DIMFIT
 70
     3
  9
$DIMUPT
 70
     0
  9
$DIMUNIT
 70
     2
  9
$DIMDEC
 70
     2
  9
$DIMTDEC
 70
     2
  9
$DIMALTU
 70
     2
  9
$DIMALTTD
 70
     3
  9
$DIMTXSTY
  7
STANDARD
  9
$DIMAUNIT
 70
     0
  9
$LUNITS
 70
     2
  9
$LUPREC
 70
     4
  9
$SKETCHINC
 40
1.0
  9
$FILLETRAD
 40
20.0
  9
$AUNITS
 70
     0
  9
$AUPREC
 70
     0
  9
$MENU
  1
.
  9
$ELEVATION
 40
0.0
  9
$PELEVATION
 40
0.0
  9
$THICKNESS
 40
0.0
  9
$LIMCHECK
 70
     0
  9
$BLIPMODE
 70
     0
  9
$CHAMFERA
 40
10.0
  9
$CHAMFERB
 40
10.0
  9
$CHAMFERC
 40
20.0
  9
$CHAMFERD
 40
0.0
  9
$SKPOLY
 70
     0
  9
$TDCREATE
 40
2452626.617298958
  9
$TDUPDATE
 40
2452773.434175115
  9
$TDINDWG
 40
0.0396046296
  9
$TDUSRTIMER
 40
0.0396033565
  9
$USRTIMER
 70
     1
  9
$ANGBASE
 50
0.0
  9
$ANGDIR
 70
     0
  9
$PDMODE
 70
     0
  9
$PDSIZE
 40
0.0
  9
$PLINEWID
 40
0.0
  9
$COORDS
 70
     2
  9
$SPLFRAME
 70
     0
  9
$SPLINETYPE
 70
     6
  9
$SPLINESEGS
 70
     8
  9
$ATTDIA
 70
     0
  9
$ATTREQ
 70
     1
  9
$HANDLING
 70
-16383
  9
$HANDSEED
  5
445
  9
$SURFTAB1
 70
     6
  9
$SURFTAB2
 70
     6
  9
$SURFTYPE
 70
     6
  9
$SURFU
 70
     6
  9
$SURFV
 70
     6
  9
$UCSNAME
  2

  9
$UCSORG
 10
0.0
 20
0.0
 30
0.0
  9
$UCSXDIR
 10
1.0
 20
0.0
 30
0.0
  9
$UCSYDIR
 10
0.0
 20
1.0
 30
0.0
  9
$PUCSNAME
  2

  9
$PUCSORG
 10
0.0
 20
0.0
 30
0.0
  9
$PUCSXDIR
 10
1.0
 20
0.0
 30
0.0
  9
$PUCSYDIR
 10
0.0
 20
1.0
 30
0.0
  9
$USERI1
 70
     0
  9
$USERI2
 70
     0
  9
$USERI3
 70
     0
  9
$USERI4
 70
     0
  9
$USERI5
 70
     0
  9
$USERR1
 40
0.0
  9
$USERR2
 40
0.0
  9
$USERR3
 40
0.0
  9
$USERR4
 40
0.0
  9
$USERR5
 40
0.0
  9
$WORLDVIEW
 70
     1
  9
$SHADEDGE
 70
     3
  9
$SHADEDIF
 70
    70
  9
$TILEMODE
 70
     1
  9
$MAXACTVP
 70
    64
  9
$PINSBASE
 10
0.0
 20
0.0
 30
0.0
  9
$PLIMCHECK
 70
     0
  9
$PEXTMIN
 10
0.0
 20
0.0
 30
0.0
  9
$PEXTMAX
 10
0.0
 20
0.0
 30
0.0
  9
$PLIMMIN
 10
0.0
 20
0.0
  9
$PLIMMAX
 10
12.0
 20
9.0
  9
$UNITMODE
 70
     0
  9
$VISRETAIN
 70
     1
  9
$PLINEGEN
 70
     0
  9
$PSLTSCALE
 70
     1
  9
$TREEDEPTH
 70
  3020
  9
$PICKSTYLE
 70
     1
  9
$CMLSTYLE
  2
STANDARD
  9
$CMLJUST
 70
     0
  9
$CMLSCALE
 40
20.0
  9
$SAVEIMAGES
 70
     1
  0
ENDSEC
  0
SECTION
  2
CLASSES
  0
CLASS
  1
ACDBDICTIONARYWDFLT
  2
AcDbDictionaryWithDefault
  3
AutoCAD 2000
 90
    32768
280
     0
281
     0
  0
CLASS
  1
ACDBPLACEHOLDER
  2
AcDbPlaceHolder
  3
AutoCAD 2000
 90
    32768
280
     0
281
     0
  0
CLASS
  1
LAYOUT
  2
AcDbLayout
  3
AutoCAD 2000
 90
    32768
280
     0
281
     0
  0
CLASS
  1
LONG_TRANSACTION
  2
AcDbLongTransaction
  3
AutoCAD 2000
 90
    32768
280
     0
281
     0
  0
CLASS
  1
LWPOLYLINE
  2
AcDbPolyline
  3
AutoCAD 2000
 90
    32768
280
     0
281
     1
  0
CLASS
  1
HATCH
  2
AcDbHatch
  3
AutoCAD 2000
 90
    32768
280
     0
281
     1
  0
CLASS
  1
XRECORD
  2
AcDbXrecord
  3
AutoCAD 2000
 90
    32768
280
     0
281
     0
  0
CLASS
  1
LONG_TRANSACTION
  2
AcDbLongTransaction
  3
AutoCAD 2000
 90
    32768
280
     0
281
     0
  0
CLASS
  1
LWPOLYLINE
  2
AcDbPolyline
  3
AutoCAD 2000
 90
    32768
280
     0
281
     1
  0
CLASS
  1
HATCH
  2
AcDbHatch
  3
AutoCAD 2000
 90
    32768
280
     0
281
     1
  0
CLASS
  1
XRECORD
  2
AcDbXrecord
  3
AutoCAD 2000
 90
    32768
280
     0
281
     0
  0
CLASS
  1
LONG_TRANSACTION
  2
AcDbLongTransaction
  3
AutoCAD 2000
 90
    32768
280
     0
281
     0
  0
CLASS
  1
LWPOLYLINE
  2
AcDbPolyline
  3
AutoCAD 2000
 90
    32768
280
     0
281
     1
  0
CLASS
  1
HATCH
  2
AcDbHatch
  3
AutoCAD 2000
 90
    32768
280
     0
281
     1
  0
CLASS
  1
XRECORD
  2
AcDbXrecord
  3
AutoCAD 2000
 90
    32768
280
     0
281
     0
  0
CLASS
  1
DICTIONARYVAR
  2
AcDbDictionaryVar
  3
AutoCAD 2000
 90
    32768
280
     0
281
     0
  0
CLASS
  1
SORTENTSTABLE
  2
AcDbSortentsTable
  3
AutoCAD 2000
 90
    32768
280
     0
281
     0
  0
CLASS
  1
LONG_TRANSACTION
  2
AcDbLongTransaction
  3
AutoCAD 2000
 90
    32768
280
     0
281
     0
  0
CLASS
  1
LWPOLYLINE
  2
AcDbPolyline
  3
AutoCAD 2000
 90
    32768
280
     0
281
     1
  0
CLASS
  1
HATCH
  2
AcDbHatch
  3
AutoCAD 2000
 90
    32768
280
     0
281
     1
  0
CLASS
  1
XRECORD
  2
AcDbXrecord
  3
AutoCAD 2000
 90
    32768
280
     0
281
     0
  0
ENDSEC
  0
SECTION
  2
TABLES
  0
TABLE
  2
VPORT
  5
8
330
0
100
AcDbSymbolTable
 70
     4
  0
VPORT
  5
371
330
8
100
AcDbSymbolTableRecord
100
AcDbViewportTableRecord
  2
*ACTIVE
 70
     0
 10
0.0
 20
0.0
 11
1.0
 21
1.0
 12
9604.38833648045
 22
4055.931620994393
 13
0.0
 23
0.0
 14
10.0
 24
10.0
 15
10.0
 25
10.0
 16
0.0
 26
0.0
 36
1.0
 17
0.0
 27
0.0
 37
0.0
 40
11983.42998435923
 41
1.558704453441295
 42
50.0
 43
0.0
 44
0.0
 50
0.0
 51
0.0
 71
     0
 72
   100
 73
     1
 74
     3
 75
     0
 76
     0
 77
     0
 78
     0
  0
ENDTAB
  0
TABLE
  2
LTYPE
  5
5
330
0
100
AcDbSymbolTable
 70
     1
  0
LTYPE
  5
14
330
5
100
AcDbSymbolTableRecord
100
AcDbLinetypeTableRecord
  2
BYBLOCK
 70
     0
  3

 72
    65
 73
     0
 40
0.0
  0
LTYPE
  5
15
330
5
100
AcDbSymbolTableRecord
100
AcDbLinetypeTableRecord
  2
BYLAYER
 70
     0
  3

 72
    65
 73
     0
 40
0.0
  0
LTYPE
  5
16
330
5
100
AcDbSymbolTableRecord
100
AcDbLinetypeTableRecord
  2
CONTINUOUS
 70
     0
  3
Solid line
 72
    65
 73
     0
 40
0.0
  0
ENDTAB
  0
TABLE
  2
LAYER
  5
2
330
0
100
AcDbSymbolTable
 70
     6
  0
LAYER
  5
10
330
2
100
AcDbSymbolTableRecord
100
AcDbLayerTableRecord
  2
0
 70
     0
 62
     7
  6
CONTINUOUS
  0
LAYER
  5
5D
330
2
100
AcDbSymbolTableRecord
100
AcDbLayerTableRecord
  2
SAFETY
 70
     0
 62
     7
  6
CONTINUOUS
  0
LAYER
  5
5E
330
2
100
AcDbSymbolTableRecord
100
AcDbLayerTableRecord
  2
OBJECT
 70
     0
 62
     7
  6
CONTINUOUS
  0
LAYER
  5
133
330
2
100
AcDbSymbolTableRecord
100
AcDbLayerTableRecord
  2
TEKST
 70
     0
 62
     7
  6
CONTINUOUS
  0
LAYER
  5
164
330
2
100
AcDbSymbolTableRecord
100
AcDbLayerTableRecord
  2
DEFPOINTS
 70
     0
 62
     7
  6
CONTINUOUS
  0
LAYER
  5
1B6
330
2
100
AcDbSymbolTableRecord
100
AcDbLayerTableRecord
  2
HATCH
 70
     0
 62
     7
  6
CONTINUOUS
  0
ENDTAB
  0
TABLE
  2
STYLE
  5
3
330
0
100
AcDbSymbolTable
 70
     3
  0
STYLE
  5
11
330
3
100
AcDbSymbolTableRecord
100
AcDbTextStyleTableRecord
  2
STANDARD
 70
     0
 40
0.0
 41
1.0
 50
0.0
 71
     0
 42
2.5
  3
txt
  4

  0
STYLE
  5
5F
330
3
100
AcDbSymbolTableRecord
100
AcDbTextStyleTableRecord
  2
STYLE1
 70
     0
 40
5.0
 41
1.0
 50
0.0
 71
     0
 42
2.5
  3
romans.shx
  4

  0
STYLE
  5
60
330
3
100
AcDbSymbolTableRecord
100
AcDbTextStyleTableRecord
  2
STYLE2
 70
     0
 40
3.0
 41
1.0
 50
0.0
 71
     0
 42
1.5
  3
romand.shx
  4

  0
ENDTAB
  0
TABLE
  2
VIEW
  5
6
330
0
100
AcDbSymbolTable
 70
     0
  0
ENDTAB
  0
TABLE
  2
UCS
  5
7
330
0
100
AcDbSymbolTable
 70
     0
  0
ENDTAB
  0
TABLE
  2
APPID
  5
9
330
0
100
AcDbSymbolTable
 70
     3
  0
APPID
  5
12
330
9
100
AcDbSymbolTableRecord
100
AcDbRegAppTableRecord
  2
ACAD
 70
     0
  0
APPID
  5
62
330
9
100
AcDbSymbolTableRecord
100
AcDbRegAppTableRecord
  2
AVE_FINISH
 70
     0
  0
APPID
  5
12A
330
9
100
AcDbSymbolTableRecord
100
AcDbRegAppTableRecord
  2
CONTENTBLOCKICON
 70
     0
  0
ENDTAB
  0
TABLE
  2
DIMSTYLE
  5
A
330
0
100
AcDbSymbolTable
 70
     2
  0
DIMSTYLE
105
27
330
A
100
AcDbSymbolTableRecord
100
AcDbDimStyleTableRecord
  2
ISO-25
 70
     0
  3

  4

  5

  6

  7

 40
1.0
 41
2.5
 42
0.625
 43
3.75
 44
1.25
 45
0.0
 46
0.0
 47
0.0
 48
0.0
140
2.5
141
2.5
142
0.0
143
0.03937007874016
144
1.0
145
0.0
146
1.0
147
0.625
 71
     0
 72
     0
 73
     0
 74
     0
 75
     0
 76
     0
 77
     1
 78
     8
170
     0
171
     3
172
     1
173
     0
174
     0
175
     0
176
     0
177
     0
178
     0
270
     2
271
     2
272
     2
273
     2
274
     3
340
11
275
     0
280
     0
281
     0
282
     0
283
     0
284
     8
285
     0
286
     0
287
     3
288
     0
  0
DIMSTYLE
105
61
330
A
100
AcDbSymbolTableRecord
100
AcDbDimStyleTableRecord
  2
STANDARD
 70
     0
  3

  4

  5

  6

  7

 40
1.0
 41
4.0
 42
2.0
 43
7.0
 44
2.0
 45
0.0
 46
0.0
 47
0.0
 48
0.0
140
5.0
141
0.09
142
0.0
143
25.4
144
1.0
145
0.0
146
1.0
147
2.0
 71
     0
 72
     0
 73
     0
 74
     0
 75
     0
 76
     0
 77
     1
 78
     8
170
     0
171
     2
172
     1
173
     0
174
     0
175
     0
176
     1
177
     1
178
     1
270
     2
271
     1
272
     0
273
     2
274
     2
340
5F
275
     0
280
     0
281
     0
282
     0
283
     1
284
     0
285
     0
286
     0
287
     3
288
     0
  0
ENDTAB
  0
TABLE
  2
BLOCK_RECORD
  5
1
330
0
100
AcDbSymbolTable
 70
     7
  0
BLOCK_RECORD
  5
1F
102
{ACAD_XDICTIONARY
360
D3
102
}
330
1
100
AcDbSymbolTableRecord
100
AcDbBlockTableRecord
  2
*MODEL_SPACE
  0
BLOCK_RECORD
  5
50
102
{ACAD_XDICTIONARY
360
D5
102
}
330
1
100
AcDbSymbolTableRecord
100
AcDbBlockTableRecord
  2
*PAPER_SPACE
  0
BLOCK_RECORD
  5
E1
330
1
100
AcDbSymbolTableRecord
100
AcDbBlockTableRecord
  2
AFKE
1001
ACAD
1000
DesignCenter Data
1002
{
1070
     1
1070
     4
1002
}
1001
CONTENTBLOCKICON
1071
        0
1004
28000000200000002000000001000800000000000004000000000000000000000000000000000000000000004000000080000000FF000000002000004020000080200000FF200000004000004040000080400000FF400000006000004060000080600000FF600000008000004080000080800000FF80000000A0000040A000
1004
0080A00000FFA0000000C0000040C0000080C00000FFC0000000FF000040FF000080FF0000FFFF0000000020004000200080002000FF002000002020004020200080202000FF202000004020004040200080402000FF402000006020004060200080602000FF602000008020004080200080802000FF80200000A0200040A0
1004
200080A02000FFA0200000C0200040C0200080C02000FFC0200000FF200040FF200080FF2000FFFF2000000040004000400080004000FF004000002040004020400080204000FF204000004040004040400080404000FF404000006040004060400080604000FF604000008040004080400080804000FF80400000A0400040
1004
A0400080A04000FFA0400000C0400040C0400080C04000FFC0400000FF400040FF400080FF4000FFFF4000000060004000600080006000FF006000002060004020600080206000FF206000004060004040600080406000FF406000006060004060600080606000FF606000008060004080600080806000FF80600000A06000
1004
40A0600080A06000FFA0600000C0600040C0600080C06000FFC0600000FF600040FF600080FF6000FFFF6000000080004000800080008000FF008000002080004020800080208000FF208000004080004040800080408000FF408000006080004060800080608000FF608000008080004080800080808000FF80800000A080
1004
0040A0800080A08000FFA0800000C0800040C0800080C08000FFC0800000FF800040FF800080FF8000FFFF80000000A0004000A0008000A000FF00A0000020A0004020A0008020A000FF20A0000040A0004040A0008040A000FF40A0000060A0004060A0008060A000FF60A0000080A0004080A0008080A000FF80A00000A0
1004
A00040A0A00080A0A000FFA0A00000C0A00040C0A00080C0A000FFC0A00000FFA00040FFA00080FFA000FFFFA0000000C0004000C0008000C000FF00C0000020C0004020C0008020C000FF20C0000040C0004040C0008040C000FF40C0000060C0004060C0008060C000FF60C0000080C0004080C0008080C000FF80C00000
1004
A0C00040A0C00080A0C000FFA0C00000C0C00040C0C00080C0C000FFC0C00000FFC00040FFC00080FFC000FFFFC0000000FF004000FF008000FF00FF00FF000020FF004020FF008020FF00FF20FF000040FF004040FF008040FF00FF40FF000060FF004060FF008060FF00FF60FF000080FF004080FF008080FF00FF80FF00
1004
00A0FF0040A0FF0080A0FF00FFA0FF0000C0FF0040C0FF0080C0FF00FFC0FF0000FFFF0040FFFF0080FFFF00FFFFFF000000000000000000000000000000000000000000000000000000000000000000000000000000000000000000FFFFFF000000FFFF00000000000000000000000000000000000000000000FFFF000000
1004
FFFFFF0000FFFF00000000000000000000000000000000000000FF000000000000000000000000FF0000000000000000000000000000000000FF0000000000000000000000000000FF000000000000000000000000000000FF00000000000000000000000000000000FF00000000000000000000000000FF00000000000000
1004
0000000000000000000000FF0000000000000000000000FF0000000000000000000000000000000000000000FF000000000000000000FF0000000000000000FFFFFFFFFFFF0000000000000000FF00000000000000FF0000000000000000FFFFFFFFFFFFFFFF0000000000000000FF0000000000FF0000000000000000FF00
1004
FF0000000000FFFF0000000000000000FF00000000FF00000000000000FF00FF00000000000000FFFF00000000000000FF000000FF000000000000FFFF00FF000000000000000000FFFFFF000000000000FF0000FF000000000000FFFFFF00000000000000000000FFFFFF000000000000FF000000FF0000000000FFFF0000
1004
00000000000000000000FFFF000000000000FF000000FF0000000000FFFF000000000000000000000000FFFF0000000000FF00000000FF0000000000FFFF000000000000000000000000FFFF0000000000FF000000FF000000000000FFFFFF00000000000000000000FFFFFF000000000000FF0000FF000000000000FF00FF
1004
00000000000000000000FFFFFF000000000000FF0000FF00000000000000FFFFFF0000000000000000FF00FF00000000000000FF000000FF00000000000000FF00FF000000000000FF00FF00000000000000FF00000000FF0000000000000000FFFFFFFFFFFFFFFFFFFF0000000000000000FF0000000000FF000000000000
1004
0000FFFFFFFFFFFFFFFF0000000000000000FF00000000000000FF00000000000000000000000000000000000000000000FF000000000000000000FF0000000000000000000000000000000000000000FF0000000000000000000000FF000000000000000000000000000000000000FF00000000000000000000000000FF00
1004
000000000000000000000000000000FF000000000000000000000000000000FF0000000000000000000000000000FF0000000000000000000000000000000000FF000000000000000000000000FF00000000000000000000000000000000000000FFFF000000FFFF000000FFFF000000000000000000000000000000000000
1004
00000000FFFFFF0000FFFFFF0000000000000000000000000000000000000000000000000000000000000000000000000000000000000000
  0
BLOCK_RECORD
  5
165
330
1
100
AcDbSymbolTableRecord
100
AcDbBlockTableRecord
  2
*D1
  0
BLOCK_RECORD
  5
3A6
330
1
100
AcDbSymbolTableRecord
100
AcDbBlockTableRecord
  2
*U3
  0
BLOCK_RECORD
  5
3D9
330
1
100
AcDbSymbolTableRecord
100
AcDbBlockTableRecord
  2
*U4
  0
BLOCK_RECORD
  5
415
330
1
100
AcDbSymbolTableRecord
100
AcDbBlockTableRecord
  2
*U5
  0
BLOCK_RECORD
  5
42D
330
1
100
AcDbSymbolTableRecord
100
AcDbBlockTableRecord
  2
*U6
  0
ENDTAB
  0
ENDSEC
  0
SECTION
  2
BLOCKS
  0
BLOCK
  5
20
330
1F
100
AcDbEntity
  8
0
100
AcDbBlockBegin
  2
*MODEL_SPACE
 70
     0
 10
0.0
 20
0.0
 30
0.0
  3
*MODEL_SPACE
  1

  0
ENDBLK
  5
21
330
1F
100
AcDbEntity
  8
0
100
AcDbBlockEnd
  0
BLOCK
  5
52
330
50
100
AcDbEntity
 67
     1
  8
0
100
AcDbBlockBegin
  2
*PAPER_SPACE
 70
     0
 10
0.0
 20
0.0
 30
0.0
  3
*PAPER_SPACE
  1

  0
ENDBLK
  5
53
330
50
100
AcDbEntity
 67
     1
  8
0
100
AcDbBlockEnd
  0
BLOCK
  5
E2
330
E1
100
AcDbEntity
  8
0
100
AcDbBlockBegin
  2
AFKE
 70
     0
 10
0.0
 20
0.0
 30
0.0
  3
AFKE
  1

  0
REGION
  5
E4
330
E1
100
AcDbEntity
  8
SAFETY
 48
5.0
100
AcDbModelerGeometry
 70
     1
  1
noi ki n o          
  1
=0;& {rn {n {rn {rn |
  1
3*2/ {rn {rn {m {o |
  1
,7:33 {rn {rn {rn {l {n |
  1
9><: {rn {rn {k {m {rn {j 90-(>-; ;0*=3: 0*+ |
  1
300/ {rn {rn {i {l |
  1
/3>1:r,*-9><: {rn mgioqkmhnfifolinmi mgioqkmhmolflfgmm rnhjqnoofgfoljfnngg o o n n o o o V V V V |
  1
<0:;8: {rn {h {g {rn {f o {k {rn |
  1
<0:;8: {rn {no {i {rn {nn o {k {rn |
  1
<0:;8: {rn {i {nm {rn {nl o {k {rn |
  1
:;8: {rn {nk {nj {i {ni o |
  1
<0:;8: {rn {nh {h {rn {ng o {k {rn |
  1
:;8: {rn {nj {nf {h {mo o |
  1
<0:;8: {rn {g {mn {rn {mm o {k {rn |
  1
:;8: {rn {ml {nk {g {mk o |
  1
):-+:' {rn {f {mj |
  1
):-+:' {rn {f {mi |
  1
:336/,:r<*-): {rn kmmmqolnkjmhhlmnlj lkmkqkmmnjllojfkmi rnhjqnoofgfoljfnmhf o o n nlgjqgnfmfghiifmgl jhkqomjnkgjkhikonl o n Y roqhhgnhnnhhfnmlmmgm Y oqhhgnhnnhhfnmlmmgm |
  1
<0:;8: {rn {mh {no {rn {mg o {k {rn |
  1
:;8: {rn {nf {mf {no {lo o |
  1
):-+:' {rn {nn {ln |
  1
:336/,:r<*-): {rn lkmkqkmmnkimifhmll kmmmqolnkjfgofkmgl rnhjqnoofgfoljfnmhf o o n jhkqomjnkgjkhimfkk nlgjqgnfmfghiiflmk o n Y roqhhgnhnnhhfnmlmlnj Y oqhhgnhnnhhfnmlmmgm |
  1
<0:;8: {rn {nm {mh {rn {lm o {k {rn |
  1
:;8: {rn {ll {ml {nm {lk o |
  1
):-+:' {rn {mm {lj |
  1
:336/,:r<*-): {rn kmmmqolnkjmhhlmngf mmfiqklmmjkjhlhnml rnhjqnoofgfoljfnmhf o o n nlgjqgnfmfghiiflmf rjhkqomjnkgjkhimfih o n Y roqhhgnhnnhhfnmlmkmi Y oqhhgnhnnhhfnmlmknj |
  1
/061+ {rn jinnqfimffigolnhhh mgioqkmhmolflfglmf rnhjqnoofgfoljfnmhf |
  1
/061+ {rn kgoiqojignfifonlfj kgoiqojigmihmilimj rnhjqnoofgfoljfnmhf |
  1
<0:;8: {rn {mn {nh {rn {li o {k {rn |
  1
:;8: {rn {mf {lh {nh {lg o |
  1
):-+:' {rn {ng {lf |
  1
:336/,:r<*-): {rn mmfiqklmmkhjlhkfmj kmmmqolnkjfgofkmmg rnhjqnoofgfoljfnmhf o o n rjhkqomjnkgjkhilfmm nlgjqgnfmfghiifmgl o n Y roqhhgnhnnhhfnmlmlok Y oqhhgnhnnhhfnmlmlok |
  1
/061+ {rn mgioqkmhnfifolioln jinnqfiloolglflgkl rnhjqnoofgfoljfnmhf |
  1
:;8: {rn {ko {ll {mn {kn o |
  1
):-+:' {rn {lm {km |
  1
:336/,:r<*-): {rn lkmkqkmmnkimifhlmk nkfgqgmmfkgohommnm rnhjqnoofgfoljfnmhf o o n jhkqomjnkgjkhilfhf rnlgjqgnfmfghiifmgi o n Y roqhhgnhnnhhfnmlmlfl Y oqhhgnhnnhhfnmlmknj |
  1
/061+ {rn kgoiqojignfifonjln fnkqhfhjgnnjlmfioj rnhjqnoofgfoljfnmhf |
  1
:;8: {rn {lh {ko {mh {kl o |
  1
):-+:' {rn {mg {kk |
  1
:336/,:r<*-): {rn nkfgqgmmfknolkoohl lkmkqkmmnjllojfllj rnhjqnoofgfoljfnmhf o o n rnlgjqgnfmfghiiflmm jhkqomjnkgjkhimff o n Y roqhhgnhnnhhfnmlmlhn Y oqhhgnhnnhhfnmlmlhn |
  1
/061+ {rn fnkqhfhjhknnhohmi kgoiqojigmihmilkhf rnhjqnoofgfoljfnmhf |
  1
):-+:' {rn {li {kj |
  1
:336/,:r<*-): {rn mmfiqklmmkhjlhjooi nkfgqgmmfkgohomnhj rnhjqnoofgfoljfnmhf o o n rjhkqomjnkgjkhiloif rnlgjqgnfmfghiiflmh o n Y roqhhgnhnnhhfnmlmlmi Y oqhhgnhnnhhfnmlmlmi |
  1
/061+ {rn mgioqkmhnfifolimog nogqgfnkokokomjhgk rnhjqnoofgfoljfnmhf |
  1
:336/,:r<*-): {rn nkfgqgmmfknolkonof mmfiqklmmjkjhlhonk rnhjqnoofgfoljfnmhf o o n rnlgjqgnfmfghiifmgi rjhkqomjnkgjkhilgjk o n Y roqhhgnhnnhhfnmlmmhn Y oqhhgnhnnhhfnmlmmfl |
  1
/061+ {rn nogqgfnlfhookokhjg mgioqkmhmolflfgnmf rnhjqnoofgfoljfnmhf |
  1
/061+ {rn fnkqhfhjhknnhoglfh fnkqhfhjgnnjlmgllm rnhjqnoofgfoljfnmhf |
1001
AVE_FINISH
1002
{
1070
     0
1005
0
1002
}
  0
LINE
  5
E5
330
E1
100
AcDbEntity
  8
OBJECT
100
AcDbLine
 10
3292.671716110749
 20
1617.268834542476
 30
0.0
 11
2860.427196903611
 21
1617.268834542476
 31
0.0
  0
LINE
  5
E6
330
E1
100
AcDbEntity
  8
OBJECT
100
AcDbLine
 10
3317.907860349541
 20
4007.583501578031
 30
0.0
 11
2860.427196903611
 21
4007.583501578031
 31
0.0
  0
LINE
  5
E7
330
E1
100
AcDbEntity
  8
OBJECT
100
AcDbLine
 10
3317.907860349539
 20
4207.583501578032
 30
0.0
 11
2860.427196903611
 21
4207.583501578032
 31
0.0
  0
LINE
  5
E8
330
E1
100
AcDbEntity
  8
OBJECT
100
AcDbLine
 10
3254.155766794163
 20
1417.268834542475
 30
0.0
 11
2860.427196903611
 21
1417.268834542475
 31
0.0
  0
LINE
  5
E9
330
E1
100
AcDbEntity
  8
OBJECT
100
AcDbLine
 10
1624.036912047591
 20
2812.426168060254
 30
0.0
 11
1624.036912047591
 21
3242.798438971446
 31
0.0
  0
LINE
  5
EA
330
E1
100
AcDbEntity
  8
OBJECT
100
AcDbLine
 10
1424.036912047591
 20
2812.426168060254
 30
0.0
 11
1424.036912047591
 21
3380.703716159863
 31
0.0
  0
LINE
  5
EB
330
E1
100
AcDbEntity
  8
OBJECT
100
AcDbLine
 10
1688.253946578107
 20
2263.298748125285
 30
0.0
 11
2290.357043933604
 21
1663.764022331541
 31
0.0
  0
LINE
  5
EC
330
E1
100
AcDbEntity
  8
OBJECT
100
AcDbLine
 10
1516.395318798604
 20
2152.184183455639
 30
0.0
 11
2149.238282975989
 21
1522.040716888199
 31
0.0
  0
CIRCLE
  5
ED
330
E1
100
AcDbEntity
  8
OBJECT
100
AcDbCircle
 10
1545.329271272655
 20
2295.895027223396
 30
0.0
 40
146.5946118457653
  0
LINE
  5
EE
330
E1
100
AcDbEntity
  8
OBJECT
100
AcDbLine
 10
1424.036912047591
 20
2812.426168060254
 30
0.0
 11
1424.036912047591
 21
2378.22451049536
 31
0.0
  0
LINE
  5
EF
330
E1
100
AcDbEntity
  8
OBJECT
100
AcDbLine
 10
1624.036912047591
 20
2812.426168060254
 30
0.0
 11
1624.036912047591
 21
2419.568336817075
 31
0.0
  0
CIRCLE
  5
F0
330
E1
100
AcDbEntity
  8
OBJECT
100
AcDbCircle
 10
2295.755208145367
 20
1517.268834542474
 30
0.0
 40
146.5946118457653
  0
LINE
  5
F1
330
E1
100
AcDbEntity
  8
OBJECT
100
AcDbLine
 10
2402.946533457681
 20
1617.268834542476
 30
0.0
 11
2860.427196903611
 21
1617.268834542476
 31
0.0
  0
LINE
  5
F2
330
E1
100
AcDbEntity
  8
OBJECT
100
AcDbLine
 10
2402.946533457682
 20
1417.268834542475
 30
0.0
 11
2860.427196903611
 21
1417.268834542475
 31
0.0
  0
LINE
  5
F3
330
E1
100
AcDbEntity
  8
OBJECT
100
AcDbLine
 10
1711.658913282005
 20
3384.858716895343
 30
0.0
 11
2313.48578120169
 21
3984.118391556178
 31
0.0
  0
LINE
  5
F4
330
E1
100
AcDbEntity
  8
OBJECT
100
AcDbLine
 10
1567.619607510654
 20
3523.673935597797
 30
0.0
 11
2199.508790851117
 21
4152.867689840145
 31
0.0
  0
CIRCLE
  5
F5
330
E1
100
AcDbEntity
  8
OBJECT
100
AcDbCircle
 10
1565.269863385831
 20
3377.098156818496
 30
0.0
 40
146.5946118457653
  0
CIRCLE
  5
F6
330
E1
100
AcDbEntity
  8
OBJECT
100
AcDbCircle
 10
2343.896056066752
 20
4127.52409369121
 30
0.0
 40
146.5946118457653
  0
LINE
  5
F7
330
E1
100
AcDbEntity
  8
OBJECT
100
AcDbLine
 10
2466.698627013056
 20
4207.583501578034
 30
0.0
 11
2860.427196903611
 21
4207.583501578032
 31
0.0
  0
LINE
  5
F8
330
E1
100
AcDbEntity
  8
OBJECT
100
AcDbLine
 10
2428.182677696467
 20
4007.583501578031
 30
0.0
 11
2860.427196903611
 21
4007.583501578031
 31
0.0
  0
LINE
  5
F9
330
E1
100
AcDbEntity
  8
OBJECT
100
AcDbLine
 10
4296.817481759629
 20
2812.426168060254
 30
0.0
 11
4296.817481759629
 21
3246.627825625145
 31
0.0
  0
LINE
  5
FA
330
E1
100
AcDbEntity
  8
OBJECT
100
AcDbLine
 10
4096.817481759629
 20
2812.426168060254
 30
0.0
 11
4096.817481759629
 21
3205.283999303436
 31
0.0
  0
LINE
  5
FB
330
E1
100
AcDbEntity
  8
OBJECT
100
AcDbLine
 10
4009.195480525217
 20
2239.993619225162
 30
0.0
 11
3407.368612605534
 21
1640.733944564332
 31
0.0
  0
LINE
  5
FC
330
E1
100
AcDbEntity
  8
OBJECT
100
AcDbLine
 10
4153.234786296564
 20
2101.178400522709
 30
0.0
 11
3521.345602956101
 21
1471.984646280358
 31
0.0
  0
CIRCLE
  5
FD
330
E1
100
AcDbEntity
  8
OBJECT
100
AcDbCircle
 10
3376.958337740467
 20
1497.328242429299
 30
0.0
 40
146.5946118457653
  0
CIRCLE
  5
FE
330
E1
100
AcDbEntity
  8
OBJECT
100
AcDbCircle
 10
4155.584530421388
 20
2247.75417930201
 30
0.0
 40
146.5946118457653
  0
LINE
  5
FF
330
E1
100
AcDbEntity
  8
OBJECT
100
AcDbLine
 10
4296.817481759629
 20
2812.426168060254
 30
0.0
 11
4296.817481759629
 21
2244.148619960643
 31
0.0
  0
LINE
  5
100
330
E1
100
AcDbEntity
  8
OBJECT
100
AcDbLine
 10
4096.817481759629
 20
2812.426168060254
 30
0.0
 11
4096.817481759629
 21
2382.053897149059
 31
0.0
  0
LINE
  5
101
330
E1
100
AcDbEntity
  8
OBJECT
100
AcDbLine
 10
4032.600447229115
 20
3361.553587995217
 30
0.0
 11
3430.49734987361
 21
3961.088313788967
 31
0.0
  0
LINE
  5
102
330
E1
100
AcDbEntity
  8
OBJECT
100
AcDbLine
 10
4204.459075008616
 20
3472.668152664868
 30
0.0
 11
3571.616110831233
 21
4102.811619232307
 31
0.0
  0
CIRCLE
  5
103
330
E1
100
AcDbEntity
  8
OBJECT
100
AcDbCircle
 10
3425.099185661855
 20
4107.583501578032
 30
0.0
 40
146.5946118457653
  0
CIRCLE
  5
104
330
E1
100
AcDbEntity
  8
OBJECT
100
AcDbCircle
 10
4175.525122534568
 20
3328.957308897114
 30
0.0
 40
146.5946118457653
  0
ENDBLK
  5
E3
330
E1
100
AcDbEntity
  8
0
100
AcDbBlockEnd
  0
BLOCK
  5
16F
330
165
100
AcDbEntity
  8
0
100
AcDbBlockBegin
  2
*D1
 70
     1
 10
0.0
 20
0.0
 30
0.0
  3
*D1
  1

  0
LINE
  5
166
330
165
100
AcDbEntity
  8
0
 62
     0
100
AcDbLine
 10
-1416.643834542474
 20
-0.0000000000000002
 30
0.0
 11
-937.1366852519532
 21
-0.000000000000136
 31
0.0
  0
LINE
  5
167
330
165
100
AcDbEntity
  8
0
 62
     0
100
AcDbLine
 10
-2295.807254573701
 20
-175.1009890359128
 30
0.0
 11
-937.1366852519532
 21
-175.1009890359132
 31
0.0
  0
LINE
  5
168
330
165
100
AcDbEntity
  8
0
 62
     0
100
AcDbLine
 10
-938.3866852519531
 20
-2.500000000000135
 30
0.0
 11
-938.3866852519531
 21
-172.6009890359131
 31
0.0
  0
SOLID
  5
169
330
165
100
AcDbEntity
  8
0
 62
     0
100
AcDbTrace
 10
-938.8033519186198
 20
-2.500000000000135
 30
0.0
 11
-937.9700185852865
 21
-2.500000000000135
 31
0.0
 12
-938.3866852519531
 22
-0.0000000000001357
 32
0.0
 13
-938.3866852519531
 23
-0.0000000000001357
 33
0.0
  0
SOLID
  5
16A
330
165
100
AcDbEntity
  8
0
 62
     0
100
AcDbTrace
 10
-938.8033519186198
 20
-172.6009890359131
 30
0.0
 11
-937.9700185852865
 21
-172.6009890359131
 31
0.0
 12
-938.3866852519531
 22
-175.1009890359132
 32
0.0
 13
-938.3866852519531
 23
-175.1009890359132
 33
0.0
  0
MTEXT
  5
16B
330
165
100
AcDbEntity
  8
0
 62
     0
100
AcDbMText
 10
-940.2616852519532
 20
-87.55049451795681
 30
0.0
 40
2.5
 41
0.0
 71
     5
 72
     1
  1
175.1
 11
0.0000000000000001
 21
1.0
 31
0.0
1001
ACAD
1000
MTEXTBEGIN
1070
    73
1070
     1
1070
    44
1040
1.0
1070
    74
1070
     0
1000
MTEXTEND
  0
POINT
  5
16C
330
165
100
AcDbEntity
  8
DEFPOINTS
 62
     0
100
AcDbPoint
 10
-1417.268834542475
 20
0.0
 30
-2402.946533457682
  0
POINT
  5
16D
330
165
100
AcDbEntity
  8
DEFPOINTS
 62
     0
100
AcDbPoint
 10
-2296.432254573701
 20
-175.1009890359128
 30
-1498.822941034011
  0
POINT
  5
16E
330
165
100
AcDbEntity
  8
DEFPOINTS
 62
     0
100
AcDbPoint
 10
-938.3866852519531
 20
-175.1009890359132
 30
0.0
  0
ENDBLK
  5
170
330
165
100
AcDbEntity
  8
0
100
AcDbBlockEnd
  0
BLOCK
  5
3D7
330
3A6
100
AcDbEntity
  8
0
100
AcDbBlockBegin
  2
*U3
 70
     1
 10
0.0
 20
0.0
 30
0.0
  3
*U3
  1

  0
SOLID
  5
3A7
330
3A6
100
AcDbEntity
  8
HATCH
  6
CONTINUOUS
 62
     2
100
AcDbTrace
 10
9222.64770857105
 20
2963.325431428954
 30
0.0
 11
9307.500522313436
 21
2928.17824517134
 31
0.0
 12
9392.353336055821
 22
2963.325431428954
 32
0.0
 13
9392.353336055821
 23
2963.325431428954
 33
0.0
210
0.0
220
0.0
230
1.0
  0
SOLID
  5
3A8
330
3A6
100
AcDbEntity
  8
HATCH
  6
CONTINUOUS
 62
     2
100
AcDbTrace
 10
9427.500522313435
 20
3048.17824517134
 30
0.0
 11
9222.64770857105
 21
2963.325431428954
 31
0.0
 12
9392.353336055821
 22
2963.325431428954
 32
0.0
 13
9392.353336055821
 23
2963.325431428954
 33
0.0
210
0.0
220
0.0
230
1.0
  0
SOLID
  5
3A9
330
3A6
100
AcDbEntity
  8
HATCH
  6
CONTINUOUS
 62
     2
100
AcDbTrace
 10
9187.500522313436
 20
3048.17824517134
 30
0.0
 11
9222.64770857105
 21
2963.325431428954
 31
0.0
 12
9427.500522313435
 22
3048.17824517134
 32
0.0
 13
9427.500522313435
 23
3048.17824517134
 33
0.0
210
0.0
220
0.0
230
1.0
  0
SOLID
  5
3AA
330
3A6
100
AcDbEntity
  8
HATCH
  6
CONTINUOUS
 62
     2
100
AcDbTrace
 10
9392.353336055821
 20
3133.031058913725
 30
0.0
 11
9187.500522313436
 21
3048.17824517134
 31
0.0
 12
9427.500522313435
 22
3048.17824517134
 32
0.0
 13
9427.500522313435
 23
3048.17824517134
 33
0.0
210
0.0
220
0.0
230
1.0
  0
SOLID
  5
3AB
330
3A6
100
AcDbEntity
  8
HATCH
  6
CONTINUOUS
 62
     2
100
AcDbTrace
 10
9222.64770857105
 20
3133.031058913726
 30
0.0
 11
9187.500522313436
 21
3048.17824517134
 31
0.0
 12
9392.353336055821
 22
3133.031058913725
 32
0.0
 13
9392.353336055821
 23
3133.031058913725
 33
0.0
210
0.0
220
0.0
230
1.0
  0
SOLID
  5
3AC
330
3A6
100
AcDbEntity
  8
HATCH
  6
CONTINUOUS
 62
     2
100
AcDbTrace
 10
9307.500522313436
 20
3168.17824517134
 30
0.0
 11
9222.64770857105
 21
3133.031058913726
 31
0.0
 12
9392.353336055821
 22
3133.031058913725
 32
0.0
 13
9392.353336055821
 23
3133.031058913725
 33
0.0
210
0.0
220
0.0
230
1.0
  0
SOLID
  5
3AD
330
3A6
100
AcDbEntity
  8
HATCH
  6
CONTINUOUS
 62
     2
100
AcDbTrace
 10
8232.698214909884
 20
3373.37593776779
 30
0.0
 11
8317.551028652269
 21
3338.228751510175
 31
0.0
 12
8402.403842394654
 22
3373.375937767789
 32
0.0
 13
8402.403842394654
 23
3373.375937767789
 33
0.0
210
0.0
220
0.0
230
1.0
  0
SOLID
  5
3AE
330
3A6
100
AcDbEntity
  8
HATCH
  6
CONTINUOUS
 62
     2
100
AcDbTrace
 10
10212.59720223221
 20
3373.375937767791
 30
0.0
 11
10297.4500159746
 21
3338.228751510177
 31
0.0
 12
10382.30282971698
 22
3373.375937767791
 32
0.0
 13
10382.30282971698
 23
3373.375937767791
 33
0.0
210
0.0
220
0.0
230
1.0
  0
SOLID
  5
3AF
330
3A6
100
AcDbEntity
  8
HATCH
  6
CONTINUOUS
 62
     2
100
AcDbTrace
 10
8437.55102865227
 20
3458.228751510176
 30
0.0
 11
8232.698214909884
 21
3373.37593776779
 31
0.0
 12
8402.403842394654
 22
3373.375937767789
 32
0.0
 13
8402.403842394654
 23
3373.375937767789
 33
0.0
210
0.0
220
0.0
230
1.0
  0
SOLID
  5
3B0
330
3A6
100
AcDbEntity
  8
HATCH
  6
CONTINUOUS
 62
     2
100
AcDbTrace
 10
8197.551028652268
 20
3458.228751510176
 30
0.0
 11
8232.698214909884
 21
3373.37593776779
 31
0.0
 12
8437.55102865227
 22
3458.228751510176
 32
0.0
 13
8437.55102865227
 23
3458.228751510176
 33
0.0
210
0.0
220
0.0
230
1.0
  0
SOLID
  5
3B1
330
3A6
100
AcDbEntity
  8
HATCH
  6
CONTINUOUS
 62
     2
100
AcDbTrace
 10
10417.4500159746
 20
3458.228751510176
 30
0.0
 11
10212.59720223221
 21
3373.375937767791
 31
0.0
 12
10382.30282971698
 22
3373.375937767791
 32
0.0
 13
10382.30282971698
 23
3373.375937767791
 33
0.0
210
0.0
220
0.0
230
1.0
  0
SOLID
  5
3B2
330
3A6
100
AcDbEntity
  8
HATCH
  6
CONTINUOUS
 62
     2
100
AcDbTrace
 10
10177.4500159746
 20
3458.228751510176
 30
0.0
 11
10212.59720223221
 21
3373.375937767791
 31
0.0
 12
10417.4500159746
 22
3458.228751510176
 32
0.0
 13
10417.4500159746
 23
3458.228751510176
 33
0.0
210
0.0
220
0.0
230
1.0
  0
SOLID
  5
3B3
330
3A6
100
AcDbEntity
  8
HATCH
  6
CONTINUOUS
 62
     2
100
AcDbTrace
 10
8402.403842394654
 20
3543.081565252561
 30
0.0
 11
8197.551028652268
 21
3458.228751510176
 31
0.0
 12
8437.55102865227
 22
3458.228751510176
 32
0.0
 13
8437.55102865227
 23
3458.228751510176
 33
0.0
210
0.0
220
0.0
230
1.0
  0
SOLID
  5
3B4
330
3A6
100
AcDbEntity
  8
HATCH
  6
CONTINUOUS
 62
     2
100
AcDbTrace
 10
8232.698214909884
 20
3543.081565252562
 30
0.0
 11
8197.551028652268
 21
3458.228751510176
 31
0.0
 12
8402.403842394654
 22
3543.081565252561
 32
0.0
 13
8402.403842394654
 23
3543.081565252561
 33
0.0
210
0.0
220
0.0
230
1.0
  0
SOLID
  5
3B5
330
3A6
100
AcDbEntity
  8
HATCH
  6
CONTINUOUS
 62
     2
100
AcDbTrace
 10
10382.30282971698
 20
3543.081565252562
 30
0.0
 11
10177.4500159746
 21
3458.228751510176
 31
0.0
 12
10417.4500159746
 22
3458.228751510176
 32
0.0
 13
10417.4500159746
 23
3458.228751510176
 33
0.0
210
0.0
220
0.0
230
1.0
  0
SOLID
  5
3B6
330
3A6
100
AcDbEntity
  8
HATCH
  6
CONTINUOUS
 62
     2
100
AcDbTrace
 10
10212.59720223221
 20
3543.081565252563
 30
0.0
 11
10177.4500159746
 21
3458.228751510176
 31
0.0
 12
10382.30282971698
 22
3543.081565252562
 32
0.0
 13
10382.30282971698
 23
3543.081565252562
 33
0.0
210
0.0
220
0.0
230
1.0
  0
SOLID
  5
3B7
330
3A6
100
AcDbEntity
  8
HATCH
  6
CONTINUOUS
 62
     2
100
AcDbTrace
 10
8317.551028652269
 20
3578.228751510176
 30
0.0
 11
8232.698214909884
 21
3543.081565252562
 31
0.0
 12
8402.403842394654
 22
3543.081565252561
 32
0.0
 13
8402.403842394654
 23
3543.081565252561
 33
0.0
210
0.0
220
0.0
230
1.0
  0
SOLID
  5
3B8
330
3A6
100
AcDbEntity
  8
HATCH
  6
CONTINUOUS
 62
     2
100
AcDbTrace
 10
10297.4500159746
 20
3578.228751510177
 30
0.0
 11
10212.59720223221
 21
3543.081565252563
 31
0.0
 12
10382.30282971698
 22
3543.081565252562
 32
0.0
 13
10382.30282971698
 23
3543.081565252562
 33
0.0
210
0.0
220
0.0
230
1.0
  0
SOLID
  5
3B9
330
3A6
100
AcDbEntity
  8
HATCH
  6
CONTINUOUS
 62
     2
100
AcDbTrace
 10
10622.64770857105
 20
4363.325431428954
 30
0.0
 11
10707.50052231343
 21
4328.178245171339
 31
0.0
 12
10792.35333605582
 22
4363.325431428954
 32
0.0
 13
10792.35333605582
 23
4363.325431428954
 33
0.0
210
0.0
220
0.0
230
1.0
  0
SOLID
  5
3BA
330
3A6
100
AcDbEntity
  8
HATCH
  6
CONTINUOUS
 62
     2
100
AcDbTrace
 10
7822.647708571051
 20
4363.325431428955
 30
0.0
 11
7907.500522313437
 21
4328.17824517134
 31
0.0
 12
7992.353336055822
 22
4363.325431428955
 32
0.0
 13
7992.353336055822
 23
4363.325431428955
 33
0.0
210
0.0
220
0.0
230
1.0
  0
SOLID
  5
3BB
330
3A6
100
AcDbEntity
  8
HATCH
  6
CONTINUOUS
 62
     2
100
AcDbTrace
 10
10827.50052231343
 20
4448.17824517134
 30
0.0
 11
10622.64770857105
 21
4363.325431428954
 31
0.0
 12
10792.35333605582
 22
4363.325431428954
 32
0.0
 13
10792.35333605582
 23
4363.325431428954
 33
0.0
210
0.0
220
0.0
230
1.0
  0
SOLID
  5
3BC
330
3A6
100
AcDbEntity
  8
HATCH
  6
CONTINUOUS
 62
     2
100
AcDbTrace
 10
10587.50052231343
 20
4448.17824517134
 30
0.0
 11
10622.64770857105
 21
4363.325431428954
 31
0.0
 12
10827.50052231343
 22
4448.17824517134
 32
0.0
 13
10827.50052231343
 23
4448.17824517134
 33
0.0
210
0.0
220
0.0
230
1.0
  0
SOLID
  5
3BD
330
3A6
100
AcDbEntity
  8
HATCH
  6
CONTINUOUS
 62
     2
100
AcDbTrace
 10
8027.500522313436
 20
4448.17824517134
 30
0.0
 11
7822.647708571051
 21
4363.325431428955
 31
0.0
 12
7992.353336055822
 22
4363.325431428955
 32
0.0
 13
7992.353336055822
 23
4363.325431428955
 33
0.0
210
0.0
220
0.0
230
1.0
  0
SOLID
  5
3BE
330
3A6
100
AcDbEntity
  8
HATCH
  6
CONTINUOUS
 62
     2
100
AcDbTrace
 10
7787.500522313436
 20
4448.17824517134
 30
0.0
 11
7822.647708571051
 21
4363.325431428955
 31
0.0
 12
8027.500522313436
 22
4448.17824517134
 32
0.0
 13
8027.500522313436
 23
4448.17824517134
 33
0.0
210
0.0
220
0.0
230
1.0
  0
SOLID
  5
3BF
330
3A6
100
AcDbEntity
  8
HATCH
  6
CONTINUOUS
 62
     2
100
AcDbTrace
 10
10792.35333605582
 20
4533.031058913725
 30
0.0
 11
10587.50052231343
 21
4448.17824517134
 31
0.0
 12
10827.50052231343
 22
4448.17824517134
 32
0.0
 13
10827.50052231343
 23
4448.17824517134
 33
0.0
210
0.0
220
0.0
230
1.0
  0
SOLID
  5
3C0
330
3A6
100
AcDbEntity
  8
HATCH
  6
CONTINUOUS
 62
     2
100
AcDbTrace
 10
10622.64770857105
 20
4533.031058913725
 30
0.0
 11
10587.50052231343
 21
4448.17824517134
 31
0.0
 12
10792.35333605582
 22
4533.031058913725
 32
0.0
 13
10792.35333605582
 23
4533.031058913725
 33
0.0
210
0.0
220
0.0
230
1.0
  0
SOLID
  5
3C1
330
3A6
100
AcDbEntity
  8
HATCH
  6
CONTINUOUS
 62
     2
100
AcDbTrace
 10
7992.353336055822
 20
4533.031058913726
 30
0.0
 11
7787.500522313436
 21
4448.17824517134
 31
0.0
 12
8027.500522313436
 22
4448.17824517134
 32
0.0
 13
8027.500522313436
 23
4448.17824517134
 33
0.0
210
0.0
220
0.0
230
1.0
  0
SOLID
  5
3C2
330
3A6
100
AcDbEntity
  8
HATCH
  6
CONTINUOUS
 62
     2
100
AcDbTrace
 10
7822.647708571051
 20
4533.031058913726
 30
0.0
 11
7787.500522313436
 21
4448.17824517134
 31
0.0
 12
7992.353336055822
 22
4533.031058913726
 32
0.0
 13
7992.353336055822
 23
4533.031058913726
 33
0.0
210
0.0
220
0.0
230
1.0
  0
SOLID
  5
3C3
330
3A6
100
AcDbEntity
  8
HATCH
  6
CONTINUOUS
 62
     2
100
AcDbTrace
 10
10707.50052231343
 20
4568.178245171339
 30
0.0
 11
10622.64770857105
 21
4533.031058913725
 31
0.0
 12
10792.35333605582
 22
4533.031058913725
 32
0.0
 13
10792.35333605582
 23
4533.031058913725
 33
0.0
210
0.0
220
0.0
230
1.0
  0
SOLID
  5
3C4
330
3A6
100
AcDbEntity
  8
HATCH
  6
CONTINUOUS
 62
     2
100
AcDbTrace
 10
7907.500522313437
 20
4568.178245171341
 30
0.0
 11
7822.647708571051
 21
4533.031058913726
 31
0.0
 12
7992.353336055822
 22
4533.031058913726
 32
0.0
 13
7992.353336055822
 23
4533.031058913726
 33
0.0
210
0.0
220
0.0
230
1.0
  0
SOLID
  5
3C5
330
3A6
100
AcDbEntity
  8
HATCH
  6
CONTINUOUS
 62
     2
100
AcDbTrace
 10
10212.59720223221
 20
5353.274925090119
 30
0.0
 11
10297.4500159746
 21
5318.127738832505
 31
0.0
 12
10382.30282971698
 22
5353.274925090119
 32
0.0
 13
10382.30282971698
 23
5353.274925090119
 33
0.0
210
0.0
220
0.0
230
1.0
  0
SOLID
  5
3C6
330
3A6
100
AcDbEntity
  8
HATCH
  6
CONTINUOUS
 62
     2
100
AcDbTrace
 10
8232.698214909884
 20
5353.274925090126
 30
0.0
 11
8317.551028652269
 21
5318.127738832511
 31
0.0
 12
8402.403842394654
 22
5353.274925090126
 32
0.0
 13
8402.403842394654
 23
5353.274925090126
 33
0.0
210
0.0
220
0.0
230
1.0
  0
SOLID
  5
3C7
330
3A6
100
AcDbEntity
  8
HATCH
  6
CONTINUOUS
 62
     2
100
AcDbTrace
 10
10417.4500159746
 20
5438.127738832505
 30
0.0
 11
10212.59720223221
 21
5353.274925090119
 31
0.0
 12
10382.30282971698
 22
5353.274925090119
 32
0.0
 13
10382.30282971698
 23
5353.274925090119
 33
0.0
210
0.0
220
0.0
230
1.0
  0
SOLID
  5
3C8
330
3A6
100
AcDbEntity
  8
HATCH
  6
CONTINUOUS
 62
     2
100
AcDbTrace
 10
10177.4500159746
 20
5438.127738832505
 30
0.0
 11
10212.59720223221
 21
5353.274925090119
 31
0.0
 12
10417.4500159746
 22
5438.127738832505
 32
0.0
 13
10417.4500159746
 23
5438.127738832505
 33
0.0
210
0.0
220
0.0
230
1.0
  0
SOLID
  5
3C9
330
3A6
100
AcDbEntity
  8
HATCH
  6
CONTINUOUS
 62
     2
100
AcDbTrace
 10
8437.55102865227
 20
5438.127738832511
 30
0.0
 11
8232.698214909884
 21
5353.274925090126
 31
0.0
 12
8402.403842394654
 22
5353.274925090126
 32
0.0
 13
8402.403842394654
 23
5353.274925090126
 33
0.0
210
0.0
220
0.0
230
1.0
  0
SOLID
  5
3CA
330
3A6
100
AcDbEntity
  8
HATCH
  6
CONTINUOUS
 62
     2
100
AcDbTrace
 10
8197.551028652268
 20
5438.127738832511
 30
0.0
 11
8232.698214909884
 21
5353.274925090126
 31
0.0
 12
8437.55102865227
 22
5438.127738832511
 32
0.0
 13
8437.55102865227
 23
5438.127738832511
 33
0.0
210
0.0
220
0.0
230
1.0
  0
SOLID
  5
3CB
330
3A6
100
AcDbEntity
  8
HATCH
  6
CONTINUOUS
 62
     2
100
AcDbTrace
 10
10382.30282971698
 20
5522.980552574891
 30
0.0
 11
10177.4500159746
 21
5438.127738832505
 31
0.0
 12
10417.4500159746
 22
5438.127738832505
 32
0.0
 13
10417.4500159746
 23
5438.127738832505
 33
0.0
210
0.0
220
0.0
230
1.0
  0
SOLID
  5
3CC
330
3A6
100
AcDbEntity
  8
HATCH
  6
CONTINUOUS
 62
     2
100
AcDbTrace
 10
10212.59720223221
 20
5522.980552574891
 30
0.0
 11
10177.4500159746
 21
5438.127738832505
 31
0.0
 12
10382.30282971698
 22
5522.980552574891
 32
0.0
 13
10382.30282971698
 23
5522.980552574891
 33
0.0
210
0.0
220
0.0
230
1.0
  0
SOLID
  5
3CD
330
3A6
100
AcDbEntity
  8
HATCH
  6
CONTINUOUS
 62
     2
100
AcDbTrace
 10
8402.403842394654
 20
5522.980552574896
 30
0.0
 11
8197.551028652268
 21
5438.127738832511
 31
0.0
 12
8437.55102865227
 22
5438.127738832511
 32
0.0
 13
8437.55102865227
 23
5438.127738832511
 33
0.0
210
0.0
220
0.0
230
1.0
  0
SOLID
  5
3CE
330
3A6
100
AcDbEntity
  8
HATCH
  6
CONTINUOUS
 62
     2
100
AcDbTrace
 10
8232.698214909884
 20
5522.980552574896
 30
0.0
 11
8197.551028652268
 21
5438.127738832511
 31
0.0
 12
8402.403842394654
 22
5522.980552574896
 32
0.0
 13
8402.403842394654
 23
5522.980552574896
 33
0.0
210
0.0
220
0.0
230
1.0
  0
SOLID
  5
3CF
330
3A6
100
AcDbEntity
  8
HATCH
  6
CONTINUOUS
 62
     2
100
AcDbTrace
 10
10297.4500159746
 20
5558.127738832506
 30
0.0
 11
10212.59720223221
 21
5522.980552574891
 31
0.0
 12
10382.30282971698
 22
5522.980552574891
 32
0.0
 13
10382.30282971698
 23
5522.980552574891
 33
0.0
210
0.0
220
0.0
230
1.0
  0
SOLID
  5
3D0
330
3A6
100
AcDbEntity
  8
HATCH
  6
CONTINUOUS
 62
     2
100
AcDbTrace
 10
8317.551028652269
 20
5558.12773883251
 30
0.0
 11
8232.698214909884
 21
5522.980552574896
 31
0.0
 12
8402.403842394654
 22
5522.980552574896
 32
0.0
 13
8402.403842394654
 23
5522.980552574896
 33
0.0
210
0.0
220
0.0
230
1.0
  0
SOLID
  5
3D1
330
3A6
100
AcDbEntity
  8
HATCH
  6
CONTINUOUS
 62
     2
100
AcDbTrace
 10
9222.647708571054
 20
5763.325431428953
 30
0.0
 11
9307.500522313439
 21
5728.178245171339
 31
0.0
 12
9392.353336055824
 22
5763.325431428953
 32
0.0
 13
9392.353336055824
 23
5763.325431428953
 33
0.0
210
0.0
220
0.0
230
1.0
  0
SOLID
  5
3D2
330
3A6
100
AcDbEntity
  8
HATCH
  6
CONTINUOUS
 62
     2
100
AcDbTrace
 10
9427.50052231344
 20
5848.178245171338
 30
0.0
 11
9222.647708571054
 21
5763.325431428953
 31
0.0
 12
9392.353336055824
 22
5763.325431428953
 32
0.0
 13
9392.353336055824
 23
5763.325431428953
 33
0.0
210
0.0
220
0.0
230
1.0
  0
SOLID
  5
3D3
330
3A6
100
AcDbEntity
  8
HATCH
  6
CONTINUOUS
 62
     2
100
AcDbTrace
 10
9187.50052231344
 20
5848.178245171338
 30
0.0
 11
9222.647708571054
 21
5763.325431428953
 31
0.0
 12
9427.50052231344
 22
5848.178245171338
 32
0.0
 13
9427.50052231344
 23
5848.178245171338
 33
0.0
210
0.0
220
0.0
230
1.0
  0
SOLID
  5
3D4
330
3A6
100
AcDbEntity
  8
HATCH
  6
CONTINUOUS
 62
     2
100
AcDbTrace
 10
9392.353336055824
 20
5933.031058913723
 30
0.0
 11
9187.50052231344
 21
5848.178245171338
 31
0.0
 12
9427.50052231344
 22
5848.178245171338
 32
0.0
 13
9427.50052231344
 23
5848.178245171338
 33
0.0
210
0.0
220
0.0
230
1.0
  0
SOLID
  5
3D5
330
3A6
100
AcDbEntity
  8
HATCH
  6
CONTINUOUS
 62
     2
100
AcDbTrace
 10
9222.647708571054
 20
5933.031058913723
 30
0.0
 11
9187.50052231344
 21
5848.178245171338
 31
0.0
 12
9392.353336055824
 22
5933.031058913723
 32
0.0
 13
9392.353336055824
 23
5933.031058913723
 33
0.0
210
0.0
220
0.0
230
1.0
  0
SOLID
  5
3D6
330
3A6
100
AcDbEntity
  8
HATCH
  6
CONTINUOUS
 62
     2
100
AcDbTrace
 10
9307.500522313439
 20
5968.178245171338
 30
0.0
 11
9222.647708571054
 21
5933.031058913723
 31
0.0
 12
9392.353336055824
 22
5933.031058913723
 32
0.0
 13
9392.353336055824
 23
5933.031058913723
 33
0.0
210
0.0
220
0.0
230
1.0
  0
ENDBLK
  5
3D8
330
3A6
100
AcDbEntity
  8
0
100
AcDbBlockEnd
  0
BLOCK
  5
406
330
3D9
100
AcDbEntity
  8
0
100
AcDbBlockBegin
  2
*U4
 70
     1
 10
0.0
 20
0.0
 30
0.0
  3
*U4
  1

  0
SOLID
  5
3DA
330
3D9
100
AcDbEntity
  8
HATCH
  6
CONTINUOUS
 62
     5
100
AcDbTrace
 10
8340.565920632341
 20
3340.45645108624
 30
0.0
 11
9214.867409881627
 21
3124.461313287376
 31
0.0
 12
9284.485630333367
 22
3165.950545595275
 32
0.0
 13
9284.485630333367
 23
3165.950545595275
 33
0.0
210
0.0
220
0.0
230
1.0
  0
SOLID
  5
3DB
330
3D9
100
AcDbEntity
  8
HATCH
  6
CONTINUOUS
 62
     5
100
AcDbTrace
 10
8340.565920632341
 20
3340.45645108624
 30
0.0
 11
9187.500522313436
 21
3048.17824517134
 31
0.0
 12
9214.867409881627
 22
3124.461313287376
 32
0.0
 13
9214.867409881627
 23
3124.461313287376
 33
0.0
210
0.0
220
0.0
230
1.0
  0
SOLID
  5
3DC
330
3D9
100
AcDbEntity
  8
HATCH
  6
CONTINUOUS
 62
     5
100
AcDbTrace
 10
8340.565920632341
 20
3340.45645108624
 30
0.0
 11
9192.726419366884
 21
3013.151037277836
 31
0.0
 12
9187.500522313436
 22
3048.17824517134
 32
0.0
 13
9187.500522313436
 23
3048.17824517134
 33
0.0
  0
SOLID
  5
3DD
330
3D9
100
AcDbEntity
  8
HATCH
  6
CONTINUOUS
 62
     5
100
AcDbTrace
 10
8340.565920632341
 20
3340.45645108624
 30
0.0
 11
9207.948943860348
 21
2981.174639093021
 31
0.0
 12
9192.726419366884
 22
3013.151037277836
 32
0.0
 13
9192.726419366884
 23
3013.151037277836
 33
0.0
210
0.0
220
0.0
230
1.0
  0
SOLID
  5
3DE
330
3D9
100
AcDbEntity
  8
HATCH
  6
CONTINUOUS
 62
     5
100
AcDbTrace
 10
10274.43512399453
 20
3340.456451086241
 30
0.0
 11
9330.515414293506
 21
3165.950545595275
 31
0.0
 12
9400.133634745245
 22
3124.461313287376
 32
0.0
 13
9400.133634745245
 23
3124.461313287376
 33
0.0
210
0.0
220
0.0
230
1.0
  0
SOLID
  5
3DF
330
3D9
100
AcDbEntity
  8
HATCH
  6
CONTINUOUS
 62
     5
100
AcDbTrace
 10
10274.43512399453
 20
3340.456451086241
 30
0.0
 11
9400.133634745245
 21
3124.461313287376
 31
0.0
 12
9427.500522313435
 22
3048.17824517134
 32
0.0
 13
9427.500522313435
 23
3048.17824517134
 33
0.0
210
0.0
220
0.0
230
1.0
  0
SOLID
  5
3E0
330
3D9
100
AcDbEntity
  8
HATCH
  6
CONTINUOUS
 62
     5
100
AcDbTrace
 10
10274.43512399453
 20
3340.456451086241
 30
0.0
 11
9427.500522313435
 21
3048.17824517134
 31
0.0
 12
9422.274625259985
 22
3013.151037277834
 32
0.0
 13
9422.274625259985
 23
3013.151037277834
 33
0.0
210
0.0
220
0.0
230
1.0
  0
SOLID
  5
3E1
330
3D9
100
AcDbEntity
  8
HATCH
  6
CONTINUOUS
 62
     5
100
AcDbTrace
 10
10274.43512399453
 20
3340.456451086241
 30
0.0
 11
9422.274625259985
 21
3013.151037277834
 31
0.0
 12
9407.05210076652
 22
2981.174639093017
 32
0.0
 13
9407.05210076652
 23
2981.174639093017
 33
0.0
210
0.0
220
0.0
230
1.0
  0
SOLID
  5
3E2
330
3D9
100
AcDbEntity
  8
HATCH
  6
CONTINUOUS
 62
     5
100
AcDbTrace
 10
10204.81690354279
 20
3381.94568339414
 30
0.0
 11
9330.515414293506
 21
3165.950545595275
 31
0.0
 12
10274.43512399453
 22
3340.456451086241
 32
0.0
 13
10274.43512399453
 23
3340.456451086241
 33
0.0
210
0.0
220
0.0
230
1.0
  0
SOLID
  5
3E3
330
3D9
100
AcDbEntity
  8
HATCH
  6
CONTINUOUS
 62
     5
100
AcDbTrace
 10
8410.184141084078
 20
3381.94568339414
 30
0.0
 11
8340.565920632341
 21
3340.45645108624
 31
0.0
 12
9284.485630333367
 22
3165.950545595275
 32
0.0
 13
9284.485630333367
 23
3165.950545595275
 33
0.0
210
0.0
220
0.0
230
1.0
  0
SOLID
  5
3E4
330
3D9
100
AcDbEntity
  8
HATCH
  6
CONTINUOUS
 62
     5
100
AcDbTrace
 10
8437.55102865227
 20
3458.228751510176
 30
0.0
 11
8410.184141084078
 21
3381.94568339414
 31
0.0
 12
9284.485630333367
 22
3165.950545595275
 32
0.0
 13
9284.485630333367
 23
3165.950545595275
 33
0.0
  0
SOLID
  5
3E5
330
3D9
100
AcDbEntity
  8
HATCH
  6
CONTINUOUS
 62
     5
100
AcDbTrace
 10
10177.4500159746
 20
3458.228751510176
 30
0.0
 11
9330.515414293506
 21
3165.950545595275
 31
0.0
 12
10204.81690354279
 22
3381.94568339414
 32
0.0
 13
10204.81690354279
 23
3381.94568339414
 33
0.0
210
0.0
220
0.0
230
1.0
  0
SOLID
  5
3E6
330
3D9
100
AcDbEntity
  8
HATCH
  6
CONTINUOUS
 62
     5
100
AcDbTrace
 10
8432.325131598821
 20
3493.255959403681
 30
0.0
 11
8437.55102865227
 21
3458.228751510176
 31
0.0
 12
9284.485630333367
 22
3165.950545595275
 32
0.0
 13
9284.485630333367
 23
3165.950545595275
 33
0.0
  0
SOLID
  5
3E7
330
3D9
100
AcDbEntity
  8
HATCH
  6
CONTINUOUS
 62
     5
100
AcDbTrace
 10
10182.67591302805
 20
3493.255959403681
 30
0.0
 11
9330.515414293506
 21
3165.950545595275
 31
0.0
 12
10177.4500159746
 22
3458.228751510176
 32
0.0
 13
10177.4500159746
 23
3458.228751510176
 33
0.0
210
0.0
220
0.0
230
1.0
  0
SOLID
  5
3E8
330
3D9
100
AcDbEntity
  8
HATCH
  6
CONTINUOUS
 62
     5
100
AcDbTrace
 10
8417.102607105356
 20
3525.232357588498
 30
0.0
 11
8432.325131598821
 21
3493.255959403681
 31
0.0
 12
9284.485630333367
 22
3165.950545595275
 32
0.0
 13
9284.485630333367
 23
3165.950545595275
 33
0.0
210
0.0
220
0.0
230
1.0
  0
SOLID
  5
3E9
330
3D9
100
AcDbEntity
  8
HATCH
  6
CONTINUOUS
 62
     5
100
AcDbTrace
 10
10197.89843752151
 20
3525.232357588498
 30
0.0
 11
9330.515414293506
 21
3165.950545595275
 31
0.0
 12
10182.67591302805
 22
3493.255959403681
 32
0.0
 13
10182.67591302805
 23
3493.255959403681
 33
0.0
210
0.0
220
0.0
230
1.0
  0
SOLID
  5
3EA
330
3D9
100
AcDbEntity
  8
HATCH
  6
CONTINUOUS
 62
     5
100
AcDbTrace
 10
7915.214657778425
 20
4328.426451389252
 30
0.0
 11
8309.836893187283
 21
3577.980545292263
 31
0.0
 12
8384.554634730594
 22
3557.780329963261
 32
0.0
 13
8384.554634730594
 23
3557.780329963261
 33
0.0
210
0.0
220
0.0
230
1.0
  0
SOLID
  5
3EB
330
3D9
100
AcDbEntity
  8
HATCH
  6
CONTINUOUS
 62
     5
100
AcDbTrace
 10
7915.214657778425
 20
4328.426451389252
 30
0.0
 11
8238.328440707988
 21
3548.360774451029
 31
0.0
 12
8309.836893187283
 22
3577.980545292263
 32
0.0
 13
8309.836893187283
 23
3577.980545292263
 33
0.0
210
0.0
220
0.0
230
1.0
  0
SOLID
  5
3EC
330
3D9
100
AcDbEntity
  8
HATCH
  6
CONTINUOUS
 62
     5
100
AcDbTrace
 10
7915.214657778425
 20
4328.426451389252
 30
0.0
 11
8199.778728228334
 21
3481.243643490246
 31
0.0
 12
8238.328440707988
 22
3548.360774451029
 32
0.0
 13
8238.328440707988
 23
3548.360774451029
 33
0.0
210
0.0
220
0.0
230
1.0
  0
SOLID
  5
3ED
330
3D9
100
AcDbEntity
  8
HATCH
  6
CONTINUOUS
 62
     5
100
AcDbTrace
 10
7840.496916235115
 20
4348.626666718255
 30
0.0
 11
8199.778728228334
 21
3481.243643490246
 31
0.0
 12
7915.214657778425
 22
4328.426451389252
 32
0.0
 13
7915.214657778425
 23
4328.426451389252
 33
0.0
210
0.0
220
0.0
230
1.0
  0
SOLID
  5
3EE
330
3D9
100
AcDbEntity
  8
HATCH
  6
CONTINUOUS
 62
     5
100
AcDbTrace
 10
7986.723110257719
 20
4358.046222230488
 30
0.0
 11
7915.214657778425
 21
4328.426451389252
 31
0.0
 12
8384.554634730594
 22
3557.780329963261
 32
0.0
 13
8384.554634730594
 23
3557.780329963261
 33
0.0
210
0.0
220
0.0
230
1.0
  0
SOLID
  5
3EF
330
3D9
100
AcDbEntity
  8
HATCH
  6
CONTINUOUS
 62
     5
100
AcDbTrace
 10
8025.272822737372
 20
4425.163353191273
 30
0.0
 11
7986.723110257719
 21
4358.046222230488
 31
0.0
 12
8384.554634730594
 22
3557.780329963261
 32
0.0
 13
8384.554634730594
 23
3557.780329963261
 33
0.0
210
0.0
220
0.0
230
1.0
  0
SOLID
  5
3F0
330
3D9
100
AcDbEntity
  8
HATCH
  6
CONTINUOUS
 62
     5
100
AcDbTrace
 10
10305.16415143959
 20
5318.375945050417
 30
0.0
 11
10699.78638684844
 21
4567.930038953429
 31
0.0
 12
10774.50412839175
 22
4547.729823624427
 32
0.0
 13
10774.50412839175
 23
4547.729823624427
 33
0.0
  0
SOLID
  5
3F1
330
3D9
100
AcDbEntity
  8
HATCH
  6
CONTINUOUS
 62
     5
100
AcDbTrace
 10
10305.16415143959
 20
5318.375945050417
 30
0.0
 11
10628.27793436915
 21
4538.310268112191
 31
0.0
 12
10699.78638684844
 22
4567.930038953429
 32
0.0
 13
10699.78638684844
 23
4567.930038953429
 33
0.0
210
0.0
220
0.0
230
1.0
  0
SOLID
  5
3F2
330
3D9
100
AcDbEntity
  8
HATCH
  6
CONTINUOUS
 62
     5
100
AcDbTrace
 10
10305.16415143959
 20
5318.375945050417
 30
0.0
 11
10589.7282218895
 21
4471.193137151405
 31
0.0
 12
10628.27793436915
 22
4538.310268112191
 32
0.0
 13
10628.27793436915
 23
4538.310268112191
 33
0.0
  0
SOLID
  5
3F3
330
3D9
100
AcDbEntity
  8
HATCH
  6
CONTINUOUS
 62
     5
100
AcDbTrace
 10
10230.44640989628
 20
5338.576160379417
 30
0.0
 11
10589.7282218895
 21
4471.193137151405
 31
0.0
 12
10305.16415143959
 22
5318.375945050417
 32
0.0
 13
10305.16415143959
 23
5318.375945050417
 33
0.0
210
0.0
220
0.0
230
1.0
  0
SOLID
  5
3F4
330
3D9
100
AcDbEntity
  8
HATCH
  6
CONTINUOUS
 62
     5
100
AcDbTrace
 10
10376.67260391888
 20
5347.995715891655
 30
0.0
 11
10305.16415143959
 21
5318.375945050417
 31
0.0
 12
10774.50412839175
 22
4547.729823624427
 32
0.0
 13
10774.50412839175
 23
4547.729823624427
 33
0.0
210
0.0
220
0.0
230
1.0
  0
SOLID
  5
3F5
330
3D9
100
AcDbEntity
  8
HATCH
  6
CONTINUOUS
 62
     5
100
AcDbTrace
 10
10415.22231639853
 20
5415.112846852438
 30
0.0
 11
10376.67260391888
 21
5347.995715891655
 31
0.0
 12
10774.50412839175
 22
4547.729823624427
 32
0.0
 13
10774.50412839175
 23
4547.729823624427
 33
0.0
210
0.0
220
0.0
230
1.0
  0
SOLID
  5
3F6
330
3D9
100
AcDbEntity
  8
HATCH
  6
CONTINUOUS
 62
     5
100
AcDbTrace
 10
9284.485630333371
 20
5730.405944747402
 30
0.0
 11
8340.565920632338
 21
5555.900039256447
 31
0.0
 12
8410.184141084078
 22
5514.410806948547
 32
0.0
 13
8410.184141084078
 23
5514.410806948547
 33
0.0
210
0.0
220
0.0
230
1.0
  0
SOLID
  5
3F7
330
3D9
100
AcDbEntity
  8
HATCH
  6
CONTINUOUS
 62
     5
100
AcDbTrace
 10
9284.485630333371
 20
5730.405944747402
 30
0.0
 11
8410.184141084078
 21
5514.410806948547
 31
0.0
 12
8437.55102865227
 22
5438.127738832511
 32
0.0
 13
8437.55102865227
 23
5438.127738832511
 33
0.0
  0
SOLID
  5
3F8
330
3D9
100
AcDbEntity
  8
HATCH
  6
CONTINUOUS
 62
     5
100
AcDbTrace
 10
9284.485630333371
 20
5730.405944747402
 30
0.0
 11
8437.55102865227
 21
5438.127738832511
 31
0.0
 12
8432.325131598819
 22
5403.100530939004
 32
0.0
 13
8432.325131598819
 23
5403.100530939004
 33
0.0
210
0.0
220
0.0
230
1.0
  0
SOLID
  5
3F9
330
3D9
100
AcDbEntity
  8
HATCH
  6
CONTINUOUS
 62
     5
100
AcDbTrace
 10
9284.485630333371
 20
5730.405944747402
 30
0.0
 11
8432.325131598819
 21
5403.100530939004
 31
0.0
 12
8417.102607105354
 22
5371.124132754187
 32
0.0
 13
8417.102607105354
 23
5371.124132754187
 33
0.0
210
0.0
220
0.0
230
1.0
  0
SOLID
  5
3FA
330
3D9
100
AcDbEntity
  8
HATCH
  6
CONTINUOUS
 62
     5
100
AcDbTrace
 10
9330.515414293508
 20
5730.405944747402
 30
0.0
 11
10204.81690354279
 21
5514.410806948541
 31
0.0
 12
10274.43512399453
 22
5555.900039256441
 32
0.0
 13
10274.43512399453
 23
5555.900039256441
 33
0.0
210
0.0
220
0.0
230
1.0
  0
SOLID
  5
3FB
330
3D9
100
AcDbEntity
  8
HATCH
  6
CONTINUOUS
 62
     5
100
AcDbTrace
 10
9330.515414293508
 20
5730.405944747402
 30
0.0
 11
10177.4500159746
 21
5438.127738832505
 31
0.0
 12
10204.81690354279
 22
5514.410806948541
 32
0.0
 13
10204.81690354279
 23
5514.410806948541
 33
0.0
210
0.0
220
0.0
230
1.0
  0
SOLID
  5
3FC
330
3D9
100
AcDbEntity
  8
HATCH
  6
CONTINUOUS
 62
     5
100
AcDbTrace
 10
9330.515414293508
 20
5730.405944747402
 30
0.0
 11
10182.67591302805
 21
5403.100530939003
 31
0.0
 12
10177.4500159746
 22
5438.127738832505
 32
0.0
 13
10177.4500159746
 23
5438.127738832505
 33
0.0
210
0.0
220
0.0
230
1.0
  0
SOLID
  5
3FD
330
3D9
100
AcDbEntity
  8
HATCH
  6
CONTINUOUS
 62
     5
100
AcDbTrace
 10
9330.515414293508
 20
5730.405944747402
 30
0.0
 11
10197.89843752151
 21
5371.124132754187
 31
0.0
 12
10182.67591302805
 22
5403.100530939003
 32
0.0
 13
10182.67591302805
 23
5403.100530939003
 33
0.0
210
0.0
220
0.0
230
1.0
  0
SOLID
  5
3FE
330
3D9
100
AcDbEntity
  8
HATCH
  6
CONTINUOUS
 62
     5
100
AcDbTrace
 10
9214.86740988163
 20
5771.895177055301
 30
0.0
 11
8340.565920632338
 21
5555.900039256447
 31
0.0
 12
9284.485630333371
 22
5730.405944747402
 32
0.0
 13
9284.485630333371
 23
5730.405944747402
 33
0.0
210
0.0
220
0.0
230
1.0
  0
SOLID
  5
3FF
330
3D9
100
AcDbEntity
  8
HATCH
  6
CONTINUOUS
 62
     5
100
AcDbTrace
 10
9400.13363474525
 20
5771.895177055301
 30
0.0
 11
9330.515414293508
 21
5730.405944747402
 31
0.0
 12
10274.43512399453
 22
5555.900039256441
 32
0.0
 13
10274.43512399453
 23
5555.900039256441
 33
0.0
210
0.0
220
0.0
230
1.0
  0
SOLID
  5
400
330
3D9
100
AcDbEntity
  8
HATCH
  6
CONTINUOUS
 62
     5
100
AcDbTrace
 10
9187.50052231344
 20
5848.178245171338
 30
0.0
 11
8340.565920632338
 21
5555.900039256447
 31
0.0
 12
9214.86740988163
 22
5771.895177055301
 32
0.0
 13
9214.86740988163
 23
5771.895177055301
 33
0.0
210
0.0
220
0.0
230
1.0
  0
SOLID
  5
401
330
3D9
100
AcDbEntity
  8
HATCH
  6
CONTINUOUS
 62
     5
100
AcDbTrace
 10
9427.50052231344
 20
5848.178245171338
 30
0.0
 11
9400.13363474525
 21
5771.895177055301
 31
0.0
 12
10274.43512399453
 22
5555.900039256441
 32
0.0
 13
10274.43512399453
 23
5555.900039256441
 33
0.0
  0
SOLID
  5
402
330
3D9
100
AcDbEntity
  8
HATCH
  6
CONTINUOUS
 62
     5
100
AcDbTrace
 10
9422.274625259991
 20
5883.205453064842
 30
0.0
 11
9427.50052231344
 21
5848.178245171338
 31
0.0
 12
10274.43512399453
 22
5555.900039256441
 32
0.0
 13
10274.43512399453
 23
5555.900039256441
 33
0.0
  0
SOLID
  5
403
330
3D9
100
AcDbEntity
  8
HATCH
  6
CONTINUOUS
 62
     5
100
AcDbTrace
 10
9192.72641936689
 20
5883.205453064842
 30
0.0
 11
8340.565920632338
 21
5555.900039256447
 31
0.0
 12
9187.50052231344
 22
5848.178245171338
 32
0.0
 13
9187.50052231344
 23
5848.178245171338
 33
0.0
210
0.0
220
0.0
230
1.0
  0
SOLID
  5
404
330
3D9
100
AcDbEntity
  8
HATCH
  6
CONTINUOUS
 62
     5
100
AcDbTrace
 10
9407.052100766525
 20
5915.181851249658
 30
0.0
 11
9422.274625259991
 21
5883.205453064842
 31
0.0
 12
10274.43512399453
 22
5555.900039256441
 32
0.0
 13
10274.43512399453
 23
5555.900039256441
 33
0.0
210
0.0
220
0.0
230
1.0
  0
SOLID
  5
405
330
3D9
100
AcDbEntity
  8
HATCH
  6
CONTINUOUS
 62
     5
100
AcDbTrace
 10
9207.948943860355
 20
5915.18185124966
 30
0.0
 11
8340.565920632338
 21
5555.900039256447
 31
0.0
 12
9192.72641936689
 22
5883.205453064842
 32
0.0
 13
9192.72641936689
 23
5883.205453064842
 33
0.0
  0
ENDBLK
  5
407
330
3D9
100
AcDbEntity
  8
0
100
AcDbBlockEnd
  0
BLOCK
  5
42B
330
415
100
AcDbEntity
  8
0
100
AcDbBlockBegin
  2
*U5
 70
     1
 10
0.0
 20
0.0
 30
0.0
  3
*U5
  1

  0
SOLID
  5
416
330
415
100
AcDbEntity
  8
HATCH
  6
CONTINUOUS
 62
     5
100
AcDbTrace
 10
8161.129745857104
 20
4542.294205911383
 30
0.0
 11
8020.263636807746
 21
4489.220662370422
 31
0.0
 12
8154.139887607973
 22
4537.947632736861
 32
0.0
 13
8154.139887607973
 23
4537.947632736861
 33
0.0
  0
SOLID
  5
417
330
415
100
AcDbEntity
  8
HATCH
  6
CONTINUOUS
 62
     5
100
AcDbTrace
 10
8165.777075391686
 20
4549.087816505276
 30
0.0
 11
8020.263636807746
 21
4489.220662370422
 31
0.0
 12
8161.129745857104
 22
4542.294205911383
 32
0.0
 13
8161.129745857104
 23
4542.294205911383
 33
0.0
210
0.0
220
0.0
230
1.0
  0
SOLID
  5
418
330
415
100
AcDbEntity
  8
HATCH
  6
CONTINUOUS
 62
     5
100
AcDbTrace
 10
7944.639634315208
 20
4562.286467310325
 30
0.0
 11
8020.263636807746
 21
4489.220662370422
 31
0.0
 12
8165.777075391686
 22
4549.087816505276
 32
0.0
 13
8165.777075391686
 23
4549.087816505276
 33
0.0
210
0.0
220
0.0
230
1.0
  0
SOLID
  5
419
330
415
100
AcDbEntity
  8
HATCH
  6
CONTINUOUS
 62
     5
100
AcDbTrace
 10
8213.459942669167
 20
4664.204441379404
 30
0.0
 11
7944.639634315208
 21
4562.286467310325
 31
0.0
 12
8165.777075391686
 22
4549.087816505276
 32
0.0
 13
8165.777075391686
 23
4549.087816505276
 33
0.0
210
0.0
220
0.0
230
1.0
  0
SOLID
  5
41A
330
415
100
AcDbEntity
  8
HATCH
  6
CONTINUOUS
 62
     5
100
AcDbTrace
 10
8223.451030571693
 20
4674.660970718686
 30
0.0
 11
7944.639634315208
 21
4562.286467310325
 31
0.0
 12
8213.459942669167
 22
4664.204441379404
 32
0.0
 13
8213.459942669167
 23
4664.204441379404
 33
0.0
210
0.0
220
0.0
230
1.0
  0
SOLID
  5
41B
330
415
100
AcDbEntity
  8
HATCH
  6
CONTINUOUS
 62
     5
100
AcDbTrace
 10
8223.451030571693
 20
4674.660970718686
 30
0.0
 11
7840.496916235117
 21
4547.729823624428
 31
0.0
 12
7944.639634315208
 22
4562.286467310325
 32
0.0
 13
7944.639634315208
 23
4562.286467310325
 33
0.0
210
0.0
220
0.0
230
1.0
  0
SOLID
  5
41C
330
415
100
AcDbEntity
  8
HATCH
  6
CONTINUOUS
 62
     5
100
AcDbTrace
 10
8423.81202723693
 20
4711.712682123044
 30
0.0
 11
8237.879728652641
 21
4675.647639349992
 31
0.0
 12
8335.385601296763
 22
4670.275746576195
 32
0.0
 13
8335.385601296763
 23
4670.275746576195
 33
0.0
  0
SOLID
  5
41D
330
415
100
AcDbEntity
  8
HATCH
  6
CONTINUOUS
 62
     5
100
AcDbTrace
 10
8482.077588487369
 20
4790.079619055891
 30
0.0
 11
8237.879728652641
 21
4675.647639349992
 31
0.0
 12
8423.81202723693
 22
4711.712682123044
 32
0.0
 13
8423.81202723693
 23
4711.712682123044
 33
0.0
210
0.0
220
0.0
230
1.0
  0
SOLID
  5
41E
330
415
100
AcDbEntity
  8
HATCH
  6
CONTINUOUS
 62
     5
100
AcDbTrace
 10
8482.077588487369
 20
4790.079619055891
 30
0.0
 11
8223.451030571693
 21
4674.660970718686
 31
0.0
 12
8237.879728652641
 22
4675.647639349992
 32
0.0
 13
8237.879728652641
 23
4675.647639349992
 33
0.0
210
0.0
220
0.0
230
1.0
  0
SOLID
  5
41F
330
415
100
AcDbEntity
  8
HATCH
  6
CONTINUOUS
 62
     5
100
AcDbTrace
 10
8482.077588487369
 20
4790.079619055891
 30
0.0
 11
7840.496916235117
 21
4547.729823624428
 31
0.0
 12
8223.451030571693
 22
4674.660970718686
 32
0.0
 13
8223.451030571693
 23
4674.660970718686
 33
0.0
210
0.0
220
0.0
230
1.0
  0
SOLID
  5
420
330
415
100
AcDbEntity
  8
HATCH
  6
CONTINUOUS
 62
     5
100
AcDbTrace
 10
8496.291407543576
 20
4886.693385051751
 30
0.0
 11
7840.496916235117
 21
4547.729823624428
 31
0.0
 12
8482.077588487369
 22
4790.079619055891
 32
0.0
 13
8482.077588487369
 23
4790.079619055891
 33
0.0
210
0.0
220
0.0
230
1.0
  0
SOLID
  5
421
330
415
100
AcDbEntity
  8
HATCH
  6
CONTINUOUS
 62
     5
100
AcDbTrace
 10
8463.064820241958
 20
4978.520648586898
 30
0.0
 11
7840.496916235117
 21
4547.729823624428
 31
0.0
 12
8496.291407543576
 22
4886.693385051751
 32
0.0
 13
8496.291407543576
 23
4886.693385051751
 33
0.0
210
0.0
220
0.0
230
1.0
  0
SOLID
  5
422
330
415
100
AcDbEntity
  8
HATCH
  6
CONTINUOUS
 62
     5
100
AcDbTrace
 10
8390.319254681628
 20
5043.669210530911
 30
0.0
 11
7840.496916235117
 21
4547.729823624428
 31
0.0
 12
8463.064820241958
 22
4978.520648586898
 32
0.0
 13
8463.064820241958
 23
4978.520648586898
 33
0.0
210
0.0
220
0.0
230
1.0
  0
SOLID
  5
423
330
415
100
AcDbEntity
  8
HATCH
  6
CONTINUOUS
 62
     5
100
AcDbTrace
 10
8380.814304504879
 20
5054.569520867625
 30
0.0
 11
7840.496916235117
 21
4547.729823624428
 31
0.0
 12
8390.319254681628
 22
5043.669210530911
 32
0.0
 13
8390.319254681628
 23
5043.669210530911
 33
0.0
210
0.0
220
0.0
230
1.0
  0
SOLID
  5
424
330
415
100
AcDbEntity
  8
HATCH
  6
CONTINUOUS
 62
     5
100
AcDbTrace
 10
8381.143421301054
 20
5069.028169678412
 30
0.0
 11
7840.496916235117
 21
4547.729823624428
 31
0.0
 12
8380.814304504879
 22
5054.569520867625
 32
0.0
 13
8380.814304504879
 23
5054.569520867625
 33
0.0
210
0.0
220
0.0
230
1.0
  0
SOLID
  5
425
330
415
100
AcDbEntity
  8
HATCH
  6
CONTINUOUS
 62
     5
100
AcDbTrace
 10
8428.826288578536
 20
5184.14479455254
 30
0.0
 11
7840.496916235117
 21
4547.729823624428
 31
0.0
 12
8381.143421301054
 22
5069.028169678412
 32
0.0
 13
8381.143421301054
 23
5069.028169678412
 33
0.0
  0
SOLID
  5
426
330
415
100
AcDbEntity
  8
HATCH
  6
CONTINUOUS
 62
     5
100
AcDbTrace
 10
8430.343938469908
 20
5192.234760900533
 30
0.0
 11
7840.496916235117
 21
4547.729823624428
 31
0.0
 12
8428.826288578536
 22
5184.14479455254
 32
0.0
 13
8428.826288578536
 23
5184.14479455254
 33
0.0
210
0.0
220
0.0
230
1.0
  0
SOLID
  5
427
330
415
100
AcDbEntity
  8
HATCH
  6
CONTINUOUS
 62
     5
100
AcDbTrace
 10
8428.474853669042
 20
5200.250828434658
 30
0.0
 11
7840.496916235117
 21
4547.729823624428
 31
0.0
 12
8430.343938469908
 22
5192.234760900533
 32
0.0
 13
8430.343938469908
 23
5192.234760900533
 33
0.0
210
0.0
220
0.0
230
1.0
  0
SOLID
  5
428
330
415
100
AcDbEntity
  8
HATCH
  6
CONTINUOUS
 62
     5
100
AcDbTrace
 10
8368.265220061152
 20
5329.370804388112
 30
0.0
 11
7840.496916235117
 21
4547.729823624428
 31
0.0
 12
8428.474853669042
 22
5200.250828434658
 32
0.0
 13
8428.474853669042
 23
5200.250828434658
 33
0.0
210
0.0
220
0.0
230
1.0
  0
SOLID
  5
429
330
415
100
AcDbEntity
  8
HATCH
  6
CONTINUOUS
 62
     5
100
AcDbTrace
 10
8263.12564893235
 20
5331.179723225195
 30
0.0
 11
7840.496916235117
 21
4547.729823624428
 31
0.0
 12
8368.265220061152
 22
5329.370804388112
 32
0.0
 13
8368.265220061152
 23
5329.370804388112
 33
0.0
  0
SOLID
  5
42A
330
415
100
AcDbEntity
  8
HATCH
  6
CONTINUOUS
 62
     5
100
AcDbTrace
 10
8199.778728228334
 20
5415.112846852441
 30
0.0
 11
7840.496916235117
 21
4547.729823624428
 31
0.0
 12
8263.12564893235
 22
5331.179723225195
 32
0.0
 13
8263.12564893235
 23
5331.179723225195
 33
0.0
210
0.0
220
0.0
230
1.0
  0
ENDBLK
  5
42C
330
415
100
AcDbEntity
  8
0
100
AcDbBlockEnd
  0
BLOCK
  5
443
330
42D
100
AcDbEntity
  8
0
100
AcDbBlockBegin
  2
*U6
 70
     1
 10
0.0
 20
0.0
 30
0.0
  3
*U6
  1

  0
SOLID
  5
42E
330
42D
100
AcDbEntity
  8
HATCH
  6
CONTINUOUS
 62
     5
100
AcDbTrace
 10
10186.52619095782
 20
3696.105661908024
 30
0.0
 11
10246.7358245657
 21
3566.98568595457
 31
0.0
 12
10351.8753956945
 22
3565.176767117497
 32
0.0
 13
10351.8753956945
 23
3565.176767117497
 33
0.0
210
0.0
220
0.0
230
1.0
  0
SOLID
  5
42F
330
42D
100
AcDbEntity
  8
HATCH
  6
CONTINUOUS
 62
     5
100
AcDbTrace
 10
10184.65710615695
 20
3704.121729442146
 30
0.0
 11
10186.52619095782
 21
3696.105661908024
 31
0.0
 12
10351.8753956945
 22
3565.176767117497
 32
0.0
 13
10351.8753956945
 23
3565.176767117497
 33
0.0
210
0.0
220
0.0
230
1.0
  0
SOLID
  5
430
330
42D
100
AcDbEntity
  8
HATCH
  6
CONTINUOUS
 62
     5
100
AcDbTrace
 10
10186.17475604833
 20
3712.21169579014
 30
0.0
 11
10184.65710615695
 21
3704.121729442146
 31
0.0
 12
10351.8753956945
 22
3565.176767117497
 32
0.0
 13
10351.8753956945
 23
3565.176767117497
 33
0.0
210
0.0
220
0.0
230
1.0
  0
SOLID
  5
431
330
42D
100
AcDbEntity
  8
HATCH
  6
CONTINUOUS
 62
     5
100
AcDbTrace
 10
10233.8576233258
 20
3827.328320664271
 30
0.0
 11
10186.17475604833
 21
3712.21169579014
 31
0.0
 12
10351.8753956945
 22
3565.176767117497
 32
0.0
 13
10351.8753956945
 23
3565.176767117497
 33
0.0
210
0.0
220
0.0
230
1.0
  0
SOLID
  5
432
330
42D
100
AcDbEntity
  8
HATCH
  6
CONTINUOUS
 62
     5
100
AcDbTrace
 10
10233.8576233258
 20
3827.328320664271
 30
0.0
 11
10351.8753956945
 21
3565.176767117497
 31
0.0
 12
10415.22231639853
 22
3481.243643490261
 32
0.0
 13
10415.22231639853
 23
3481.243643490261
 33
0.0
  0
SOLID
  5
433
330
42D
100
AcDbEntity
  8
HATCH
  6
CONTINUOUS
 62
     5
100
AcDbTrace
 10
10234.18674012198
 20
3841.786969475057
 30
0.0
 11
10233.8576233258
 21
3827.328320664271
 31
0.0
 12
10415.22231639853
 22
3481.243643490261
 32
0.0
 13
10415.22231639853
 23
3481.243643490261
 33
0.0
210
0.0
220
0.0
230
1.0
  0
SOLID
  5
434
330
42D
100
AcDbEntity
  8
HATCH
  6
CONTINUOUS
 62
     5
100
AcDbTrace
 10
10118.70963708328
 20
4009.663105290935
 30
0.0
 11
10151.9362243849
 21
3917.835841755787
 31
0.0
 12
10224.68178994523
 22
3852.687279811772
 32
0.0
 13
10224.68178994523
 23
3852.687279811772
 33
0.0
  0
SOLID
  5
435
330
42D
100
AcDbEntity
  8
HATCH
  6
CONTINUOUS
 62
     5
100
AcDbTrace
 10
10118.70963708328
 20
4009.663105290935
 30
0.0
 11
10224.68178994523
 21
3852.687279811772
 31
0.0
 12
10234.18674012198
 22
3841.786969475057
 32
0.0
 13
10234.18674012198
 23
3841.786969475057
 33
0.0
210
0.0
220
0.0
230
1.0
  0
SOLID
  5
436
330
42D
100
AcDbEntity
  8
HATCH
  6
CONTINUOUS
 62
     5
100
AcDbTrace
 10
10132.92345613949
 20
4106.276871286794
 30
0.0
 11
10118.70963708328
 21
4009.663105290935
 31
0.0
 12
10234.18674012198
 22
3841.786969475057
 32
0.0
 13
10234.18674012198
 23
3841.786969475057
 33
0.0
210
0.0
220
0.0
230
1.0
  0
SOLID
  5
437
330
42D
100
AcDbEntity
  8
HATCH
  6
CONTINUOUS
 62
     5
100
AcDbTrace
 10
10132.92345613949
 20
4106.276871286794
 30
0.0
 11
10234.18674012198
 21
3841.786969475057
 31
0.0
 12
10415.22231639853
 22
3481.243643490261
 32
0.0
 13
10415.22231639853
 23
3481.243643490261
 33
0.0
  0
SOLID
  5
438
330
42D
100
AcDbEntity
  8
HATCH
  6
CONTINUOUS
 62
     5
100
AcDbTrace
 10
10191.18901738993
 20
4184.643808219639
 30
0.0
 11
10132.92345613949
 21
4106.276871286794
 31
0.0
 12
10415.22231639853
 22
3481.243643490261
 32
0.0
 13
10415.22231639853
 23
3481.243643490261
 33
0.0
  0
SOLID
  5
439
330
42D
100
AcDbEntity
  8
HATCH
  6
CONTINUOUS
 62
     5
100
AcDbTrace
 10
10377.12131597422
 20
4220.708850992687
 30
0.0
 11
10191.18901738993
 21
4184.643808219639
 31
0.0
 12
10415.22231639853
 22
3481.243643490261
 32
0.0
 13
10415.22231639853
 23
3481.243643490261
 33
0.0
210
0.0
220
0.0
230
1.0
  0
SOLID
  5
43A
330
42D
100
AcDbEntity
  8
HATCH
  6
CONTINUOUS
 62
     5
100
AcDbTrace
 10
10391.55001405517
 20
4221.695519623994
 30
0.0
 11
10377.12131597422
 21
4220.708850992687
 31
0.0
 12
10415.22231639853
 22
3481.243643490261
 32
0.0
 13
10415.22231639853
 23
3481.243643490261
 33
0.0
210
0.0
220
0.0
230
1.0
  0
SOLID
  5
43B
330
42D
100
AcDbEntity
  8
HATCH
  6
CONTINUOUS
 62
     5
100
AcDbTrace
 10
10279.6154433301
 20
4226.080743766487
 30
0.0
 11
10191.18901738993
 21
4184.643808219639
 31
0.0
 12
10377.12131597422
 22
4220.708850992687
 32
0.0
 13
10377.12131597422
 23
4220.708850992687
 33
0.0
  0
SOLID
  5
43C
330
42D
100
AcDbEntity
  8
HATCH
  6
CONTINUOUS
 62
     5
100
AcDbTrace
 10
10401.5411019577
 20
4232.152048963277
 30
0.0
 11
10391.55001405517
 21
4221.695519623994
 31
0.0
 12
10415.22231639853
 22
3481.243643490261
 32
0.0
 13
10415.22231639853
 23
3481.243643490261
 33
0.0
210
0.0
220
0.0
230
1.0
  0
SOLID
  5
43D
330
42D
100
AcDbEntity
  8
HATCH
  6
CONTINUOUS
 62
     5
100
AcDbTrace
 10
10670.36141031166
 20
4334.070023032351
 30
0.0
 11
10401.5411019577
 21
4232.152048963277
 31
0.0
 12
10415.22231639853
 22
3481.243643490261
 32
0.0
 13
10415.22231639853
 23
3481.243643490261
 33
0.0
210
0.0
220
0.0
230
1.0
  0
SOLID
  5
43E
330
42D
100
AcDbEntity
  8
HATCH
  6
CONTINUOUS
 62
     5
100
AcDbTrace
 10
10449.22396923518
 20
4347.268673837405
 30
0.0
 11
10401.5411019577
 21
4232.152048963277
 31
0.0
 12
10670.36141031166
 22
4334.070023032351
 32
0.0
 13
10670.36141031166
 23
4334.070023032351
 33
0.0
  0
SOLID
  5
43F
330
42D
100
AcDbEntity
  8
HATCH
  6
CONTINUOUS
 62
     5
100
AcDbTrace
 10
10774.50412839175
 20
4348.626666718248
 30
0.0
 11
10670.36141031166
 21
4334.070023032351
 31
0.0
 12
10415.22231639853
 22
3481.243643490261
 32
0.0
 13
10415.22231639853
 23
3481.243643490261
 33
0.0
210
0.0
220
0.0
230
1.0
  0
SOLID
  5
440
330
42D
100
AcDbEntity
  8
HATCH
  6
CONTINUOUS
 62
     5
100
AcDbTrace
 10
10453.87129876976
 20
4354.062284431298
 30
0.0
 11
10449.22396923518
 21
4347.268673837405
 31
0.0
 12
10670.36141031166
 22
4334.070023032351
 32
0.0
 13
10670.36141031166
 23
4334.070023032351
 33
0.0
210
0.0
220
0.0
230
1.0
  0
SOLID
  5
441
330
42D
100
AcDbEntity
  8
HATCH
  6
CONTINUOUS
 62
     5
100
AcDbTrace
 10
10460.86115701889
 20
4358.408857605822
 30
0.0
 11
10453.87129876976
 21
4354.062284431298
 31
0.0
 12
10670.36141031166
 22
4334.070023032351
 32
0.0
 13
10670.36141031166
 23
4334.070023032351
 33
0.0
210
0.0
220
0.0
230
1.0
  0
SOLID
  5
442
330
42D
100
AcDbEntity
  8
HATCH
  6
CONTINUOUS
 62
     5
100
AcDbTrace
 10
10594.73740781912
 20
4407.135827972255
 30
0.0
 11
10460.86115701889
 21
4358.408857605822
 31
0.0
 12
10670.36141031166
 22
4334.070023032351
 32
0.0
 13
10670.36141031166
 23
4334.070023032351
 33
0.0
  0
ENDBLK
  5
444
330
42D
100
AcDbEntity
  8
0
100
AcDbBlockEnd
  0
ENDSEC
  0
SECTION
  2
ENTITIES
  0
CIRCLE
  5
14B
330
1F
100
AcDbEntity
  8
0
100
AcDbCircle
 10
7907.500522313437
 20
4448.17824517134
 30
-175.1009890359128
 40
120.0
  0
CIRCLE
  5
14D
330
1F
100
AcDbEntity
  8
0
100
AcDbCircle
 10
8317.551028652269
 20
3458.228751510176
 30
-175.1009890359128
 40
120.0
  0
CIRCLE
  5
14E
330
1F
100
AcDbEntity
  8
0
100
AcDbCircle
 10
9307.500522313436
 20
3048.17824517134
 30
-175.1009890359128
 40
120.0
  0
CIRCLE
  5
14F
330
1F
100
AcDbEntity
  8
0
100
AcDbCircle
 10
10297.4500159746
 20
3458.228751510176
 30
-175.1009890359128
 40
120.0
  0
CIRCLE
  5
150
330
1F
100
AcDbEntity
  8
0
100
AcDbCircle
 10
10707.50052231343
 20
4448.17824517134
 30
-175.1009890359128
 40
120.0
  0
CIRCLE
  5
151
330
1F
100
AcDbEntity
  8
0
100
AcDbCircle
 10
10297.4500159746
 20
5438.127738832505
 30
-175.1009890359128
 40
120.0
  0
CIRCLE
  5
152
330
1F
100
AcDbEntity
  8
0
100
AcDbCircle
 10
9307.500522313439
 20
5848.178245171338
 30
-175.1009890359128
 40
120.0
  0
CIRCLE
  5
153
330
1F
100
AcDbEntity
  8
0
100
AcDbCircle
 10
8317.551028652269
 20
5438.127738832511
 30
-175.1009890359128
 40
120.0
  0
POLYLINE
  5
156
330
1F
100
AcDbEntity
  8
0
100
AcDb2dPolyline
 66
     1
 10
0.0
 20
0.0
 30
-175.1009890359128
 70
     1
  0
VERTEX
  5
375
330
156
100
AcDbEntity
  8
0
100
AcDbVertex
100
AcDb2dVertex
 10
7840.496916235115
 20
4547.729823624427
 30
-175.1009890359128
  0
VERTEX
  5
376
330
156
100
AcDbEntity
  8
0
100
AcDbVertex
100
AcDb2dVertex
 10
8199.778728228334
 20
5415.112846852441
 30
-175.1009890359128
 42
0.4874230800155249
  0
VERTEX
  5
377
330
156
100
AcDbEntity
  8
0
100
AcDbVertex
100
AcDb2dVertex
 10
8368.265220061152
 20
5329.370804388112
 30
-175.1009890359128
  0
VERTEX
  5
378
330
156
100
AcDbEntity
  8
0
100
AcDbVertex
100
AcDb2dVertex
 10
8428.474853669042
 20
5200.250828434659
 30
-175.1009890359128
 42
-0.2102773852970889
  0
VERTEX
  5
379
330
156
100
AcDbEntity
  8
0
100
AcDbVertex
100
AcDb2dVertex
 10
8428.826288578537
 20
5184.144794552542
 30
-175.1009890359128
  0
VERTEX
  5
37A
330
156
100
AcDbEntity
  8
0
100
AcDbVertex
100
AcDb2dVertex
 10
8381.143421301054
 20
5069.028169678412
 30
-175.1009890359128
 42
0.3877945824087923
  0
VERTEX
  5
37B
330
156
100
AcDbEntity
  8
0
100
AcDbVertex
100
AcDb2dVertex
 10
8390.319254681628
 20
5043.669210530911
 30
-175.1009890359128
 42
-0.9128709291752862
  0
VERTEX
  5
37C
330
156
100
AcDbEntity
  8
0
100
AcDbVertex
100
AcDb2dVertex
 10
8237.879728652641
 20
4675.647639349993
 30
-175.1009890359128
 42
0.387794582408807
  0
VERTEX
  5
37D
330
156
100
AcDbEntity
  8
0
100
AcDbVertex
100
AcDb2dVertex
 10
8213.459942669167
 20
4664.204441379403
 30
-175.1009890359128
  0
VERTEX
  5
37E
330
156
100
AcDbEntity
  8
0
100
AcDbVertex
100
AcDb2dVertex
 10
8165.777075391686
 20
4549.087816505276
 30
-175.1009890359128
 42
-0.2102773852970833
  0
VERTEX
  5
37F
330
156
100
AcDbEntity
  8
0
100
AcDbVertex
100
AcDb2dVertex
 10
8154.139887607973
 20
4537.947632736861
 30
-175.1009890359128
  0
VERTEX
  5
380
330
156
100
AcDbEntity
  8
0
100
AcDbVertex
100
AcDb2dVertex
 10
8020.263636807746
 20
4489.220662370422
 30
-175.1009890359128
 42
0.4874230800155284
  0
SEQEND
  5
381
330
156
100
AcDbEntity
  8
0
  0
POLYLINE
  5
157
330
1F
100
AcDbEntity
  8
0
100
AcDb2dPolyline
 66
     1
 10
0.0
 20
0.0
 30
-175.1009890359128
  0
VERTEX
  5
382
330
157
100
AcDbEntity
  8
0
100
AcDbVertex
100
AcDb2dVertex
 10
8417.102607105356
 20
5371.124132754188
 30
-175.1009890359128
  0
VERTEX
  5
383
330
157
100
AcDbEntity
  8
0
100
AcDbVertex
100
AcDb2dVertex
 10
9284.485630333371
 20
5730.405944747402
 30
-175.1009890359128
  0
SEQEND
  5
384
330
157
100
AcDbEntity
  8
0
  0
POLYLINE
  5
19D
330
1F
100
AcDbEntity
  8
0
100
AcDb2dPolyline
 66
     1
 10
0.0
 20
0.0
 30
-175.1009890359128
  0
VERTEX
  5
385
330
19D
100
AcDbEntity
  8
0
100
AcDbVertex
100
AcDb2dVertex
 10
8340.565920632341
 20
5555.900039256447
 30
-175.1009890359128
  0
VERTEX
  5
386
330
19D
100
AcDbEntity
  8
0
100
AcDbVertex
100
AcDb2dVertex
 10
9207.948943860353
 20
5915.18185124966
 30
-175.1009890359128
  0
SEQEND
  5
387
330
19D
100
AcDbEntity
  8
0
  0
POLYLINE
  5
19E
330
1F
100
AcDbEntity
  8
0
100
AcDb2dPolyline
 66
     1
 10
0.0
 20
0.0
 30
-175.1009890359128
  0
VERTEX
  5
388
330
19E
100
AcDbEntity
  8
0
100
AcDbVertex
100
AcDb2dVertex
 10
9407.052100766525
 20
5915.181851249658
 30
-175.1009890359128
  0
VERTEX
  5
389
330
19E
100
AcDbEntity
  8
0
100
AcDbVertex
100
AcDb2dVertex
 10
10274.43512399453
 20
5555.900039256441
 30
-175.1009890359128
  0
SEQEND
  5
38A
330
19E
100
AcDbEntity
  8
0
  0
POLYLINE
  5
19F
330
1F
100
AcDbEntity
  8
0
100
AcDb2dPolyline
 66
     1
 10
0.0
 20
0.0
 30
-175.1009890359128
  0
VERTEX
  5
38B
330
19F
100
AcDbEntity
  8
0
100
AcDbVertex
100
AcDb2dVertex
 10
10415.22231639853
 20
5415.11284685244
 30
-175.1009890359128
  0
VERTEX
  5
38C
330
19F
100
AcDbEntity
  8
0
100
AcDbVertex
100
AcDb2dVertex
 10
10774.50412839175
 20
4547.729823624428
 30
-175.1009890359128
  0
SEQEND
  5
38D
330
19F
100
AcDbEntity
  8
0
  0
POLYLINE
  5
1A0
330
1F
100
AcDbEntity
  8
0
100
AcDb2dPolyline
 66
     1
 10
0.0
 20
0.0
 30
-175.1009890359128
  0
VERTEX
  5
38E
330
1A0
100
AcDbEntity
  8
0
100
AcDbVertex
100
AcDb2dVertex
 10
10230.44640989628
 20
5338.576160379417
 30
-175.1009890359128
  0
VERTEX
  5
38F
330
1A0
100
AcDbEntity
  8
0
100
AcDbVertex
100
AcDb2dVertex
 10
10589.7282218895
 20
4471.193137151405
 30
-175.1009890359128
  0
SEQEND
  5
390
330
1A0
100
AcDbEntity
  8
0
  0
POLYLINE
  5
1A3
330
1F
100
AcDbEntity
  8
0
100
AcDb2dPolyline
 66
     1
 10
0.0
 20
0.0
 30
-175.1009890359128
  0
VERTEX
  5
391
330
1A3
100
AcDbEntity
  8
0
100
AcDbVertex
100
AcDb2dVertex
 10
10197.89843752151
 20
3525.232357588498
 30
-175.1009890359128
  0
VERTEX
  5
392
330
1A3
100
AcDbEntity
  8
0
100
AcDbVertex
100
AcDb2dVertex
 10
9330.515414293506
 20
3165.950545595275
 30
-175.1009890359128
  0
SEQEND
  5
393
330
1A3
100
AcDbEntity
  8
0
  0
POLYLINE
  5
1A4
330
1F
100
AcDbEntity
  8
0
100
AcDb2dPolyline
 66
     1
 10
0.0
 20
0.0
 30
-175.1009890359128
  0
VERTEX
  5
394
330
1A4
100
AcDbEntity
  8
0
100
AcDbVertex
100
AcDb2dVertex
 10
10274.43512399453
 20
3340.45645108624
 30
-175.1009890359128
  0
VERTEX
  5
395
330
1A4
100
AcDbEntity
  8
0
100
AcDbVertex
100
AcDb2dVertex
 10
9407.05210076652
 20
2981.174639093016
 30
-175.1009890359128
  0
SEQEND
  5
396
330
1A4
100
AcDbEntity
  8
0
  0
POLYLINE
  5
1A5
330
1F
100
AcDbEntity
  8
0
100
AcDb2dPolyline
 66
     1
 10
0.0
 20
0.0
 30
-175.1009890359128
  0
VERTEX
  5
397
330
1A5
100
AcDbEntity
  8
0
100
AcDbVertex
100
AcDb2dVertex
 10
9207.948943860348
 20
2981.174639093021
 30
-175.1009890359128
  0
VERTEX
  5
398
330
1A5
100
AcDbEntity
  8
0
100
AcDbVertex
100
AcDb2dVertex
 10
8340.565920632341
 20
3340.45645108624
 30
-175.1009890359128
  0
SEQEND
  5
399
330
1A5
100
AcDbEntity
  8
0
  0
POLYLINE
  5
1A6
330
1F
100
AcDbEntity
  8
0
100
AcDb2dPolyline
 66
     1
 10
0.0
 20
0.0
 30
-175.1009890359128
  0
VERTEX
  5
39A
330
1A6
100
AcDbEntity
  8
0
100
AcDbVertex
100
AcDb2dVertex
 10
9284.485630333367
 20
3165.950545595275
 30
-175.1009890359128
  0
VERTEX
  5
39B
330
1A6
100
AcDbEntity
  8
0
100
AcDbVertex
100
AcDb2dVertex
 10
8417.102607105356
 20
3525.232357588498
 30
-175.1009890359128
  0
SEQEND
  5
39C
330
1A6
100
AcDbEntity
  8
0
  0
POLYLINE
  5
1A7
330
1F
100
AcDbEntity
  8
0
100
AcDb2dPolyline
 66
     1
 10
0.0
 20
0.0
 30
-175.1009890359128
  0
VERTEX
  5
39D
330
1A7
100
AcDbEntity
  8
0
100
AcDbVertex
100
AcDb2dVertex
 10
8199.778728228334
 20
3481.243643490247
 30
-175.1009890359128
  0
VERTEX
  5
39E
330
1A7
100
AcDbEntity
  8
0
100
AcDbVertex
100
AcDb2dVertex
 10
7840.496916235115
 20
4348.626666718253
 30
-175.1009890359128
  0
SEQEND
  5
39F
330
1A7
100
AcDbEntity
  8
0
  0
POLYLINE
  5
1A8
330
1F
100
AcDbEntity
  8
0
100
AcDb2dPolyline
 66
     1
 10
0.0
 20
0.0
 30
-175.1009890359128
  0
VERTEX
  5
3A0
330
1A8
100
AcDbEntity
  8
0
100
AcDbVertex
100
AcDb2dVertex
 10
8384.554634730594
 20
3557.78032996326
 30
-175.1009890359128
  0
VERTEX
  5
3A1
330
1A8
100
AcDbEntity
  8
0
100
AcDbVertex
100
AcDb2dVertex
 10
8025.272822737372
 20
4425.163353191272
 30
-175.1009890359128
  0
SEQEND
  5
3A2
330
1A8
100
AcDbEntity
  8
0
  0
POLYLINE
  5
1A9
330
1F
100
AcDbEntity
  8
0
100
AcDb2dPolyline
 66
     1
 10
0.0
 20
0.0
 30
-175.1009890359128
  0
VERTEX
  5
3A3
330
1A9
100
AcDbEntity
  8
0
100
AcDbVertex
100
AcDb2dVertex
 10
9330.515414293508
 20
5730.405944747402
 30
-175.1009890359128
  0
VERTEX
  5
3A4
330
1A9
100
AcDbEntity
  8
0
100
AcDbVertex
100
AcDb2dVertex
 10
10197.89843752151
 20
5371.124132754187
 30
-175.1009890359128
  0
SEQEND
  5
3A5
330
1A9
100
AcDbEntity
  8
0
  0
CIRCLE
  5
1B5
330
1F
100
AcDbEntity
  8
0
100
AcDbCircle
 10
9307.500522313436
 20
4448.178245171343
 30
-175.1009890359128
 40
3019.999999999999
  0
INSERT
  5
1CA
330
1F
100
AcDbEntity
  8
HATCH
  6
CONTINUOUS
 62
     2
100
AcDbBlockReference
  2
*U3
 10
0.0
 20
0.0
 30
0.0
1001
ACAD
1002
{
1000
R14_HATCH_DATA
1000
1CA
1011
1.0
1021
0.0
1031
0.0
1011
0.0
1021
1.0
1031
0.0
1011
0.0
1021
0.0
1031
1.0
1040
0.0
1010
0.0
1020
0.0
1030
1.0
1000
SOLID
1070
     1
1070
     1
1071
        8
1071
        7
1070
     1
1070
     1
1071
        2
1040
9427.50052231344
1040
5848.178245171338
1040
1.0
1040
9187.50052231344
1040
5848.178245171338
1040
1.0
1071
        1
1005
152
1071
        7
1070
     1
1070
     1
1071
        2
1040
10177.4500159746
1040
5438.127738832505
1040
1.0
1040
10417.4500159746
1040
5438.127738832505
1040
1.0
1071
        1
1005
151
1071
        7
1070
     1
1070
     1
1071
        2
1040
10587.50052231343
1040
4448.17824517134
1040
1.0
1040
10827.50052231343
1040
4448.17824517134
1040
1.0
1071
        1
1005
150
1071
        7
1070
     1
1070
     1
1071
        2
1040
10177.4500159746
1040
3458.228751510176
1040
1.0
1040
10417.4500159746
1040
3458.228751510176
1040
1.0
1071
        1
1005
14F
1071
        7
1070
     1
1070
     1
1071
        2
1040
9427.500522313435
1040
3048.17824517134
1040
1.0
1040
9187.500522313436
1040
3048.17824517134
1040
1.0
1071
        1
1005
14E
1071
        7
1070
     1
1070
     1
1071
        2
1040
8197.551028652268
1040
3458.228751510176
1040
1.0
1040
8437.55102865227
1040
3458.228751510176
1040
1.0
1071
        1
1005
14D
1071
        7
1070
     1
1070
     1
1071
        2
1040
8027.500522313436
1040
4448.17824517134
1040
1.0
1040
7787.500522313436
1040
4448.17824517134
1040
1.0
1071
        1
1005
14B
1071
        7
1070
     1
1070
     1
1071
        2
1040
8437.55102865227
1040
5438.127738832511
1040
1.0
1040
8197.551028652268
1040
5438.127738832511
1040
1.0
1071
        1
1005
153
1070
     0
1070
     1
1040
12.34992347719619
1071
        8
1040
9295.141631539351
1040
5831.369682142289
1040
0.0
1040
10246.7748608764
1040
5448.522048764902
1040
0.0
1040
10716.41202350163
1040
4448.178252795853
1040
0.0
1040
10333.2869765066
1040
3460.184370787352
1040
0.0
1040
9295.141631539351
1040
3015.587112952613
1040
0.0
1040
8306.431817728073
1040
3460.184370787352
1040
0.0
1040
7935.665632224446
1040
4435.828338835297
1040
0.0
1040
8318.790679219485
1040
5411.47227955595
1040
0.0
1002
}
  0
INSERT
  5
229
330
1F
100
AcDbEntity
  8
HATCH
  6
CONTINUOUS
 62
     5
100
AcDbBlockReference
  2
*U4
 10
0.0
 20
0.0
 30
0.0
1001
ACAD
1002
{
1000
R14_HATCH_DATA
1000
229
1011
1.0
1021
0.0
1031
0.0
1011
0.0
1021
1.0
1031
0.0
1011
0.0
1021
0.0
1031
1.0
1040
0.0
1010
0.0
1020
0.0
1030
1.0
1000
SOLID
1070
     1
1070
     1
1071
        6
1071
        7
1070
     1
1070
     1
1071
        6
1040
9284.485630333371
1040
5730.405944747402
1040
-0.3587544162036414
1040
9187.50052231344
1040
5848.178245171338
1040
-0.1491953646245202
1040
9207.948943860355
1040
5915.18185124966
1040
0.0
1040
8340.565920632338
1040
5555.900039256447
1040
-0.3587544162036414
1040
8437.55102865227
1040
5438.127738832511
1040
-0.1491953646245241
1040
8417.102607105354
1040
5371.124132754187
1040
0.0
1071
        4
1005
152
1005
19D
1005
153
1005
157
1071
        7
1070
     1
1070
     1
1071
        6
1040
9407.052100766525
1040
5915.181851249658
1040
-0.1491953646245152
1040
9427.50052231344
1040
5848.178245171338
1040
-0.3587544162036414
1040
9330.515414293508
1040
5730.405944747402
1040
0.0
1040
10197.89843752151
1040
5371.124132754187
1040
-0.1491953646245101
1040
10177.4500159746
1040
5438.127738832505
1040
-0.3587544162036357
1040
10274.43512399453
1040
5555.900039256441
1040
0.0
1071
        4
1005
152
1005
1A9
1005
151
1005
19E
1071
        7
1070
     1
1070
     1
1071
        4
1040
10589.7282218895
1040
4471.193137151405
1040
-0.5366750419289223
1040
10774.50412839175
1040
4547.729823624427
1040
0.0
1040
10415.22231639853
1040
5415.112846852438
1040
-0.5366750419289157
1040
10230.44640989628
1040
5338.576160379417
1040
0.0
1071
        4
1005
151
1005
1A0
1005
150
1005
19F
1071
        7
1070
     1
1070
     1
1071
        4
1040
8025.272822737372
1040
4425.163353191273
1040
-0.5366750419289254
1040
7840.496916235115
1040
4348.626666718255
1040
0.0
1040
8199.778728228334
1040
3481.243643490246
1040
-0.5366750419289268
1040
8384.554634730594
1040
3557.780329963261
1040
0.0
1071
        4
1005
14B
1005
1A7
1005
14D
1005
1A8
1071
        7
1070
     1
1070
     1
1071
        6
1040
9207.948943860348
1040
2981.174639093021
1040
-0.1491953646245111
1040
9187.500522313436
1040
3048.17824517134
1040
-0.3587544162036403
1040
9284.485630333367
1040
3165.950545595275
1040
0.0
1040
8417.102607105356
1040
3525.232357588498
1040
-0.149195364624519
1040
8437.55102865227
1040
3458.228751510176
1040
-0.3587544162036357
1040
8340.565920632341
1040
3340.45645108624
1040
0.0
1071
        4
1005
14D
1005
1A5
1005
14E
1005
1A6
1071
        7
1070
     1
1070
     1
1071
        6
1040
10274.43512399453
1040
3340.456451086241
1040
-0.3587544162036449
1040
10177.4500159746
1040
3458.228751510176
1040
-0.1491953646245171
1040
10197.89843752151
1040
3525.232357588498
1040
0.0
1040
9330.515414293506
1040
3165.950545595275
1040
-0.3587544162036403
1040
9427.500522313435
1040
3048.17824517134
1040
-0.1491953646245212
1040
9407.05210076652
1040
2981.174639093017
1040
0.0
1071
        4
1005
14F
1005
1A3
1005
14E
1005
1A4
1070
     0
1070
     1
1040
12.71103787317506
1071
        6
1040
8785.141513167802
1040
5607.075782192783
1040
0.0
1040
9739.160188261022
1040
5721.475125772049
1040
0.0
1040
10451.49412182135
1040
4971.5238894722
1040
0.0
1040
8136.408817643248
1040
3941.929823058456
1040
0.0
1040
8581.617532150564
1040
3293.66688814912
1040
0.0
1040
9739.160188261022
1040
3191.978586758607
1040
0.0
1002
}
  0
POLYLINE
  5
24C
330
1F
100
AcDbEntity
  8
0
100
AcDb2dPolyline
 66
     1
 10
0.0
 20
0.0
 30
-175.1009890359128
 70
     1
  0
VERTEX
  5
408
330
24C
100
AcDbEntity
  8
0
100
AcDbVertex
100
AcDb2dVertex
 10
10415.22231639852
 20
3481.243643490237
 30
-175.1009890359128
  0
VERTEX
  5
409
330
24C
100
AcDbEntity
  8
0
100
AcDbVertex
100
AcDb2dVertex
 10
10774.50412839175
 20
4348.626666718248
 30
-175.1009890359128
 42
-0.4874230800155249
  0
VERTEX
  5
40A
330
24C
100
AcDbEntity
  8
0
100
AcDbVertex
100
AcDb2dVertex
 10
10594.73740781912
 20
4407.135827972255
 30
-175.1009890359128
  0
VERTEX
  5
40B
330
24C
100
AcDbEntity
  8
0
100
AcDbVertex
100
AcDb2dVertex
 10
10460.86115701889
 20
4358.408857605822
 30
-175.1009890359128
 42
0.2102773852970889
  0
VERTEX
  5
40C
330
24C
100
AcDbEntity
  8
0
100
AcDbVertex
100
AcDb2dVertex
 10
10449.22396923518
 20
4347.268673837407
 30
-175.1009890359128
  0
VERTEX
  5
40D
330
24C
100
AcDbEntity
  8
0
100
AcDbVertex
100
AcDb2dVertex
 10
10401.5411019577
 20
4232.152048963274
 30
-175.1009890359128
 42
-0.3877945824087923
  0
VERTEX
  5
40E
330
24C
100
AcDbEntity
  8
0
100
AcDbVertex
100
AcDb2dVertex
 10
10377.12131597423
 20
4220.708850992687
 30
-175.1009890359128
 42
0.9128709291752862
  0
VERTEX
  5
40F
330
24C
100
AcDbEntity
  8
0
100
AcDbVertex
100
AcDb2dVertex
 10
10224.68178994523
 20
3852.687279811773
 30
-175.1009890359128
 42
-0.387794582408807
  0
VERTEX
  5
410
330
24C
100
AcDbEntity
  8
0
100
AcDbVertex
100
AcDb2dVertex
 10
10233.8576233258
 20
3827.32832066427
 30
-175.1009890359128
  0
VERTEX
  5
411
330
24C
100
AcDbEntity
  8
0
100
AcDbVertex
100
AcDb2dVertex
 10
10186.17475604833
 20
3712.211695790141
 30
-175.1009890359128
 42
0.2102773852970833
  0
VERTEX
  5
412
330
24C
100
AcDbEntity
  8
0
100
AcDbVertex
100
AcDb2dVertex
 10
10186.52619095782
 20
3696.105661908026
 30
-175.1009890359128
  0
VERTEX
  5
413
330
24C
100
AcDbEntity
  8
0
100
AcDbVertex
100
AcDb2dVertex
 10
10246.7358245657
 20
3566.985685954568
 30
-175.1009890359128
 42
-0.4874230800155284
  0
SEQEND
  5
414
330
24C
100
AcDbEntity
  8
0
  0
INSERT
  5
28B
330
1F
100
AcDbEntity
  8
HATCH
  6
CONTINUOUS
 62
     5
100
AcDbBlockReference
  2
*U5
 10
0.0
 20
0.0
 30
0.0
1001
ACAD
1002
{
1000
R14_HATCH_DATA
1000
28B
1011
1.0
1021
0.0
1031
0.0
1011
0.0
1021
1.0
1031
0.0
1011
0.0
1021
0.0
1031
1.0
1040
0.0
1010
0.0
1020
0.0
1030
1.0
1000
SOLID
1070
     1
1070
     1
1071
        1
1071
        7
1070
     1
1070
     1
1071
       12
1040
7840.496916235117
1040
4547.729823624428
1040
-0.4874230800155261
1040
8020.263636807746
1040
4489.220662370422
1040
0.0
1040
8154.139887607973
1040
4537.947632736861
1040
0.2102773852970833
1040
8165.777075391686
1040
4549.087816505276
1040
0.0
1040
8213.459942669167
1040
4664.204441379404
1040
-0.387794582408792
1040
8237.879728652641
1040
4675.647639349992
1040
0.9128709291752844
1040
8390.319254681628
1040
5043.669210530911
1040
-0.3877945824088089
1040
8381.143421301054
1040
5069.028169678412
1040
0.0
1040
8428.826288578536
1040
5184.14479455254
1040
0.2102773852971143
1040
8428.474853669042
1040
5200.250828434658
1040
0.0
1040
8368.265220061152
1040
5329.370804388112
1040
-0.4874230800155266
1040
8199.778728228334
1040
5415.112846852441
1040
0.0
1071
        2
1005
156
1005
14B
1070
     0
1070
     1
1040
3.343639758867364
1071
        1
1040
8168.691989977343
1040
4894.919360884487
1040
0.0
1002
}
  0
INSERT
  5
299
330
1F
100
AcDbEntity
  8
HATCH
  6
CONTINUOUS
 62
     5
100
AcDbBlockReference
  2
*U6
 10
0.0
 20
0.0
 30
0.0
1001
ACAD
1002
{
1000
R14_HATCH_DATA
1000
299
1011
1.0
1021
0.0
1031
0.0
1011
0.0
1021
1.0
1031
0.0
1011
0.0
1021
0.0
1031
1.0
1040
0.0
1010
0.0
1020
0.0
1030
1.0
1000
SOLID
1070
     1
1070
     1
1071
        1
1071
        7
1070
     1
1070
     1
1071
       12
1040
10774.50412839175
1040
4348.626666718248
1040
-0.4874230800155248
1040
10594.73740781912
1040
4407.135827972255
1040
0.0
1040
10460.86115701889
1040
4358.408857605822
1040
0.2102773852971068
1040
10449.22396923518
1040
4347.268673837405
1040
0.0
1040
10401.5411019577
1040
4232.152048963277
1040
-0.3877945824088394
1040
10377.12131597422
1040
4220.708850992687
1040
0.9128709291752766
1040
10224.68178994523
1040
3852.687279811772
1040
-0.387794582408782
1040
10233.8576233258
1040
3827.328320664271
1040
0.0
1040
10186.17475604833
1040
3712.21169579014
1040
0.2102773852970968
1040
10186.52619095782
1040
3696.105661908024
1040
0.0
1040
10246.7358245657
1040
3566.98568595457
1040
-0.4874230800155176
1040
10415.22231639853
1040
3481.243643490261
1040
0.0
1071
        2
1005
24C
1005
14F
1070
     0
1070
     1
1040
16.17797491518021
1071
        1
1040
10407.25528499688
1040
3991.438742148421
1040
0.0
1002
}
  0
MTEXT
  5
370
330
1F
100
AcDbEntity
  8
TEKST
100
AcDbMText
 10
8848.387376407336
 20
6731.349376781469
 30
0.0
 40
100.0
 41
1657.8662
 71
     1
 72
     1
  1
{\FIMPACT.TTF;Hoogte: 32 cm\PMax. valhoogte: 32 cm}
1001
ACAD
1000
MTEXTBEGIN
1070
    73
1070
     1
1070
    44
1040
1.0
1070
    74
1070
     0
1000
MTEXTEND
1000
MTEXTBEGIN
1070
    73
1070
     1
1070
    44
1040
1.0
1070
    74
1070
     0
1000
MTEXTEND
1000
MTEXTBEGIN
1070
    73
1070
     1
1070
    44
1040
1.0
1070
    74
1070
     0
1000
MTEXTEND
  0
ENDSEC
  0
SECTION
  2
OBJECTS
  0
DICTIONARY
  5
C
330
0
100
AcDbDictionary
  3
ACAD_GROUP
350
D
  3
ACAD_LAYOUT
350
1A
  3
ACAD_MLINESTYLE
350
17
  3
ACAD_PLOTSETTINGS
350
19
1001
ACAD
1000
TREAT_AS_HARD
1070
     0
1000
TREAT_AS_HARD
1070
     0
  0
DICTIONARY
  5
D3
330
1F
100
AcDbDictionary
  3
ACAD_LAYOUTSELFREF
350
372
  3
ACAD_SORTENTS
350
29A
1001
ACAD
1000
TREAT_AS_HARD
1070
     1
1000
TREAT_AS_HARD
1070
     0
  0
DICTIONARY
  5
D5
330
50
100
AcDbDictionary
  3
ACAD_LAYOUTSELFREF
350
373
1001
ACAD
1000
TREAT_AS_HARD
1070
     1
1000
TREAT_AS_HARD
1070
     0
  0
DICTIONARY
  5
D
102
{ACAD_REACTORS
330
C
102
}
330
C
100
AcDbDictionary
1001
ACAD
1000
TREAT_AS_HARD
1070
     0
1000
TREAT_AS_HARD
1070
     0
  0
DICTIONARY
  5
1A
102
{ACAD_REACTORS
330
C
102
}
330
C
100
AcDbDictionary
1001
ACAD
1000
TREAT_AS_HARD
1070
     0
1000
TREAT_AS_HARD
1070
     0
  0
DICTIONARY
  5
17
102
{ACAD_REACTORS
330
C
102
}
330
C
100
AcDbDictionary
  3
STANDARD
350
18
1001
ACAD
1000
TREAT_AS_HARD
1070
     0
1000
TREAT_AS_HARD
1070
     0
  0
DICTIONARY
  5
19
102
{ACAD_REACTORS
330
C
102
}
330
C
100
AcDbDictionary
1001
ACAD
1000
TREAT_AS_HARD
1070
     0
1000
TREAT_AS_HARD
1070
     0
  0
XRECORD
  5
372
102
{ACAD_REACTORS
330
D3
102
}
330
D3
100
AcDbXrecord
340
1F
  0
SORTENTSTABLE
  5
29A
102
{ACAD_REACTORS
330
D3
102
}
330
D3
100
AcDbSortentsTable
330
1F
331
1A3
  5
1A7
331
14E
  5
152
331
19F
  5
1A5
331
19D
  5
1A3
331
157
  5
1A0
331
1A8
  5
229
331
229
  5
14D
331
153
  5
19E
331
1A6
  5
1B5
331
151
  5
157
331
1A4
  5
1A8
331
28B
  5
14E
331
1CA
  5
14B
331
14F
  5
153
331
14D
  5
151
331
1B5
  5
28B
331
1A0
  5
1A6
331
14B
  5
150
331
19E
  5
1A4
331
156
  5
19F
331
299
  5
14F
331
1A9
  5
24C
331
24C
  5
299
331
1A7
  5
1CA
331
152
  5
19D
331
1A5
  5
1A9
331
150
  5
156
  0
XRECORD
  5
373
102
{ACAD_REACTORS
330
D5
102
}
330
D5
100
AcDbXrecord
340
50
  0
MLINESTYLE
  5
18
102
{ACAD_REACTORS
330
17
102
}
330
17
100
AcDbMlineStyle
  2
STANDARD
 70
     0
  3

 62
   256
 51
90.0
 52
90.0
 71
     2
 49
0.5
 62
   256
  6
BYLAYER
 49
-0.5
 62
   256
  6
BYLAYER
  0
ENDSEC
  0
EOF
