  0
SECTION
  2
HEADER
  9
$ACADVER
  1
AC1012
  9
$DWGCODEPAGE
  3
ANSI_1252
  9
$INSBASE
 10
0.0
 20
0.0
 30
0.0
  9
$EXTMIN
 10
-421.2551946408125
 20
-421.2551916340187
 30
-2200.0
  9
$EXTMAX
 10
6767.255191226063
 20
6767.255194232858
 30
0.0
  9
$LIMMIN
 10
0.0
 20
0.0
  9
$LIMMAX
 10
420.0
 20
297.0
  9
$ORTHOMODE
 70
     0
  9
$REGENMODE
 70
     1
  9
$FILLMODE
 70
     1
  9
$QTEXTMODE
 70
     0
  9
$MIRRTEXT
 70
     1
  9
$DRAGMODE
 70
     2
  9
$LTSCALE
 40
1.0
  9
$OSMODE
 70
   511
  9
$ATTMODE
 70
     1
  9
$TEXTSIZE
 40
2.5
  9
$TRACEWID
 40
1.0
  9
$TEXTSTYLE
  7
STANDARD
  9
$CLAYER
  8
HATCH
  9
$CELTYPE
  6
BYLAYER
  9
$CECOLOR
 62
   256
  9
$CELTSCALE
 40
1.0
  9
$DELOBJ
 70
     1
  9
$DISPSILH
 70
     0
  9
$DIMSCALE
 40
1.0
  9
$DIMASZ
 40
2.5
  9
$DIMEXO
 40
0.625
  9
$DIMDLI
 40
3.75
  9
$DIMRND
 40
0.0
  9
$DIMDLE
 40
0.0
  9
$DIMEXE
 40
1.25
  9
$DIMTP
 40
0.0
  9
$DIMTM
 40
0.0
  9
$DIMTXT
 40
2.5
  9
$DIMCEN
 40
2.5
  9
$DIMTSZ
 40
0.0
  9
$DIMTOL
 70
     0
  9
$DIMLIM
 70
     0
  9
$DIMTIH
 70
     0
  9
$DIMTOH
 70
     0
  9
$DIMSE1
 70
     0
  9
$DIMSE2
 70
     0
  9
$DIMTAD
 70
     1
  9
$DIMZIN
 70
     8
  9
$DIMBLK
  1

  9
$DIMASO
 70
     1
  9
$DIMSHO
 70
     1
  9
$DIMPOST
  1

  9
$DIMAPOST
  1

  9
$DIMALT
 70
     0
  9
$DIMALTD
 70
     3
  9
$DIMALTF
 40
0.03937007874016
  9
$DIMLFAC
 40
1.0
  9
$DIMTOFL
 70
     1
  9
$DIMTVP
 40
0.0
  9
$DIMTIX
 70
     0
  9
$DIMSOXD
 70
     0
  9
$DIMSAH
 70
     0
  9
$DIMBLK1
  1

  9
$DIMBLK2
  1

  9
$DIMSTYLE
  2
ISO-25
  9
$DIMCLRD
 70
     0
  9
$DIMCLRE
 70
     0
  9
$DIMCLRT
 70
     0
  9
$DIMTFAC
 40
1.0
  9
$DIMGAP
 40
0.625
  9
$DIMJUST
 70
     0
  9
$DIMSD1
 70
     0
  9
$DIMSD2
 70
     0
  9
$DIMTOLJ
 70
     0
  9
$DIMTZIN
 70
     8
  9
$DIMALTZ
 70
     0
  9
$DIMALTTZ
 70
     0
  9
$DIMFIT
 70
     3
  9
$DIMUPT
 70
     0
  9
$DIMUNIT
 70
     2
  9
$DIMDEC
 70
     2
  9
$DIMTDEC
 70
     2
  9
$DIMALTU
 70
     2
  9
$DIMALTTD
 70
     3
  9
$DIMTXSTY
  7
STANDARD
  9
$DIMAUNIT
 70
     0
  9
$LUNITS
 70
     2
  9
$LUPREC
 70
     4
  9
$SKETCHINC
 40
1.0
  9
$FILLETRAD
 40
10.0
  9
$AUNITS
 70
     0
  9
$AUPREC
 70
     0
  9
$MENU
  1
.
  9
$ELEVATION
 40
0.0
  9
$PELEVATION
 40
0.0
  9
$THICKNESS
 40
0.0
  9
$LIMCHECK
 70
     0
  9
$BLIPMODE
 70
     0
  9
$CHAMFERA
 40
10.0
  9
$CHAMFERB
 40
10.0
  9
$CHAMFERC
 40
20.0
  9
$CHAMFERD
 40
0.0
  9
$SKPOLY
 70
     0
  9
$TDCREATE
 40
2452626.695614815
  9
$TDUPDATE
 40
2452796.530264236
  9
$TDINDWG
 40
0.0033730324
  9
$TDUSRTIMER
 40
0.0033724537
  9
$USRTIMER
 70
     1
  9
$ANGBASE
 50
0.0
  9
$ANGDIR
 70
     0
  9
$PDMODE
 70
     0
  9
$PDSIZE
 40
0.0
  9
$PLINEWID
 40
0.0
  9
$COORDS
 70
     2
  9
$SPLFRAME
 70
     0
  9
$SPLINETYPE
 70
     6
  9
$SPLINESEGS
 70
     8
  9
$ATTDIA
 70
     0
  9
$ATTREQ
 70
     1
  9
$HANDLING
 70
-16383
  9
$HANDSEED
  5
5B2
  9
$SURFTAB1
 70
     6
  9
$SURFTAB2
 70
     6
  9
$SURFTYPE
 70
     6
  9
$SURFU
 70
     6
  9
$SURFV
 70
     6
  9
$UCSNAME
  2

  9
$UCSORG
 10
0.0
 20
0.0
 30
0.0
  9
$UCSXDIR
 10
1.0
 20
0.0
 30
0.0
  9
$UCSYDIR
 10
0.0
 20
1.0
 30
0.0
  9
$PUCSNAME
  2

  9
$PUCSORG
 10
0.0
 20
0.0
 30
0.0
  9
$PUCSXDIR
 10
1.0
 20
0.0
 30
0.0
  9
$PUCSYDIR
 10
0.0
 20
1.0
 30
0.0
  9
$USERI1
 70
     0
  9
$USERI2
 70
     0
  9
$USERI3
 70
     0
  9
$USERI4
 70
     0
  9
$USERI5
 70
     0
  9
$USERR1
 40
0.0
  9
$USERR2
 40
0.0
  9
$USERR3
 40
0.0
  9
$USERR4
 40
0.0
  9
$USERR5
 40
0.0
  9
$WORLDVIEW
 70
     1
  9
$SHADEDGE
 70
     3
  9
$SHADEDIF
 70
    70
  9
$TILEMODE
 70
     1
  9
$MAXACTVP
 70
    64
  9
$PINSBASE
 10
0.0
 20
0.0
 30
0.0
  9
$PLIMCHECK
 70
     0
  9
$PEXTMIN
 10
0.0
 20
0.0
 30
0.0
  9
$PEXTMAX
 10
0.0
 20
0.0
 30
0.0
  9
$PLIMMIN
 10
0.0
 20
0.0
  9
$PLIMMAX
 10
12.0
 20
9.0
  9
$UNITMODE
 70
     0
  9
$VISRETAIN
 70
     1
  9
$PLINEGEN
 70
     0
  9
$PSLTSCALE
 70
     1
  9
$TREEDEPTH
 70
  3020
  9
$PICKSTYLE
 70
     1
  9
$CMLSTYLE
  2
STANDARD
  9
$CMLJUST
 70
     0
  9
$CMLSCALE
 40
20.0
  9
$SAVEIMAGES
 70
     1
  0
ENDSEC
  0
SECTION
  2
CLASSES
  0
CLASS
  1
ACDBDICTIONARYWDFLT
  2
AcDbDictionaryWithDefault
  3
AutoCAD 2000
 90
    32768
280
     0
281
     0
  0
CLASS
  1
ACDBPLACEHOLDER
  2
AcDbPlaceHolder
  3
AutoCAD 2000
 90
    32768
280
     0
281
     0
  0
CLASS
  1
LAYOUT
  2
AcDbLayout
  3
AutoCAD 2000
 90
    32768
280
     0
281
     0
  0
CLASS
  1
LONG_TRANSACTION
  2
AcDbLongTransaction
  3
AutoCAD 2000
 90
    32768
280
     0
281
     0
  0
CLASS
  1
LWPOLYLINE
  2
AcDbPolyline
  3
AutoCAD 2000
 90
    32768
280
     0
281
     1
  0
CLASS
  1
HATCH
  2
AcDbHatch
  3
AutoCAD 2000
 90
    32768
280
     0
281
     1
  0
CLASS
  1
XRECORD
  2
AcDbXrecord
  3
AutoCAD 2000
 90
    32768
280
     0
281
     0
  0
CLASS
  1
LONG_TRANSACTION
  2
AcDbLongTransaction
  3
AutoCAD 2000
 90
    32768
280
     0
281
     0
  0
CLASS
  1
LWPOLYLINE
  2
AcDbPolyline
  3
AutoCAD 2000
 90
    32768
280
     0
281
     1
  0
CLASS
  1
HATCH
  2
AcDbHatch
  3
AutoCAD 2000
 90
    32768
280
     0
281
     1
  0
CLASS
  1
XRECORD
  2
AcDbXrecord
  3
AutoCAD 2000
 90
    32768
280
     0
281
     0
  0
CLASS
  1
DICTIONARYVAR
  2
AcDbDictionaryVar
  3
AutoCAD 2000
 90
    32768
280
     0
281
     0
  0
CLASS
  1
SORTENTSTABLE
  2
AcDbSortentsTable
  3
AutoCAD 2000
 90
    32768
280
     0
281
     0
  0
CLASS
  1
LONG_TRANSACTION
  2
AcDbLongTransaction
  3
AutoCAD 2000
 90
    32768
280
     0
281
     0
  0
CLASS
  1
LWPOLYLINE
  2
AcDbPolyline
  3
AutoCAD 2000
 90
    32768
280
     0
281
     1
  0
CLASS
  1
HATCH
  2
AcDbHatch
  3
AutoCAD 2000
 90
    32768
280
     0
281
     1
  0
CLASS
  1
XRECORD
  2
AcDbXrecord
  3
AutoCAD 2000
 90
    32768
280
     0
281
     0
  0
CLASS
  1
LONG_TRANSACTION
  2
AcDbLongTransaction
  3
AutoCAD 2000
 90
    32768
280
     0
281
     0
  0
CLASS
  1
LWPOLYLINE
  2
AcDbPolyline
  3
AutoCAD 2000
 90
    32768
280
     0
281
     1
  0
CLASS
  1
HATCH
  2
AcDbHatch
  3
AutoCAD 2000
 90
    32768
280
     0
281
     1
  0
CLASS
  1
XRECORD
  2
AcDbXrecord
  3
AutoCAD 2000
 90
    32768
280
     0
281
     0
  0
ENDSEC
  0
SECTION
  2
TABLES
  0
TABLE
  2
VPORT
  5
8
330
0
100
AcDbSymbolTable
 70
     2
  0
VPORT
  5
59A
330
8
100
AcDbSymbolTableRecord
100
AcDbViewportTableRecord
  2
*ACTIVE
 70
     0
 10
0.0
 20
0.0
 11
1.0
 21
1.0
 12
7443.733609922418
 22
2845.529711994661
 13
0.0
 23
0.0
 14
10.0
 24
10.0
 15
10.0
 25
10.0
 16
0.0
 26
0.0
 36
1.0
 17
0.0
 27
0.0
 37
0.0
 40
13762.02044008544
 41
1.81453154875717
 42
50.0
 43
0.0
 44
0.0
 50
0.0
 51
0.0
 71
     0
 72
   100
 73
     1
 74
     3
 75
     0
 76
     0
 77
     0
 78
     0
  0
ENDTAB
  0
TABLE
  2
LTYPE
  5
5
330
0
100
AcDbSymbolTable
 70
     1
  0
LTYPE
  5
14
330
5
100
AcDbSymbolTableRecord
100
AcDbLinetypeTableRecord
  2
BYBLOCK
 70
     0
  3

 72
    65
 73
     0
 40
0.0
  0
LTYPE
  5
15
330
5
100
AcDbSymbolTableRecord
100
AcDbLinetypeTableRecord
  2
BYLAYER
 70
     0
  3

 72
    65
 73
     0
 40
0.0
  0
LTYPE
  5
16
330
5
100
AcDbSymbolTableRecord
100
AcDbLinetypeTableRecord
  2
CONTINUOUS
 70
     0
  3
Solid line
 72
    65
 73
     0
 40
0.0
  0
ENDTAB
  0
TABLE
  2
LAYER
  5
2
330
0
100
AcDbSymbolTable
 70
     4
  0
LAYER
  5
10
330
2
100
AcDbSymbolTableRecord
100
AcDbLayerTableRecord
  2
0
 70
     0
 62
     7
  6
CONTINUOUS
  0
LAYER
  5
5D
330
2
100
AcDbSymbolTableRecord
100
AcDbLayerTableRecord
  2
SAFETY
 70
     0
 62
     7
  6
CONTINUOUS
  0
LAYER
  5
5E
330
2
100
AcDbSymbolTableRecord
100
AcDbLayerTableRecord
  2
OBJECT
 70
     0
 62
     7
  6
CONTINUOUS
  0
LAYER
  5
14C
330
2
100
AcDbSymbolTableRecord
100
AcDbLayerTableRecord
  2
HATCH
 70
     0
 62
     7
  6
CONTINUOUS
  0
ENDTAB
  0
TABLE
  2
STYLE
  5
3
330
0
100
AcDbSymbolTable
 70
     1
  0
STYLE
  5
11
330
3
100
AcDbSymbolTableRecord
100
AcDbTextStyleTableRecord
  2
STANDARD
 70
     0
 40
0.0
 41
1.0
 50
0.0
 71
     0
 42
2.5
  3
txt
  4

  0
ENDTAB
  0
TABLE
  2
VIEW
  5
6
330
0
100
AcDbSymbolTable
 70
     0
  0
ENDTAB
  0
TABLE
  2
UCS
  5
7
330
0
100
AcDbSymbolTable
 70
     0
  0
ENDTAB
  0
TABLE
  2
APPID
  5
9
330
0
100
AcDbSymbolTable
 70
     3
  0
APPID
  5
12
330
9
100
AcDbSymbolTableRecord
100
AcDbRegAppTableRecord
  2
ACAD
 70
     0
  0
APPID
  5
60
330
9
100
AcDbSymbolTableRecord
100
AcDbRegAppTableRecord
  2
AVE_FINISH
 70
     0
  0
APPID
  5
145
330
9
100
AcDbSymbolTableRecord
100
AcDbRegAppTableRecord
  2
CONTENTBLOCKICON
 70
     0
  0
ENDTAB
  0
TABLE
  2
DIMSTYLE
  5
A
330
0
100
AcDbSymbolTable
 70
     2
  0
DIMSTYLE
105
27
330
A
100
AcDbSymbolTableRecord
100
AcDbDimStyleTableRecord
  2
ISO-25
 70
     0
  3

  4

  5

  6

  7

 40
1.0
 41
2.5
 42
0.625
 43
3.75
 44
1.25
 45
0.0
 46
0.0
 47
0.0
 48
0.0
140
2.5
141
2.5
142
0.0
143
0.03937007874016
144
1.0
145
0.0
146
1.0
147
0.625
 71
     0
 72
     0
 73
     0
 74
     0
 75
     0
 76
     0
 77
     1
 78
     8
170
     0
171
     3
172
     1
173
     0
174
     0
175
     0
176
     0
177
     0
178
     0
270
     2
271
     2
272
     2
273
     2
274
     3
340
11
275
     0
280
     0
281
     0
282
     0
283
     0
284
     8
285
     0
286
     0
287
     3
288
     0
  0
DIMSTYLE
105
5F
330
A
100
AcDbSymbolTableRecord
100
AcDbDimStyleTableRecord
  2
STANDARD
 70
     0
  3

  4

  5

  6

  7

 40
1.0
 41
0.18
 42
0.0625
 43
0.38
 44
0.18
 45
0.0
 46
0.0
 47
0.0
 48
0.0
140
0.18
141
0.09
142
0.0
143
25.4
144
1.0
145
0.0
146
1.0
147
0.09
 71
     0
 72
     0
 73
     1
 74
     1
 75
     0
 76
     0
 77
     0
 78
     0
170
     0
171
     2
172
     0
173
     0
174
     0
175
     0
176
     0
177
     0
178
     0
270
     2
271
     4
272
     4
273
     2
274
     2
340
11
275
     0
280
     0
281
     0
282
     0
283
     1
284
     0
285
     0
286
     0
287
     3
288
     0
  0
ENDTAB
  0
TABLE
  2
BLOCK_RECORD
  5
1
330
0
100
AcDbSymbolTable
 70
     4
  0
BLOCK_RECORD
  5
1F
102
{ACAD_XDICTIONARY
360
E3
102
}
330
1
100
AcDbSymbolTableRecord
100
AcDbBlockTableRecord
  2
*MODEL_SPACE
  0
BLOCK_RECORD
  5
50
102
{ACAD_XDICTIONARY
360
E5
102
}
330
1
100
AcDbSymbolTableRecord
100
AcDbBlockTableRecord
  2
*PAPER_SPACE
  0
BLOCK_RECORD
  5
EF
330
1
100
AcDbSymbolTableRecord
100
AcDbBlockTableRecord
  2
TBKA
1001
ACAD
1000
DesignCenter Data
1002
{
1070
     1
1070
     4
1002
}
1001
CONTENTBLOCKICON
1071
        0
1004
28000000200000002000000001000800000000000004000000000000000000000000000000000000000000004000000080000000FF000000002000004020000080200000FF200000004000004040000080400000FF400000006000004060000080600000FF600000008000004080000080800000FF80000000A0000040A000
1004
0080A00000FFA0000000C0000040C0000080C00000FFC0000000FF000040FF000080FF0000FFFF0000000020004000200080002000FF002000002020004020200080202000FF202000004020004040200080402000FF402000006020004060200080602000FF602000008020004080200080802000FF80200000A0200040A0
1004
200080A02000FFA0200000C0200040C0200080C02000FFC0200000FF200040FF200080FF2000FFFF2000000040004000400080004000FF004000002040004020400080204000FF204000004040004040400080404000FF404000006040004060400080604000FF604000008040004080400080804000FF80400000A0400040
1004
A0400080A04000FFA0400000C0400040C0400080C04000FFC0400000FF400040FF400080FF4000FFFF4000000060004000600080006000FF006000002060004020600080206000FF206000004060004040600080406000FF406000006060004060600080606000FF606000008060004080600080806000FF80600000A06000
1004
40A0600080A06000FFA0600000C0600040C0600080C06000FFC0600000FF600040FF600080FF6000FFFF6000000080004000800080008000FF008000002080004020800080208000FF208000004080004040800080408000FF408000006080004060800080608000FF608000008080004080800080808000FF80800000A080
1004
0040A0800080A08000FFA0800000C0800040C0800080C08000FFC0800000FF800040FF800080FF8000FFFF80000000A0004000A0008000A000FF00A0000020A0004020A0008020A000FF20A0000040A0004040A0008040A000FF40A0000060A0004060A0008060A000FF60A0000080A0004080A0008080A000FF80A00000A0
1004
A00040A0A00080A0A000FFA0A00000C0A00040C0A00080C0A000FFC0A00000FFA00040FFA00080FFA000FFFFA0000000C0004000C0008000C000FF00C0000020C0004020C0008020C000FF20C0000040C0004040C0008040C000FF40C0000060C0004060C0008060C000FF60C0000080C0004080C0008080C000FF80C00000
1004
A0C00040A0C00080A0C000FFA0C00000C0C00040C0C00080C0C000FFC0C00000FFC00040FFC00080FFC000FFFFC0000000FF004000FF008000FF00FF00FF000020FF004020FF008020FF00FF20FF000040FF004040FF008040FF00FF40FF000060FF004060FF008060FF00FF60FF000080FF004080FF008080FF00FF80FF00
1004
00A0FF0040A0FF0080A0FF00FFA0FF0000C0FF0040C0FF0080C0FF00FFC0FF0000FFFF0040FFFF0080FFFF00FFFFFF00000000000000000000000000000000000000000000000000000000000000000000000000000000000000FFFFFFFFFFFFFFFFFFFFFFFF00000000000000000000000000000000000000FF0000000000
1004
00000000000000FF0000000000000000000000000000000000FF0000000000000000000000000000FF000000000000000000000000000000FF00000000000000000000000000000000FF00000000000000000000000000FF000000000000000000000000000000000000FF0000000000000000000000FF0000000000000000
1004
000000000000000000000000FF000000000000000000FF00000000000000000000000000000000000000000000FF00000000000000FF000000000000000000000000000000000000000000000000FF0000000000FF0000000000000000000000000000000000000000000000000000FF000000FF0000000000000000FCFCE0
1004
E0E0E0E0E0E0E0FCFC0000000000000000FF0000FF0000000000000000FC0303E0E0E0E0E0E00303FC0000000000000000FF0000FF0000000000000000E00303FFFFFFFFFFFF0303E00000000000000000FF0000FF0000000000000000E0E0FFFFFFFFFFFFFFFFE0E00000000000000000FF0000FF0000000000000000E0E0
1004
FFFFFFFFFFFFFFFFE0E00000000000000000FF0000FF0000000000000000E0E0FFFFFF00FFFFFFFFE0E00000000000000000FF0000FF0000000000000000E0E0FFFFFFFFFFFFFFFFE0E00000000000000000FF0000FF0000000000000000E0E0FFFFFFFFFFFFFFFFE0E00000000000000000FF0000FF0000000000000000E0
1004
E0FFFFFFFFFFFFFFFFE0E00000000000000000FF0000FF0000000000000000E00303FFFFFFFFFFFF0303E00000000000000000FF0000FF0000000000000000FC0303E0E0E0E0E0E00303FC0000000000000000FF0000FF0000000000000000FCFCE0E0E0E0E0E0E0E0FCFC0000000000000000FF000000FF00000000000000
1004
00000000000000000000000000000000000000FF0000000000FF000000000000000000000000000000000000000000000000FF00000000000000FF00000000000000000000000000000000000000000000FF000000000000000000FF0000000000000000000000000000000000000000FF0000000000000000000000FF0000
1004
00000000000000000000000000000000FF00000000000000000000000000FF00000000000000000000000000000000FF000000000000000000000000000000FF0000000000000000000000000000FF0000000000000000000000000000000000FF000000000000000000000000FF0000000000000000000000000000000000
1004
0000FFFFFFFFFFFFFFFFFFFFFFFF000000000000000000000000000000000000000000000000000000000000000000000000000000000000
  0
BLOCK_RECORD
  5
555
330
1
100
AcDbSymbolTableRecord
100
AcDbBlockTableRecord
  2
*U1
  0
BLOCK_RECORD
  5
568
330
1
100
AcDbSymbolTableRecord
100
AcDbBlockTableRecord
  2
*U2
  0
BLOCK_RECORD
  5
573
330
1
100
AcDbSymbolTableRecord
100
AcDbBlockTableRecord
  2
*U3
  0
ENDTAB
  0
ENDSEC
  0
SECTION
  2
BLOCKS
  0
BLOCK
  5
20
330
1F
100
AcDbEntity
  8
0
100
AcDbBlockBegin
  2
*MODEL_SPACE
 70
     0
 10
0.0
 20
0.0
 30
0.0
  3
*MODEL_SPACE
  1

  0
ENDBLK
  5
21
330
1F
100
AcDbEntity
  8
0
100
AcDbBlockEnd
  0
BLOCK
  5
52
330
50
100
AcDbEntity
 67
     1
  8
0
100
AcDbBlockBegin
  2
*PAPER_SPACE
 70
     0
 10
0.0
 20
0.0
 30
0.0
  3
*PAPER_SPACE
  1

  0
ENDBLK
  5
53
330
50
100
AcDbEntity
 67
     1
  8
0
100
AcDbBlockEnd
  0
BLOCK
  5
F0
330
EF
100
AcDbEntity
  8
0
100
AcDbBlockBegin
  2
TBKA
 70
     0
 10
0.0
 20
0.0
 30
0.0
  3
TBKA
  1

  0
INSERT
  5
51F
330
EF
100
AcDbEntity
  8
HATCH
  6
CONTINUOUS
 62
     5
100
AcDbBlockReference
  2
*U1
 10
0.0
 20
0.0
 30
0.0
1001
ACAD
1002
{
1000
R14_HATCH_DATA
1000
51F
1011
1.0
1021
0.0
1031
0.0
1011
0.0
1021
1.0
1031
0.0
1011
0.0
1021
0.0
1031
1.0
1040
0.0
1010
0.0
1020
0.0
1030
1.0
1000
SOLID
1070
     1
1070
     0
1071
        4
1071
        7
1070
     1
1070
     1
1071
        4
1040
4038.3239769739
1040
4224.719570599265
1040
0.0
1040
3987.520914914167
1040
4224.719570599265
1040
0.3194783461206904
1040
4225.910262212592
1040
3983.926552803806
1040
0.0
1040
4225.910262212592
1040
4034.834012343792
1040
-0.3003541745274907
1071
        0
1071
        7
1070
     1
1070
     1
1071
        4
1040
2366.10756889552
1040
4224.719570599265
1040
0.0
1040
2315.304506835786
1040
4224.719570599265
1040
-0.3003541745274915
1040
2127.718221597095
1040
4034.834012343792
1040
0.0
1040
2127.718221597095
1040
3983.926552803806
1040
0.3194783461206905
1071
        0
1071
        7
1070
     1
1070
     1
1071
        4
1040
2127.718221597095
1040
2361.617515927981
1040
0.0
1040
2127.718221597095
1040
2310.710056387994
1040
-0.2970368644097355
1040
2314.71299095818
1040
2123.71528702691
1040
0.0
1040
2365.620450498166
1040
2123.71528702691
1040
0.3167164884446679
1071
        0
1071
        7
1070
     1
1070
     1
1071
        4
1040
4225.910262212592
1040
2310.710056387994
1040
0.0
1040
4225.910262212592
1040
2361.617515927981
1040
0.3167164884446671
1040
3988.008033311521
1040
2123.71528702691
1040
0.0
1040
4038.915492851507
1040
2123.71528702691
1040
-0.2970368644097354
1071
        0
1070
     0
1070
     1
1040
8.079323436830472
1071
        4
1040
4129.484249730958
1040
4046.910026616828
1040
0.0
1040
2237.764483953709
1040
4046.910026616828
1040
0.0
1040
2262.017301463675
1040
2245.220863677376
1040
0.0
1040
4064.810069704384
1040
2237.141555341106
1040
0.0
1002
}
  0
INSERT
  5
520
330
EF
100
AcDbEntity
  8
HATCH
  6
CONTINUOUS
 62
     2
100
AcDbBlockReference
  2
*U2
 10
0.0
 20
0.0
 30
0.0
1001
ACAD
1002
{
1000
R14_HATCH_DATA
1000
520
1011
1.0
1021
0.0
1031
0.0
1011
0.0
1021
1.0
1031
0.0
1011
0.0
1021
0.0
1031
1.0
1040
0.0
1010
0.0
1020
0.0
1030
1.0
1000
SOLID
1070
     1
1070
     0
1071
        4
1071
        7
1070
     0
1070
     1
1071
        4
1040
4375.325984148829
1040
4374.096019566738
1040
4176.494540276355
1040
4374.096019566738
1040
4176.494540276355
1040
4175.343121631793
1040
4375.325984148829
1040
4175.343121631793
1071
        0
1071
        7
1070
     0
1070
     1
1071
        4
1040
2177.133943533332
1040
4374.096019566738
1040
1978.302499660857
1040
4374.096019566738
1040
1978.302499660857
1040
4175.343121631793
1040
2177.133943533331
1040
4175.343121631793
1071
        0
1071
        7
1070
     0
1070
     1
1071
        4
1040
2177.133943533332
1040
2173.091735994382
1040
1978.302499660857
1040
2173.091735994382
1040
1978.302499660857
1040
1974.338838059439
1040
2177.133943533332
1040
1974.338838059439
1071
        0
1071
        7
1070
     0
1070
     1
1071
        4
1040
4375.325984148828
1040
2173.091735994382
1040
4176.494540276355
1040
2173.091735994382
1040
4176.494540276355
1040
1974.338838059439
1040
4375.325984148829
1040
1974.338838059439
1071
        0
1070
     0
1070
     1
1040
8.079323436830472
1071
        4
1040
4226.495519770819
1040
4248.893093334237
1040
0.0
1040
2124.584668907206
1040
4289.289724593251
1040
0.0
1040
2019.489126364031
1040
2067.475751827998
1040
0.0
1040
4258.832609784105
1040
2067.475751827998
1040
0.0
1002
}
  0
INSERT
  5
521
330
EF
100
AcDbEntity
  8
HATCH
  6
CONTINUOUS
 62
     1
100
AcDbBlockReference
  2
*U3
 10
0.0
 20
0.0
 30
0.0
1001
ACAD
1002
{
1000
R14_HATCH_DATA
1000
521
1011
1.0
1021
0.0
1031
0.0
1011
0.0
1021
1.0
1031
0.0
1011
0.0
1021
0.0
1031
1.0
1040
0.0
1010
0.0
1020
0.0
1030
1.0
1000
SOLID
1070
     1
1070
     0
1071
        4
1071
        7
1070
     0
1070
     1
1071
        4
1040
4176.494540276355
1040
4324.719570599265
1040
2177.133943533332
1040
4324.719570599265
1040
2177.133943533332
1040
4224.719570599265
1040
4176.494540276355
1040
4224.719570599265
1071
        0
1071
        7
1070
     0
1070
     1
1071
        4
1040
4325.910262212592
1040
4175.343121631793
1040
4225.910262212592
1040
4175.343121631793
1040
4225.910262212592
1040
2173.091735994382
1040
4325.910262212592
1040
2173.091735994382
1071
        0
1071
        7
1070
     0
1070
     1
1071
        4
1040
2127.718221597095
1040
4175.343121631793
1040
2027.718221597095
1040
4175.343121631793
1040
2027.718221597095
1040
2173.091735994382
1040
2127.718221597095
1040
2173.091735994382
1071
        0
1071
        7
1070
     0
1070
     1
1071
        4
1040
4176.494540276355
1040
2123.715287026909
1040
2177.133943533332
1040
2123.71528702691
1040
2177.133943533332
1040
2023.715287026911
1040
4176.494540276355
1040
2023.715287026911
1071
        0
1070
     0
1070
     1
1040
8.079323436830472
1071
        4
1040
3361.478361915411
1040
4273.131078061491
1040
0.0
1040
4242.664064777462
1040
3521.753999404973
1040
0.0
1040
2076.079033887276
1040
3384.405488955391
1040
0.0
1040
2844.08492170283
1040
2075.555090023492
1040
0.0
1002
}
  0
LINE
  5
522
330
EF
100
AcDbEntity
  8
SAFETY
 48
5.0
100
AcDbLine
 10
2033.999998292625
 20
0.0000012994196368
 30
-2200.0
 11
4311.999998292626
 21
0.0000012994196368
 31
-2200.0
1001
AVE_FINISH
1002
{
1070
     0
1005
0
1002
}
  0
LINE
  5
523
330
EF
100
AcDbEntity
  8
SAFETY
 48
5.0
100
AcDbLine
 10
4311.999998292626
 20
6346.000001299421
 30
-2200.0
 11
2033.999998292625
 21
6346.000001299421
 31
-2200.0
1001
AVE_FINISH
1002
{
1070
     0
1005
0
1002
}
  0
LINE
  5
524
330
EF
100
AcDbEntity
  8
OBJECT
100
AcDbLine
 10
2424.26852887941
 20
3700.988409803172
 30
0.0
 11
3924.268528879409
 21
3700.988409803172
 31
0.0
  0
LINE
  5
525
330
EF
100
AcDbEntity
  8
OBJECT
100
AcDbLine
 10
2424.26852887941
 20
3440.988409803172
 30
0.0
 11
3924.268528879409
 21
3440.988409803171
 31
0.0
  0
LINE
  5
526
330
EF
100
AcDbEntity
  8
OBJECT
100
AcDbLine
 10
2424.26852887941
 20
3180.988409803171
 30
0.0
 11
3924.268528879409
 21
3180.988409803171
 31
0.0
  0
LINE
  5
527
330
EF
100
AcDbEntity
  8
OBJECT
100
AcDbLine
 10
2424.26852887941
 20
2920.988409803172
 30
0.0
 11
3924.268528879409
 21
2920.988409803172
 31
0.0
  0
LINE
  5
528
330
EF
100
AcDbEntity
  8
OBJECT
100
AcDbLine
 10
2424.26852887941
 20
2660.988409803172
 30
0.0
 11
3924.268528879409
 21
2660.988409803171
 31
0.0
  0
LINE
  5
529
330
EF
100
AcDbEntity
  8
OBJECT
100
AcDbLine
 10
3924.268528879409
 20
2425.220431338589
 30
0.0
 11
2424.268528879409
 21
2425.220431338592
 31
0.0
  0
LINE
  5
52A
330
EF
100
AcDbEntity
  8
OBJECT
100
AcDbLine
 10
2424.26852887941
 20
3925.22043133859
 30
0.0
 11
3924.268528879409
 21
3925.220431338589
 31
0.0
  0
LINE
  5
52B
330
EF
100
AcDbEntity
  8
OBJECT
100
AcDbLine
 10
2177.133943533332
 20
2123.71528702691
 30
-2200.0
 11
4176.494540276355
 21
2123.71528702691
 31
-2200.0
  0
LINE
  5
52C
330
EF
100
AcDbEntity
  8
OBJECT
100
AcDbLine
 10
2177.133943533332
 20
2023.715287026911
 30
-2200.0
 11
4176.494540276355
 21
2023.715287026911
 31
-2200.0
  0
LINE
  5
52D
330
EF
100
AcDbEntity
  8
OBJECT
100
AcDbLine
 10
2177.133943533332
 20
4224.719570599265
 30
-2200.0
 11
4176.494540276355
 21
4224.719570599265
 31
-2200.0
  0
LINE
  5
52E
330
EF
100
AcDbEntity
  8
OBJECT
100
AcDbLine
 10
2177.133943533332
 20
4324.719570599265
 30
-2200.0
 11
4176.494540276355
 21
4324.719570599265
 31
-2200.0
  0
LINE
  5
52F
330
EF
100
AcDbEntity
  8
OBJECT
100
AcDbLine
 10
2424.268528879409
 20
2425.220431338592
 30
0.0
 11
2424.26852887941
 21
3925.22043133859
 31
0.0
  0
LINE
  5
530
330
EF
100
AcDbEntity
  8
OBJECT
100
AcDbLine
 10
2920.050647641538
 20
3925.220431338589
 30
0.0
 11
2920.050647641538
 21
2425.220431338589
 31
0.0
  0
LINE
  5
531
330
EF
100
AcDbEntity
  8
OBJECT
100
AcDbLine
 10
2660.050647641539
 20
3925.220431338589
 30
0.0
 11
2660.050647641539
 21
2425.220431338589
 31
0.0
  0
LINE
  5
532
330
EF
100
AcDbEntity
  8
OBJECT
100
AcDbLine
 10
2127.718221597095
 20
2173.091735994382
 30
-2200.0
 11
2127.718221597095
 21
4172.452332737406
 31
-2200.0
  0
LINE
  5
533
330
EF
100
AcDbEntity
  8
OBJECT
100
AcDbLine
 10
2027.718221597095
 20
2173.091735994382
 30
-2200.0
 11
2027.718221597095
 21
4172.452332737406
 31
-2200.0
  0
LINE
  5
534
330
EF
100
AcDbEntity
  8
SAFETY
 48
5.0
100
AcDbLine
 10
-0.0000017073743948
 20
4312.000001299419
 30
-2200.0
 11
-0.0000017073743948
 21
2034.000001299419
 31
-2200.0
1001
AVE_FINISH
1002
{
1070
     0
1005
0
1002
}
  0
ARC
  5
535
330
EF
100
AcDbEntity
  8
SAFETY
 48
5.0
100
AcDbCircle
 10
2033.999998292625
 20
2034.000001299419
 30
-2200.0
 40
2033.999999999999
100
AcDbArc
 50
180.0
 51
270.0
1001
AVE_FINISH
1002
{
1070
     0
1005
0
1002
}
  0
ARC
  5
536
330
EF
100
AcDbEntity
  8
OBJECT
100
AcDbCircle
 10
2077.718221597095
 20
2073.715287026911
 30
-2200.0
 40
242.2117270169092
100
AcDbArc
 50
11.91327908424842
 51
78.0867209157462
  0
ARC
  5
537
330
EF
100
AcDbEntity
  8
OBJECT
100
AcDbCircle
 10
2077.718221597095
 20
2073.715287026911
 30
-2200.0
 40
292.2117270169092
100
AcDbArc
 50
9.852293686964751
 51
80.14770631301406
  0
POLYLINE
  5
538
330
EF
100
AcDbEntity
  8
OBJECT
100
AcDb2dPolyline
 66
     1
 10
0.0
 20
0.0
 30
-2200.0
 70
     1
  0
VERTEX
  5
59E
330
538
100
AcDbEntity
  8
OBJECT
100
AcDbVertex
100
AcDb2dVertex
 10
1978.302499660857
 20
2173.091735994382
 30
-2200.0
  0
VERTEX
  5
59F
330
538
100
AcDbEntity
  8
OBJECT
100
AcDbVertex
100
AcDb2dVertex
 10
2177.133943533332
 20
2173.091735994382
 30
-2200.0
  0
VERTEX
  5
5A0
330
538
100
AcDbEntity
  8
OBJECT
100
AcDbVertex
100
AcDb2dVertex
 10
2177.133943533332
 20
1974.338838059439
 30
-2200.0
  0
VERTEX
  5
5A1
330
538
100
AcDbEntity
  8
OBJECT
100
AcDbVertex
100
AcDb2dVertex
 10
1978.302499660857
 20
1974.338838059439
 30
-2200.0
  0
SEQEND
  5
5A2
330
538
100
AcDbEntity
  8
OBJECT
  0
LINE
  5
539
330
EF
100
AcDbEntity
  8
OBJECT
100
AcDbLine
 10
2424.268528879409
 20
2425.220431338592
 30
0.0
 11
2287.756974563311
 21
2276.868962008688
 31
0.0
  0
ARC
  5
53A
330
EF
100
AcDbEntity
  8
SAFETY
 48
5.0
100
AcDbCircle
 10
2033.999998292625
 20
4312.00000129942
 30
-2200.0
 40
2034.0
100
AcDbArc
 50
90.0
 51
180.0
1001
AVE_FINISH
1002
{
1070
     0
1005
0
1002
}
  0
ARC
  5
53B
330
EF
100
AcDbEntity
  8
OBJECT
100
AcDbCircle
 10
2077.718221597095
 20
4271.828781704877
 30
-2200.0
 40
292.2117270169092
100
AcDbArc
 50
279.8522936869858
 51
350.1477063130352
  0
ARC
  5
53C
330
EF
100
AcDbEntity
  8
OBJECT
100
AcDbCircle
 10
2077.718221597095
 20
4271.828781704877
 30
-2200.0
 40
242.2117270169092
100
AcDbArc
 50
281.9132790842538
 51
348.0867209157516
  0
POLYLINE
  5
53D
330
EF
100
AcDbEntity
  8
OBJECT
100
AcDb2dPolyline
 66
     1
 10
0.0
 20
0.0
 30
-2200.0
 70
     1
  0
VERTEX
  5
5A3
330
53D
100
AcDbEntity
  8
OBJECT
100
AcDbVertex
100
AcDb2dVertex
 10
2177.133943533332
 20
4374.096019566738
 30
-2200.0
  0
VERTEX
  5
5A4
330
53D
100
AcDbEntity
  8
OBJECT
100
AcDbVertex
100
AcDb2dVertex
 10
1978.302499660857
 20
4374.096019566738
 30
-2200.0
  0
VERTEX
  5
5A5
330
53D
100
AcDbEntity
  8
OBJECT
100
AcDbVertex
100
AcDb2dVertex
 10
1978.302499660857
 20
4175.343121631793
 30
-2200.0
  0
VERTEX
  5
5A6
330
53D
100
AcDbEntity
  8
OBJECT
100
AcDbVertex
100
AcDb2dVertex
 10
2177.133943533332
 20
4175.343121631793
 30
-2200.0
  0
SEQEND
  5
5A7
330
53D
100
AcDbEntity
  8
OBJECT
  0
LINE
  5
53E
330
EF
100
AcDbEntity
  8
OBJECT
100
AcDbLine
 10
2429.359954930278
 20
3925.220431338589
 30
0.0
 11
2287.756974563311
 21
4068.675106723101
 31
0.0
  0
LINE
  5
53F
330
EF
100
AcDbEntity
  8
OBJECT
100
AcDbLine
 10
3700.050647641539
 20
3925.220431338589
 30
0.0
 11
3700.050647641539
 21
2425.220431338589
 31
0.0
  0
LINE
  5
540
330
EF
100
AcDbEntity
  8
OBJECT
100
AcDbLine
 10
3924.268528879409
 20
3925.220431338589
 30
0.0
 11
3924.268528879409
 21
2425.220431338589
 31
0.0
  0
LINE
  5
541
330
EF
100
AcDbEntity
  8
SAFETY
 48
5.0
100
AcDbLine
 10
6345.999998292626
 20
2034.000001299419
 30
-2200.0
 11
6345.999998292626
 21
4312.00000129942
 31
-2200.0
1001
AVE_FINISH
1002
{
1070
     0
1005
0
1002
}
  0
LINE
  5
542
330
EF
100
AcDbEntity
  8
OBJECT
100
AcDbLine
 10
4225.910262212592
 20
2173.091735994382
 30
-2200.0
 11
4225.910262212592
 21
4172.452332737406
 31
-2200.0
  0
LINE
  5
543
330
EF
100
AcDbEntity
  8
OBJECT
100
AcDbLine
 10
4325.910262212592
 20
2173.091735994382
 30
-2200.0
 11
4325.910262212592
 21
4172.452332737406
 31
-2200.0
  0
LINE
  5
544
330
EF
100
AcDbEntity
  8
OBJECT
100
AcDbLine
 10
3440.050647641538
 20
3925.220431338589
 30
0.0
 11
3440.050647641538
 21
2425.220431338589
 31
0.0
  0
LINE
  5
545
330
EF
100
AcDbEntity
  8
OBJECT
100
AcDbLine
 10
3180.050647641538
 20
3925.220431338589
 30
0.0
 11
3180.050647641538
 21
2425.220431338589
 31
0.0
  0
ARC
  5
546
330
EF
100
AcDbEntity
  8
SAFETY
 48
5.0
100
AcDbCircle
 10
4311.999998292626
 20
2034.000001299419
 30
-2200.0
 40
2034.0
100
AcDbArc
 50
270.0
 51
0.0
1001
AVE_FINISH
1002
{
1070
     0
1005
0
1002
}
  0
ARC
  5
547
330
EF
100
AcDbEntity
  8
OBJECT
100
AcDbCircle
 10
4275.910262212592
 20
2073.715287026911
 30
-2200.0
 40
292.2117270169092
100
AcDbArc
 50
99.85229368698595
 51
170.1477063130349
  0
ARC
  5
548
330
EF
100
AcDbEntity
  8
OBJECT
100
AcDbCircle
 10
4275.910262212592
 20
2073.715287026911
 30
-2200.0
 40
242.2117270169092
100
AcDbArc
 50
101.9132790842538
 51
168.0867209157514
  0
POLYLINE
  5
549
330
EF
100
AcDbEntity
  8
OBJECT
100
AcDb2dPolyline
 66
     1
 10
0.0
 20
0.0
 30
-2200.0
 70
     1
  0
VERTEX
  5
5A8
330
549
100
AcDbEntity
  8
OBJECT
100
AcDbVertex
100
AcDb2dVertex
 10
4375.325984148829
 20
2173.091735994382
 30
-2200.0
  0
VERTEX
  5
5A9
330
549
100
AcDbEntity
  8
OBJECT
100
AcDbVertex
100
AcDb2dVertex
 10
4176.494540276355
 20
2173.091735994382
 30
-2200.0
  0
VERTEX
  5
5AA
330
549
100
AcDbEntity
  8
OBJECT
100
AcDbVertex
100
AcDb2dVertex
 10
4176.494540276355
 20
1974.338838059439
 30
-2200.0
  0
VERTEX
  5
5AB
330
549
100
AcDbEntity
  8
OBJECT
100
AcDbVertex
100
AcDb2dVertex
 10
4375.325984148829
 20
1974.338838059439
 30
-2200.0
  0
SEQEND
  5
5AC
330
549
100
AcDbEntity
  8
OBJECT
  0
LINE
  5
54A
330
EF
100
AcDbEntity
  8
OBJECT
100
AcDbLine
 10
3924.268528879409
 20
2420.3236373932
 30
0.0
 11
4065.871509246376
 21
2276.868962008688
 31
0.0
  0
ARC
  5
54B
330
EF
100
AcDbEntity
  8
SAFETY
 48
5.0
100
AcDbCircle
 10
4311.999998292626
 20
4312.00000129942
 30
-2200.0
 40
2033.999999999999
100
AcDbArc
 50
0.0
 51
90.0
1001
AVE_FINISH
1002
{
1070
     0
1005
0
1002
}
  0
ARC
  5
54C
330
EF
100
AcDbEntity
  8
OBJECT
100
AcDbCircle
 10
4275.910262212592
 20
4271.828781704877
 30
-2200.0
 40
242.2117270169092
100
AcDbArc
 50
191.9132790842484
 51
258.0867209157462
  0
ARC
  5
54D
330
EF
100
AcDbEntity
  8
OBJECT
100
AcDbCircle
 10
4275.910262212592
 20
4271.828781704877
 30
-2200.0
 40
292.2117270169092
100
AcDbArc
 50
189.8522936869646
 51
260.1477063130139
  0
POLYLINE
  5
54E
330
EF
100
AcDbEntity
  8
OBJECT
100
AcDb2dPolyline
 66
     1
 10
0.0
 20
0.0
 30
-2200.0
 70
     1
  0
VERTEX
  5
5AD
330
54E
100
AcDbEntity
  8
OBJECT
100
AcDbVertex
100
AcDb2dVertex
 10
4375.325984148829
 20
4374.096019566738
 30
-2200.0
  0
VERTEX
  5
5AE
330
54E
100
AcDbEntity
  8
OBJECT
100
AcDbVertex
100
AcDb2dVertex
 10
4176.494540276355
 20
4374.096019566738
 30
-2200.0
  0
VERTEX
  5
5AF
330
54E
100
AcDbEntity
  8
OBJECT
100
AcDbVertex
100
AcDb2dVertex
 10
4176.494540276355
 20
4175.343121631793
 30
-2200.0
  0
VERTEX
  5
5B0
330
54E
100
AcDbEntity
  8
OBJECT
100
AcDbVertex
100
AcDb2dVertex
 10
4375.325984148829
 20
4175.343121631793
 30
-2200.0
  0
SEQEND
  5
5B1
330
54E
100
AcDbEntity
  8
OBJECT
  0
LINE
  5
54F
330
EF
100
AcDbEntity
  8
OBJECT
100
AcDbLine
 10
3924.268528879409
 20
3925.220431338589
 30
0.0
 11
4065.871509246376
 21
4068.675106723101
 31
0.0
  0
ENDBLK
  5
F1
330
EF
100
AcDbEntity
  8
0
100
AcDbBlockEnd
  0
BLOCK
  5
566
330
555
100
AcDbEntity
  8
0
100
AcDbBlockBegin
  2
*U1
 70
     1
 10
0.0
 20
0.0
 30
0.0
  3
*U1
  1

  0
SOLID
  5
556
330
555
100
AcDbEntity
  8
HATCH
  6
CONTINUOUS
 62
     5
100
AcDbTrace
 10
4104.64070755603
 20
2244.984841683472
 30
0.0
 11
3988.008033311521
 21
2123.71528702691
 31
0.0
 12
4038.915492851507
 22
2123.71528702691
 32
0.0
 13
4038.915492851507
 23
2123.71528702691
 33
0.0
  0
SOLID
  5
557
330
555
100
AcDbEntity
  8
HATCH
  6
CONTINUOUS
 62
     5
100
AcDbTrace
 10
2248.987776253657
 20
2244.984841683472
 30
0.0
 11
2314.71299095818
 21
2123.71528702691
 31
0.0
 12
2365.620450498166
 22
2123.71528702691
 32
0.0
 13
2365.620450498166
 23
2123.71528702691
 33
0.0
  0
SOLID
  5
558
330
555
100
AcDbEntity
  8
HATCH
  6
CONTINUOUS
 62
     5
100
AcDbTrace
 10
4069.285368496703
 20
2280.340180742799
 30
0.0
 11
3988.008033311521
 21
2123.71528702691
 31
0.0
 12
4104.64070755603
 22
2244.984841683472
 32
0.0
 13
4104.64070755603
 23
2244.984841683472
 33
0.0
  0
SOLID
  5
559
330
555
100
AcDbEntity
  8
HATCH
  6
CONTINUOUS
 62
     5
100
AcDbTrace
 10
2284.343115312984
 20
2280.340180742799
 30
0.0
 11
2248.987776253657
 21
2244.984841683472
 31
0.0
 12
2365.620450498166
 22
2123.71528702691
 32
0.0
 13
2365.620450498166
 23
2123.71528702691
 33
0.0
  0
SOLID
  5
55A
330
555
100
AcDbEntity
  8
HATCH
  6
CONTINUOUS
 62
     5
100
AcDbTrace
 10
2127.718221597095
 20
2310.710056387994
 30
0.0
 11
2248.987776253657
 21
2244.984841683472
 31
0.0
 12
2284.343115312984
 22
2280.340180742799
 32
0.0
 13
2284.343115312984
 23
2280.340180742799
 33
0.0
  0
SOLID
  5
55B
330
555
100
AcDbEntity
  8
HATCH
  6
CONTINUOUS
 62
     5
100
AcDbTrace
 10
4225.910262212592
 20
2310.710056387994
 30
0.0
 11
4069.285368496703
 21
2280.340180742799
 31
0.0
 12
4104.64070755603
 22
2244.984841683472
 32
0.0
 13
4104.64070755603
 23
2244.984841683472
 33
0.0
  0
SOLID
  5
55C
330
555
100
AcDbEntity
  8
HATCH
  6
CONTINUOUS
 62
     5
100
AcDbTrace
 10
2127.718221597095
 20
2361.617515927981
 30
0.0
 11
2127.718221597095
 21
2310.710056387994
 31
0.0
 12
2284.343115312984
 22
2280.340180742799
 32
0.0
 13
2284.343115312984
 23
2280.340180742799
 33
0.0
  0
SOLID
  5
55D
330
555
100
AcDbEntity
  8
HATCH
  6
CONTINUOUS
 62
     5
100
AcDbTrace
 10
4225.910262212592
 20
2361.617515927981
 30
0.0
 11
4069.285368496703
 21
2280.340180742799
 31
0.0
 12
4225.910262212592
 22
2310.710056387994
 32
0.0
 13
4225.910262212592
 23
2310.710056387994
 33
0.0
  0
SOLID
  5
55E
330
555
100
AcDbEntity
  8
HATCH
  6
CONTINUOUS
 62
     5
100
AcDbTrace
 10
2285.376972787659
 20
4066.24294449769
 30
0.0
 11
2127.718221597095
 21
4034.834012343792
 31
0.0
 12
2127.718221597095
 22
3983.926552803806
 32
0.0
 13
2127.718221597095
 23
3983.926552803806
 33
0.0
  0
SOLID
  5
55F
330
555
100
AcDbEntity
  8
HATCH
  6
CONTINUOUS
 62
     5
100
AcDbTrace
 10
4068.251511022027
 20
4066.24294449769
 30
0.0
 11
4225.910262212592
 21
3983.926552803806
 31
0.0
 12
4225.910262212592
 22
4034.834012343792
 32
0.0
 13
4225.910262212592
 23
4034.834012343792
 33
0.0
  0
SOLID
  5
560
330
555
100
AcDbEntity
  8
HATCH
  6
CONTINUOUS
 62
     5
100
AcDbTrace
 10
4103.600659540989
 20
4101.605629543755
 30
0.0
 11
4068.251511022027
 21
4066.24294449769
 31
0.0
 12
4225.910262212592
 22
4034.834012343792
 32
0.0
 13
4225.910262212592
 23
4034.834012343792
 33
0.0
  0
SOLID
  5
561
330
555
100
AcDbEntity
  8
HATCH
  6
CONTINUOUS
 62
     5
100
AcDbTrace
 10
2250.027824268698
 20
4101.605629543755
 30
0.0
 11
2127.718221597095
 21
4034.834012343792
 31
0.0
 12
2285.376972787659
 22
4066.24294449769
 32
0.0
 13
2285.376972787659
 23
4066.24294449769
 33
0.0
  0
SOLID
  5
562
330
555
100
AcDbEntity
  8
HATCH
  6
CONTINUOUS
 62
     5
100
AcDbTrace
 10
4103.600659540989
 20
4101.605629543755
 30
0.0
 11
4038.3239769739
 21
4224.719570599265
 31
0.0
 12
3987.520914914167
 22
4224.719570599265
 32
0.0
 13
3987.520914914167
 23
4224.719570599265
 33
0.0
  0
SOLID
  5
563
330
555
100
AcDbEntity
  8
HATCH
  6
CONTINUOUS
 62
     5
100
AcDbTrace
 10
3987.520914914167
 20
4224.719570599265
 30
0.0
 11
4068.251511022027
 21
4066.24294449769
 31
0.0
 12
4103.600659540989
 22
4101.605629543755
 32
0.0
 13
4103.600659540989
 23
4101.605629543755
 33
0.0
  0
SOLID
  5
564
330
555
100
AcDbEntity
  8
HATCH
  6
CONTINUOUS
 62
     5
100
AcDbTrace
 10
2250.027824268698
 20
4101.605629543755
 30
0.0
 11
2366.10756889552
 21
4224.719570599265
 31
0.0
 12
2315.304506835786
 22
4224.719570599265
 32
0.0
 13
2315.304506835786
 23
4224.719570599265
 33
0.0
  0
SOLID
  5
565
330
555
100
AcDbEntity
  8
HATCH
  6
CONTINUOUS
 62
     5
100
AcDbTrace
 10
2366.10756889552
 20
4224.719570599265
 30
0.0
 11
2250.027824268698
 21
4101.605629543755
 31
0.0
 12
2285.376972787659
 22
4066.24294449769
 32
0.0
 13
2285.376972787659
 23
4066.24294449769
 33
0.0
  0
ENDBLK
  5
567
330
555
100
AcDbEntity
  8
0
100
AcDbBlockEnd
  0
BLOCK
  5
571
330
568
100
AcDbEntity
  8
0
100
AcDbBlockBegin
  2
*U2
 70
     1
 10
0.0
 20
0.0
 30
0.0
  3
*U2
  1

  0
SOLID
  5
569
330
568
100
AcDbEntity
  8
HATCH
  6
CONTINUOUS
 62
     2
100
AcDbTrace
 10
1978.302499660857
 20
1974.338838059439
 30
0.0
 11
2177.133943533332
 21
2173.091735994382
 31
0.0
 12
1978.302499660857
 22
2173.091735994382
 32
0.0
 13
1978.302499660857
 23
2173.091735994382
 33
0.0
  0
SOLID
  5
56A
330
568
100
AcDbEntity
  8
HATCH
  6
CONTINUOUS
 62
     2
100
AcDbTrace
 10
2177.133943533332
 20
2173.091735994382
 30
0.0
 11
1978.302499660857
 21
1974.338838059439
 31
0.0
 12
2177.133943533332
 22
1974.338838059439
 32
0.0
 13
2177.133943533332
 23
1974.338838059439
 33
0.0
  0
SOLID
  5
56B
330
568
100
AcDbEntity
  8
HATCH
  6
CONTINUOUS
 62
     2
100
AcDbTrace
 10
4375.325984148829
 20
1974.338838059439
 30
0.0
 11
4375.325984148828
 21
2173.091735994382
 31
0.0
 12
4176.494540276355
 22
2173.091735994382
 32
0.0
 13
4176.494540276355
 23
2173.091735994382
 33
0.0
  0
SOLID
  5
56C
330
568
100
AcDbEntity
  8
HATCH
  6
CONTINUOUS
 62
     2
100
AcDbTrace
 10
4176.494540276355
 20
2173.091735994382
 30
0.0
 11
4176.494540276355
 21
1974.338838059439
 31
0.0
 12
4375.325984148829
 22
1974.338838059439
 32
0.0
 13
4375.325984148829
 23
1974.338838059439
 33
0.0
  0
SOLID
  5
56D
330
568
100
AcDbEntity
  8
HATCH
  6
CONTINUOUS
 62
     2
100
AcDbTrace
 10
2177.133943533332
 20
4374.096019566738
 30
0.0
 11
1978.302499660857
 21
4175.343121631793
 31
0.0
 12
2177.133943533331
 22
4175.343121631793
 32
0.0
 13
2177.133943533331
 23
4175.343121631793
 33
0.0
  0
SOLID
  5
56E
330
568
100
AcDbEntity
  8
HATCH
  6
CONTINUOUS
 62
     2
100
AcDbTrace
 10
1978.302499660857
 20
4374.096019566738
 30
0.0
 11
1978.302499660857
 21
4175.343121631793
 31
0.0
 12
2177.133943533332
 22
4374.096019566738
 32
0.0
 13
2177.133943533332
 23
4374.096019566738
 33
0.0
  0
SOLID
  5
56F
330
568
100
AcDbEntity
  8
HATCH
  6
CONTINUOUS
 62
     2
100
AcDbTrace
 10
4176.494540276355
 20
4374.096019566738
 30
0.0
 11
4176.494540276355
 21
4175.343121631793
 31
0.0
 12
4375.325984148829
 22
4175.343121631793
 32
0.0
 13
4375.325984148829
 23
4175.343121631793
 33
0.0
  0
SOLID
  5
570
330
568
100
AcDbEntity
  8
HATCH
  6
CONTINUOUS
 62
     2
100
AcDbTrace
 10
4375.325984148829
 20
4374.096019566738
 30
0.0
 11
4176.494540276355
 21
4374.096019566738
 31
0.0
 12
4375.325984148829
 22
4175.343121631793
 32
0.0
 13
4375.325984148829
 23
4175.343121631793
 33
0.0
  0
ENDBLK
  5
572
330
568
100
AcDbEntity
  8
0
100
AcDbBlockEnd
  0
BLOCK
  5
57C
330
573
100
AcDbEntity
  8
0
100
AcDbBlockBegin
  2
*U3
 70
     1
 10
0.0
 20
0.0
 30
0.0
  3
*U3
  1

  0
SOLID
  5
574
330
573
100
AcDbEntity
  8
HATCH
  6
CONTINUOUS
 62
     1
100
AcDbTrace
 10
4176.494540276355
 20
2123.715287026909
 30
0.0
 11
2177.133943533332
 21
2023.715287026911
 31
0.0
 12
4176.494540276355
 22
2023.715287026911
 32
0.0
 13
4176.494540276355
 23
2023.715287026911
 33
0.0
  0
SOLID
  5
575
330
573
100
AcDbEntity
  8
HATCH
  6
CONTINUOUS
 62
     1
100
AcDbTrace
 10
2177.133943533332
 20
2123.71528702691
 30
0.0
 11
2177.133943533332
 21
2023.715287026911
 31
0.0
 12
4176.494540276355
 22
2123.715287026909
 32
0.0
 13
4176.494540276355
 23
2123.715287026909
 33
0.0
  0
SOLID
  5
576
330
573
100
AcDbEntity
  8
HATCH
  6
CONTINUOUS
 62
     1
100
AcDbTrace
 10
4325.910262212592
 20
2173.091735994382
 30
0.0
 11
4325.910262212592
 21
4175.343121631793
 31
0.0
 12
4225.910262212592
 22
4175.343121631793
 32
0.0
 13
4225.910262212592
 23
4175.343121631793
 33
0.0
  0
SOLID
  5
577
330
573
100
AcDbEntity
  8
HATCH
  6
CONTINUOUS
 62
     1
100
AcDbTrace
 10
4225.910262212592
 20
4175.343121631793
 30
0.0
 11
4225.910262212592
 21
2173.091735994382
 31
0.0
 12
4325.910262212592
 22
2173.091735994382
 32
0.0
 13
4325.910262212592
 23
2173.091735994382
 33
0.0
  0
SOLID
  5
578
330
573
100
AcDbEntity
  8
HATCH
  6
CONTINUOUS
 62
     1
100
AcDbTrace
 10
2127.718221597095
 20
2173.091735994382
 30
0.0
 11
2127.718221597095
 21
4175.343121631793
 31
0.0
 12
2027.718221597095
 22
4175.343121631793
 32
0.0
 13
2027.718221597095
 23
4175.343121631793
 33
0.0
  0
SOLID
  5
579
330
573
100
AcDbEntity
  8
HATCH
  6
CONTINUOUS
 62
     1
100
AcDbTrace
 10
2027.718221597095
 20
4175.343121631793
 30
0.0
 11
2027.718221597095
 21
2173.091735994382
 31
0.0
 12
2127.718221597095
 22
2173.091735994382
 32
0.0
 13
2127.718221597095
 23
2173.091735994382
 33
0.0
  0
SOLID
  5
57A
330
573
100
AcDbEntity
  8
HATCH
  6
CONTINUOUS
 62
     1
100
AcDbTrace
 10
4176.494540276355
 20
4224.719570599265
 30
0.0
 11
4176.494540276355
 21
4324.719570599265
 31
0.0
 12
2177.133943533332
 22
4324.719570599265
 32
0.0
 13
2177.133943533332
 23
4324.719570599265
 33
0.0
  0
SOLID
  5
57B
330
573
100
AcDbEntity
  8
HATCH
  6
CONTINUOUS
 62
     1
100
AcDbTrace
 10
2177.133943533332
 20
4324.719570599265
 30
0.0
 11
2177.133943533332
 21
4224.719570599265
 31
0.0
 12
4176.494540276355
 22
4224.719570599265
 32
0.0
 13
4176.494540276355
 23
4224.719570599265
 33
0.0
  0
ENDBLK
  5
57D
330
573
100
AcDbEntity
  8
0
100
AcDbBlockEnd
  0
ENDSEC
  0
SECTION
  2
ENTITIES
  0
INSERT
  5
550
330
1F
100
AcDbEntity
  8
HATCH
100
AcDbBlockReference
  2
TBKA
 10
0.0
 20
0.0
 30
0.0
  0
ENDSEC
  0
SECTION
  2
OBJECTS
  0
DICTIONARY
  5
C
330
0
100
AcDbDictionary
  3
ACAD_GROUP
350
D
  3
ACAD_LAYOUT
350
1A
  3
ACAD_MLINESTYLE
350
17
  3
ACAD_PLOTSETTINGS
350
19
1001
ACAD
1000
TREAT_AS_HARD
1070
     0
1000
TREAT_AS_HARD
1070
     0
  0
DICTIONARY
  5
E3
330
1F
100
AcDbDictionary
  3
ACAD_LAYOUTSELFREF
350
59B
  3
ACAD_SORTENTS
350
438
1001
ACAD
1000
TREAT_AS_HARD
1070
     1
1000
TREAT_AS_HARD
1070
     0
  0
DICTIONARY
  5
E5
330
50
100
AcDbDictionary
  3
ACAD_LAYOUTSELFREF
350
59C
1001
ACAD
1000
TREAT_AS_HARD
1070
     1
1000
TREAT_AS_HARD
1070
     0
  0
DICTIONARY
  5
D
102
{ACAD_REACTORS
330
C
102
}
330
C
100
AcDbDictionary
1001
ACAD
1000
TREAT_AS_HARD
1070
     0
1000
TREAT_AS_HARD
1070
     0
  0
DICTIONARY
  5
1A
102
{ACAD_REACTORS
330
C
102
}
330
C
100
AcDbDictionary
1001
ACAD
1000
TREAT_AS_HARD
1070
     0
1000
TREAT_AS_HARD
1070
     0
  0
DICTIONARY
  5
17
102
{ACAD_REACTORS
330
C
102
}
330
C
100
AcDbDictionary
  3
STANDARD
350
18
1001
ACAD
1000
TREAT_AS_HARD
1070
     0
1000
TREAT_AS_HARD
1070
     0
  0
DICTIONARY
  5
19
102
{ACAD_REACTORS
330
C
102
}
330
C
100
AcDbDictionary
1001
ACAD
1000
TREAT_AS_HARD
1070
     0
1000
TREAT_AS_HARD
1070
     0
  0
XRECORD
  5
59B
102
{ACAD_REACTORS
330
E3
102
}
330
E3
100
AcDbXrecord
340
1F
  0
SORTENTSTABLE
  5
438
102
{ACAD_REACTORS
330
E3
102
}
330
E3
100
AcDbSortentsTable
330
1F
331
4F1
  5
4F1
331
4FB
  5
4FB
331
4FE
  5
4FE
331
502
  5
502
331
4F7
  5
4F7
331
51A
  5
51A
331
51D
  5
51D
331
510
  5
510
331
508
  5
508
331
505
  5
505
331
4F4
  5
4F4
331
4F8
  5
4F8
331
50B
  5
50B
331
516
  5
516
331
50E
  5
50E
331
513
  5
513
331
120
  5
20E
331
4F3
  5
4F3
331
4FD
  5
4FD
331
519
  5
519
331
504
  5
504
331
501
  5
501
331
51C
  5
51C
331
512
  5
512
331
50A
  5
50A
331
507
  5
507
331
4F6
  5
4F6
331
4FA
  5
4FA
331
50D
  5
50D
331
20E
  5
120
331
515
  5
515
331
4F9
  5
4F9
331
4F2
  5
4F2
331
4F5
  5
4F5
331
500
  5
500
331
518
  5
518
331
4FF
  5
4FF
331
51B
  5
51B
331
506
  5
506
331
503
  5
503
331
51E
  5
51E
331
509
  5
509
331
514
  5
514
331
517
  5
517
331
50F
  5
50F
331
50C
  5
50C
331
511
  5
511
331
4FC
  5
4FC
  0
XRECORD
  5
59C
102
{ACAD_REACTORS
330
E5
102
}
330
E5
100
AcDbXrecord
340
50
  0
MLINESTYLE
  5
18
102
{ACAD_REACTORS
330
17
102
}
330
17
100
AcDbMlineStyle
  2
STANDARD
 70
     0
  3

 62
   256
 51
90.0
 52
90.0
 71
     2
 49
0.5
 62
   256
  6
BYLAYER
 49
-0.5
 62
   256
  6
BYLAYER
  0
ENDSEC
  0
EOF
