  0
SECTION
  2
HEADER
  9
$ACADVER
  1
AC1012
  9
$DWGCODEPAGE
  3
ANSI_1252
  9
$INSBASE
 10
0.0
 20
0.0
 30
0.0
  9
$EXTMIN
 10
30.59989512597462
 20
22.04537459643006
 30
-0.0015258207003583
  9
$EXTMAX
 10
7929.251157252612
 20
5109.425058816652
 30
0.0000000349246037
  9
$LIMMIN
 10
0.0
 20
0.0
  9
$LIMMAX
 10
420.0
 20
297.0
  9
$ORTHOMODE
 70
     0
  9
$REGENMODE
 70
     1
  9
$FILLMODE
 70
     1
  9
$QTEXTMODE
 70
     0
  9
$MIRRTEXT
 70
     1
  9
$DRAGMODE
 70
     2
  9
$LTSCALE
 40
1.0
  9
$OSMODE
 70
  2559
  9
$ATTMODE
 70
     1
  9
$TEXTSIZE
 40
2.5
  9
$TRACEWID
 40
1.0
  9
$TEXTSTYLE
  7
STANDARD
  9
$CLAYER
  8
HATCH
  9
$CELTYPE
  6
BYLAYER
  9
$CECOLOR
 62
   256
  9
$CELTSCALE
 40
1.0
  9
$DELOBJ
 70
     1
  9
$DISPSILH
 70
     0
  9
$DIMSCALE
 40
1.0
  9
$DIMASZ
 40
2.5
  9
$DIMEXO
 40
0.625
  9
$DIMDLI
 40
3.75
  9
$DIMRND
 40
0.0
  9
$DIMDLE
 40
0.0
  9
$DIMEXE
 40
1.25
  9
$DIMTP
 40
0.0
  9
$DIMTM
 40
0.0
  9
$DIMTXT
 40
2.5
  9
$DIMCEN
 40
2.5
  9
$DIMTSZ
 40
0.0
  9
$DIMTOL
 70
     0
  9
$DIMLIM
 70
     0
  9
$DIMTIH
 70
     0
  9
$DIMTOH
 70
     0
  9
$DIMSE1
 70
     0
  9
$DIMSE2
 70
     0
  9
$DIMTAD
 70
     1
  9
$DIMZIN
 70
     8
  9
$DIMBLK
  1

  9
$DIMASO
 70
     1
  9
$DIMSHO
 70
     1
  9
$DIMPOST
  1

  9
$DIMAPOST
  1

  9
$DIMALT
 70
     0
  9
$DIMALTD
 70
     3
  9
$DIMALTF
 40
0.03937007874016
  9
$DIMLFAC
 40
1.0
  9
$DIMTOFL
 70
     1
  9
$DIMTVP
 40
0.0
  9
$DIMTIX
 70
     0
  9
$DIMSOXD
 70
     0
  9
$DIMSAH
 70
     0
  9
$DIMBLK1
  1

  9
$DIMBLK2
  1

  9
$DIMSTYLE
  2
ISO-25
  9
$DIMCLRD
 70
     0
  9
$DIMCLRE
 70
     0
  9
$DIMCLRT
 70
     0
  9
$DIMTFAC
 40
1.0
  9
$DIMGAP
 40
0.625
  9
$DIMJUST
 70
     0
  9
$DIMSD1
 70
     0
  9
$DIMSD2
 70
     0
  9
$DIMTOLJ
 70
     0
  9
$DIMTZIN
 70
     8
  9
$DIMALTZ
 70
     0
  9
$DIMALTTZ
 70
     0
  9
$DIMFIT
 70
     3
  9
$DIMUPT
 70
     0
  9
$DIMUNIT
 70
     2
  9
$DIMDEC
 70
     2
  9
$DIMTDEC
 70
     2
  9
$DIMALTU
 70
     2
  9
$DIMALTTD
 70
     3
  9
$DIMTXSTY
  7
STANDARD
  9
$DIMAUNIT
 70
     0
  9
$LUNITS
 70
     2
  9
$LUPREC
 70
     4
  9
$SKETCHINC
 40
1.0
  9
$FILLETRAD
 40
10.0
  9
$AUNITS
 70
     0
  9
$AUPREC
 70
     0
  9
$MENU
  1
.
  9
$ELEVATION
 40
0.0
  9
$PELEVATION
 40
0.0
  9
$THICKNESS
 40
0.0
  9
$LIMCHECK
 70
     0
  9
$BLIPMODE
 70
     0
  9
$CHAMFERA
 40
10.0
  9
$CHAMFERB
 40
10.0
  9
$CHAMFERC
 40
20.0
  9
$CHAMFERD
 40
0.0
  9
$SKPOLY
 70
     0
  9
$TDCREATE
 40
2452717.329634953
  9
$TDUPDATE
 40
2452776.493068750
  9
$TDINDWG
 40
0.0044950231
  9
$TDUSRTIMER
 40
0.0044950231
  9
$USRTIMER
 70
     1
  9
$ANGBASE
 50
0.0
  9
$ANGDIR
 70
     0
  9
$PDMODE
 70
     0
  9
$PDSIZE
 40
0.0
  9
$PLINEWID
 40
0.0
  9
$COORDS
 70
     2
  9
$SPLFRAME
 70
     0
  9
$SPLINETYPE
 70
     6
  9
$SPLINESEGS
 70
     8
  9
$ATTDIA
 70
     0
  9
$ATTREQ
 70
     1
  9
$HANDLING
 70
-16383
  9
$HANDSEED
  5
39B
  9
$SURFTAB1
 70
     6
  9
$SURFTAB2
 70
     6
  9
$SURFTYPE
 70
     6
  9
$SURFU
 70
     6
  9
$SURFV
 70
     6
  9
$UCSNAME
  2

  9
$UCSORG
 10
0.0
 20
0.0
 30
0.0
  9
$UCSXDIR
 10
1.0
 20
0.0
 30
0.0
  9
$UCSYDIR
 10
0.0
 20
1.0
 30
0.0
  9
$PUCSNAME
  2

  9
$PUCSORG
 10
0.0
 20
0.0
 30
0.0
  9
$PUCSXDIR
 10
1.0
 20
0.0
 30
0.0
  9
$PUCSYDIR
 10
0.0
 20
1.0
 30
0.0
  9
$USERI1
 70
     0
  9
$USERI2
 70
     0
  9
$USERI3
 70
     0
  9
$USERI4
 70
     0
  9
$USERI5
 70
     0
  9
$USERR1
 40
0.0
  9
$USERR2
 40
0.0
  9
$USERR3
 40
0.0
  9
$USERR4
 40
0.0
  9
$USERR5
 40
0.0
  9
$WORLDVIEW
 70
     1
  9
$SHADEDGE
 70
     3
  9
$SHADEDIF
 70
    70
  9
$TILEMODE
 70
     1
  9
$MAXACTVP
 70
    64
  9
$PINSBASE
 10
0.0
 20
0.0
 30
0.0
  9
$PLIMCHECK
 70
     0
  9
$PEXTMIN
 10
0.0
 20
0.0
 30
0.0
  9
$PEXTMAX
 10
0.0
 20
0.0
 30
0.0
  9
$PLIMMIN
 10
0.0
 20
0.0
  9
$PLIMMAX
 10
12.0
 20
9.0
  9
$UNITMODE
 70
     0
  9
$VISRETAIN
 70
     1
  9
$PLINEGEN
 70
     0
  9
$PSLTSCALE
 70
     1
  9
$TREEDEPTH
 70
  3020
  9
$PICKSTYLE
 70
     1
  9
$CMLSTYLE
  2
STANDARD
  9
$CMLJUST
 70
     0
  9
$CMLSCALE
 40
20.0
  9
$SAVEIMAGES
 70
     1
  0
ENDSEC
  0
SECTION
  2
CLASSES
  0
CLASS
  1
ACDBDICTIONARYWDFLT
  2
AcDbDictionaryWithDefault
  3
AutoCAD 2000
 90
    32768
280
     0
281
     0
  0
CLASS
  1
ACDBPLACEHOLDER
  2
AcDbPlaceHolder
  3
AutoCAD 2000
 90
    32768
280
     0
281
     0
  0
CLASS
  1
LAYOUT
  2
AcDbLayout
  3
AutoCAD 2000
 90
    32768
280
     0
281
     0
  0
CLASS
  1
LONG_TRANSACTION
  2
AcDbLongTransaction
  3
AutoCAD 2000
 90
    32768
280
     0
281
     0
  0
CLASS
  1
LWPOLYLINE
  2
AcDbPolyline
  3
AutoCAD 2000
 90
    32768
280
     0
281
     1
  0
CLASS
  1
HATCH
  2
AcDbHatch
  3
AutoCAD 2000
 90
    32768
280
     0
281
     1
  0
CLASS
  1
XRECORD
  2
AcDbXrecord
  3
AutoCAD 2000
 90
    32768
280
     0
281
     0
  0
CLASS
  1
DICTIONARYVAR
  2
AcDbDictionaryVar
  3
AutoCAD 2000
 90
    32768
280
     0
281
     0
  0
CLASS
  1
SORTENTSTABLE
  2
AcDbSortentsTable
  3
AutoCAD 2000
 90
    32768
280
     0
281
     0
  0
CLASS
  1
LONG_TRANSACTION
  2
AcDbLongTransaction
  3
AutoCAD 2000
 90
    32768
280
     0
281
     0
  0
CLASS
  1
LWPOLYLINE
  2
AcDbPolyline
  3
AutoCAD 2000
 90
    32768
280
     0
281
     1
  0
CLASS
  1
HATCH
  2
AcDbHatch
  3
AutoCAD 2000
 90
    32768
280
     0
281
     1
  0
CLASS
  1
XRECORD
  2
AcDbXrecord
  3
AutoCAD 2000
 90
    32768
280
     0
281
     0
  0
ENDSEC
  0
SECTION
  2
TABLES
  0
TABLE
  2
VPORT
  5
8
330
0
100
AcDbSymbolTable
 70
     2
  0
VPORT
  5
354
330
8
100
AcDbSymbolTableRecord
100
AcDbViewportTableRecord
  2
*ACTIVE
 70
     0
 10
0.0
 20
0.0
 11
1.0
 21
1.0
 12
4826.610465282678
 22
6528.42191115318
 13
0.0
 23
0.0
 14
10.0
 24
10.0
 15
10.0
 25
10.0
 16
0.0
 26
0.0
 36
1.0
 17
0.0
 27
0.0
 37
0.0
 40
19800.43041228154
 41
1.47227533460803
 42
50.0
 43
0.0
 44
0.0
 50
0.0
 51
0.0
 71
     0
 72
   100
 73
     1
 74
     3
 75
     0
 76
     0
 77
     0
 78
     0
  0
ENDTAB
  0
TABLE
  2
LTYPE
  5
5
330
0
100
AcDbSymbolTable
 70
     1
  0
LTYPE
  5
14
330
5
100
AcDbSymbolTableRecord
100
AcDbLinetypeTableRecord
  2
BYBLOCK
 70
     0
  3

 72
    65
 73
     0
 40
0.0
  0
LTYPE
  5
15
330
5
100
AcDbSymbolTableRecord
100
AcDbLinetypeTableRecord
  2
BYLAYER
 70
     0
  3

 72
    65
 73
     0
 40
0.0
  0
LTYPE
  5
16
330
5
100
AcDbSymbolTableRecord
100
AcDbLinetypeTableRecord
  2
CONTINUOUS
 70
     0
  3
Solid line
 72
    65
 73
     0
 40
0.0
  0
ENDTAB
  0
TABLE
  2
LAYER
  5
2
330
0
100
AcDbSymbolTable
 70
     5
  0
LAYER
  5
10
330
2
100
AcDbSymbolTableRecord
100
AcDbLayerTableRecord
  2
0
 70
     0
 62
     7
  6
CONTINUOUS
  0
LAYER
  5
6F
330
2
100
AcDbSymbolTableRecord
100
AcDbLayerTableRecord
  2
DEFPOINTS
 70
     0
 62
     7
  6
CONTINUOUS
  0
LAYER
  5
70
330
2
100
AcDbSymbolTableRecord
100
AcDbLayerTableRecord
  2
AM_VIS
 70
     2
 62
     7
  6
CONTINUOUS
  0
LAYER
  5
71
330
2
100
AcDbSymbolTableRecord
100
AcDbLayerTableRecord
  2
TEKST
 70
     0
 62
     7
  6
CONTINUOUS
  0
LAYER
  5
293
330
2
100
AcDbSymbolTableRecord
100
AcDbLayerTableRecord
  2
HATCH
 70
     0
 62
     7
  6
CONTINUOUS
  0
ENDTAB
  0
TABLE
  2
STYLE
  5
3
330
0
100
AcDbSymbolTable
 70
     1
  0
STYLE
  5
11
330
3
100
AcDbSymbolTableRecord
100
AcDbTextStyleTableRecord
  2
STANDARD
 70
     0
 40
0.0
 41
1.0
 50
0.0
 71
     0
 42
2.5
  3
txt
  4

  0
ENDTAB
  0
TABLE
  2
VIEW
  5
6
330
0
100
AcDbSymbolTable
 70
     0
  0
ENDTAB
  0
TABLE
  2
UCS
  5
7
330
0
100
AcDbSymbolTable
 70
     0
  0
ENDTAB
  0
TABLE
  2
APPID
  5
9
330
0
100
AcDbSymbolTable
 70
     2
  0
APPID
  5
12
330
9
100
AcDbSymbolTableRecord
100
AcDbRegAppTableRecord
  2
ACAD
 70
     0
  0
APPID
  5
357
330
9
100
AcDbSymbolTableRecord
100
AcDbRegAppTableRecord
  2
CONTENTBLOCKICON
 70
     0
  0
ENDTAB
  0
TABLE
  2
DIMSTYLE
  5
A
330
0
100
AcDbSymbolTable
 70
     3
  0
DIMSTYLE
105
27
330
A
100
AcDbSymbolTableRecord
100
AcDbDimStyleTableRecord
  2
ISO-25
 70
     0
  3

  4

  5

  6

  7

 40
1.0
 41
2.5
 42
0.625
 43
3.75
 44
1.25
 45
0.0
 46
0.0
 47
0.0
 48
0.0
140
2.5
141
2.5
142
0.0
143
0.03937007874016
144
1.0
145
0.0
146
1.0
147
0.625
 71
     0
 72
     0
 73
     0
 74
     0
 75
     0
 76
     0
 77
     1
 78
     8
170
     0
171
     3
172
     1
173
     0
174
     0
175
     0
176
     0
177
     0
178
     0
270
     2
271
     2
272
     2
273
     2
274
     3
340
11
275
     0
280
     0
281
     0
282
     0
283
     0
284
     8
285
     0
286
     0
287
     3
288
     0
  0
DIMSTYLE
105
72
330
A
100
AcDbSymbolTableRecord
100
AcDbDimStyleTableRecord
  2
SAFETY
 70
     0
  3

  4

  5

  6

  7

 40
50.0
 41
2.5
 42
2.0
 43
0.5
 44
1.0
 45
0.0
 46
0.0
 47
0.0
 48
0.0
140
2.5
141
0.09
142
0.0
143
25.4
144
1.0
145
0.0
146
1.0
147
0.5
 71
     0
 72
     0
 73
     0
 74
     0
 75
     0
 76
     0
 77
     1
 78
     8
170
     0
171
     2
172
     1
173
     0
174
     0
175
     0
176
     1
177
     1
178
     1
270
     2
271
     0
272
     0
273
     2
274
     2
340
11
275
     0
280
     0
281
     0
282
     0
283
     1
284
     0
285
     0
286
     0
287
     3
288
     0
  0
DIMSTYLE
105
73
330
A
100
AcDbSymbolTableRecord
100
AcDbDimStyleTableRecord
  2
PARTS
 70
     0
  3
cm
  4

  5

  6

  7

 40
35.0
 41
2.5
 42
2.0
 43
0.5
 44
1.0
 45
0.0
 46
0.0
 47
0.0
 48
0.0
140
2.5
141
0.09
142
0.0
143
25.4
144
0.1
145
0.0
146
1.0
147
0.5
 71
     0
 72
     0
 73
     0
 74
     0
 75
     0
 76
     0
 77
     1
 78
     8
170
     0
171
     2
172
     1
173
     0
174
     0
175
     0
176
     1
177
     1
178
     7
270
     2
271
     0
272
     0
273
     2
274
     2
340
11
275
     0
280
     0
281
     0
282
     0
283
     1
284
     0
285
     0
286
     0
287
     3
288
     0
  0
ENDTAB
  0
TABLE
  2
BLOCK_RECORD
  5
1
330
0
100
AcDbSymbolTable
 70
     7
  0
BLOCK_RECORD
  5
1F
102
{ACAD_XDICTIONARY
360
216
102
}
330
1
100
AcDbSymbolTableRecord
100
AcDbBlockTableRecord
  2
*MODEL_SPACE
  0
BLOCK_RECORD
  5
50
102
{ACAD_XDICTIONARY
360
218
102
}
330
1
100
AcDbSymbolTableRecord
100
AcDbBlockTableRecord
  2
*PAPER_SPACE
  0
BLOCK_RECORD
  5
5D
330
1
100
AcDbSymbolTableRecord
100
AcDbBlockTableRecord
  2
*D0
  0
BLOCK_RECORD
  5
66
330
1
100
AcDbSymbolTableRecord
100
AcDbBlockTableRecord
  2
*D1
  0
BLOCK_RECORD
  5
1F7
330
1
100
AcDbSymbolTableRecord
100
AcDbBlockTableRecord
  2
*D2
  0
BLOCK_RECORD
  5
200
330
1
100
AcDbSymbolTableRecord
100
AcDbBlockTableRecord
  2
*D3
  0
BLOCK_RECORD
  5
295
330
1
100
AcDbSymbolTableRecord
100
AcDbBlockTableRecord
  2
FBKC
1001
CONTENTBLOCKICON
1071
        0
1004
28000000200000002000000001000800000000000004000000000000000000000000000000000000000000004000000080000000FF000000002000004020000080200000FF200000004000004040000080400000FF400000006000004060000080600000FF600000008000004080000080800000FF80000000A0000040A000
1004
0080A00000FFA0000000C0000040C0000080C00000FFC0000000FF000040FF000080FF0000FFFF0000000020004000200080002000FF002000002020004020200080202000FF202000004020004040200080402000FF402000006020004060200080602000FF602000008020004080200080802000FF80200000A0200040A0
1004
200080A02000FFA0200000C0200040C0200080C02000FFC0200000FF200040FF200080FF2000FFFF2000000040004000400080004000FF004000002040004020400080204000FF204000004040004040400080404000FF404000006040004060400080604000FF604000008040004080400080804000FF80400000A0400040
1004
A0400080A04000FFA0400000C0400040C0400080C04000FFC0400000FF400040FF400080FF4000FFFF4000000060004000600080006000FF006000002060004020600080206000FF206000004060004040600080406000FF406000006060004060600080606000FF606000008060004080600080806000FF80600000A06000
1004
40A0600080A06000FFA0600000C0600040C0600080C06000FFC0600000FF600040FF600080FF6000FFFF6000000080004000800080008000FF008000002080004020800080208000FF208000004080004040800080408000FF408000006080004060800080608000FF608000008080004080800080808000FF80800000A080
1004
0040A0800080A08000FFA0800000C0800040C0800080C08000FFC0800000FF800040FF800080FF8000FFFF80000000A0004000A0008000A000FF00A0000020A0004020A0008020A000FF20A0000040A0004040A0008040A000FF40A0000060A0004060A0008060A000FF60A0000080A0004080A0008080A000FF80A00000A0
1004
A00040A0A00080A0A000FFA0A00000C0A00040C0A00080C0A000FFC0A00000FFA00040FFA00080FFA000FFFFA0000000C0004000C0008000C000FF00C0000020C0004020C0008020C000FF20C0000040C0004040C0008040C000FF40C0000060C0004060C0008060C000FF60C0000080C0004080C0008080C000FF80C00000
1004
A0C00040A0C00080A0C000FFA0C00000C0C00040C0C00080C0C000FFC0C00000FFC00040FFC00080FFC000FFFFC0000000FF004000FF008000FF00FF00FF000020FF004020FF008020FF00FF20FF000040FF004040FF008040FF00FF40FF000060FF004060FF008060FF00FF60FF000080FF004080FF008080FF00FF80FF00
1004
00A0FF0040A0FF0080A0FF00FFA0FF0000C0FF0040C0FF0080C0FF00FFC0FF0000FFFF0040FFFF0080FFFF00FFFFFF0000000000000000000000000000000000000000000000000000000000000000000000000000000000000000000000000000000000000000000000000000000000000000000000000000000000000000
1004
00000000000000000000000000000000000000000000000000000000000000000000000000000000000000000000000000000000000000000000000000000000000000000000000000000000000000000000000000000000000000000000000000000000000000000000000000000000000000000000000000000000000000
1004
000000000000000000000000000000000000000000000000000000FFFFFFFFFFFFFFFF00000000000000000000000000000000000000000000FFFF0000000000000000FFFFFFFF0000000000000000000000000000000000FF0000000000000000000000000000FFFFFFFF000000000000000000000000FF00000000000000
1004
000000000000000000000000FFFF000000000000000000FF00000000000000000000000000000000000000000000FF000000000000FFFF000000000000000000000000000000000000000000000000FFFF00000000FF0000000000000000000000000000000000000000000000000000FF00000000FF000000000000000000
1004
0000000000000000000000000000000000FF000000FF00000000004949494949494949494949494949494949490000000000FF000000FF000000004949494949494949494949494949494949490000000000FF000000FF0000000000000000000000000000000000000000000000000000FF00000000FF0000000000000000
1004
000000000000000000000000000000000000FF00000000FF0000000000000000000000000000000000000000000000000000FF0000000000FFFF00000000000000000000000000000000000000000000FFFF0000000000000000FF00000000000000000000000000000000000000FFFF0000000000000000000000FF000000
1004
000000000000000000000000FFFFFF0000000000000000000000000000FFFF000000000000000000FFFFFFFF00000000000000000000000000000000000000FFFFFFFFFFFFFFFFFF00000000000000000000000000000000000000000000000000000000000000000000000000000000000000000000000000000000000000
1004
00000000000000000000000000000000000000000000000000000000000000000000000000000000000000000000000000000000000000000000000000000000000000000000000000000000000000000000000000000000000000000000000000000000000000000000000000000000000000000000000000000000000000
1004
0000000000000000000000000000000000000000000000000000000000000000000000000000000000000000000000000000000000000000
  0
BLOCK_RECORD
  5
358
330
1
100
AcDbSymbolTableRecord
100
AcDbBlockTableRecord
  2
*U5
  0
BLOCK_RECORD
  5
35F
330
1
100
AcDbSymbolTableRecord
100
AcDbBlockTableRecord
  2
*U6
  0
ENDTAB
  0
ENDSEC
  0
SECTION
  2
BLOCKS
  0
BLOCK
  5
20
330
1F
100
AcDbEntity
  8
0
100
AcDbBlockBegin
  2
*MODEL_SPACE
 70
     0
 10
0.0
 20
0.0
 30
0.0
  3
*MODEL_SPACE
  1

  0
ENDBLK
  5
21
330
1F
100
AcDbEntity
  8
0
100
AcDbBlockEnd
  0
BLOCK
  5
52
330
50
100
AcDbEntity
 67
     1
  8
0
100
AcDbBlockBegin
  2
*PAPER_SPACE
 70
     0
 10
0.0
 20
0.0
 30
0.0
  3
*PAPER_SPACE
  1

  0
ENDBLK
  5
53
330
50
100
AcDbEntity
 67
     1
  8
0
100
AcDbBlockEnd
  0
BLOCK
  5
64
330
5D
100
AcDbEntity
  8
0
100
AcDbBlockBegin
  2
*D0
 70
     1
 10
0.0
 20
0.0
 30
0.0
  3
*D0
  1

  0
LINE
  5
5E
330
5D
100
AcDbEntity
  8
AM_VIS
 62
     1
100
AcDbLine
 10
13022.45304351307
 20
3097.25823408691
 30
0.0
 11
12692.33704855702
 21
2767.047768837103
 31
0.0
  0
MTEXT
  5
5F
330
5D
100
AcDbEntity
  8
AM_VIS
 62
     7
100
AcDbMText
 10
12845.01005537927
 20
3006.39744237482
 30
0.0
 40
87.5
 41
0.0
 71
     5
 72
     1
  1
\A1;R150cm
 11
0.7070056109819242
 21
0.7072079369181854
 31
0.0
1001
ACAD
1000
MTEXTBEGIN
1070
    73
1070
     1
1070
    44
1040
1.0
1070
    74
1070
     0
1000
MTEXTEND
1000
MTEXTBEGIN
1070
    73
1070
     1
1070
    44
1040
1.0
1070
    74
1070
     0
1000
MTEXTEND
  0
LINE
  5
60
330
5D
100
AcDbEntity
  8
AM_VIS
 62
     1
100
AcDbLine
 10
11569.96564112322
 20
1644.355168979484
 30
0.0
 11
12630.4740575961
 21
2705.167074356761
 31
0.0
  0
SOLID
  5
61
330
5D
100
AcDbEntity
  8
AM_VIS
 62
     1
100
AcDbTrace
 10
12682.02359947697
 20
2777.358267330589
 30
0.0
 11
12702.65049763708
 21
2756.737270343617
 31
0.0
 12
12630.4740575961
 22
2705.167074356761
 32
0.0
 13
12630.4740575961
 23
2705.167074356761
 33
0.0
  0
POINT
  5
62
330
5D
100
AcDbEntity
  8
DEFPOINTS
 62
     0
100
AcDbPoint
 10
12630.4740575961
 20
2705.167074356761
 30
0.0
  0
POINT
  5
63
330
5D
100
AcDbEntity
  8
DEFPOINTS
 62
     0
100
AcDbPoint
 10
11569.96564112322
 20
1644.355168979484
 30
0.0
  0
ENDBLK
  5
65
330
5D
100
AcDbEntity
  8
0
100
AcDbBlockEnd
  0
BLOCK
  5
6D
330
66
100
AcDbEntity
  8
0
100
AcDbBlockBegin
  2
*D1
 70
     1
 10
0.0
 20
0.0
 30
0.0
  3
*D1
  1

  0
LINE
  5
67
330
66
100
AcDbEntity
  8
AM_VIS
 62
     1
100
AcDbLine
 10
13022.4530484634
 20
-1463.526558644975
 30
0.0
 11
12692.33705238225
 21
-1133.316094519942
 31
0.0
  0
MTEXT
  5
68
330
66
100
AcDbEntity
  8
AM_VIS
 62
     7
100
AcDbMText
 10
12931.64303199741
 20
-1286.057579897007
 30
0.0
 40
87.5
 41
0.0
 71
     5
 72
     1
  1
\A1;R150cm
 11
0.7070056133915318
 21
-0.7072079345092673
 31
0.0
1001
ACAD
1000
MTEXTBEGIN
1070
    73
1070
     1
1070
    44
1040
1.0
1070
    74
1070
     0
1000
MTEXTEND
1000
MTEXTBEGIN
1070
    73
1070
     1
1070
    44
1040
1.0
1070
    74
1070
     0
1000
MTEXTEND
  0
LINE
  5
69
330
66
100
AcDbEntity
  8
AM_VIS
 62
     1
100
AcDbLine
 10
11569.9656411232
 20
-10.62349848647863
 30
0.0
 11
12630.47406121051
 21
-1071.435400250382
 31
0.0
  0
SOLID
  5
6A
330
66
100
AcDbEntity
  8
AM_VIS
 62
     1
100
AcDbTrace
 10
12702.65050142719
 20
-1123.005595991317
 30
0.0
 11
12682.02360333734
 21
-1143.626593048569
 31
0.0
 12
12630.47406121051
 22
-1071.435400250382
 32
0.0
 13
12630.47406121051
 23
-1071.435400250382
 33
0.0
  0
POINT
  5
6B
330
66
100
AcDbEntity
  8
DEFPOINTS
 62
     0
100
AcDbPoint
 10
12630.47406121051
 20
-1071.435400250382
 30
0.0
  0
POINT
  5
6C
330
66
100
AcDbEntity
  8
DEFPOINTS
 62
     0
100
AcDbPoint
 10
11569.9656411232
 20
-10.62349848647863
 30
0.0
  0
ENDBLK
  5
6E
330
66
100
AcDbEntity
  8
0
100
AcDbBlockEnd
  0
BLOCK
  5
1FE
330
1F7
100
AcDbEntity
  8
0
100
AcDbBlockBegin
  2
*D2
 70
     1
 10
0.0
 20
0.0
 30
0.0
  3
*D2
  1

  0
LINE
  5
209
330
1F7
100
AcDbEntity
  8
AM_VIS
 62
     1
100
AcDbLine
 10
7733.286702684035
 20
4922.267044051338
 30
0.0
 11
7327.053062040673
 21
4515.917150297098
 31
0.0
  0
MTEXT
  5
20A
330
1F7
100
AcDbEntity
  8
AM_VIS
 62
     7
100
AcDbMText
 10
7517.784891706573
 20
4793.336538087031
 30
0.0
 40
87.5
 41
0.0
 71
     5
 72
     1
  1
\A1;R150cm
 11
0.707005610981924
 21
0.7072079369181857
 31
0.0
1001
ACAD
1000
MTEXTBEGIN
1070
    73
1070
     1
1070
    44
1040
1.0
1070
    74
1070
     0
1000
MTEXTEND
1000
MTEXTBEGIN
1070
    73
1070
     1
1070
    44
1040
1.0
1070
    74
1070
     0
1000
MTEXTEND
  0
LINE
  5
20B
330
1F7
100
AcDbEntity
  8
AM_VIS
 62
     1
100
AcDbLine
 10
6204.681654606869
 20
3393.22455043948
 30
0.0
 11
7265.190071079754
 21
4454.036455816758
 31
0.0
  0
SOLID
  5
20C
330
1F7
100
AcDbEntity
  8
AM_VIS
 62
     1
100
AcDbTrace
 10
7316.739612960614
 20
4526.227648790583
 30
0.0
 11
7337.366511120729
 21
4505.60665180361
 31
0.0
 12
7265.190071079754
 22
4454.036455816758
 32
0.0
 13
7265.190071079754
 23
4454.036455816758
 33
0.0
  0
POINT
  5
20D
330
1F7
100
AcDbEntity
  8
DEFPOINTS
 62
     0
100
AcDbPoint
 10
7265.190071079754
 20
4454.036455816758
 30
0.0
  0
POINT
  5
20E
330
1F7
100
AcDbEntity
  8
DEFPOINTS
 62
     0
100
AcDbPoint
 10
6204.681654606869
 20
3393.22455043948
 30
0.0
  0
ENDBLK
  5
1FF
330
1F7
100
AcDbEntity
  8
0
100
AcDbBlockEnd
  0
BLOCK
  5
207
330
200
100
AcDbEntity
  8
0
100
AcDbBlockBegin
  2
*D3
 70
     1
 10
0.0
 20
0.0
 30
0.0
  3
*D3
  1

  0
LINE
  5
20F
330
200
100
AcDbEntity
  8
AM_VIS
 62
     1
100
AcDbLine
 10
7733.286707893793
 20
209.2033945699349
 30
0.0
 11
7327.053065865907
 21
615.5532869400513
 31
0.0
  0
MTEXT
  5
210
330
200
100
AcDbEntity
  8
AM_VIS
 62
     7
100
AcDbMText
 10
7604.417868454422
 20
424.7420874404438
 30
0.0
 40
87.5
 41
0.0
 71
     5
 72
     1
  1
\A1;R150cm
 11
0.7070056133915325
 21
-0.7072079345092667
 31
0.0
1001
ACAD
1000
MTEXTBEGIN
1070
    73
1070
     1
1070
    44
1040
1.0
1070
    74
1070
     0
1000
MTEXTEND
1000
MTEXTBEGIN
1070
    73
1070
     1
1070
    44
1040
1.0
1070
    74
1070
     0
1000
MTEXTEND
  0
LINE
  5
211
330
200
100
AcDbEntity
  8
AM_VIS
 62
     1
100
AcDbLine
 10
6204.681654606845
 20
1738.245882973515
 30
0.0
 11
7265.190074694148
 21
677.4339812096123
 31
0.0
  0
SOLID
  5
212
330
200
100
AcDbEntity
  8
AM_VIS
 62
     1
100
AcDbTrace
 10
7337.366514910833
 20
625.8637854686776
 30
0.0
 11
7316.739616820981
 21
605.242788411425
 31
0.0
 12
7265.190074694148
 22
677.4339812096123
 32
0.0
 13
7265.190074694148
 23
677.4339812096123
 33
0.0
  0
POINT
  5
213
330
200
100
AcDbEntity
  8
DEFPOINTS
 62
     0
100
AcDbPoint
 10
7265.190074694148
 20
677.4339812096123
 30
0.0
  0
POINT
  5
214
330
200
100
AcDbEntity
  8
DEFPOINTS
 62
     0
100
AcDbPoint
 10
6204.681654606845
 20
1738.245882973515
 30
0.0
  0
ENDBLK
  5
208
330
200
100
AcDbEntity
  8
0
100
AcDbBlockEnd
  0
BLOCK
  5
296
330
295
100
AcDbEntity
  8
0
100
AcDbBlockBegin
  2
FBKC
 70
     0
 10
0.0
 20
0.0
 30
0.0
  3
FBKC
  1

  0
INSERT
  5
298
330
295
100
AcDbEntity
  8
HATCH
  6
CONTINUOUS
 62
   251
100
AcDbBlockReference
  2
*U5
 10
0.0
 20
0.0
 30
0.0
1001
ACAD
1002
{
1000
R14_HATCH_DATA
1000
298
1011
1.0
1021
0.0
1031
0.0
1011
0.0
1021
1.0
1031
0.0
1011
0.0
1021
0.0
1031
1.0
1040
0.0
1010
0.0
1020
0.0
1030
1.0
1000
SOLID
1070
     1
1070
     1
1071
        1
1071
        7
1070
     0
1070
     1
1071
        4
1040
5204.536036469415
1040
2515.73521670654
1040
5204.536036469415
1040
2615.735216706539
1040
3728.731171457565
1040
2615.735216706529
1040
3728.731171457565
1040
2515.735216706529
1071
        4
1005
2BC
1005
2B9
1005
2BA
1005
34B
1070
     0
1070
     1
1040
3.504614251123403
1071
        1
1040
4600.692974744772
1040
2565.336867332396
1040
0.0
1002
}
  0
INSERT
  5
299
330
295
100
AcDbEntity
  8
HATCH
  6
CONTINUOUS
 62
   251
100
AcDbBlockReference
  2
*U6
 10
0.0
 20
0.0
 30
0.0
1001
ACAD
1002
{
1000
R14_HATCH_DATA
1000
299
1011
1.0
1021
0.0
1031
0.0
1011
0.0
1021
1.0
1031
0.0
1011
0.0
1021
0.0
1031
1.0
1040
0.0
1010
0.0
1020
0.0
1030
1.0
1000
SOLID
1070
     1
1070
     0
1071
       11
1071
        7
1070
     0
1070
     1
1071
        7
1040
3137.371735245777
1040
2635.735216706492
1040
2055.301011661611
1040
2635.735216706492
1040
2036.513523226326
1040
2635.735216706482
1040
1973.267970022958
1040
2635.735216706484
1040
1721.526694925973
1040
2635.735216706493
1040
1675.681654606862
1040
2594.73016607261
1040
3091.526694926685
1040
2594.730166072609
1071
        0
1071
        7
1070
     0
1070
     1
1071
        4
1040
3091.526694926686
1040
2594.730166072609
1040
1675.681654606863
1040
2594.73016607261
1040
1675.681654606864
1040
2536.740267340376
1040
3091.526694926685
1040
2536.740267340375
1071
        0
1071
        7
1070
     0
1070
     1
1071
        7
1040
3091.526694926685
1040
2536.740267340374
1040
1675.681654606866
1040
2536.740267340376
1040
1721.526694925977
1040
2495.735216706493
1040
1973.267970022969
1040
2495.735216706493
1040
2036.513523226337
1040
2495.735216706491
1040
2055.301011661615
1040
2495.73521670649
1040
3137.371735245778
1040
2495.735216706492
1071
        0
1071
        7
1070
     0
1070
     1
1071
        6
1040
3202.206413032579
1040
2635.735216706492
1040
3137.371735245777
1040
2635.735216706492
1040
3091.526694926685
1040
2594.730166072609
1040
3091.526694926685
1040
2536.740267340375
1040
3137.371735245778
1040
2495.735216706492
1040
3202.206413032579
1040
2495.735216706492
1071
        0
1071
        7
1070
     0
1070
     1
1071
        6
1040
4682.88613113925
1040
2635.735216706491
1040
3267.041090819382
1040
2635.735216706487
1040
3312.886131138474
1040
2594.730166072604
1040
3728.731171457564
1040
2594.730166072604
1040
3728.731171457565
1040
2615.735216706528
1040
4705.246810914211
1040
2615.735216706534
1071
        0
1071
        7
1070
     0
1070
     1
1071
        4
1040
3728.731171457565
1040
2594.730166072605
1040
3312.886131138476
1040
2594.730166072604
1040
3312.886131138476
1040
2536.740267340371
1040
3728.731171457564
1040
2536.740267340372
1071
        0
1071
        7
1070
     0
1070
     1
1071
        6
1040
3728.731171457566
1040
2536.740267340372
1040
3312.886131138476
1040
2536.74026734037
1040
3267.041090819384
1040
2495.735216706489
1040
4682.886131139119
1040
2495.73521670649
1040
4705.246810914175
1040
2515.735216706536
1040
3728.731171457565
1040
2515.735216706528
1071
        0
1071
        7
1070
     0
1070
     1
1071
        6
1040
3312.886131138476
1040
2594.730166072602
1040
3267.041090819382
1040
2635.735216706487
1040
3202.206413032579
1040
2635.735216706487
1040
3202.206413032579
1040
2495.735216706488
1040
3267.041090819384
1040
2495.735216706489
1040
3312.886131138476
1040
2536.74026734037
1071
        0
1071
        7
1070
     1
1070
     1
1071
        4
1040
5204.536036469415
1040
2615.735216706538
1040
0.0
1040
4705.515219550369
1040
2615.735216706535
1040
0.0166712988701002
1040
4705.515219550369
1040
2515.735216706536
1040
0.0
1040
5204.536036469415
1040
2515.73521670654
1040
0.0
1071
        0
1071
        7
1070
     1
1070
     1
1071
        4
1040
5601.685523172946
1040
2615.735216706541
1040
0.0
1040
5204.536036469415
1040
2615.735216706539
1040
0.0
1040
5204.536036469415
1040
2515.73521670654
1040
0.0
1040
5601.685523172948
1040
2515.735216706543
1040
0.0104177971926909
1071
        0
1071
        7
1070
     1
1070
     1
1071
        4
1040
6179.536036607425
1040
2615.735216706546
1040
0.0
1040
5601.685523172946
1040
2615.735216706541
1040
-0.0104177971926909
1040
5601.685523172948
1040
2515.735216706543
1040
0.0
1040
6179.536036607426
1040
2515.735216706547
1040
0.0
1071
        0
1070
     0
1070
     1
1040
5.210232473941166
1071
       11
1040
1852.595563054688
1040
2610.773069173345
1040
0.0
1040
1855.214242869522
1040
2550.580518618757
1040
0.0
1040
1860.451565195529
1040
2521.79278866907
1040
0.0
1040
3160.439817421786
1040
2554.282429029473
1040
0.0
1040
3363.683899323165
1040
2617.074163970203
1040
0.0
1040
3374.110757983319
1040
2570.182065270459
1040
0.0
1040
3400.177885981865
1040
2518.079756224397
1040
0.0
1040
3243.775155294228
1040
2585.812778542564
1040
0.0
1040
4865.150054238656
1040
2554.551372556641
1040
0.0
1040
5334.35820899791
1040
2554.551372556641
1040
0.0
1040
5756.645555741982
1040
2554.551372556641
1040
0.0
1002
}
  0
LINE
  5
29A
330
295
100
AcDbEntity
  8
0
100
AcDbLine
 10
1721.526694925975
 20
2635.735216706494
 30
0.0
 11
1675.681654606864
 21
2594.730166072611
 31
0.0
  0
LINE
  5
29B
330
295
100
AcDbEntity
  8
0
100
AcDbLine
 10
1675.681654606864
 20
2594.730166072611
 30
0.0
 11
1675.681654606864
 21
2536.740267340378
 31
0.0
  0
LINE
  5
29C
330
295
100
AcDbEntity
  8
0
100
AcDbLine
 10
1675.681654606864
 20
2536.740267340378
 30
0.0
 11
1721.526694925975
 21
2495.735216706494
 31
0.0
  0
LINE
  5
29D
330
295
100
AcDbEntity
  8
0
100
AcDbLine
 10
6204.681654606864
 20
2615.735216706495
 30
0.0
 11
6204.681654606864
 21
2515.735216706495
 31
0.0
  0
LINE
  5
29E
330
295
100
AcDbEntity
  8
AM_VIS
100
AcDbLine
 10
3202.20641303258
 20
2495.735216706492
 30
0.0
 11
3137.371735245775
 21
2495.735216706492
 31
0.0
  0
LINE
  5
29F
330
295
100
AcDbEntity
  8
AM_VIS
100
AcDbLine
 10
3202.20641303258
 20
2635.735216706493
 30
0.0
 11
3202.20641303258
 21
2495.735216706492
 31
0.0
  0
LINE
  5
2A0
330
295
100
AcDbEntity
  8
AM_VIS
100
AcDbLine
 10
3137.371735245777
 20
2635.735216706492
 30
0.0
 11
3202.20641303258
 21
2635.735216706492
 31
0.0
  0
LINE
  5
2A1
330
295
100
AcDbEntity
  8
AM_VIS
100
AcDbLine
 10
3091.526694926685
 20
2594.730166072609
 30
0.0
 11
3137.371735245777
 21
2635.735216706492
 31
0.0
  0
LINE
  5
2A2
330
295
100
AcDbEntity
  8
AM_VIS
100
AcDbLine
 10
3091.526694926685
 20
2536.740267340375
 30
0.0
 11
3091.526694926685
 21
2594.730166072609
 31
0.0
  0
LINE
  5
2A3
330
295
100
AcDbEntity
  8
AM_VIS
100
AcDbLine
 10
3137.371735245777
 20
2495.735216706493
 30
0.0
 11
3091.526694926685
 21
2536.740267340375
 31
0.0
  0
LINE
  5
2A4
330
295
100
AcDbEntity
  8
AM_VIS
100
AcDbLine
 10
3091.526694926685
 20
2536.740267340375
 30
0.0
 11
1675.68165460687
 21
2536.740267340376
 31
0.0
  0
LINE
  5
2A5
330
295
100
AcDbEntity
  8
AM_VIS
100
AcDbLine
 10
3137.371735245777
 20
2495.735216706492
 30
0.0
 11
2055.301011661613
 21
2495.735216706492
 31
0.0
  0
LINE
  5
2A6
330
295
100
AcDbEntity
  8
AM_VIS
100
AcDbLine
 10
1973.267970022969
 20
2495.735216706493
 30
0.0
 11
1721.526694925984
 21
2495.735216706493
 31
0.0
  0
LINE
  5
2A7
330
295
100
AcDbEntity
  8
AM_VIS
100
AcDbLine
 10
3091.526694926685
 20
2594.730166072609
 30
0.0
 11
1675.68165460687
 21
2594.73016607261
 31
0.0
  0
LINE
  5
2A8
330
295
100
AcDbEntity
  8
AM_VIS
100
AcDbLine
 10
3137.371735245777
 20
2635.735216706492
 30
0.0
 11
2055.301011661611
 21
2635.735216706492
 31
0.0
  0
LINE
  5
2A9
330
295
100
AcDbEntity
  8
AM_VIS
100
AcDbLine
 10
1973.267970022958
 20
2635.735216706493
 30
0.0
 11
1721.526694925984
 21
2635.735216706493
 31
0.0
  0
LINE
  5
2AA
330
295
100
AcDbEntity
  8
AM_VIS
100
AcDbLine
 10
3202.20641303258
 20
2635.735216706487
 30
0.0
 11
3267.041090819381
 21
2635.735216706487
 31
0.0
  0
LINE
  5
2AB
330
295
100
AcDbEntity
  8
AM_VIS
100
AcDbLine
 10
3202.206413032581
 20
2495.735216706488
 30
0.0
 11
3202.206413032581
 21
2635.735216706489
 31
0.0
  0
LINE
  5
2AC
330
295
100
AcDbEntity
  8
AM_VIS
100
AcDbLine
 10
3267.041090819381
 20
2495.735216706488
 30
0.0
 11
3202.20641303258
 21
2495.735216706488
 31
0.0
  0
LINE
  5
2AD
330
295
100
AcDbEntity
  8
AM_VIS
100
AcDbLine
 10
3312.886131138476
 20
2536.74026734037
 30
0.0
 11
3267.041090819381
 21
2495.735216706486
 31
0.0
  0
LINE
  5
2AE
330
295
100
AcDbEntity
  8
AM_VIS
100
AcDbLine
 10
3312.886131138476
 20
2594.730166072604
 30
0.0
 11
3312.886131138476
 21
2536.740267340371
 31
0.0
  0
LINE
  5
2AF
330
295
100
AcDbEntity
  8
AM_VIS
100
AcDbLine
 10
3267.041090819379
 20
2635.73521670649
 30
0.0
 11
3312.886131138474
 21
2594.730166072604
 31
0.0
  0
LINE
  5
2B0
330
295
100
AcDbEntity
  8
AM_VIS
100
AcDbLine
 10
3312.886131138476
 20
2594.730166072604
 30
0.0
 11
3728.731171457566
 21
2594.730166072604
 31
0.0
  0
LINE
  5
2B1
330
295
100
AcDbEntity
  8
AM_VIS
100
AcDbLine
 10
3267.041090819381
 20
2635.735216706487
 30
0.0
 11
4682.886131137823
 21
2635.735216706491
 31
0.0
  0
LINE
  5
2B2
330
295
100
AcDbEntity
  8
AM_VIS
100
AcDbLine
 10
3312.886131138476
 20
2536.740267340371
 30
0.0
 11
3728.731171457565
 21
2536.740267340372
 31
0.0
  0
LINE
  5
2B3
330
295
100
AcDbEntity
  8
AM_VIS
100
AcDbLine
 10
3267.041090819381
 20
2495.735216706488
 30
0.0
 11
4682.886131137823
 21
2495.735216706491
 31
0.0
  0
LINE
  5
2B4
330
295
100
AcDbEntity
  8
AM_VIS
100
AcDbLine
 10
5142.732637732439
 20
2615.735216982521
 30
0.0
 11
6092.732637869154
 21
2615.73522747175
 31
0.0
  0
LINE
  5
2B5
330
295
100
AcDbEntity
  8
AM_VIS
100
AcDbLine
 10
6204.536036744092
 20
2615.73522747175
 30
0.0
 11
5254.536036607429
 21
2615.735216982521
 31
0.0
  0
LINE
  5
2B6
330
295
100
AcDbEntity
  8
AM_VIS
100
AcDbLine
 10
6179.536036607466
 20
2615.735216706485
 30
0.0
 11
6179.536036607466
 21
2515.735216706486
 31
0.0
  0
LINE
  5
2B7
330
295
100
AcDbEntity
  8
AM_VIS
100
AcDbLine
 10
6179.536036607466
 20
2515.735216706485
 30
0.0
 11
6204.681654606867
 21
2515.735216706485
 31
0.0
  0
LINE
  5
2B8
330
295
100
AcDbEntity
  8
AM_VIS
100
AcDbLine
 10
6204.681654606867
 20
2615.735216706485
 30
0.0
 11
6179.536036607466
 21
2615.735216706485
 31
0.0
  0
LINE
  5
2B9
330
295
100
AcDbEntity
  8
AM_VIS
100
AcDbLine
 10
3728.731171457565
 20
2615.735216706529
 30
0.0
 11
3728.731171457565
 21
2515.735216706528
 31
0.0
  0
LINE
  5
2BA
330
295
100
AcDbEntity
  8
AM_VIS
100
AcDbLine
 10
3728.731171457565
 20
2515.735216706528
 30
0.0
 11
6179.536036607426
 21
2515.735216706547
 31
0.0
  0
LINE
  5
2BB
330
295
100
AcDbEntity
  8
AM_VIS
100
AcDbLine
 10
6179.536036607426
 20
2615.735216706546
 30
0.0
 11
6179.536036607426
 21
2515.735216706538
 31
0.0
  0
LINE
  5
2BC
330
295
100
AcDbEntity
  8
AM_VIS
100
AcDbLine
 10
6179.536036607426
 20
2615.735216706546
 30
0.0
 11
3728.731171457565
 21
2615.735216706529
 31
0.0
  0
LINE
  5
2BD
330
295
100
AcDbEntity
  8
AM_VIS
100
AcDbLine
 10
3142.920449447082
 20
2638.735216706491
 30
0.0
 11
3056.057062834053
 21
2638.735216706491
 31
0.0
  0
LINE
  5
2BE
330
295
100
AcDbEntity
  8
AM_VIS
100
AcDbLine
 10
3359.178915763084
 20
2638.735216706491
 30
0.0
 11
3333.148243570435
 21
2638.735216706491
 31
0.0
  0
LINE
  5
2BF
330
295
100
AcDbEntity
  8
AM_VIS
100
AcDbLine
 10
3479.776409275181
 20
2638.735216706491
 30
0.0
 11
3459.178915763085
 21
2638.735216706491
 31
0.0
  0
LINE
  5
2C0
330
295
100
AcDbEntity
  8
AM_VIS
100
AcDbLine
 10
3452.6106090696
 20
2638.735216706491
 30
0.0
 11
3365.747222456572
 21
2638.735216706491
 31
0.0
  0
LINE
  5
2C1
330
295
100
AcDbEntity
  8
AM_VIS
100
AcDbLine
 10
3012.524564968261
 20
2638.735216706491
 30
0.0
 11
2925.661178355233
 21
2638.735216706491
 31
0.0
  0
LINE
  5
2C2
330
295
100
AcDbEntity
  8
AM_VIS
100
AcDbLine
 10
3023.390891263638
 20
2638.735216706491
 30
0.0
 11
3019.092871661746
 21
2638.735216706491
 31
0.0
  0
LINE
  5
2C3
330
295
100
AcDbEntity
  8
AM_VIS
100
AcDbLine
 10
2811.49760616807
 20
2638.735216706491
 30
0.0
 11
2724.634219555043
 21
2638.735216706491
 31
0.0
  0
LINE
  5
2C4
330
295
100
AcDbEntity
  8
AM_VIS
100
AcDbLine
 10
3702.536020666129
 20
2638.735216706491
 30
0.0
 11
3615.672634053103
 21
2638.735216706491
 31
0.0
  0
LINE
  5
2C5
330
295
100
AcDbEntity
  8
AM_VIS
100
AcDbLine
 10
2420.309983797344
 20
2638.735216706491
 30
0.0
 11
2333.446597184317
 21
2638.735216706491
 31
0.0
  0
LINE
  5
2C6
330
295
100
AcDbEntity
  8
AM_VIS
100
AcDbLine
 10
2903.861333080199
 20
2638.735216706491
 30
0.0
 11
2818.065912861555
 21
2638.735216706491
 31
0.0
  0
LINE
  5
2C7
330
295
100
AcDbEntity
  8
AM_VIS
100
AcDbLine
 10
3326.579936876948
 20
2638.735216706491
 30
0.0
 11
3322.281948340784
 21
2638.735216706491
 31
0.0
  0
LINE
  5
2C8
330
295
100
AcDbEntity
  8
AM_VIS
100
AcDbLine
 10
3941.595105967279
 20
2638.735216706491
 30
0.0
 11
3854.731719354251
 21
2638.735216706491
 31
0.0
  0
LINE
  5
2C9
330
295
100
AcDbEntity
  8
AM_VIS
100
AcDbLine
 10
3261.492376618075
 20
2492.735216706495
 30
0.0
 11
3348.355763231101
 21
2492.735216706495
 31
0.0
  0
LINE
  5
2CA
330
295
100
AcDbEntity
  8
AM_VIS
100
AcDbLine
 10
3045.233910302069
 20
2492.735216706495
 30
0.0
 11
3071.26458249472
 21
2492.735216706495
 31
0.0
  0
LINE
  5
2CB
330
295
100
AcDbEntity
  8
AM_VIS
100
AcDbLine
 10
2924.636416789976
 20
2492.735216706495
 30
0.0
 11
2945.233910302069
 21
2492.735216706495
 31
0.0
  0
LINE
  5
2CC
330
295
100
AcDbEntity
  8
AM_VIS
100
AcDbLine
 10
2951.802216995557
 20
2492.735216706495
 30
0.0
 11
3038.665603608583
 21
2492.735216706495
 31
0.0
  0
LINE
  5
2CD
330
295
100
AcDbEntity
  8
AM_VIS
100
AcDbLine
 10
3391.888261096895
 20
2492.735216706495
 30
0.0
 11
3478.751647709922
 21
2492.735216706495
 31
0.0
  0
LINE
  5
2CE
330
295
100
AcDbEntity
  8
AM_VIS
100
AcDbLine
 10
3381.021934801518
 20
2492.735216706495
 30
0.0
 11
3385.319954403409
 21
2492.735216706495
 31
0.0
  0
LINE
  5
2CF
330
295
100
AcDbEntity
  8
AM_VIS
100
AcDbLine
 10
3592.915219897086
 20
2492.735216706495
 30
0.0
 11
3679.778606510112
 21
2492.735216706495
 31
0.0
  0
LINE
  5
2D0
330
295
100
AcDbEntity
  8
AM_VIS
100
AcDbLine
 10
2701.876805399026
 20
2492.735216706495
 30
0.0
 11
2788.740192012052
 21
2492.735216706495
 31
0.0
  0
LINE
  5
2D1
330
295
100
AcDbEntity
  8
AM_VIS
100
AcDbLine
 10
3984.102842267812
 20
2492.735216706495
 30
0.0
 11
4070.966228880838
 21
2492.735216706495
 31
0.0
  0
LINE
  5
2D2
330
295
100
AcDbEntity
  8
AM_VIS
100
AcDbLine
 10
3500.551492984958
 20
2492.735216706495
 30
0.0
 11
3586.346913203599
 21
2492.735216706495
 31
0.0
  0
LINE
  5
2D3
330
295
100
AcDbEntity
  8
AM_VIS
100
AcDbLine
 10
3077.832889188207
 20
2492.735216706495
 30
0.0
 11
3082.13087772437
 21
2492.735216706495
 31
0.0
  0
LINE
  5
2D4
330
295
100
AcDbEntity
  8
AM_VIS
100
AcDbLine
 10
2462.817720097877
 20
2492.735216706495
 30
0.0
 11
2549.681106710902
 21
2492.735216706495
 31
0.0
  0
LINE
  5
2D5
330
295
100
AcDbEntity
  8
AM_VIS
100
AcDbLine
 10
3056.057062834053
 20
2635.735216706492
 30
0.0
 11
3056.057062834053
 21
2638.735216706491
 31
0.0
  0
LINE
  5
2D6
330
295
100
AcDbEntity
  8
AM_VIS
100
AcDbLine
 10
3333.148243570435
 20
2635.735216706487
 30
0.0
 11
3333.148243570435
 21
2638.735216706491
 31
0.0
  0
LINE
  5
2D7
330
295
100
AcDbEntity
  8
AM_VIS
100
AcDbLine
 10
3365.747222456572
 20
2635.735216706487
 30
0.0
 11
3365.747222456572
 21
2638.735216706491
 31
0.0
  0
LINE
  5
2D8
330
295
100
AcDbEntity
  8
AM_VIS
100
AcDbLine
 10
2925.661178355233
 20
2635.735216706492
 30
0.0
 11
2925.661178355233
 21
2638.735216706491
 31
0.0
  0
LINE
  5
2D9
330
295
100
AcDbEntity
  8
AM_VIS
100
AcDbLine
 10
2724.634219555043
 20
2635.735216706492
 30
0.0
 11
2724.634219555043
 21
2638.735216706491
 31
0.0
  0
LINE
  5
2DA
330
295
100
AcDbEntity
  8
AM_VIS
100
AcDbLine
 10
3615.672634053103
 20
2635.735216706489
 30
0.0
 11
3615.672634053103
 21
2638.735216706491
 31
0.0
  0
LINE
  5
2DB
330
295
100
AcDbEntity
  8
AM_VIS
100
AcDbLine
 10
2333.446597184317
 20
2635.735216706492
 30
0.0
 11
2333.446597184317
 21
2638.735216706491
 31
0.0
  0
LINE
  5
2DC
330
295
100
AcDbEntity
  8
AM_VIS
100
AcDbLine
 10
3322.281948340784
 20
2635.735216706487
 30
0.0
 11
3322.281948340784
 21
2638.735216706491
 31
0.0
  0
LINE
  5
2DD
330
295
100
AcDbEntity
  8
AM_VIS
100
AcDbLine
 10
3854.731719354251
 20
2635.735216706489
 30
0.0
 11
3854.731719354251
 21
2638.735216706491
 31
0.0
  0
LINE
  5
2DE
330
295
100
AcDbEntity
  8
AM_VIS
100
AcDbLine
 10
3348.355763231101
 20
2495.735216706488
 30
0.0
 11
3348.355763231101
 21
2492.735216706495
 31
0.0
  0
LINE
  5
2DF
330
295
100
AcDbEntity
  8
AM_VIS
100
AcDbLine
 10
3071.26458249472
 20
2495.735216706492
 30
0.0
 11
3071.26458249472
 21
2492.735216706495
 31
0.0
  0
LINE
  5
2E0
330
295
100
AcDbEntity
  8
AM_VIS
100
AcDbLine
 10
3038.665603608583
 20
2495.735216706492
 30
0.0
 11
3038.665603608583
 21
2492.735216706495
 31
0.0
  0
LINE
  5
2E1
330
295
100
AcDbEntity
  8
AM_VIS
100
AcDbLine
 10
3478.751647709922
 20
2495.735216706488
 30
0.0
 11
3478.751647709922
 21
2492.735216706495
 31
0.0
  0
LINE
  5
2E2
330
295
100
AcDbEntity
  8
AM_VIS
100
AcDbLine
 10
3679.778606510112
 20
2495.735216706489
 30
0.0
 11
3679.778606510112
 21
2492.735216706495
 31
0.0
  0
LINE
  5
2E3
330
295
100
AcDbEntity
  8
AM_VIS
100
AcDbLine
 10
2788.740192012052
 20
2495.735216706492
 30
0.0
 11
2788.740192012052
 21
2492.735216706495
 31
0.0
  0
LINE
  5
2E4
330
295
100
AcDbEntity
  8
AM_VIS
100
AcDbLine
 10
4070.966228880838
 20
2495.735216706489
 30
0.0
 11
4070.966228880838
 21
2492.735216706495
 31
0.0
  0
LINE
  5
2E5
330
295
100
AcDbEntity
  8
AM_VIS
100
AcDbLine
 10
3082.13087772437
 20
2495.735216706492
 30
0.0
 11
3082.13087772437
 21
2492.735216706495
 31
0.0
  0
LINE
  5
2E6
330
295
100
AcDbEntity
  8
AM_VIS
100
AcDbLine
 10
2549.681106710902
 20
2495.735216706492
 30
0.0
 11
2549.681106710902
 21
2492.735216706495
 31
0.0
  0
LINE
  5
2E7
330
295
100
AcDbEntity
  8
AM_VIS
100
AcDbLine
 10
3142.920449447082
 20
2635.735216706492
 30
0.0
 11
3142.920449447082
 21
2638.735216706491
 31
0.0
  0
LINE
  5
2E8
330
295
100
AcDbEntity
  8
AM_VIS
100
AcDbLine
 10
3479.776409275181
 20
2635.735216706488
 30
0.0
 11
3479.776409275181
 21
2638.735216706491
 31
0.0
  0
LINE
  5
2E9
330
295
100
AcDbEntity
  8
AM_VIS
100
AcDbLine
 10
3452.6106090696
 20
2635.735216706488
 30
0.0
 11
3452.6106090696
 21
2638.735216706491
 31
0.0
  0
LINE
  5
2EA
330
295
100
AcDbEntity
  8
AM_VIS
100
AcDbLine
 10
3012.524564968261
 20
2635.735216706492
 30
0.0
 11
3012.524564968261
 21
2638.735216706491
 31
0.0
  0
LINE
  5
2EB
330
295
100
AcDbEntity
  8
AM_VIS
100
AcDbLine
 10
3023.390891263638
 20
2635.735216706492
 30
0.0
 11
3023.390891263638
 21
2638.735216706491
 31
0.0
  0
LINE
  5
2EC
330
295
100
AcDbEntity
  8
AM_VIS
100
AcDbLine
 10
2811.49760616807
 20
2635.735216706492
 30
0.0
 11
2811.49760616807
 21
2638.735216706491
 31
0.0
  0
LINE
  5
2ED
330
295
100
AcDbEntity
  8
AM_VIS
100
AcDbLine
 10
3702.536020666129
 20
2635.735216706489
 30
0.0
 11
3702.536020666129
 21
2638.735216706491
 31
0.0
  0
LINE
  5
2EE
330
295
100
AcDbEntity
  8
AM_VIS
100
AcDbLine
 10
2420.309983797344
 20
2635.735216706492
 30
0.0
 11
2420.309983797344
 21
2638.735216706491
 31
0.0
  0
LINE
  5
2EF
330
295
100
AcDbEntity
  8
AM_VIS
100
AcDbLine
 10
2903.861333080199
 20
2635.735216706492
 30
0.0
 11
2903.861333080199
 21
2638.735216706491
 31
0.0
  0
LINE
  5
2F0
330
295
100
AcDbEntity
  8
AM_VIS
100
AcDbLine
 10
3941.595105967279
 20
2635.735216706489
 30
0.0
 11
3941.595105967279
 21
2638.735216706491
 31
0.0
  0
LINE
  5
2F1
330
295
100
AcDbEntity
  8
AM_VIS
100
AcDbLine
 10
3261.492376618075
 20
2495.735216706488
 30
0.0
 11
3261.492376618075
 21
2492.735216706495
 31
0.0
  0
LINE
  5
2F2
330
295
100
AcDbEntity
  8
AM_VIS
100
AcDbLine
 10
2924.636416789976
 20
2495.735216706492
 30
0.0
 11
2924.636416789976
 21
2492.735216706495
 31
0.0
  0
LINE
  5
2F3
330
295
100
AcDbEntity
  8
AM_VIS
100
AcDbLine
 10
2951.802216995557
 20
2495.735216706492
 30
0.0
 11
2951.802216995557
 21
2492.735216706495
 31
0.0
  0
LINE
  5
2F4
330
295
100
AcDbEntity
  8
AM_VIS
100
AcDbLine
 10
3391.888261096895
 20
2495.735216706488
 30
0.0
 11
3391.888261096895
 21
2492.735216706495
 31
0.0
  0
LINE
  5
2F5
330
295
100
AcDbEntity
  8
AM_VIS
100
AcDbLine
 10
3381.021934801518
 20
2495.735216706488
 30
0.0
 11
3381.021934801518
 21
2492.735216706495
 31
0.0
  0
LINE
  5
2F6
330
295
100
AcDbEntity
  8
AM_VIS
100
AcDbLine
 10
3592.915219897086
 20
2495.735216706488
 30
0.0
 11
3592.915219897086
 21
2492.735216706495
 31
0.0
  0
LINE
  5
2F7
330
295
100
AcDbEntity
  8
AM_VIS
100
AcDbLine
 10
2701.876805399026
 20
2495.735216706492
 30
0.0
 11
2701.876805399026
 21
2492.735216706495
 31
0.0
  0
LINE
  5
2F8
330
295
100
AcDbEntity
  8
AM_VIS
100
AcDbLine
 10
3984.102842267812
 20
2495.735216706489
 30
0.0
 11
3984.102842267812
 21
2492.735216706495
 31
0.0
  0
LINE
  5
2F9
330
295
100
AcDbEntity
  8
AM_VIS
100
AcDbLine
 10
3500.551492984958
 20
2495.735216706488
 30
0.0
 11
3500.551492984958
 21
2492.735216706495
 31
0.0
  0
LINE
  5
2FA
330
295
100
AcDbEntity
  8
AM_VIS
100
AcDbLine
 10
2462.817720097877
 20
2495.735216706492
 30
0.0
 11
2462.817720097877
 21
2492.735216706495
 31
0.0
  0
LINE
  5
2FB
330
295
100
AcDbEntity
  8
AM_VIS
100
AcDbLine
 10
3049.488756140567
 20
2638.735216706491
 30
0.0
 11
3056.057062834053
 21
2638.735216706491
 31
0.0
  0
LINE
  5
2FC
330
295
100
AcDbEntity
  8
AM_VIS
100
AcDbLine
 10
3142.920449447082
 20
2638.735216706491
 30
0.0
 11
3149.488756140567
 21
2638.735216706491
 31
0.0
  0
LINE
  5
2FD
330
295
100
AcDbEntity
  8
AM_VIS
100
AcDbLine
 10
3326.579936876948
 20
2638.735216706491
 30
0.0
 11
3333.148243570435
 21
2638.735216706491
 31
0.0
  0
LINE
  5
2FE
330
295
100
AcDbEntity
  8
AM_VIS
100
AcDbLine
 10
3479.776409275181
 20
2638.735216706491
 30
0.0
 11
3486.344715968666
 21
2638.735216706491
 31
0.0
  0
LINE
  5
2FF
330
295
100
AcDbEntity
  8
AM_VIS
100
AcDbLine
 10
3359.178915763084
 20
2638.735216706491
 30
0.0
 11
3365.747222456572
 21
2638.735216706491
 31
0.0
  0
LINE
  5
300
330
295
100
AcDbEntity
  8
AM_VIS
100
AcDbLine
 10
3452.6106090696
 20
2638.735216706491
 30
0.0
 11
3459.178915763085
 21
2638.735216706491
 31
0.0
  0
LINE
  5
301
330
295
100
AcDbEntity
  8
AM_VIS
100
AcDbLine
 10
2919.092871661746
 20
2638.735216706491
 30
0.0
 11
2925.661178355233
 21
2638.735216706491
 31
0.0
  0
LINE
  5
302
330
295
100
AcDbEntity
  8
AM_VIS
100
AcDbLine
 10
3012.524564968261
 20
2638.735216706491
 30
0.0
 11
3019.092871661746
 21
2638.735216706491
 31
0.0
  0
LINE
  5
303
330
295
100
AcDbEntity
  8
AM_VIS
100
AcDbLine
 10
3023.390891263638
 20
2638.735216706491
 30
0.0
 11
3029.959197957122
 21
2638.735216706491
 31
0.0
  0
LINE
  5
304
330
295
100
AcDbEntity
  8
AM_VIS
100
AcDbLine
 10
2718.065912861556
 20
2638.735216706491
 30
0.0
 11
2724.634219555043
 21
2638.735216706491
 31
0.0
  0
LINE
  5
305
330
295
100
AcDbEntity
  8
AM_VIS
100
AcDbLine
 10
2811.49760616807
 20
2638.735216706491
 30
0.0
 11
2818.065912861555
 21
2638.735216706491
 31
0.0
  0
LINE
  5
306
330
295
100
AcDbEntity
  8
AM_VIS
100
AcDbLine
 10
3609.104327359615
 20
2638.735216706491
 30
0.0
 11
3615.672634053103
 21
2638.735216706491
 31
0.0
  0
LINE
  5
307
330
295
100
AcDbEntity
  8
AM_VIS
100
AcDbLine
 10
3702.536020666129
 20
2638.735216706491
 30
0.0
 11
3709.104327359614
 21
2638.735216706491
 31
0.0
  0
LINE
  5
308
330
295
100
AcDbEntity
  8
AM_VIS
100
AcDbLine
 10
2326.878290490828
 20
2638.735216706491
 30
0.0
 11
2333.446597184317
 21
2638.735216706491
 31
0.0
  0
LINE
  5
309
330
295
100
AcDbEntity
  8
AM_VIS
100
AcDbLine
 10
2420.309983797344
 20
2638.735216706491
 30
0.0
 11
2426.878290490829
 21
2638.735216706491
 31
0.0
  0
LINE
  5
30A
330
295
100
AcDbEntity
  8
AM_VIS
100
AcDbLine
 10
2903.861333080199
 20
2638.735216706491
 30
0.0
 11
2910.429639773683
 21
2638.735216706491
 31
0.0
  0
LINE
  5
30B
330
295
100
AcDbEntity
  8
AM_VIS
100
AcDbLine
 10
3315.713641647296
 20
2638.735216706491
 30
0.0
 11
3322.281948340784
 21
2638.735216706491
 31
0.0
  0
LINE
  5
30C
330
295
100
AcDbEntity
  8
AM_VIS
100
AcDbLine
 10
3848.163412660764
 20
2638.735216706491
 30
0.0
 11
3854.731719354251
 21
2638.735216706491
 31
0.0
  0
LINE
  5
30D
330
295
100
AcDbEntity
  8
AM_VIS
100
AcDbLine
 10
3941.595105967279
 20
2638.735216706491
 30
0.0
 11
3948.163412660764
 21
2638.735216706491
 31
0.0
  0
LINE
  5
30E
330
295
100
AcDbEntity
  8
AM_VIS
100
AcDbLine
 10
3354.924069924587
 20
2492.735216706495
 30
0.0
 11
3348.355763231101
 21
2492.735216706495
 31
0.0
  0
LINE
  5
30F
330
295
100
AcDbEntity
  8
AM_VIS
100
AcDbLine
 10
3261.492376618075
 20
2492.735216706495
 30
0.0
 11
3254.924069924587
 21
2492.735216706495
 31
0.0
  0
LINE
  5
310
330
295
100
AcDbEntity
  8
AM_VIS
100
AcDbLine
 10
3077.832889188207
 20
2492.735216706495
 30
0.0
 11
3071.26458249472
 21
2492.735216706495
 31
0.0
  0
LINE
  5
311
330
295
100
AcDbEntity
  8
AM_VIS
100
AcDbLine
 10
2924.636416789976
 20
2492.735216706495
 30
0.0
 11
2918.068110096489
 21
2492.735216706495
 31
0.0
  0
LINE
  5
312
330
295
100
AcDbEntity
  8
AM_VIS
100
AcDbLine
 10
3045.233910302069
 20
2492.735216706495
 30
0.0
 11
3038.665603608583
 21
2492.735216706495
 31
0.0
  0
LINE
  5
313
330
295
100
AcDbEntity
  8
AM_VIS
100
AcDbLine
 10
2951.802216995557
 20
2492.735216706495
 30
0.0
 11
2945.233910302069
 21
2492.735216706495
 31
0.0
  0
LINE
  5
314
330
295
100
AcDbEntity
  8
AM_VIS
100
AcDbLine
 10
3485.319954403409
 20
2492.735216706495
 30
0.0
 11
3478.751647709922
 21
2492.735216706495
 31
0.0
  0
LINE
  5
315
330
295
100
AcDbEntity
  8
AM_VIS
100
AcDbLine
 10
3391.888261096895
 20
2492.735216706495
 30
0.0
 11
3385.319954403409
 21
2492.735216706495
 31
0.0
  0
LINE
  5
316
330
295
100
AcDbEntity
  8
AM_VIS
100
AcDbLine
 10
3381.021934801518
 20
2492.735216706495
 30
0.0
 11
3374.45362810803
 21
2492.735216706495
 31
0.0
  0
LINE
  5
317
330
295
100
AcDbEntity
  8
AM_VIS
100
AcDbLine
 10
3686.346913203599
 20
2492.735216706495
 30
0.0
 11
3679.778606510112
 21
2492.735216706495
 31
0.0
  0
LINE
  5
318
330
295
100
AcDbEntity
  8
AM_VIS
100
AcDbLine
 10
3592.915219897086
 20
2492.735216706495
 30
0.0
 11
3586.346913203599
 21
2492.735216706495
 31
0.0
  0
LINE
  5
319
330
295
100
AcDbEntity
  8
AM_VIS
100
AcDbLine
 10
2795.308498705539
 20
2492.735216706495
 30
0.0
 11
2788.740192012052
 21
2492.735216706495
 31
0.0
  0
LINE
  5
31A
330
295
100
AcDbEntity
  8
AM_VIS
100
AcDbLine
 10
2701.876805399026
 20
2492.735216706495
 30
0.0
 11
2695.308498705539
 21
2492.735216706495
 31
0.0
  0
LINE
  5
31B
330
295
100
AcDbEntity
  8
AM_VIS
100
AcDbLine
 10
4077.534535574325
 20
2492.735216706495
 30
0.0
 11
4070.966228880838
 21
2492.735216706495
 31
0.0
  0
LINE
  5
31C
330
295
100
AcDbEntity
  8
AM_VIS
100
AcDbLine
 10
3984.102842267812
 20
2492.735216706495
 30
0.0
 11
3977.534535574324
 21
2492.735216706495
 31
0.0
  0
LINE
  5
31D
330
295
100
AcDbEntity
  8
AM_VIS
100
AcDbLine
 10
3500.551492984958
 20
2492.735216706495
 30
0.0
 11
3493.983186291471
 21
2492.735216706495
 31
0.0
  0
LINE
  5
31E
330
295
100
AcDbEntity
  8
AM_VIS
100
AcDbLine
 10
3088.699184417857
 20
2492.735216706495
 30
0.0
 11
3082.13087772437
 21
2492.735216706495
 31
0.0
  0
LINE
  5
31F
330
295
100
AcDbEntity
  8
AM_VIS
100
AcDbLine
 10
2556.24941340439
 20
2492.735216706495
 30
0.0
 11
2549.681106710902
 21
2492.735216706495
 31
0.0
  0
LINE
  5
320
330
295
100
AcDbEntity
  8
AM_VIS
100
AcDbLine
 10
2462.817720097877
 20
2492.735216706495
 30
0.0
 11
2456.24941340439
 21
2492.735216706495
 31
0.0
  0
LINE
  5
321
330
295
100
AcDbEntity
  8
AM_VIS
100
AcDbLine
 10
2036.513523226326
 20
2635.735216706484
 30
0.0
 11
1973.267970022958
 21
2635.735216706484
 31
0.0
  0
LINE
  5
322
330
295
100
AcDbEntity
  8
AM_VIS
100
AcDbLine
 10
1973.267970022969
 20
2495.735216706491
 30
0.0
 11
2036.513523226337
 21
2495.735216706491
 31
0.0
  0
LINE
  5
323
330
295
100
AcDbEntity
  8
AM_VIS
100
AcDbLine
 10
2036.513523226326
 20
2635.735216706482
 30
0.0
 11
2055.301011661611
 21
2635.735216706484
 31
0.0
  0
LINE
  5
324
330
295
100
AcDbEntity
  8
AM_VIS
100
AcDbLine
 10
2055.301011661615
 20
2495.73521670649
 30
0.0
 11
2036.513523226338
 21
2495.735216706492
 31
0.0
  0
LINE
  5
325
330
295
100
AcDbEntity
  8
AM_VIS
100
AcDbLine
 10
3049.488756140567
 20
2635.735216706492
 30
0.0
 11
3049.488756140567
 21
2638.735216706491
 31
0.0
  0
LINE
  5
326
330
295
100
AcDbEntity
  8
AM_VIS
100
AcDbLine
 10
3149.488756140567
 20
2635.735216706492
 30
0.0
 11
3149.488756140567
 21
2638.735216706491
 31
0.0
  0
LINE
  5
327
330
295
100
AcDbEntity
  8
AM_VIS
100
AcDbLine
 10
3326.579936876948
 20
2635.735216706487
 30
0.0
 11
3326.579936876948
 21
2638.735216706491
 31
0.0
  0
LINE
  5
328
330
295
100
AcDbEntity
  8
AM_VIS
100
AcDbLine
 10
3486.344715968666
 20
2635.735216706488
 30
0.0
 11
3486.344715968666
 21
2638.735216706491
 31
0.0
  0
LINE
  5
329
330
295
100
AcDbEntity
  8
AM_VIS
100
AcDbLine
 10
3359.178915763084
 20
2635.735216706488
 30
0.0
 11
3359.178915763084
 21
2638.735216706491
 31
0.0
  0
LINE
  5
32A
330
295
100
AcDbEntity
  8
AM_VIS
100
AcDbLine
 10
3459.178915763085
 20
2635.735216706488
 30
0.0
 11
3459.178915763085
 21
2638.735216706491
 31
0.0
  0
LINE
  5
32B
330
295
100
AcDbEntity
  8
AM_VIS
100
AcDbLine
 10
2919.092871661746
 20
2635.735216706492
 30
0.0
 11
2919.092871661746
 21
2638.735216706491
 31
0.0
  0
LINE
  5
32C
330
295
100
AcDbEntity
  8
AM_VIS
100
AcDbLine
 10
3019.092871661746
 20
2635.735216706492
 30
0.0
 11
3019.092871661746
 21
2638.735216706491
 31
0.0
  0
LINE
  5
32D
330
295
100
AcDbEntity
  8
AM_VIS
100
AcDbLine
 10
3029.959197957122
 20
2635.735216706492
 30
0.0
 11
3029.959197957122
 21
2638.735216706491
 31
0.0
  0
LINE
  5
32E
330
295
100
AcDbEntity
  8
AM_VIS
100
AcDbLine
 10
2718.065912861556
 20
2635.735216706492
 30
0.0
 11
2718.065912861556
 21
2638.735216706491
 31
0.0
  0
LINE
  5
32F
330
295
100
AcDbEntity
  8
AM_VIS
100
AcDbLine
 10
2818.065912861555
 20
2635.735216706492
 30
0.0
 11
2818.065912861555
 21
2638.735216706491
 31
0.0
  0
LINE
  5
330
330
295
100
AcDbEntity
  8
AM_VIS
100
AcDbLine
 10
3609.104327359615
 20
2635.735216706489
 30
0.0
 11
3609.104327359615
 21
2638.735216706491
 31
0.0
  0
LINE
  5
331
330
295
100
AcDbEntity
  8
AM_VIS
100
AcDbLine
 10
3709.104327359614
 20
2635.735216706489
 30
0.0
 11
3709.104327359614
 21
2638.735216706491
 31
0.0
  0
LINE
  5
332
330
295
100
AcDbEntity
  8
AM_VIS
100
AcDbLine
 10
2326.878290490828
 20
2635.735216706492
 30
0.0
 11
2326.878290490828
 21
2638.735216706491
 31
0.0
  0
LINE
  5
333
330
295
100
AcDbEntity
  8
AM_VIS
100
AcDbLine
 10
2426.878290490829
 20
2635.735216706492
 30
0.0
 11
2426.878290490829
 21
2638.735216706491
 31
0.0
  0
LINE
  5
334
330
295
100
AcDbEntity
  8
AM_VIS
100
AcDbLine
 10
2910.429639773683
 20
2635.735216706492
 30
0.0
 11
2910.429639773683
 21
2638.735216706491
 31
0.0
  0
LINE
  5
335
330
295
100
AcDbEntity
  8
AM_VIS
100
AcDbLine
 10
3315.713641647296
 20
2635.735216706487
 30
0.0
 11
3315.713641647296
 21
2638.735216706491
 31
0.0
  0
LINE
  5
336
330
295
100
AcDbEntity
  8
AM_VIS
100
AcDbLine
 10
3848.163412660764
 20
2635.735216706489
 30
0.0
 11
3848.163412660764
 21
2638.735216706491
 31
0.0
  0
LINE
  5
337
330
295
100
AcDbEntity
  8
AM_VIS
100
AcDbLine
 10
3948.163412660764
 20
2635.735216706489
 30
0.0
 11
3948.163412660764
 21
2638.735216706491
 31
0.0
  0
LINE
  5
338
330
295
100
AcDbEntity
  8
AM_VIS
100
AcDbLine
 10
3354.924069924587
 20
2495.735216706488
 30
0.0
 11
3354.924069924587
 21
2492.735216706495
 31
0.0
  0
LINE
  5
339
330
295
100
AcDbEntity
  8
AM_VIS
100
AcDbLine
 10
3254.924069924587
 20
2495.735216706488
 30
0.0
 11
3254.924069924587
 21
2492.735216706495
 31
0.0
  0
LINE
  5
33A
330
295
100
AcDbEntity
  8
AM_VIS
100
AcDbLine
 10
3077.832889188207
 20
2495.735216706492
 30
0.0
 11
3077.832889188207
 21
2492.735216706495
 31
0.0
  0
LINE
  5
33B
330
295
100
AcDbEntity
  8
AM_VIS
100
AcDbLine
 10
2918.068110096489
 20
2495.735216706492
 30
0.0
 11
2918.068110096489
 21
2492.735216706495
 31
0.0
  0
LINE
  5
33C
330
295
100
AcDbEntity
  8
AM_VIS
100
AcDbLine
 10
3045.233910302069
 20
2495.735216706492
 30
0.0
 11
3045.233910302069
 21
2492.735216706495
 31
0.0
  0
LINE
  5
33D
330
295
100
AcDbEntity
  8
AM_VIS
100
AcDbLine
 10
2945.233910302069
 20
2495.735216706492
 30
0.0
 11
2945.233910302069
 21
2492.735216706495
 31
0.0
  0
LINE
  5
33E
330
295
100
AcDbEntity
  8
AM_VIS
100
AcDbLine
 10
3485.319954403409
 20
2495.735216706488
 30
0.0
 11
3485.319954403409
 21
2492.735216706495
 31
0.0
  0
LINE
  5
33F
330
295
100
AcDbEntity
  8
AM_VIS
100
AcDbLine
 10
3385.319954403409
 20
2495.735216706488
 30
0.0
 11
3385.319954403409
 21
2492.735216706495
 31
0.0
  0
LINE
  5
340
330
295
100
AcDbEntity
  8
AM_VIS
100
AcDbLine
 10
3374.45362810803
 20
2495.735216706488
 30
0.0
 11
3374.45362810803
 21
2492.735216706495
 31
0.0
  0
LINE
  5
341
330
295
100
AcDbEntity
  8
AM_VIS
100
AcDbLine
 10
3686.346913203599
 20
2495.735216706489
 30
0.0
 11
3686.346913203599
 21
2492.735216706495
 31
0.0
  0
LINE
  5
342
330
295
100
AcDbEntity
  8
AM_VIS
100
AcDbLine
 10
3586.346913203599
 20
2495.735216706488
 30
0.0
 11
3586.346913203599
 21
2492.735216706495
 31
0.0
  0
LINE
  5
343
330
295
100
AcDbEntity
  8
AM_VIS
100
AcDbLine
 10
2795.308498705539
 20
2495.735216706492
 30
0.0
 11
2795.308498705539
 21
2492.735216706495
 31
0.0
  0
LINE
  5
344
330
295
100
AcDbEntity
  8
AM_VIS
100
AcDbLine
 10
2695.308498705539
 20
2495.735216706492
 30
0.0
 11
2695.308498705539
 21
2492.735216706495
 31
0.0
  0
LINE
  5
345
330
295
100
AcDbEntity
  8
AM_VIS
100
AcDbLine
 10
4077.534535574325
 20
2495.735216706489
 30
0.0
 11
4077.534535574325
 21
2492.735216706495
 31
0.0
  0
LINE
  5
346
330
295
100
AcDbEntity
  8
AM_VIS
100
AcDbLine
 10
3977.534535574324
 20
2495.735216706489
 30
0.0
 11
3977.534535574324
 21
2492.735216706495
 31
0.0
  0
LINE
  5
347
330
295
100
AcDbEntity
  8
AM_VIS
100
AcDbLine
 10
3493.983186291471
 20
2495.735216706488
 30
0.0
 11
3493.983186291471
 21
2492.735216706495
 31
0.0
  0
LINE
  5
348
330
295
100
AcDbEntity
  8
AM_VIS
100
AcDbLine
 10
3088.699184417857
 20
2495.735216706492
 30
0.0
 11
3088.699184417857
 21
2492.735216706495
 31
0.0
  0
LINE
  5
349
330
295
100
AcDbEntity
  8
AM_VIS
100
AcDbLine
 10
2556.24941340439
 20
2495.735216706492
 30
0.0
 11
2556.24941340439
 21
2492.735216706495
 31
0.0
  0
LINE
  5
34A
330
295
100
AcDbEntity
  8
AM_VIS
100
AcDbLine
 10
2456.24941340439
 20
2495.735216706492
 30
0.0
 11
2456.24941340439
 21
2492.735216706495
 31
0.0
  0
LINE
  5
34B
330
295
100
AcDbEntity
  8
DEFPOINTS
100
AcDbLine
 10
5204.536036469415
 20
2615.735216706539
 30
0.0
 11
5204.536036469415
 21
2515.73521670654
 31
0.0
  0
LINE
  5
34C
330
295
100
AcDbEntity
  8
DEFPOINTS
100
AcDbLine
 10
3202.206413032579
 20
2635.735216706492
 30
0.0
 11
3202.206413032579
 21
2495.735216706488
 31
0.0
  0
ARC
  5
34D
330
295
100
AcDbEntity
  8
DEFPOINTS
100
AcDbCircle
 10
6204.681654606864
 20
2565.735216706539
 30
0.0
 40
1500.0
100
AcDbArc
 50
178.0897868282918
 51
181.910213171708
  0
ARC
  5
34E
330
295
100
AcDbEntity
  8
DEFPOINTS
100
AcDbCircle
 10
3202.206413032581
 20
2565.735216706488
 30
0.0
 40
2400.0
100
AcDbArc
 50
358.8062515628631
 51
1.193748564730225
  0
POLYLINE
  5
34F
330
295
100
AcDbEntity
  8
DEFPOINTS
100
AcDb2dPolyline
 66
     1
 10
0.0
 20
0.0
 30
0.0
 70
     1
  0
VERTEX
  5
389
330
34F
100
AcDbEntity
  8
DEFPOINTS
100
AcDbVertex
100
AcDb2dVertex
 10
175.6816546068643
 20
2565.735216706541
 30
0.0
 42
0.2394936046111338
  0
VERTEX
  5
38A
330
34F
100
AcDbEntity
  8
DEFPOINTS
100
AcDbVertex
100
AcDb2dVertex
 10
791.3199745564402
 20
1354.164162719867
 30
0.0
  0
VERTEX
  5
38B
330
34F
100
AcDbEntity
  8
DEFPOINTS
100
AcDbVertex
100
AcDb2dVertex
 10
1787.227724951901
 20
627.2215303279095
 30
0.0
 42
0.2381607788510148
  0
VERTEX
  5
38C
330
34F
100
AcDbEntity
  8
DEFPOINTS
100
AcDbVertex
100
AcDb2dVertex
 10
3922.197891579243
 20
276.2784534502547
 30
0.0
  0
VERTEX
  5
38D
330
34F
100
AcDbEntity
  8
DEFPOINTS
100
AcDbVertex
100
AcDb2dVertex
 10
5823.945058588911
 20
839.4998725784731
 30
0.0
  0
VERTEX
  5
38E
330
34F
100
AcDbEntity
  8
DEFPOINTS
100
AcDbVertex
100
AcDb2dVertex
 10
6705.586324166953
 20
1151.841828924815
 30
0.0
 42
0.3176611540677457
  0
VERTEX
  5
38F
330
34F
100
AcDbEntity
  8
DEFPOINTS
100
AcDbVertex
100
AcDb2dVertex
 10
7704.681654606861
 20
2565.735216706538
 30
0.0
 42
0.3176611540677457
  0
VERTEX
  5
390
330
34F
100
AcDbEntity
  8
DEFPOINTS
100
AcDbVertex
100
AcDb2dVertex
 10
6705.58632416695
 20
3979.62860448827
 30
0.0
  0
VERTEX
  5
391
330
34F
100
AcDbEntity
  8
DEFPOINTS
100
AcDbVertex
100
AcDb2dVertex
 10
5823.94505858891
 20
4291.970560834614
 30
0.0
  0
VERTEX
  5
392
330
34F
100
AcDbEntity
  8
DEFPOINTS
100
AcDbVertex
100
AcDb2dVertex
 10
3922.19789157924
 20
4855.191979962828
 30
0.0
 42
0.2381607788510148
  0
VERTEX
  5
393
330
34F
100
AcDbEntity
  8
DEFPOINTS
100
AcDbVertex
100
AcDb2dVertex
 10
1787.2277249519
 20
4504.248903085174
 30
0.0
  0
VERTEX
  5
394
330
34F
100
AcDbEntity
  8
DEFPOINTS
100
AcDbVertex
100
AcDb2dVertex
 10
791.3199745564392
 20
3777.306270693216
 30
0.0
 42
0.2394936046111338
  0
SEQEND
  5
395
330
34F
100
AcDbEntity
  8
DEFPOINTS
  0
LINE
  5
350
330
295
100
AcDbEntity
  8
0
100
AcDbLine
 10
4682.886131139183
 20
2635.735216706551
 30
0.0
 11
4705.24681091421
 21
2615.735216706536
 31
0.0
  0
LINE
  5
351
330
295
100
AcDbEntity
  8
0
100
AcDbLine
 10
4705.246810914175
 20
2515.735216706536
 30
0.0
 11
4682.886131139188
 21
2495.735216706551
 31
0.0
  0
POLYLINE
  5
352
330
295
100
AcDbEntity
  8
0
100
AcDb2dPolyline
 66
     1
 10
0.0
 20
0.0
 30
0.0
 70
     1
  0
VERTEX
  5
396
330
352
100
AcDbEntity
  8
0
100
AcDbVertex
100
AcDb2dVertex
 10
3728.731171457565
 20
2515.735216706528
 30
0.0
  0
VERTEX
  5
397
330
352
100
AcDbEntity
  8
0
100
AcDbVertex
100
AcDb2dVertex
 10
4705.515219550369
 20
2515.735216706528
 30
0.0
  0
VERTEX
  5
398
330
352
100
AcDbEntity
  8
0
100
AcDbVertex
100
AcDb2dVertex
 10
4705.515219550369
 20
2615.735216706535
 30
0.0
  0
VERTEX
  5
399
330
352
100
AcDbEntity
  8
0
100
AcDbVertex
100
AcDb2dVertex
 10
3728.731171457565
 20
2615.735216706535
 30
0.0
  0
SEQEND
  5
39A
330
352
100
AcDbEntity
  8
0
  0
ENDBLK
  5
297
330
295
100
AcDbEntity
  8
0
100
AcDbBlockEnd
  0
BLOCK
  5
35D
330
358
100
AcDbEntity
  8
0
100
AcDbBlockBegin
  2
*U5
 70
     1
 10
0.0
 20
0.0
 30
0.0
  3
*U5
  1

  0
SOLID
  5
359
330
358
100
AcDbEntity
  8
HATCH
  6
CONTINUOUS
 62
   251
100
AcDbTrace
 10
4466.633603963489
 20
2565.735216706534
 30
0.0
 11
5204.536036469415
 21
2515.73521670654
 31
0.0
 12
5204.536036469415
 22
2615.735216706539
 32
0.0
 13
5204.536036469415
 23
2615.735216706539
 33
0.0
210
0.0
220
0.0
230
1.0
  0
SOLID
  5
35A
330
358
100
AcDbEntity
  8
HATCH
  6
CONTINUOUS
 62
   251
100
AcDbTrace
 10
4466.633603963489
 20
2565.735216706534
 30
0.0
 11
5204.536036469415
 21
2615.735216706539
 31
0.0
 12
3728.731171457565
 22
2615.735216706529
 32
0.0
 13
3728.731171457565
 23
2615.735216706529
 33
0.0
210
0.0
220
0.0
230
1.0
  0
SOLID
  5
35B
330
358
100
AcDbEntity
  8
HATCH
  6
CONTINUOUS
 62
   251
100
AcDbTrace
 10
4466.633603963489
 20
2565.735216706534
 30
0.0
 11
3728.731171457565
 21
2615.735216706529
 31
0.0
 12
3728.731171457565
 22
2515.735216706529
 32
0.0
 13
3728.731171457565
 23
2515.735216706529
 33
0.0
210
0.0
220
0.0
230
1.0
  0
SOLID
  5
35C
330
358
100
AcDbEntity
  8
HATCH
  6
CONTINUOUS
 62
   251
100
AcDbTrace
 10
4466.633603963489
 20
2565.735216706534
 30
0.0
 11
3728.731171457565
 21
2515.735216706529
 31
0.0
 12
5204.536036469415
 22
2515.73521670654
 32
0.0
 13
5204.536036469415
 23
2515.73521670654
 33
0.0
210
0.0
220
0.0
230
1.0
  0
ENDBLK
  5
35E
330
358
100
AcDbEntity
  8
0
100
AcDbBlockEnd
  0
BLOCK
  5
387
330
35F
100
AcDbEntity
  8
0
100
AcDbBlockBegin
  2
*U6
 70
     1
 10
0.0
 20
0.0
 30
0.0
  3
*U6
  1

  0
SOLID
  5
360
330
35F
100
AcDbEntity
  8
HATCH
  6
CONTINUOUS
 62
   251
100
AcDbTrace
 10
2036.513523226326
 20
2635.735216706482
 30
0.0
 11
1675.681654606862
 21
2594.73016607261
 31
0.0
 12
3091.526694926685
 22
2594.730166072609
 32
0.0
 13
3091.526694926685
 23
2594.730166072609
 33
0.0
210
0.0
220
0.0
230
1.0
  0
SOLID
  5
361
330
35F
100
AcDbEntity
  8
HATCH
  6
CONTINUOUS
 62
   251
100
AcDbTrace
 10
1973.267970022958
 20
2635.735216706484
 30
0.0
 11
1675.681654606862
 21
2594.73016607261
 31
0.0
 12
2036.513523226326
 22
2635.735216706482
 32
0.0
 13
2036.513523226326
 23
2635.735216706482
 33
0.0
210
0.0
220
0.0
230
1.0
  0
SOLID
  5
362
330
35F
100
AcDbEntity
  8
HATCH
  6
CONTINUOUS
 62
   251
100
AcDbTrace
 10
2036.513523226326
 20
2635.735216706482
 30
0.0
 11
3137.371735245777
 21
2635.735216706492
 31
0.0
 12
2055.301011661611
 22
2635.735216706492
 32
0.0
 13
2055.301011661611
 23
2635.735216706492
 33
0.0
210
0.0
220
0.0
230
1.0
  0
SOLID
  5
363
330
35F
100
AcDbEntity
  8
HATCH
  6
CONTINUOUS
 62
   251
100
AcDbTrace
 10
3137.371735245777
 20
2635.735216706492
 30
0.0
 11
2036.513523226326
 21
2635.735216706482
 31
0.0
 12
3091.526694926685
 22
2594.730166072609
 32
0.0
 13
3091.526694926685
 23
2594.730166072609
 33
0.0
210
0.0
220
0.0
230
1.0
  0
SOLID
  5
364
330
35F
100
AcDbEntity
  8
HATCH
  6
CONTINUOUS
 62
   251
100
AcDbTrace
 10
1721.526694925973
 20
2635.735216706493
 30
0.0
 11
1675.681654606862
 21
2594.73016607261
 31
0.0
 12
1973.267970022958
 22
2635.735216706484
 32
0.0
 13
1973.267970022958
 23
2635.735216706484
 33
0.0
210
0.0
220
0.0
230
1.0
  0
SOLID
  5
365
330
35F
100
AcDbEntity
  8
HATCH
  6
CONTINUOUS
 62
   251
100
AcDbTrace
 10
3091.526694926686
 20
2594.730166072609
 30
0.0
 11
1675.681654606863
 21
2594.73016607261
 31
0.0
 12
3091.526694926685
 22
2536.740267340375
 32
0.0
 13
3091.526694926685
 23
2536.740267340375
 33
0.0
210
0.0
220
0.0
230
1.0
  0
SOLID
  5
366
330
35F
100
AcDbEntity
  8
HATCH
  6
CONTINUOUS
 62
   251
100
AcDbTrace
 10
1675.681654606864
 20
2536.740267340376
 30
0.0
 11
3091.526694926685
 21
2536.740267340375
 31
0.0
 12
1675.681654606863
 22
2594.73016607261
 32
0.0
 13
1675.681654606863
 23
2594.73016607261
 33
0.0
210
0.0
220
0.0
230
1.0
  0
SOLID
  5
367
330
35F
100
AcDbEntity
  8
HATCH
  6
CONTINUOUS
 62
   251
100
AcDbTrace
 10
3137.371735245778
 20
2495.735216706492
 30
0.0
 11
2036.513523226337
 21
2495.735216706491
 31
0.0
 12
2055.301011661615
 22
2495.73521670649
 32
0.0
 13
2055.301011661615
 23
2495.73521670649
 33
0.0
210
0.0
220
0.0
230
1.0
  0
SOLID
  5
368
330
35F
100
AcDbEntity
  8
HATCH
  6
CONTINUOUS
 62
   251
100
AcDbTrace
 10
1973.267970022969
 20
2495.735216706493
 30
0.0
 11
2036.513523226337
 21
2495.735216706491
 31
0.0
 12
3137.371735245778
 22
2495.735216706492
 32
0.0
 13
3137.371735245778
 23
2495.735216706492
 33
0.0
210
0.0
220
0.0
230
1.0
  0
SOLID
  5
369
330
35F
100
AcDbEntity
  8
HATCH
  6
CONTINUOUS
 62
   251
100
AcDbTrace
 10
1721.526694925977
 20
2495.735216706493
 30
0.0
 11
1973.267970022969
 21
2495.735216706493
 31
0.0
 12
3137.371735245778
 22
2495.735216706492
 32
0.0
 13
3137.371735245778
 23
2495.735216706492
 33
0.0
210
0.0
220
0.0
230
1.0
  0
SOLID
  5
36A
330
35F
100
AcDbEntity
  8
HATCH
  6
CONTINUOUS
 62
   251
100
AcDbTrace
 10
3091.526694926685
 20
2536.740267340374
 30
0.0
 11
1721.526694925977
 21
2495.735216706493
 31
0.0
 12
3137.371735245778
 22
2495.735216706492
 32
0.0
 13
3137.371735245778
 23
2495.735216706492
 33
0.0
210
0.0
220
0.0
230
1.0
  0
SOLID
  5
36B
330
35F
100
AcDbEntity
  8
HATCH
  6
CONTINUOUS
 62
   251
100
AcDbTrace
 10
1675.681654606866
 20
2536.740267340376
 30
0.0
 11
1721.526694925977
 21
2495.735216706493
 31
0.0
 12
3091.526694926685
 22
2536.740267340374
 32
0.0
 13
3091.526694926685
 23
2536.740267340374
 33
0.0
210
0.0
220
0.0
230
1.0
  0
SOLID
  5
36C
330
35F
100
AcDbEntity
  8
HATCH
  6
CONTINUOUS
 62
   251
100
AcDbTrace
 10
3091.526694926685
 20
2536.740267340375
 30
0.0
 11
3137.371735245778
 21
2495.735216706492
 31
0.0
 12
3202.206413032579
 22
2495.735216706492
 32
0.0
 13
3202.206413032579
 23
2495.735216706492
 33
0.0
  0
SOLID
  5
36D
330
35F
100
AcDbEntity
  8
HATCH
  6
CONTINUOUS
 62
   251
100
AcDbTrace
 10
3091.526694926685
 20
2594.730166072609
 30
0.0
 11
3091.526694926685
 21
2536.740267340375
 31
0.0
 12
3202.206413032579
 22
2495.735216706492
 32
0.0
 13
3202.206413032579
 23
2495.735216706492
 33
0.0
  0
SOLID
  5
36E
330
35F
100
AcDbEntity
  8
HATCH
  6
CONTINUOUS
 62
   251
100
AcDbTrace
 10
3728.731171457565
 20
2615.735216706528
 30
0.0
 11
3312.886131138474
 21
2594.730166072604
 31
0.0
 12
3728.731171457564
 22
2594.730166072604
 32
0.0
 13
3728.731171457564
 23
2594.730166072604
 33
0.0
210
0.0
220
0.0
230
1.0
  0
SOLID
  5
36F
330
35F
100
AcDbEntity
  8
HATCH
  6
CONTINUOUS
 62
   251
100
AcDbTrace
 10
3267.041090819382
 20
2635.735216706487
 30
0.0
 11
3728.731171457565
 21
2615.735216706528
 31
0.0
 12
4705.246810914211
 22
2615.735216706534
 32
0.0
 13
4705.246810914211
 23
2615.735216706534
 33
0.0
210
0.0
220
0.0
230
1.0
  0
SOLID
  5
370
330
35F
100
AcDbEntity
  8
HATCH
  6
CONTINUOUS
 62
   251
100
AcDbTrace
 10
3267.041090819382
 20
2635.735216706487
 30
0.0
 11
3312.886131138474
 21
2594.730166072604
 31
0.0
 12
3728.731171457565
 22
2615.735216706528
 32
0.0
 13
3728.731171457565
 23
2615.735216706528
 33
0.0
210
0.0
220
0.0
230
1.0
  0
SOLID
  5
371
330
35F
100
AcDbEntity
  8
HATCH
  6
CONTINUOUS
 62
   251
100
AcDbTrace
 10
4682.88613113925
 20
2635.735216706491
 30
0.0
 11
3267.041090819382
 21
2635.735216706487
 31
0.0
 12
4705.246810914211
 22
2615.735216706534
 32
0.0
 13
4705.246810914211
 23
2615.735216706534
 33
0.0
210
0.0
220
0.0
230
1.0
  0
SOLID
  5
372
330
35F
100
AcDbEntity
  8
HATCH
  6
CONTINUOUS
 62
   251
100
AcDbTrace
 10
3137.371735245777
 20
2635.735216706492
 30
0.0
 11
3091.526694926685
 21
2594.730166072609
 31
0.0
 12
3202.206413032579
 22
2495.735216706492
 32
0.0
 13
3202.206413032579
 23
2495.735216706492
 33
0.0
210
0.0
220
0.0
230
1.0
  0
SOLID
  5
373
330
35F
100
AcDbEntity
  8
HATCH
  6
CONTINUOUS
 62
   251
100
AcDbTrace
 10
3202.206413032579
 20
2635.735216706492
 30
0.0
 11
3137.371735245777
 21
2635.735216706492
 31
0.0
 12
3202.206413032579
 22
2495.735216706492
 32
0.0
 13
3202.206413032579
 23
2495.735216706492
 33
0.0
210
0.0
220
0.0
230
1.0
  0
SOLID
  5
374
330
35F
100
AcDbEntity
  8
HATCH
  6
CONTINUOUS
 62
   251
100
AcDbTrace
 10
3728.731171457565
 20
2594.730166072605
 30
0.0
 11
3312.886131138476
 21
2594.730166072604
 31
0.0
 12
3728.731171457564
 22
2536.740267340372
 32
0.0
 13
3728.731171457564
 23
2536.740267340372
 33
0.0
210
0.0
220
0.0
230
1.0
  0
SOLID
  5
375
330
35F
100
AcDbEntity
  8
HATCH
  6
CONTINUOUS
 62
   251
100
AcDbTrace
 10
3312.886131138476
 20
2536.740267340371
 30
0.0
 11
3728.731171457564
 21
2536.740267340372
 31
0.0
 12
3312.886131138476
 22
2594.730166072604
 32
0.0
 13
3312.886131138476
 23
2594.730166072604
 33
0.0
210
0.0
220
0.0
230
1.0
  0
SOLID
  5
376
330
35F
100
AcDbEntity
  8
HATCH
  6
CONTINUOUS
 62
   251
100
AcDbTrace
 10
3728.731171457565
 20
2515.735216706528
 30
0.0
 11
3267.041090819384
 21
2495.735216706489
 31
0.0
 12
4682.886131139119
 22
2495.73521670649
 32
0.0
 13
4682.886131139119
 23
2495.73521670649
 33
0.0
210
0.0
220
0.0
230
1.0
  0
SOLID
  5
377
330
35F
100
AcDbEntity
  8
HATCH
  6
CONTINUOUS
 62
   251
100
AcDbTrace
 10
4705.246810914175
 20
2515.735216706536
 30
0.0
 11
3728.731171457565
 21
2515.735216706528
 31
0.0
 12
4682.886131139119
 22
2495.73521670649
 32
0.0
 13
4682.886131139119
 23
2495.73521670649
 33
0.0
210
0.0
220
0.0
230
1.0
  0
SOLID
  5
378
330
35F
100
AcDbEntity
  8
HATCH
  6
CONTINUOUS
 62
   251
100
AcDbTrace
 10
3312.886131138476
 20
2536.74026734037
 30
0.0
 11
3267.041090819384
 21
2495.735216706489
 31
0.0
 12
3728.731171457565
 22
2515.735216706528
 32
0.0
 13
3728.731171457565
 23
2515.735216706528
 33
0.0
210
0.0
220
0.0
230
1.0
  0
SOLID
  5
379
330
35F
100
AcDbEntity
  8
HATCH
  6
CONTINUOUS
 62
   251
100
AcDbTrace
 10
3728.731171457566
 20
2536.740267340372
 30
0.0
 11
3312.886131138476
 21
2536.74026734037
 31
0.0
 12
3728.731171457565
 22
2515.735216706528
 32
0.0
 13
3728.731171457565
 23
2515.735216706528
 33
0.0
210
0.0
220
0.0
230
1.0
  0
SOLID
  5
37A
330
35F
100
AcDbEntity
  8
HATCH
  6
CONTINUOUS
 62
   251
100
AcDbTrace
 10
3312.886131138476
 20
2536.74026734037
 30
0.0
 11
3202.206413032579
 21
2495.735216706488
 31
0.0
 12
3267.041090819384
 22
2495.735216706489
 32
0.0
 13
3267.041090819384
 23
2495.735216706489
 33
0.0
  0
SOLID
  5
37B
330
35F
100
AcDbEntity
  8
HATCH
  6
CONTINUOUS
 62
   251
100
AcDbTrace
 10
4704.681654606864
 20
2565.735216706536
 30
0.0
 11
4705.515219550369
 21
2515.735216706536
 31
0.0
 12
5204.536036469415
 22
2515.73521670654
 32
0.0
 13
5204.536036469415
 23
2515.73521670654
 33
0.0
210
0.0
220
0.0
230
1.0
  0
SOLID
  5
37C
330
35F
100
AcDbEntity
  8
HATCH
  6
CONTINUOUS
 62
   251
100
AcDbTrace
 10
3312.886131138476
 20
2594.730166072602
 30
0.0
 11
3202.206413032579
 21
2495.735216706488
 31
0.0
 12
3312.886131138476
 22
2536.74026734037
 32
0.0
 13
3312.886131138476
 23
2536.74026734037
 33
0.0
210
0.0
220
0.0
230
1.0
  0
SOLID
  5
37D
330
35F
100
AcDbEntity
  8
HATCH
  6
CONTINUOUS
 62
   251
100
AcDbTrace
 10
4705.515219550369
 20
2615.735216706536
 30
0.0
 11
4704.681654606864
 21
2565.735216706536
 31
0.0
 12
5204.536036469415
 22
2515.73521670654
 32
0.0
 13
5204.536036469415
 23
2515.73521670654
 33
0.0
210
0.0
220
0.0
230
1.0
  0
SOLID
  5
37E
330
35F
100
AcDbEntity
  8
HATCH
  6
CONTINUOUS
 62
   251
100
AcDbTrace
 10
5204.536036469415
 20
2615.735216706538
 30
0.0
 11
4705.515219550369
 21
2615.735216706536
 31
0.0
 12
5204.536036469415
 22
2515.73521670654
 32
0.0
 13
5204.536036469415
 23
2515.73521670654
 33
0.0
  0
SOLID
  5
37F
330
35F
100
AcDbEntity
  8
HATCH
  6
CONTINUOUS
 62
   251
100
AcDbTrace
 10
3312.886131138476
 20
2594.730166072602
 30
0.0
 11
3267.041090819382
 21
2635.735216706487
 31
0.0
 12
3202.206413032579
 22
2635.735216706487
 32
0.0
 13
3202.206413032579
 23
2635.735216706487
 33
0.0
210
0.0
220
0.0
230
1.0
  0
SOLID
  5
380
330
35F
100
AcDbEntity
  8
HATCH
  6
CONTINUOUS
 62
   251
100
AcDbTrace
 10
3202.206413032579
 20
2635.735216706487
 30
0.0
 11
3202.206413032579
 21
2495.735216706488
 31
0.0
 12
3312.886131138476
 22
2594.730166072602
 32
0.0
 13
3312.886131138476
 23
2594.730166072602
 33
0.0
210
0.0
220
0.0
230
1.0
  0
SOLID
  5
381
330
35F
100
AcDbEntity
  8
HATCH
  6
CONTINUOUS
 62
   251
100
AcDbTrace
 10
5601.685523172946
 20
2615.735216706541
 30
0.0
 11
5204.536036469415
 21
2615.735216706539
 31
0.0
 12
5602.206413032582
 22
2565.735216706542
 32
0.0
 13
5602.206413032582
 23
2565.735216706542
 33
0.0
210
0.0
220
0.0
230
1.0
  0
SOLID
  5
382
330
35F
100
AcDbEntity
  8
HATCH
  6
CONTINUOUS
 62
   251
100
AcDbTrace
 10
5204.536036469415
 20
2515.73521670654
 30
0.0
 11
5602.206413032582
 21
2565.735216706542
 31
0.0
 12
5204.536036469415
 22
2615.735216706539
 32
0.0
 13
5204.536036469415
 23
2615.735216706539
 33
0.0
  0
SOLID
  5
383
330
35F
100
AcDbEntity
  8
HATCH
  6
CONTINUOUS
 62
   251
100
AcDbTrace
 10
5602.206413032582
 20
2565.735216706542
 30
0.0
 11
5204.536036469415
 21
2515.73521670654
 31
0.0
 12
5601.685523172948
 22
2515.735216706543
 32
0.0
 13
5601.685523172948
 23
2515.735216706543
 33
0.0
210
0.0
220
0.0
230
1.0
  0
SOLID
  5
384
330
35F
100
AcDbEntity
  8
HATCH
  6
CONTINUOUS
 62
   251
100
AcDbTrace
 10
5602.206413032582
 20
2565.735216706543
 30
0.0
 11
5601.685523172948
 21
2515.735216706543
 31
0.0
 12
6179.536036607426
 22
2515.735216706547
 32
0.0
 13
6179.536036607426
 23
2515.735216706547
 33
0.0
  0
SOLID
  5
385
330
35F
100
AcDbEntity
  8
HATCH
  6
CONTINUOUS
 62
   251
100
AcDbTrace
 10
5601.685523172946
 20
2615.735216706542
 30
0.0
 11
5602.206413032582
 21
2565.735216706543
 31
0.0
 12
6179.536036607426
 22
2515.735216706547
 32
0.0
 13
6179.536036607426
 23
2515.735216706547
 33
0.0
210
0.0
220
0.0
230
1.0
  0
SOLID
  5
386
330
35F
100
AcDbEntity
  8
HATCH
  6
CONTINUOUS
 62
   251
100
AcDbTrace
 10
6179.536036607425
 20
2615.735216706546
 30
0.0
 11
5601.685523172946
 21
2615.735216706542
 31
0.0
 12
6179.536036607426
 22
2515.735216706547
 32
0.0
 13
6179.536036607426
 23
2515.735216706547
 33
0.0
210
0.0
220
0.0
230
1.0
  0
ENDBLK
  5
388
330
35F
100
AcDbEntity
  8
0
100
AcDbBlockEnd
  0
ENDSEC
  0
SECTION
  2
ENTITIES
  0
ARC
  5
1F1
330
1F
100
AcDbEntity
  8
DEFPOINTS
100
AcDbCircle
 10
5204.536036469415
 20
2565.735216706539
 30
0.0
 40
1834.0
100
AcDbArc
 50
283.2553245034076
 51
289.7390386132457
  0
ARC
  5
1F4
330
1F
100
AcDbEntity
  8
DEFPOINTS
100
AcDbCircle
 10
5204.536036469415
 20
2565.735216706539
 30
0.0
 40
1834.0
100
AcDbArc
 50
70.2609613867542
 51
76.7446754965923
  0
MTEXT
  5
1F6
330
1F
100
AcDbEntity
  8
TEKST
100
AcDbMText
 10
3053.456398097647
 20
3372.857766890271
 30
0.0
 40
100.0
 41
1991.156099999999
 71
     1
 72
     1
  1
{\FIMPACT.TTF;Hoogte: 290 cm\PMax. valhoogte: 290 cm}
1001
ACAD
1000
MTEXTBEGIN
1070
    73
1070
     1
1070
    44
1040
1.0
1070
    74
1070
     0
1000
MTEXTEND
1000
MTEXTBEGIN
1070
    73
1070
     1
1070
    44
1040
1.0
1070
    74
1070
     0
1000
MTEXTEND
1000
MTEXTBEGIN
1070
    73
1070
     1
1070
    44
1040
1.0
1070
    74
1070
     0
1000
MTEXTEND
  0
INSERT
  5
353
330
1F
100
AcDbEntity
  8
HATCH
100
AcDbBlockReference
  2
FBKC
 10
0.0
 20
0.0
 30
0.0
  0
ENDSEC
  0
SECTION
  2
OBJECTS
  0
DICTIONARY
  5
C
330
0
100
AcDbDictionary
  3
ACAD_GROUP
350
D
  3
ACAD_LAYOUT
350
1A
  3
ACAD_MLINESTYLE
350
17
  3
ACAD_PLOTSETTINGS
350
19
1001
ACAD
1000
TREAT_AS_HARD
1070
     0
1000
TREAT_AS_HARD
1070
     0
  0
DICTIONARY
  5
216
330
1F
100
AcDbDictionary
  3
ACAD_LAYOUTSELFREF
350
355
  3
ACAD_SORTENTS
350
294
1001
ACAD
1000
TREAT_AS_HARD
1070
     0
  0
DICTIONARY
  5
218
330
50
100
AcDbDictionary
  3
ACAD_LAYOUTSELFREF
350
356
1001
ACAD
1000
TREAT_AS_HARD
1070
     0
  0
DICTIONARY
  5
D
102
{ACAD_REACTORS
330
C
102
}
330
C
100
AcDbDictionary
1001
ACAD
1000
TREAT_AS_HARD
1070
     0
1000
TREAT_AS_HARD
1070
     0
  0
DICTIONARY
  5
1A
102
{ACAD_REACTORS
330
C
102
}
330
C
100
AcDbDictionary
1001
ACAD
1000
TREAT_AS_HARD
1070
     0
1000
TREAT_AS_HARD
1070
     0
  0
DICTIONARY
  5
17
102
{ACAD_REACTORS
330
C
102
}
330
C
100
AcDbDictionary
  3
STANDARD
350
18
1001
ACAD
1000
TREAT_AS_HARD
1070
     0
1000
TREAT_AS_HARD
1070
     0
  0
DICTIONARY
  5
19
102
{ACAD_REACTORS
330
C
102
}
330
C
100
AcDbDictionary
1001
ACAD
1000
TREAT_AS_HARD
1070
     0
1000
TREAT_AS_HARD
1070
     0
  0
XRECORD
  5
355
102
{ACAD_REACTORS
330
216
102
}
330
216
100
AcDbXrecord
340
1F
  0
SORTENTSTABLE
  5
294
102
{ACAD_REACTORS
330
216
102
}
330
216
100
AcDbSortentsTable
330
1F
331
1CD
  5
1CF
331
1AB
  5
1AD
331
189
  5
18B
331
1EF
  5
1F1
331
156
  5
158
331
1BC
  5
1BE
331
19A
  5
19C
331
1DE
  5
1E0
331
145
  5
147
331
178
  5
17A
331
167
  5
169
331
1CB
  5
1CD
331
1A9
  5
1AB
331
1BA
  5
1BC
331
198
  5
19A
331
176
  5
178
331
154
  5
156
331
1DC
  5
1DE
331
143
  5
145
331
187
  5
189
331
165
  5
167
331
1F5
  5
24B
331
1C9
  5
1CB
331
1A7
  5
1A9
331
1EB
  5
1EF
331
152
  5
154
331
1B8
  5
1BA
331
196
  5
198
331
28B
  5
139
331
1DA
  5
1DC
331
141
  5
143
331
174
  5
176
331
185
  5
187
331
163
  5
165
331
1F3
  5
1F5
331
1C7
  5
1C9
331
1A5
  5
1A7
331
1E9
  5
1EB
331
150
  5
152
331
24B
  5
28B
331
1D8
  5
1DA
331
1B6
  5
1B8
331
194
  5
196
331
183
  5
185
331
161
  5
163
331
172
  5
174
331
1F1
  5
1F3
331
1C5
  5
1C7
331
1A3
  5
1A5
331
1E7
  5
1E9
331
14E
  5
150
331
1D6
  5
1D8
331
1B4
  5
1B6
331
192
  5
194
331
181
  5
183
331
15F
  5
161
331
170
  5
172
331
1C3
  5
1C5
331
1A1
  5
1A3
331
1E5
  5
1E7
331
14C
  5
14E
331
1B2
  5
1B4
331
190
  5
192
331
1D4
  5
1D6
331
13B
  5
141
331
16E
  5
170
331
17F
  5
181
331
15D
  5
15F
331
1C1
  5
1C3
331
1E3
  5
1E5
331
14A
  5
14C
331
1B0
  5
1B2
331
18E
  5
190
331
1D2
  5
1D4
331
139
  5
13B
331
16C
  5
16E
331
19F
  5
1A1
331
17D
  5
17F
331
15B
  5
15D
331
292
  5
138
331
1E1
  5
1E3
331
148
  5
14A
331
1D0
  5
1D2
331
1AE
  5
1B0
331
18C
  5
18E
331
16A
  5
16C
331
1BF
  5
1C1
331
19D
  5
19F
331
17B
  5
17D
331
159
  5
15B
331
1CE
  5
1D0
331
1AC
  5
1AE
331
18A
  5
18C
331
168
  5
16A
331
1BD
  5
1BF
331
19B
  5
19D
331
179
  5
17B
331
157
  5
159
331
1DF
  5
1E1
331
146
  5
148
331
1CC
  5
1CE
331
1AA
  5
1AC
331
188
  5
18A
331
1BB
  5
1BD
331
199
  5
19B
331
177
  5
179
331
155
  5
157
331
1DD
  5
1DF
331
144
  5
146
331
166
  5
168
331
1F6
  5
24C
331
1CA
  5
1CC
331
1A8
  5
1AA
331
1EC
  5
1F0
331
153
  5
155
331
1B9
  5
1BB
331
197
  5
199
331
28C
  5
292
331
1DB
  5
1DD
331
142
  5
144
331
175
  5
177
331
186
  5
188
331
164
  5
166
331
1F4
  5
1F6
331
1C8
  5
1CA
331
1A6
  5
1A8
331
1EA
  5
1EC
331
151
  5
153
331
24C
  5
28C
331
1B7
  5
1B9
331
195
  5
197
331
1D9
  5
1DB
331
140
  5
142
331
173
  5
175
331
184
  5
186
331
162
  5
164
331
1F2
  5
1F4
331
1C6
  5
1C8
331
1A4
  5
1A6
331
1E8
  5
1EA
331
14F
  5
151
331
1D7
  5
1D9
331
1B5
  5
1B7
331
193
  5
195
331
182
  5
184
331
160
  5
162
331
171
  5
173
331
1F0
  5
1F2
331
1C4
  5
1C6
331
1A2
  5
1A4
331
1E6
  5
1E8
331
14D
  5
14F
331
1D5
  5
1D7
331
1B3
  5
1B5
331
191
  5
193
331
180
  5
182
331
15E
  5
160
331
16F
  5
171
331
1C2
  5
1C4
331
1A0
  5
1A2
331
1E4
  5
1E6
331
14B
  5
14D
331
1B1
  5
1B3
331
18F
  5
191
331
1D3
  5
1D5
331
13A
  5
140
331
16D
  5
16F
331
17E
  5
180
331
15C
  5
15E
331
1C0
  5
1C2
331
1E2
  5
1E4
331
149
  5
14B
331
1AF
  5
1B1
331
18D
  5
18F
331
1D1
  5
1D3
331
138
  5
13A
331
16B
  5
16D
331
19E
  5
1A0
331
17C
  5
17E
331
15A
  5
15C
331
1E0
  5
1E2
331
1CF
  5
1D1
331
1AD
  5
1AF
331
18B
  5
18D
331
169
  5
16B
331
1BE
  5
1C0
331
19C
  5
19E
331
17A
  5
17C
331
158
  5
15A
331
147
  5
149
  0
XRECORD
  5
356
102
{ACAD_REACTORS
330
218
102
}
330
218
100
AcDbXrecord
340
50
  0
MLINESTYLE
  5
18
102
{ACAD_REACTORS
330
17
102
}
330
17
100
AcDbMlineStyle
  2
STANDARD
 70
     0
  3

 62
   256
 51
90.0
 52
90.0
 71
     2
 49
0.5
 62
   256
  6
BYLAYER
 49
-0.5
 62
   256
  6
BYLAYER
  0
ENDSEC
  0
EOF
