  0
SECTION
  2
HEADER
  9
$ACADVER
  1
AC1012
  9
$DWGCODEPAGE
  3
ANSI_1252
  9
$INSBASE
 10
0.0
 20
0.0
 30
0.0
  9
$EXTMIN
 10
-310.6601667341089
 20
-310.660164444974
 30
0.0
  9
$EXTMAX
 10
9000.000005045713
 20
5274.488904785858
 30
0.0
  9
$LIMMIN
 10
0.0
 20
0.0
  9
$LIMMAX
 10
420.0
 20
297.0
  9
$ORTHOMODE
 70
     1
  9
$REGENMODE
 70
     1
  9
$FILLMODE
 70
     1
  9
$QTEXTMODE
 70
     0
  9
$MIRRTEXT
 70
     1
  9
$DRAGMODE
 70
     2
  9
$LTSCALE
 40
1.0
  9
$OSMODE
 70
  2559
  9
$ATTMODE
 70
     1
  9
$TEXTSIZE
 40
2.5
  9
$TRACEWID
 40
1.0
  9
$TEXTSTYLE
  7
STANDARD
  9
$CLAYER
  8
HATCH
  9
$CELTYPE
  6
BYLAYER
  9
$CECOLOR
 62
   256
  9
$CELTSCALE
 40
1.0
  9
$DELOBJ
 70
     1
  9
$DISPSILH
 70
     0
  9
$DIMSCALE
 40
1.0
  9
$DIMASZ
 40
2.5
  9
$DIMEXO
 40
0.625
  9
$DIMDLI
 40
3.75
  9
$DIMRND
 40
0.0
  9
$DIMDLE
 40
0.0
  9
$DIMEXE
 40
1.25
  9
$DIMTP
 40
0.0
  9
$DIMTM
 40
0.0
  9
$DIMTXT
 40
2.5
  9
$DIMCEN
 40
2.5
  9
$DIMTSZ
 40
0.0
  9
$DIMTOL
 70
     0
  9
$DIMLIM
 70
     0
  9
$DIMTIH
 70
     0
  9
$DIMTOH
 70
     0
  9
$DIMSE1
 70
     0
  9
$DIMSE2
 70
     0
  9
$DIMTAD
 70
     1
  9
$DIMZIN
 70
     8
  9
$DIMBLK
  1

  9
$DIMASO
 70
     1
  9
$DIMSHO
 70
     1
  9
$DIMPOST
  1

  9
$DIMAPOST
  1

  9
$DIMALT
 70
     0
  9
$DIMALTD
 70
     3
  9
$DIMALTF
 40
0.03937007874016
  9
$DIMLFAC
 40
1.0
  9
$DIMTOFL
 70
     1
  9
$DIMTVP
 40
0.0
  9
$DIMTIX
 70
     0
  9
$DIMSOXD
 70
     0
  9
$DIMSAH
 70
     0
  9
$DIMBLK1
  1

  9
$DIMBLK2
  1

  9
$DIMSTYLE
  2
ISO-25
  9
$DIMCLRD
 70
     0
  9
$DIMCLRE
 70
     0
  9
$DIMCLRT
 70
     0
  9
$DIMTFAC
 40
1.0
  9
$DIMGAP
 40
0.625
  9
$DIMJUST
 70
     0
  9
$DIMSD1
 70
     0
  9
$DIMSD2
 70
     0
  9
$DIMTOLJ
 70
     0
  9
$DIMTZIN
 70
     8
  9
$DIMALTZ
 70
     0
  9
$DIMALTTZ
 70
     0
  9
$DIMFIT
 70
     3
  9
$DIMUPT
 70
     0
  9
$DIMUNIT
 70
     2
  9
$DIMDEC
 70
     2
  9
$DIMTDEC
 70
     2
  9
$DIMALTU
 70
     2
  9
$DIMALTTD
 70
     3
  9
$DIMTXSTY
  7
STANDARD
  9
$DIMAUNIT
 70
     0
  9
$LUNITS
 70
     2
  9
$LUPREC
 70
     4
  9
$SKETCHINC
 40
1.0
  9
$FILLETRAD
 40
10.0
  9
$AUNITS
 70
     0
  9
$AUPREC
 70
     0
  9
$MENU
  1
.
  9
$ELEVATION
 40
0.0
  9
$PELEVATION
 40
0.0
  9
$THICKNESS
 40
0.0
  9
$LIMCHECK
 70
     0
  9
$BLIPMODE
 70
     0
  9
$CHAMFERA
 40
10.0
  9
$CHAMFERB
 40
10.0
  9
$CHAMFERC
 40
20.0
  9
$CHAMFERD
 40
0.0
  9
$SKPOLY
 70
     0
  9
$TDCREATE
 40
2452626.598008912
  9
$TDUPDATE
 40
2452776.569246759
  9
$TDINDWG
 40
0.0121293981
  9
$TDUSRTIMER
 40
0.0121287037
  9
$USRTIMER
 70
     1
  9
$ANGBASE
 50
0.0
  9
$ANGDIR
 70
     0
  9
$PDMODE
 70
     0
  9
$PDSIZE
 40
0.0
  9
$PLINEWID
 40
0.0
  9
$COORDS
 70
     2
  9
$SPLFRAME
 70
     0
  9
$SPLINETYPE
 70
     6
  9
$SPLINESEGS
 70
     8
  9
$ATTDIA
 70
     0
  9
$ATTREQ
 70
     1
  9
$HANDLING
 70
-16383
  9
$HANDSEED
  5
3F5
  9
$SURFTAB1
 70
     6
  9
$SURFTAB2
 70
     6
  9
$SURFTYPE
 70
     6
  9
$SURFU
 70
     6
  9
$SURFV
 70
     6
  9
$UCSNAME
  2

  9
$UCSORG
 10
0.0
 20
0.0
 30
0.0
  9
$UCSXDIR
 10
1.0
 20
0.0
 30
0.0
  9
$UCSYDIR
 10
0.0
 20
1.0
 30
0.0
  9
$PUCSNAME
  2

  9
$PUCSORG
 10
0.0
 20
0.0
 30
0.0
  9
$PUCSXDIR
 10
1.0
 20
0.0
 30
0.0
  9
$PUCSYDIR
 10
0.0
 20
1.0
 30
0.0
  9
$USERI1
 70
     0
  9
$USERI2
 70
     0
  9
$USERI3
 70
     0
  9
$USERI4
 70
     0
  9
$USERI5
 70
     0
  9
$USERR1
 40
0.0
  9
$USERR2
 40
0.0
  9
$USERR3
 40
0.0
  9
$USERR4
 40
0.0
  9
$USERR5
 40
0.0
  9
$WORLDVIEW
 70
     1
  9
$SHADEDGE
 70
     3
  9
$SHADEDIF
 70
    70
  9
$TILEMODE
 70
     1
  9
$MAXACTVP
 70
    64
  9
$PINSBASE
 10
0.0
 20
0.0
 30
0.0
  9
$PLIMCHECK
 70
     0
  9
$PEXTMIN
 10
0.0
 20
0.0
 30
0.0
  9
$PEXTMAX
 10
0.0
 20
0.0
 30
0.0
  9
$PLIMMIN
 10
0.0
 20
0.0
  9
$PLIMMAX
 10
12.0
 20
9.0
  9
$UNITMODE
 70
     0
  9
$VISRETAIN
 70
     1
  9
$PLINEGEN
 70
     0
  9
$PSLTSCALE
 70
     1
  9
$TREEDEPTH
 70
  3020
  9
$PICKSTYLE
 70
     1
  9
$CMLSTYLE
  2
STANDARD
  9
$CMLJUST
 70
     0
  9
$CMLSCALE
 40
20.0
  9
$SAVEIMAGES
 70
     1
  0
ENDSEC
  0
SECTION
  2
CLASSES
  0
CLASS
  1
ACDBDICTIONARYWDFLT
  2
AcDbDictionaryWithDefault
  3
AutoCAD 2000
 90
    32768
280
     0
281
     0
  0
CLASS
  1
ACDBPLACEHOLDER
  2
AcDbPlaceHolder
  3
AutoCAD 2000
 90
    32768
280
     0
281
     0
  0
CLASS
  1
LAYOUT
  2
AcDbLayout
  3
AutoCAD 2000
 90
    32768
280
     0
281
     0
  0
CLASS
  1
LONG_TRANSACTION
  2
AcDbLongTransaction
  3
AutoCAD 2000
 90
    32768
280
     0
281
     0
  0
CLASS
  1
LWPOLYLINE
  2
AcDbPolyline
  3
AutoCAD 2000
 90
    32768
280
     0
281
     1
  0
CLASS
  1
HATCH
  2
AcDbHatch
  3
AutoCAD 2000
 90
    32768
280
     0
281
     1
  0
CLASS
  1
XRECORD
  2
AcDbXrecord
  3
AutoCAD 2000
 90
    32768
280
     0
281
     0
  0
CLASS
  1
LONG_TRANSACTION
  2
AcDbLongTransaction
  3
AutoCAD 2000
 90
    32768
280
     0
281
     0
  0
CLASS
  1
LWPOLYLINE
  2
AcDbPolyline
  3
AutoCAD 2000
 90
    32768
280
     0
281
     1
  0
CLASS
  1
HATCH
  2
AcDbHatch
  3
AutoCAD 2000
 90
    32768
280
     0
281
     1
  0
CLASS
  1
XRECORD
  2
AcDbXrecord
  3
AutoCAD 2000
 90
    32768
280
     0
281
     0
  0
CLASS
  1
LONG_TRANSACTION
  2
AcDbLongTransaction
  3
AutoCAD 2000
 90
    32768
280
     0
281
     0
  0
CLASS
  1
LWPOLYLINE
  2
AcDbPolyline
  3
AutoCAD 2000
 90
    32768
280
     0
281
     1
  0
CLASS
  1
HATCH
  2
AcDbHatch
  3
AutoCAD 2000
 90
    32768
280
     0
281
     1
  0
CLASS
  1
XRECORD
  2
AcDbXrecord
  3
AutoCAD 2000
 90
    32768
280
     0
281
     0
  0
CLASS
  1
DICTIONARYVAR
  2
AcDbDictionaryVar
  3
AutoCAD 2000
 90
    32768
280
     0
281
     0
  0
CLASS
  1
SORTENTSTABLE
  2
AcDbSortentsTable
  3
AutoCAD 2000
 90
    32768
280
     0
281
     0
  0
CLASS
  1
LONG_TRANSACTION
  2
AcDbLongTransaction
  3
AutoCAD 2000
 90
    32768
280
     0
281
     0
  0
CLASS
  1
LWPOLYLINE
  2
AcDbPolyline
  3
AutoCAD 2000
 90
    32768
280
     0
281
     1
  0
CLASS
  1
HATCH
  2
AcDbHatch
  3
AutoCAD 2000
 90
    32768
280
     0
281
     1
  0
CLASS
  1
XRECORD
  2
AcDbXrecord
  3
AutoCAD 2000
 90
    32768
280
     0
281
     0
  0
ENDSEC
  0
SECTION
  2
TABLES
  0
TABLE
  2
VPORT
  5
8
330
0
100
AcDbSymbolTable
 70
     2
  0
VPORT
  5
348
330
8
100
AcDbSymbolTableRecord
100
AcDbViewportTableRecord
  2
*ACTIVE
 70
     0
 10
0.0
 20
0.0
 11
1.0
 21
1.0
 12
3424.5952845098
 22
872.8435085778537
 13
0.0
 23
0.0
 14
10.0
 24
10.0
 15
10.0
 25
10.0
 16
0.0
 26
0.0
 36
1.0
 17
0.0
 27
0.0
 37
0.0
 40
13422.39864937853
 41
1.558704453441295
 42
50.0
 43
0.0
 44
0.0
 50
0.0
 51
0.0
 71
     0
 72
   100
 73
     1
 74
     3
 75
     0
 76
     0
 77
     0
 78
     0
  0
ENDTAB
  0
TABLE
  2
LTYPE
  5
5
330
0
100
AcDbSymbolTable
 70
     1
  0
LTYPE
  5
14
330
5
100
AcDbSymbolTableRecord
100
AcDbLinetypeTableRecord
  2
BYBLOCK
 70
     0
  3

 72
    65
 73
     0
 40
0.0
  0
LTYPE
  5
15
330
5
100
AcDbSymbolTableRecord
100
AcDbLinetypeTableRecord
  2
BYLAYER
 70
     0
  3

 72
    65
 73
     0
 40
0.0
  0
LTYPE
  5
16
330
5
100
AcDbSymbolTableRecord
100
AcDbLinetypeTableRecord
  2
CONTINUOUS
 70
     0
  3
Solid line
 72
    65
 73
     0
 40
0.0
  0
ENDTAB
  0
TABLE
  2
LAYER
  5
2
330
0
100
AcDbSymbolTable
 70
     5
  0
LAYER
  5
10
330
2
100
AcDbSymbolTableRecord
100
AcDbLayerTableRecord
  2
0
 70
     0
 62
     7
  6
CONTINUOUS
  0
LAYER
  5
5D
330
2
100
AcDbSymbolTableRecord
100
AcDbLayerTableRecord
  2
SAFETY
 70
     0
 62
     7
  6
CONTINUOUS
  0
LAYER
  5
5E
330
2
100
AcDbSymbolTableRecord
100
AcDbLayerTableRecord
  2
OBJECT
 70
     2
 62
     7
  6
CONTINUOUS
  0
LAYER
  5
19E
330
2
100
AcDbSymbolTableRecord
100
AcDbLayerTableRecord
  2
TEKST
 70
     0
 62
     7
  6
CONTINUOUS
  0
LAYER
  5
217
330
2
100
AcDbSymbolTableRecord
100
AcDbLayerTableRecord
  2
HATCH
 70
     0
 62
     7
  6
CONTINUOUS
  0
ENDTAB
  0
TABLE
  2
STYLE
  5
3
330
0
100
AcDbSymbolTable
 70
     3
  0
STYLE
  5
11
330
3
100
AcDbSymbolTableRecord
100
AcDbTextStyleTableRecord
  2
STANDARD
 70
     0
 40
0.0
 41
1.0
 50
0.0
 71
     0
 42
2.5
  3
txt
  4

  0
STYLE
  5
5F
330
3
100
AcDbSymbolTableRecord
100
AcDbTextStyleTableRecord
  2
STYLE1
 70
     0
 40
5.0
 41
1.0
 50
0.0
 71
     0
 42
2.5
  3
romans.shx
  4

  0
STYLE
  5
60
330
3
100
AcDbSymbolTableRecord
100
AcDbTextStyleTableRecord
  2
STYLE2
 70
     0
 40
3.0
 41
1.0
 50
0.0
 71
     0
 42
1.5
  3
romand.shx
  4

  0
ENDTAB
  0
TABLE
  2
VIEW
  5
6
330
0
100
AcDbSymbolTable
 70
     0
  0
ENDTAB
  0
TABLE
  2
UCS
  5
7
330
0
100
AcDbSymbolTable
 70
     0
  0
ENDTAB
  0
TABLE
  2
APPID
  5
9
330
0
100
AcDbSymbolTable
 70
     2
  0
APPID
  5
12
330
9
100
AcDbSymbolTableRecord
100
AcDbRegAppTableRecord
  2
ACAD
 70
     0
  0
APPID
  5
195
330
9
100
AcDbSymbolTableRecord
100
AcDbRegAppTableRecord
  2
CONTENTBLOCKICON
 70
     0
  0
ENDTAB
  0
TABLE
  2
DIMSTYLE
  5
A
330
0
100
AcDbSymbolTable
 70
     2
  0
DIMSTYLE
105
27
330
A
100
AcDbSymbolTableRecord
100
AcDbDimStyleTableRecord
  2
ISO-25
 70
     0
  3

  4

  5

  6

  7

 40
1.0
 41
2.5
 42
0.625
 43
3.75
 44
1.25
 45
0.0
 46
0.0
 47
0.0
 48
0.0
140
2.5
141
2.5
142
0.0
143
0.03937007874016
144
1.0
145
0.0
146
1.0
147
0.625
 71
     0
 72
     0
 73
     0
 74
     0
 75
     0
 76
     0
 77
     1
 78
     8
170
     0
171
     3
172
     1
173
     0
174
     0
175
     0
176
     0
177
     0
178
     0
270
     2
271
     2
272
     2
273
     2
274
     3
340
11
275
     0
280
     0
281
     0
282
     0
283
     0
284
     8
285
     0
286
     0
287
     3
288
     0
  0
DIMSTYLE
105
61
330
A
100
AcDbSymbolTableRecord
100
AcDbDimStyleTableRecord
  2
STANDARD
 70
     0
  3

  4

  5

  6

  7

 40
1.0
 41
4.0
 42
2.0
 43
7.0
 44
2.0
 45
0.0
 46
0.0
 47
0.0
 48
0.0
140
5.0
141
0.09
142
0.0
143
25.4
144
1.0
145
0.0
146
1.0
147
2.0
 71
     0
 72
     0
 73
     0
 74
     0
 75
     0
 76
     0
 77
     1
 78
     8
170
     0
171
     2
172
     1
173
     0
174
     0
175
     0
176
     1
177
     1
178
     1
270
     2
271
     1
272
     0
273
     2
274
     2
340
5F
275
     0
280
     0
281
     0
282
     0
283
     1
284
     0
285
     0
286
     0
287
     3
288
     0
  0
ENDTAB
  0
TABLE
  2
BLOCK_RECORD
  5
1
330
0
100
AcDbSymbolTable
 70
    11
  0
BLOCK_RECORD
  5
1F
102
{ACAD_XDICTIONARY
360
118
102
}
330
1
100
AcDbSymbolTableRecord
100
AcDbBlockTableRecord
  2
*MODEL_SPACE
  0
BLOCK_RECORD
  5
50
102
{ACAD_XDICTIONARY
360
11A
102
}
330
1
100
AcDbSymbolTableRecord
100
AcDbBlockTableRecord
  2
*PAPER_SPACE
  0
BLOCK_RECORD
  5
126
330
1
100
AcDbSymbolTableRecord
100
AcDbBlockTableRecord
  2
ADKF
1001
ACAD
1000
DesignCenter Data
1002
{
1070
     1
1070
     4
1002
}
1001
CONTENTBLOCKICON
1071
        0
1004
28000000200000002000000001000800000000000004000000000000000000000000000000000000000000004000000080000000FF000000002000004020000080200000FF200000004000004040000080400000FF400000006000004060000080600000FF600000008000004080000080800000FF80000000A0000040A000
1004
0080A00000FFA0000000C0000040C0000080C00000FFC0000000FF000040FF000080FF0000FFFF0000000020004000200080002000FF002000002020004020200080202000FF202000004020004040200080402000FF402000006020004060200080602000FF602000008020004080200080802000FF80200000A0200040A0
1004
200080A02000FFA0200000C0200040C0200080C02000FFC0200000FF200040FF200080FF2000FFFF2000000040004000400080004000FF004000002040004020400080204000FF204000004040004040400080404000FF404000006040004060400080604000FF604000008040004080400080804000FF80400000A0400040
1004
A0400080A04000FFA0400000C0400040C0400080C04000FFC0400000FF400040FF400080FF4000FFFF4000000060004000600080006000FF006000002060004020600080206000FF206000004060004040600080406000FF406000006060004060600080606000FF606000008060004080600080806000FF80600000A06000
1004
40A0600080A06000FFA0600000C0600040C0600080C06000FFC0600000FF600040FF600080FF6000FFFF6000000080004000800080008000FF008000002080004020800080208000FF208000004080004040800080408000FF408000006080004060800080608000FF608000008080004080800080808000FF80800000A080
1004
0040A0800080A08000FFA0800000C0800040C0800080C08000FFC0800000FF800040FF800080FF8000FFFF80000000A0004000A0008000A000FF00A0000020A0004020A0008020A000FF20A0000040A0004040A0008040A000FF40A0000060A0004060A0008060A000FF60A0000080A0004080A0008080A000FF80A00000A0
1004
A00040A0A00080A0A000FFA0A00000C0A00040C0A00080C0A000FFC0A00000FFA00040FFA00080FFA000FFFFA0000000C0004000C0008000C000FF00C0000020C0004020C0008020C000FF20C0000040C0004040C0008040C000FF40C0000060C0004060C0008060C000FF60C0000080C0004080C0008080C000FF80C00000
1004
A0C00040A0C00080A0C000FFA0C00000C0C00040C0C00080C0C000FFC0C00000FFC00040FFC00080FFC000FFFFC0000000FF004000FF008000FF00FF00FF000020FF004020FF008020FF00FF20FF000040FF004040FF008040FF00FF40FF000060FF004060FF008060FF00FF60FF000080FF004080FF008080FF00FF80FF00
1004
00A0FF0040A0FF0080A0FF00FFA0FF0000C0FF0040C0FF0080C0FF00FFC0FF0000FFFF0040FFFF0080FFFF00FFFFFF0000000000000000000000000000000000000000000000000000000000000000000000000000000000000000000000000000000000000000000000000000000000000000000000000000000000000000
1004
00000000000000000000000000000000000000000000000000000000000000000000000000000000000000000000000000000000000000000000000000000000000000000000000000000000000000000000000000000000000000000000000000000000000000000000000000000000000000000000000000000000000000
1004
000000000000000000000000000000000000000000000000FFFFFFFFFFFFFFFFFFFFFFFFFF0000000000000000000000000000000000FFFF00000000000000000000000000FF000000000000000000000000000000FF00000000000000000000000000000000FFFF000000000000000000000000FF00000000000000000000
1004
000000000000000000FFFFFFFFFFFFFFFFFF000000FF0000000000000000001C1C1C000000000000000000000000000000FF0000FF000000001C1C1C1C1C1C1C001C1C1C1C1C0000000000000000000000FF0000FF000000FCFC1C1C1C1C1C0000491C1C1CFCFCFCFCFCFC000000000000FF0000FF00000049491C1C1C4900
1004
0000491C1C1CFC00000000FC000000000000FF0000FF000000FCFC1C1C1C1C1C1C1C1C1C1C1CFCFCFCFCFCFC000000000000FF0000FF000000001C1C1C1C1C4900001C1C1C1C1C0000000000000000000000FF000000FF000000000000494949000000000000000000000000000000000000FF000000FF0000000000004949
1004
4900000000000000000000FFFFFFFFFFFFFFFFFF00000000FF00000000004949490000000000000000FFFF0000000000000000000000000000FF000000FFFFFFFFFF000000000000FFFF00000000000000000000000000000000FF0000FFFFFFFFFF0000000000FFFF000000000000000000000000000000000000FF000000
1004
000000000000FFFF000000000000000000000000000000000000000000FF0000000000FFFFFF000000000000000000000000000000000000000000000000FFFFFFFFFF000000000000000000000000000000000000000000000000000000000000000000000000000000000000000000000000000000000000000000000000
1004
00000000000000000000000000000000000000000000000000000000000000000000000000000000000000000000000000000000000000000000000000000000000000000000000000000000000000000000000000000000000000000000000000000000000000000000000000000000000000000000000000000000000000
1004
0000000000000000000000000000000000000000000000000000000000000000000000000000000000000000000000000000000000000000
  0
BLOCK_RECORD
  5
2B1
330
1
100
AcDbSymbolTableRecord
100
AcDbBlockTableRecord
  2
1
1001
CONTENTBLOCKICON
1071
        0
1004
28000000200000002000000001000800000000000004000000000000000000000000000000000000000000004000000080000000FF000000002000004020000080200000FF200000004000004040000080400000FF400000006000004060000080600000FF600000008000004080000080800000FF80000000A0000040A000
1004
0080A00000FFA0000000C0000040C0000080C00000FFC0000000FF000040FF000080FF0000FFFF0000000020004000200080002000FF002000002020004020200080202000FF202000004020004040200080402000FF402000006020004060200080602000FF602000008020004080200080802000FF80200000A0200040A0
1004
200080A02000FFA0200000C0200040C0200080C02000FFC0200000FF200040FF200080FF2000FFFF2000000040004000400080004000FF004000002040004020400080204000FF204000004040004040400080404000FF404000006040004060400080604000FF604000008040004080400080804000FF80400000A0400040
1004
A0400080A04000FFA0400000C0400040C0400080C04000FFC0400000FF400040FF400080FF4000FFFF4000000060004000600080006000FF006000002060004020600080206000FF206000004060004040600080406000FF406000006060004060600080606000FF606000008060004080600080806000FF80600000A06000
1004
40A0600080A06000FFA0600000C0600040C0600080C06000FFC0600000FF600040FF600080FF6000FFFF6000000080004000800080008000FF008000002080004020800080208000FF208000004080004040800080408000FF408000006080004060800080608000FF608000008080004080800080808000FF80800000A080
1004
0040A0800080A08000FFA0800000C0800040C0800080C08000FFC0800000FF800040FF800080FF8000FFFF80000000A0004000A0008000A000FF00A0000020A0004020A0008020A000FF20A0000040A0004040A0008040A000FF40A0000060A0004060A0008060A000FF60A0000080A0004080A0008080A000FF80A00000A0
1004
A00040A0A00080A0A000FFA0A00000C0A00040C0A00080C0A000FFC0A00000FFA00040FFA00080FFA000FFFFA0000000C0004000C0008000C000FF00C0000020C0004020C0008020C000FF20C0000040C0004040C0008040C000FF40C0000060C0004060C0008060C000FF60C0000080C0004080C0008080C000FF80C00000
1004
A0C00040A0C00080A0C000FFA0C00000C0C00040C0C00080C0C000FFC0C00000FFC00040FFC00080FFC000FFFFC0000000FF004000FF008000FF00FF00FF000020FF004020FF008020FF00FF20FF000040FF004040FF008040FF00FF40FF000060FF004060FF008060FF00FF60FF000080FF004080FF008080FF00FF80FF00
1004
00A0FF0040A0FF0080A0FF00FFA0FF0000C0FF0040C0FF0080C0FF00FFC0FF0000FFFF0040FFFF0080FFFF00FFFFFF00000000000000000000000000000000000000000000000000000000000000000000000000000000000000000000FFFFFFFFFFFFFFFFFFFFFF000000000000000000000000000000000000000000FF00
1004
0000000000000000FF000000000000000000000000000000000000000000FF000000000000000000FF000000000000000000000000000000000000000000FF000000000000000000FF000000000000000000000000000000000000000000FFFFFFFFFFFFFFFFFFFFFF000000000000000000000000000000000000000000FF
1004
FFFFFFFFFFFFFFFFFFFF00000000000000000000000000000000FFFFFFFFFFFF000000000000000000FF00000000000000000000000000000000FFFFFFFFFFFFFFFFFFFFFFFFFFFFFFFF00000000000000000000000000000000FF0000000000000000000000000000FF00000000000000000000000000000000FFFFFFFFFF
1004
FFFFFFFFFFFFFFFFFFFFFF00000000000000000000000000000000FF0000000000000000000000000000FF00000000000000000000000000000000FFFFFFFFFFFFFFFFFFFFFFFFFFFFFFFF00000000000000000000000000000000FFFFFFFFFFFFFFFFFFFFFFFFFFFFFFFF00000000000000000000000000000000FF000000
1004
0000000000000000000000FF00000000000000000000000000000000FFFFFFFFFFFFFFFFFFFFFFFFFFFFFFFF00000000000000000000000000000000FF0000000000000000000000000000FF00000000000000000000000000000000FFFFFFFFFFFFFFFFFFFFFFFFFFFFFFFF00000000000000000000000000000000FF0000
1004
000000000000000000000000FF00000000000000000000000000000000FFFFFFFFFFFFFFFFFFFFFFFFFFFFFFFF00000000000000000000000000000000FFFFFFFFFFFFFFFFFFFFFFFFFFFFFFFF00000000000000000000000000000000FF0000000000000000000000000000FF00000000000000000000000000000000FF00
1004
00000000000000000000000000FF00000000000000000000000000000000FFFFFFFFFFFFFFFFFFFFFFFFFFFFFFFF00000000000000000000000000000000FFFFFFFFFFFFFFFFFFFFFFFFFFFFFFFF00000000000000000000000000000000FF0000000000000000000000000000FF00000000000000000000000000000000FF
1004
FFFFFFFFFFFFFFFFFFFFFFFFFFFFFF00000000000000000000000000000000FFFFFFFFFFFFFFFFFFFFFFFFFFFFFFFF00000000000000000000000000000000FF0000000000000000000000000000FF00000000000000000000000000000000FF0000000000000000000000000000FF00000000000000000000000000000000
1004
FFFFFFFFFFFFFFFFFFFFFFFFFFFFFFFF00000000000000000000000000000000000000000000000000000000000000000000000000000000
  0
BLOCK_RECORD
  5
353
330
1
100
AcDbSymbolTableRecord
100
AcDbBlockTableRecord
  2
*U2
  0
BLOCK_RECORD
  5
367
330
1
100
AcDbSymbolTableRecord
100
AcDbBlockTableRecord
  2
*U3
  0
BLOCK_RECORD
  5
37E
330
1
100
AcDbSymbolTableRecord
100
AcDbBlockTableRecord
  2
*U4
  0
BLOCK_RECORD
  5
38C
330
1
100
AcDbSymbolTableRecord
100
AcDbBlockTableRecord
  2
*U5
  0
BLOCK_RECORD
  5
393
330
1
100
AcDbSymbolTableRecord
100
AcDbBlockTableRecord
  2
*U6
  0
BLOCK_RECORD
  5
39A
330
1
100
AcDbSymbolTableRecord
100
AcDbBlockTableRecord
  2
*U7
  0
BLOCK_RECORD
  5
3AB
330
1
100
AcDbSymbolTableRecord
100
AcDbBlockTableRecord
  2
*U8
  0
BLOCK_RECORD
  5
3CF
330
1
100
AcDbSymbolTableRecord
100
AcDbBlockTableRecord
  2
*U9
  0
BLOCK_RECORD
  5
3E4
330
1
100
AcDbSymbolTableRecord
100
AcDbBlockTableRecord
  2
*U10
  0
ENDTAB
  0
ENDSEC
  0
SECTION
  2
BLOCKS
  0
BLOCK
  5
20
330
1F
100
AcDbEntity
  8
0
100
AcDbBlockBegin
  2
*MODEL_SPACE
 70
     0
 10
0.0
 20
0.0
 30
0.0
  3
*MODEL_SPACE
  1

  0
ENDBLK
  5
21
330
1F
100
AcDbEntity
  8
0
100
AcDbBlockEnd
  0
BLOCK
  5
52
330
50
100
AcDbEntity
 67
     1
  8
0
100
AcDbBlockBegin
  2
*PAPER_SPACE
 70
     0
 10
0.0
 20
0.0
 30
0.0
  3
*PAPER_SPACE
  1

  0
ENDBLK
  5
53
330
50
100
AcDbEntity
 67
     1
  8
0
100
AcDbBlockEnd
  0
BLOCK
  5
127
330
126
100
AcDbEntity
  8
0
100
AcDbBlockBegin
  2
ADKF
 70
     0
 10
0.0
 20
0.0
 30
0.0
  3
ADKF
  1

  0
INSERT
  5
303
330
126
100
AcDbEntity
  8
HATCH
  6
CONTINUOUS
 62
     2
100
AcDbBlockReference
  2
*U2
 10
0.0
 20
0.0
 30
0.0
1001
ACAD
1002
{
1000
R14_HATCH_DATA
1000
303
1011
1.0
1021
0.0
1031
0.0
1011
0.0
1021
1.0
1031
0.0
1011
0.0
1021
0.0
1031
1.0
1040
0.0
1010
0.0
1020
0.0
1030
1.0
1000
SOLID
1070
     1
1070
     1
1071
        5
1071
        7
1070
     0
1070
     1
1071
        4
1040
5148.329900851805
1040
2377.078849841989
1040
5148.329900851805
1040
2333.537121576657
1040
7000.000005045713
1040
2333.537121576657
1040
7000.000005045712
1040
2377.078849841989
1071
        4
1005
333
1005
336
1005
331
1005
341
1071
        7
1070
     0
1070
     1
1071
        5
1040
6869.502552171387
1040
2277.078849841989
1040
6880.186046963546
1040
2284.552664981946
1040
6918.308653073808
1040
2333.537121576657
1040
5148.329900851805
1040
2333.537121576657
1040
5148.329900851807
1040
2277.078849841989
1071
        5
1005
331
1005
336
1005
330
1005
33E
1005
340
1071
        7
1070
     0
1070
     1
1071
        9
1040
5148.329900851805
1040
2277.078849841989
1040
5148.329900851805
1040
1920.697562913152
1040
6871.252461229919
1040
1920.697562913152
1040
6825.72515450964
1040
1952.546941872669
1040
6803.940808160914
1040
2012.416822336248
1040
6803.940808160914
1040
2099.500295261856
1040
6803.940808160915
1040
2186.583768187466
1040
6825.725154509637
1040
2246.453648651038
1040
6869.502552171387
1040
2277.078849841989
1071
        9
1005
33F
1005
33E
1005
330
1005
336
1005
32F
1005
33B
1005
339
1005
33C
1005
338
1071
        7
1070
     0
1070
     1
1071
        5
1040
5148.329900851805
1040
1920.697562913152
1040
5148.329900851805
1040
1864.239291178486
1040
6919.261380737322
1040
1864.239291178486
1040
6880.186046963543
1040
1914.447925541767
1040
6871.252461229919
1040
1920.697562913152
1071
        5
1005
33B
1005
32F
1005
336
1005
332
1005
33A
1071
        7
1070
     0
1070
     1
1071
        4
1040
7000.000005045712
1040
1864.239291178486
1040
5148.329900851805
1040
1864.239291178485
1040
5148.329900851805
1040
1820.697562913151
1040
7000.000005045712
1040
1820.697562913151
1071
        4
1005
332
1005
336
1005
334
1005
33D
1070
     0
1070
     1
1040
2.805063001456547
1071
        5
1040
6620.920494893765
1040
2358.394243721315
1040
0.0
1040
6612.499214060382
1040
2291.072733115761
1040
0.0
1040
6578.814058363819
1040
2184.480327284873
1040
0.0
1040
6494.60121766695
1040
1892.753775711957
1040
0.0
1040
6503.022498500333
1040
1831.042388182446
1040
0.0
1002
}
  0
INSERT
  5
304
330
126
100
AcDbEntity
  8
HATCH
  6
CONTINUOUS
 62
     3
100
AcDbBlockReference
  2
*U3
 10
0.0
 20
0.0
 30
0.0
1001
ACAD
1002
{
1000
R14_HATCH_DATA
1000
304
1011
1.0
1021
0.0
1031
0.0
1011
0.0
1021
1.0
1031
0.0
1011
0.0
1021
0.0
1031
1.0
1040
0.0
1010
0.0
1020
0.0
1030
1.0
1000
SOLID
1070
     1
1070
     1
1071
        2
1071
        7
1070
     0
1070
     1
1071
        4
1040
2692.693419533962
1040
2469.605034702035
1040
2692.693419533962
1040
2369.605034702034
1040
3955.636486363554
1040
2369.605034702034
1040
3955.636486363554
1040
2469.605034702035
1071
        4
1005
31F
1005
320
1005
31E
1005
32A
1071
        7
1070
     1
1070
     1
1071
        8
1040
2692.693419533962
1040
1834.036833649648
1040
0.0
1040
2692.693419533962
1040
1759.129185809288
1040
0.0
1040
2692.693419533962
1040
1734.036833649648
1040
0.0
1040
3054.471891774515
1040
1734.036833649648
1040
0.8446528229252635
1040
4268.949626029396
1040
1500.000007334847
1040
0.0
1040
4160.702222308249
1040
1500.000007334847
1040
-0.8990080223738463
1040
3166.78972398263
1040
1834.036833649649
1040
0.0
1040
3140.453730630477
1040
1834.036833649648
1040
0.0
1071
        8
1005
32B
1005
31D
1005
320
1005
312
1005
322
1005
31C
1005
311
1005
31B
1070
     0
1070
     1
1040
7.599493466289361
1071
        2
1040
3324.648558607947
1040
2420.751779072187
1040
0.0
1040
2951.912357414112
1040
1797.593309254989
1040
0.0
1002
}
  0
INSERT
  5
305
330
126
100
AcDbEntity
  8
HATCH
  6
CONTINUOUS
 62
   251
100
AcDbBlockReference
  2
*U4
 10
0.0
 20
0.0
 30
0.0
1001
ACAD
1002
{
1000
R14_HATCH_DATA
1000
305
1011
1.0
1021
0.0
1031
0.0
1011
0.0
1021
1.0
1031
0.0
1011
0.0
1021
0.0
1031
1.0
1040
0.0
1010
0.0
1020
0.0
1030
1.0
1000
SOLID
1070
     1
1070
     1
1071
        1
1071
        7
1070
     1
1070
     1
1071
        7
1040
3166.789723982644
1040
1834.036833649711
1040
0.8990080223739001
1040
4160.702222308249
1040
1500.000007334847
1040
0.0
1040
3955.636486363554
1040
1500.000007334847
1040
0.0
1040
3955.636486363554
1040
2369.605034702034
1040
0.0
1040
2692.693419533962
1040
2369.605034702034
1040
0.0
1040
2692.693419533962
1040
1834.036833649648
1040
0.0
1040
3140.453730630477
1040
1834.036833649648
1040
0.0
1071
        7
1005
31E
1005
320
1005
31D
1005
32B
1005
31B
1005
311
1005
32A
1070
     0
1070
     1
1040
5.019993876297347
1071
        1
1040
3367.566368634892
1040
1987.961462931365
1040
0.0
1002
}
  0
INSERT
  5
306
330
126
100
AcDbEntity
  8
HATCH
  6
CONTINUOUS
 62
     2
100
AcDbBlockReference
  2
*U5
 10
0.0
 20
0.0
 30
0.0
1001
ACAD
1002
{
1000
R14_HATCH_DATA
1000
306
1011
1.0
1021
0.0
1031
0.0
1011
0.0
1021
1.0
1031
0.0
1011
0.0
1021
0.0
1031
1.0
1040
0.0
1010
0.0
1020
0.0
1030
1.0
1000
SOLID
1070
     1
1070
     0
1071
        2
1071
        7
1070
     0
1070
     1
1071
        4
1040
1500.000005045712
1040
2469.605034702035
1040
1250.000005045712
1040
2469.605034702035
1040
1250.000005045712
1040
2449.605034702035
1040
1500.000005045712
1040
2449.605034702035
1071
        0
1071
        7
1070
     0
1070
     1
1071
        4
1040
1500.000005045712
1040
1820.000007334847
1040
1250.000005045712
1040
1820.000007334846
1040
1250.000005045712
1040
1800.000007334847
1040
1500.000005045712
1040
1800.000007334847
1071
        0
1070
     0
1070
     1
1040
1.735850760000469
1071
        2
1040
1376.781087810446
1040
2455.456579873095
1040
0.0
1040
1361.147091094091
1040
1807.984235502248
1040
0.0
1002
}
  0
INSERT
  5
307
330
126
100
AcDbEntity
  8
HATCH
  6
CONTINUOUS
 62
   251
100
AcDbBlockReference
  2
*U6
 10
0.0
 20
0.0
 30
0.0
1001
ACAD
1002
{
1000
R14_HATCH_DATA
1000
307
1011
1.0
1021
0.0
1031
0.0
1011
0.0
1021
1.0
1031
0.0
1011
0.0
1021
0.0
1031
1.0
1040
0.0
1010
0.0
1020
0.0
1030
1.0
1000
SOLID
1070
     1
1070
     1
1071
        1
1071
        7
1070
     0
1070
     1
1071
        4
1040
1500.000005045712
1040
2449.605034702035
1040
1250.000005045712
1040
2449.605034702035
1040
1250.000005045712
1040
1820.000007334846
1040
1500.000005045712
1040
1820.000007334846
1071
        4
1005
345
1005
318
1005
346
1005
312
1070
     0
1070
     1
1040
1.735850760000469
1071
        1
1040
1427.157249109546
1040
2236.739374924032
1040
0.0
1002
}
  0
INSERT
  5
308
330
126
100
AcDbEntity
  8
HATCH
  6
CONTINUOUS
 62
     3
100
AcDbBlockReference
  2
*U7
 10
0.0
 20
0.0
 30
0.0
1001
ACAD
1002
{
1000
R14_HATCH_DATA
1000
308
1011
1.0
1021
0.0
1031
0.0
1011
0.0
1021
1.0
1031
0.0
1011
0.0
1021
0.0
1031
1.0
1040
0.0
1010
0.0
1020
0.0
1030
1.0
1000
SOLID
1070
     1
1070
     1
1071
        8
1071
        7
1070
     0
1070
     1
1071
        4
1040
4848.329900851805
1040
2387.313708818601
1040
5148.329900851805
1040
2687.313708818601
1040
3955.636486363554
1040
2687.313708818601
1040
4255.636486363553
1040
2387.313708818601
1071
        4
1005
310
1005
315
1005
30F
1005
32D
1071
        7
1070
     0
1070
     1
1071
        3
1040
4255.636486363552
1040
2387.313708818601
1040
4551.983193607679
1040
2093.656858076724
1040
4848.329900851805
1040
2387.313708818601
1071
        3
1005
30F
1005
30C
1005
30D
1071
        7
1070
     0
1070
     1
1071
        3
1040
4848.329900851805
1040
2387.3137088186
1040
4551.983193607679
1040
2093.656858076724
1040
4848.329900851805
1040
1800.000007334846
1071
        3
1005
30D
1005
30C
1005
337
1071
        7
1070
     0
1070
     1
1071
        5
1040
5148.329900851805
1040
2377.078849841989
1040
5148.329900851805
1040
2687.313708818601
1040
4848.329900851805
1040
2387.313708818601
1040
4848.329900851805
1040
1800.000007334846
1040
5148.329900851805
1040
1500.000007334846
1071
        5
1005
32E
1005
32D
1005
337
1005
335
1005
336
1071
        7
1070
     0
1070
     1
1071
        4
1040
5148.329900851805
1040
1500.000007334847
1040
4848.329900851806
1040
1800.000007334847
1040
4255.636486363553
1040
1800.000007334847
1040
3955.636486363554
1040
1500.000007334847
1071
        4
1005
30E
1005
329
1005
311
1005
335
1071
        7
1070
     0
1070
     1
1071
        3
1040
4848.329900851805
1040
1800.000007334847
1040
4551.983193607679
1040
2093.656858076723
1040
4255.636486363553
1040
1800.000007334846
1071
        3
1005
30D
1005
30E
1005
30C
1071
        7
1070
     0
1070
     1
1071
        3
1040
4551.98319360768
1040
2093.656858076724
1040
4255.636486363552
1040
2387.313708818601
1040
4255.636486363552
1040
1800.000007334847
1071
        3
1005
30C
1005
32C
1005
30D
1071
        7
1070
     0
1070
     1
1071
        5
1040
4255.636486363552
1040
2387.3137088186
1040
3955.636486363554
1040
2687.313708818601
1040
3955.636486363554
1040
2469.605034702035
1040
3955.636486363554
1040
1500.000007334847
1040
4255.636486363552
1040
1800.000007334847
1071
        5
1005
315
1005
316
1005
32A
1005
329
1005
32C
1070
     0
1070
     1
1040
7.599493466289361
1071
        8
1040
4564.566973213197
1040
2466.348740278321
1040
0.0
1040
4564.566973213197
1040
2314.3588695912
1040
0.0
1040
4800.379665322962
1040
2086.374063560517
1040
0.0
1040
5074.226683491095
1040
2124.3715312323
1040
0.0
1040
4648.242425815548
1040
1645.603438567868
1040
0.0
1040
4617.814997331882
1040
1820.391789858055
1040
0.0
1040
4420.036598917457
1040
2033.177608820027
1040
0.0
1040
4184.223906807688
1040
2002.779634682603
1040
0.0
1002
}
  0
INSERT
  5
309
330
126
100
AcDbEntity
  8
HATCH
  6
CONTINUOUS
 62
     3
100
AcDbBlockReference
  2
*U8
 10
0.0
 20
0.0
 30
0.0
1001
ACAD
1002
{
1000
R14_HATCH_DATA
1000
309
1011
1.0
1021
0.0
1031
0.0
1011
0.0
1021
1.0
1031
0.0
1011
0.0
1021
0.0
1031
1.0
1040
0.0
1010
0.0
1020
0.0
1030
1.0
1000
SOLID
1070
     1
1070
     1
1071
        8
1071
        7
1070
     0
1070
     1
1071
        4
1040
2692.693419533962
1040
2687.313708818601
1040
2392.693419533963
1040
2387.313708818601
1040
2392.693419533962
1040
1800.000007334847
1040
2692.693419533962
1040
1500.000007334847
1071
        4
1005
314
1005
328
1005
321
1005
312
1071
        7
1070
     0
1070
     1
1071
        3
1040
2096.346712289837
1040
2093.656858076724
1040
2392.693419533962
1040
1800.000007334847
1040
2392.693419533963
1040
2387.313708818601
1071
        3
1005
324
1005
323
1005
328
1071
        7
1070
     0
1070
     1
1071
        3
1040
1800.000005045711
1040
2387.313708818601
1040
2096.346712289836
1040
2093.656858076724
1040
2392.693419533963
1040
2387.313708818601
1071
        3
1005
326
1005
323
1005
324
1071
        7
1070
     0
1070
     1
1071
        4
1040
2392.693419533962
1040
2387.313708818601
1040
2692.693419533962
1040
2687.313708818601
1040
1500.000005045712
1040
2687.313708818601
1040
1800.000005045712
1040
2387.313708818601
1071
        4
1005
312
1005
313
1005
326
1005
314
1071
        7
1070
     0
1070
     1
1071
        4
1040
1500.000005045712
1040
1500.000007334847
1040
1800.000005045711
1040
1800.000007334847
1040
1800.000005045712
1040
2387.3137088186
1040
1500.000005045712
1040
2687.313708818601
1071
        4
1005
313
1005
312
1005
317
1005
327
1071
        7
1070
     0
1070
     1
1071
        3
1040
1800.000005045711
1040
1800.000007334847
1040
2096.346712289837
1040
2093.656858076724
1040
1800.000005045712
1040
2387.313708818602
1071
        3
1005
327
1005
324
1005
323
1071
        7
1070
     0
1070
     1
1071
        3
1040
2392.693419533962
1040
1800.000007334847
1040
2096.346712289837
1040
2093.656858076724
1040
1800.000005045711
1040
1800.000007334847
1071
        3
1005
324
1005
325
1005
323
1071
        7
1070
     0
1070
     1
1071
        4
1040
1800.00000504571
1040
1800.000007334847
1040
1500.000005045712
1040
1500.000007334847
1040
2692.693419533962
1040
1500.000007334847
1040
2392.693419533962
1040
1800.000007334847
1071
        4
1005
325
1005
317
1005
312
1005
321
1070
     0
1070
     1
1040
7.599493466289361
1071
        8
1040
2601.996719492272
1040
2139.57051830101
1040
0.0
1040
2274.901677205452
1040
2131.971024766655
1040
0.0
1040
2153.19189854473
1040
2337.157350194269
1040
0.0
1040
2145.585033333059
1040
2481.547727347034
1040
0.0
1040
1628.318457843485
1040
2299.15988252249
1040
0.0
1040
1886.95174558827
1040
2093.973557094876
1040
0.0
1040
2046.695817944331
1040
1888.787231667262
1040
0.0
1040
2099.943874426044
1040
1729.197867445782
1040
0.0
1002
}
  0
MTEXT
  5
30A
330
126
100
AcDbEntity
  8
TEKST
100
AcDbMText
 10
2135.107102813984
 20
4398.697865863574
 30
0.0
 40
100.0
 41
1991.156099999999
 71
     1
 72
     1
  1
{\FIMPACT.TTF;Hoogte: 315 cm\PMax. valhoogte: 90 cm}
1001
ACAD
1000
MTEXTBEGIN
1070
    73
1070
     1
1070
    44
1040
1.0
1070
    74
1070
     0
1000
MTEXTEND
1000
MTEXTBEGIN
1070
    73
1070
     1
1070
    44
1040
1.0
1070
    74
1070
     0
1000
MTEXTEND
  0
POLYLINE
  5
30B
330
126
100
AcDbEntity
  8
SAFETY
  6
CONTINUOUS
 62
     0
100
AcDb2dPolyline
 66
     1
 10
0.0
 20
0.0
 30
0.0
  0
VERTEX
  5
3BA
330
30B
100
AcDbEntity
  8
SAFETY
  6
CONTINUOUS
 62
     0
100
AcDbVertex
100
AcDb2dVertex
 10
5824.164262983188
 20
4026.435777549628
 30
0.0
  0
VERTEX
  5
3BB
330
30B
100
AcDbEntity
  8
SAFETY
  6
CONTINUOUS
 62
     0
100
AcDbVertex
100
AcDb2dVertex
 10
3901.019313838888
 20
4933.175075735038
 30
0.0
 42
0.1432457934268627
  0
VERTEX
  5
3BC
330
30B
100
AcDbEntity
  8
SAFETY
  6
CONTINUOUS
 62
     0
100
AcDbVertex
100
AcDb2dVertex
 10
3092.693419533963
 20
5169.605034702034
 30
0.0
  0
VERTEX
  5
3BD
330
30B
100
AcDbEntity
  8
SAFETY
  6
CONTINUOUS
 62
     0
100
AcDbVertex
100
AcDb2dVertex
 10
2492.693419533962
 20
5169.605034702034
 30
0.0
 42
0.1982652603782902
  0
VERTEX
  5
3BE
330
30B
100
AcDbEntity
  8
SAFETY
  6
CONTINUOUS
 62
     0
100
AcDbVertex
100
AcDb2dVertex
 10
1434.677810710654
 20
4732.903192081351
 30
0.0
  0
VERTEX
  5
3BF
330
30B
100
AcDbEntity
  8
SAFETY
  6
CONTINUOUS
 62
     0
100
AcDbVertex
100
AcDb2dVertex
 10
521.1262163616622
 20
3823.890193630482
 30
0.0
 42
0.2183250753900735
  0
VERTEX
  5
3C0
330
30B
100
AcDbEntity
  8
SAFETY
  6
CONTINUOUS
 62
     0
100
AcDbVertex
100
AcDb2dVertex
 10
0.0000050457119869
 20
2687.313708818601
 30
0.0
  0
VERTEX
  5
3C1
330
30B
100
AcDbEntity
  8
SAFETY
  6
CONTINUOUS
 62
     0
100
AcDbVertex
100
AcDb2dVertex
 10
0.0000050457119869
 20
1500.000007334847
 30
0.0
 42
0.4142135623730951
  0
VERTEX
  5
3C2
330
30B
100
AcDbEntity
  8
SAFETY
  6
CONTINUOUS
 62
     0
100
AcDbVertex
100
AcDb2dVertex
 10
1500.000005045711
 20
0.0000073348473961
 30
0.0
  0
VERTEX
  5
3C3
330
30B
100
AcDbEntity
  8
SAFETY
  6
CONTINUOUS
 62
     0
100
AcDbVertex
100
AcDb2dVertex
 10
5148.329900851805
 20
0.0000073348473961
 30
0.0
 42
0.2823690040401685
  0
VERTEX
  5
3C4
330
30B
100
AcDbEntity
  8
SAFETY
  6
CONTINUOUS
 62
     0
100
AcDbVertex
100
AcDb2dVertex
 10
6485.696039574745
 20
820.697562913152
 30
0.0
  0
VERTEX
  5
3C5
330
30B
100
AcDbEntity
  8
SAFETY
  6
CONTINUOUS
 62
     0
100
AcDbVertex
100
AcDb2dVertex
 10
9000.000005045713
 20
820.697562913152
 30
0.0
  0
VERTEX
  5
3C6
330
30B
100
AcDbEntity
  8
SAFETY
  6
CONTINUOUS
 62
     0
100
AcDbVertex
100
AcDb2dVertex
 10
9000.000005045713
 20
3377.078849841989
 30
0.0
  0
VERTEX
  5
3C7
330
30B
100
AcDbEntity
  8
SAFETY
  6
CONTINUOUS
 62
     0
100
AcDbVertex
100
AcDb2dVertex
 10
6480.329919706528
 20
3377.078849841989
 30
0.0
 42
0.1714530561783612
  0
VERTEX
  5
3C8
330
30B
100
AcDbEntity
  8
SAFETY
  6
CONTINUOUS
 62
     0
100
AcDbVertex
100
AcDb2dVertex
 10
5751.424876334835
 20
4060.731507795709
 30
0.0
  0
SEQEND
  5
3C9
330
30B
100
AcDbEntity
  8
SAFETY
  6
CONTINUOUS
 62
     0
  0
LINE
  5
30C
330
126
100
AcDbEntity
  8
OBJECT
  6
CONTINUOUS
 62
     7
 48
5.0
100
AcDbLine
 10
4848.329900851805
 20
1800.000007334847
 30
0.0
 11
4255.636486363552
 21
2387.313708818601
 31
0.0
  0
LINE
  5
30D
330
126
100
AcDbEntity
  8
OBJECT
  6
CONTINUOUS
 62
     7
 48
5.0
100
AcDbLine
 10
4848.329900851805
 20
2387.313708818601
 30
0.0
 11
4255.636486363552
 21
1800.000007334847
 31
0.0
  0
LINE
  5
30E
330
126
100
AcDbEntity
  8
OBJECT
  6
CONTINUOUS
 62
     7
 48
5.0
100
AcDbLine
 10
4255.636486363552
 20
1800.000007334847
 30
0.0
 11
4848.329900851805
 21
1800.000007334847
 31
0.0
  0
LINE
  5
30F
330
126
100
AcDbEntity
  8
OBJECT
  6
CONTINUOUS
 62
     7
 48
5.0
100
AcDbLine
 10
4848.329900851805
 20
2387.313708818601
 30
0.0
 11
4255.636486363552
 21
2387.313708818601
 31
0.0
  0
LINE
  5
310
330
126
100
AcDbEntity
  8
OBJECT
  6
CONTINUOUS
 62
     7
 48
5.0
100
AcDbLine
 10
5148.329900851805
 20
2687.313708818601
 30
0.0
 11
3955.636486363554
 21
2687.313708818601
 31
0.0
  0
LINE
  5
311
330
126
100
AcDbEntity
  8
SAFETY
  6
CONTINUOUS
 62
     7
 48
5.0
100
AcDbLine
 10
3955.636486363554
 20
1500.000007334847
 30
0.0
 11
5148.329900851805
 21
1500.000007334847
 31
0.0
  0
POLYLINE
  5
312
330
126
100
AcDbEntity
  8
OBJECT
  6
CONTINUOUS
 62
     0
100
AcDb2dPolyline
 66
     1
 10
0.0
 20
0.0
 30
0.0
 70
     1
  0
VERTEX
  5
3CA
330
312
100
AcDbEntity
  8
OBJECT
  6
CONTINUOUS
 62
     0
100
AcDbVertex
100
AcDb2dVertex
 10
1500.000005045712
 20
1500.000007334847
 30
0.0
  0
VERTEX
  5
3CB
330
312
100
AcDbEntity
  8
OBJECT
  6
CONTINUOUS
 62
     0
100
AcDbVertex
100
AcDb2dVertex
 10
2692.693419533962
 20
1500.000007334847
 30
0.0
  0
VERTEX
  5
3CC
330
312
100
AcDbEntity
  8
OBJECT
  6
CONTINUOUS
 62
     0
100
AcDbVertex
100
AcDb2dVertex
 10
2692.693419533962
 20
2687.313708818601
 30
0.0
  0
VERTEX
  5
3CD
330
312
100
AcDbEntity
  8
OBJECT
  6
CONTINUOUS
 62
     0
100
AcDbVertex
100
AcDb2dVertex
 10
1500.000005045712
 20
2687.313708818601
 30
0.0
  0
SEQEND
  5
3CE
330
312
100
AcDbEntity
  8
OBJECT
  6
CONTINUOUS
 62
     0
  0
LINE
  5
313
330
126
100
AcDbEntity
  8
OBJECT
  6
CONTINUOUS
 62
     7
 48
5.0
100
AcDbLine
 10
1500.000005045712
 20
2687.313708818601
 30
0.0
 11
1800.000005045712
 21
2387.313708818601
 31
0.0
  0
LINE
  5
314
330
126
100
AcDbEntity
  8
OBJECT
  6
CONTINUOUS
 62
     7
 48
5.0
100
AcDbLine
 10
2692.693419533962
 20
2687.313708818601
 30
0.0
 11
2392.693419533963
 21
2387.313708818601
 31
0.0
  0
LINE
  5
315
330
126
100
AcDbEntity
  8
OBJECT
  6
CONTINUOUS
 62
     7
 48
5.0
100
AcDbLine
 10
3955.636486363554
 20
2687.313708818601
 30
0.0
 11
4255.636486363552
 21
2387.313708818601
 31
0.0
  0
LINE
  5
316
330
126
100
AcDbEntity
  8
OBJECT
  6
CONTINUOUS
 62
     7
 48
5.0
100
AcDbLine
 10
3955.636486363554
 20
2687.313708818601
 30
0.0
 11
3955.636486363554
 21
2469.605034702035
 31
0.0
  0
LINE
  5
317
330
126
100
AcDbEntity
  8
OBJECT
  6
CONTINUOUS
 62
     7
 48
5.0
100
AcDbLine
 10
1800.000005045711
 20
1800.000007334847
 30
0.0
 11
1500.000005045712
 21
1500.000007334847
 31
0.0
  0
LINE
  5
318
330
126
100
AcDbEntity
  8
OBJECT
  6
CONTINUOUS
 62
     0
100
AcDbLine
 10
1250.000005045712
 20
2469.605034702035
 30
0.0
 11
1250.000005045712
 21
1800.000007334847
 31
0.0
  0
LINE
  5
319
330
126
100
AcDbEntity
  8
OBJECT
  6
CONTINUOUS
 62
     0
100
AcDbLine
 10
1500.000005045712
 20
1800.000007334847
 30
0.0
 11
1250.000005045712
 21
1800.000007334847
 31
0.0
  0
LINE
  5
31A
330
126
100
AcDbEntity
  8
OBJECT
  6
CONTINUOUS
 62
     0
100
AcDbLine
 10
1500.000005045712
 20
2469.605034702035
 30
0.0
 11
1250.000005045712
 21
2469.605034702035
 31
0.0
  0
ARC
  5
31B
330
126
100
AcDbEntity
  8
OBJECT
  6
CONTINUOUS
 62
     7
 48
5.0
100
AcDbCircle
 10
3681.560917342571
 20
1720.02603611908
 30
0.0
 40
527.2455248428131
100
AcDbArc
 50
167.5118006900445
 51
335.3349839908246
  0
ARC
  5
31C
330
126
100
AcDbEntity
  8
OBJECT
  6
CONTINUOUS
 62
     7
 48
5.0
100
AcDbCircle
 10
3681.560917342571
 20
1720.02603611908
 30
0.0
 40
627.2455248428131
100
AcDbArc
 50
178.7200764222861
 51
339.4648869002407
  0
LINE
  5
31D
330
126
100
AcDbEntity
  8
OBJECT
  6
CONTINUOUS
 62
     7
 48
5.0
100
AcDbLine
 10
2692.693419533962
 20
1834.036833649648
 30
0.0
 11
3140.453730630477
 21
1834.036833649648
 31
0.0
  0
LINE
  5
31E
330
126
100
AcDbEntity
  8
OBJECT
  6
CONTINUOUS
 62
     7
 48
5.0
100
AcDbLine
 10
3955.636486363554
 20
2369.605034702034
 30
0.0
 11
2692.693419533962
 21
2369.605034702034
 31
0.0
  0
LINE
  5
31F
330
126
100
AcDbEntity
  8
OBJECT
  6
CONTINUOUS
 62
     7
 48
5.0
100
AcDbLine
 10
3955.636486363554
 20
2469.605034702035
 30
0.0
 11
2692.693419533962
 21
2469.605034702035
 31
0.0
  0
LINE
  5
320
330
126
100
AcDbEntity
  8
OBJECT
  6
CONTINUOUS
 62
     0
100
AcDbLine
 10
2692.693419533962
 20
2469.605034702035
 30
0.0
 11
2692.693419533962
 21
1759.129185809288
 31
0.0
  0
LINE
  5
321
330
126
100
AcDbEntity
  8
OBJECT
  6
CONTINUOUS
 62
     7
 48
5.0
100
AcDbLine
 10
2692.693419533962
 20
1500.000007334847
 30
0.0
 11
2392.693419533962
 21
1800.000007334847
 31
0.0
  0
LINE
  5
322
330
126
100
AcDbEntity
  8
OBJECT
  6
CONTINUOUS
 62
     7
 48
5.0
100
AcDbLine
 10
2692.693419533962
 20
1734.036833649648
 30
0.0
 11
3054.471891774515
 21
1734.036833649648
 31
0.0
  0
LINE
  5
323
330
126
100
AcDbEntity
  8
OBJECT
  6
CONTINUOUS
 62
     7
 48
5.0
100
AcDbLine
 10
2392.693419533962
 20
1800.000007334847
 30
0.0
 11
1800.000005045712
 21
2387.313708818601
 31
0.0
  0
LINE
  5
324
330
126
100
AcDbEntity
  8
OBJECT
  6
CONTINUOUS
 62
     7
 48
5.0
100
AcDbLine
 10
2392.693419533963
 20
2387.313708818601
 30
0.0
 11
1800.000005045711
 21
1800.000007334847
 31
0.0
  0
LINE
  5
325
330
126
100
AcDbEntity
  8
OBJECT
  6
CONTINUOUS
 62
     7
 48
5.0
100
AcDbLine
 10
1800.000005045711
 20
1800.000007334847
 30
0.0
 11
2392.693419533962
 21
1800.000007334847
 31
0.0
  0
LINE
  5
326
330
126
100
AcDbEntity
  8
OBJECT
  6
CONTINUOUS
 62
     7
 48
5.0
100
AcDbLine
 10
2392.693419533962
 20
2387.313708818601
 30
0.0
 11
1800.000005045712
 21
2387.313708818601
 31
0.0
  0
LINE
  5
327
330
126
100
AcDbEntity
  8
OBJECT
  6
CONTINUOUS
 62
     7
 48
5.0
100
AcDbLine
 10
1800.000005045712
 20
2387.313708818601
 30
0.0
 11
1800.000005045711
 21
1800.000007334847
 31
0.0
  0
LINE
  5
328
330
126
100
AcDbEntity
  8
OBJECT
  6
CONTINUOUS
 62
     7
 48
5.0
100
AcDbLine
 10
2392.693419533963
 20
2387.313708818601
 30
0.0
 11
2392.693419533962
 21
1800.000007334847
 31
0.0
  0
LINE
  5
329
330
126
100
AcDbEntity
  8
OBJECT
  6
CONTINUOUS
 62
     7
 48
5.0
100
AcDbLine
 10
4255.636486363552
 20
1800.000007334847
 30
0.0
 11
3955.636486363554
 21
1500.000007334847
 31
0.0
  0
LINE
  5
32A
330
126
100
AcDbEntity
  8
OBJECT
  6
CONTINUOUS
 62
     7
 48
5.0
100
AcDbLine
 10
3955.636486363554
 20
2469.605034702035
 30
0.0
 11
3955.636486363554
 21
1500.000007334847
 31
0.0
  0
LINE
  5
32B
330
126
100
AcDbEntity
  8
OBJECT
  6
CONTINUOUS
 62
     7
 48
5.0
100
AcDbLine
 10
3140.453730630477
 20
1834.036833649648
 30
0.0
 11
3166.78972398263
 21
1834.036833649649
 31
0.0
  0
LINE
  5
32C
330
126
100
AcDbEntity
  8
OBJECT
  6
CONTINUOUS
 62
     7
 48
5.0
100
AcDbLine
 10
4255.636486363552
 20
2387.313708818601
 30
0.0
 11
4255.636486363552
 21
1800.000007334847
 31
0.0
  0
LINE
  5
32D
330
126
100
AcDbEntity
  8
OBJECT
  6
CONTINUOUS
 62
     7
 48
5.0
100
AcDbLine
 10
5148.329900851805
 20
2687.313708818601
 30
0.0
 11
4848.329900851805
 21
2387.313708818601
 31
0.0
  0
LINE
  5
32E
330
126
100
AcDbEntity
  8
OBJECT
  6
CONTINUOUS
 62
     7
 48
5.0
100
AcDbLine
 10
5148.329900851805
 20
2377.078849841989
 30
0.0
 11
5148.329900851805
 21
2687.313708818601
 31
0.0
  0
LINE
  5
32F
330
126
100
AcDbEntity
  8
OBJECT
  6
CONTINUOUS
 62
     7
 48
5.0
100
AcDbLine
 10
5148.329900851805
 20
1920.697562913152
 30
0.0
 11
6871.252461229919
 21
1920.697562913152
 31
0.0
  0
LINE
  5
330
330
126
100
AcDbEntity
  8
OBJECT
  6
CONTINUOUS
 62
     7
 48
5.0
100
AcDbLine
 10
6869.502552171389
 20
2277.078849841989
 30
0.0
 11
5148.329900851805
 21
2277.078849841989
 31
0.0
  0
LINE
  5
331
330
126
100
AcDbEntity
  8
OBJECT
  6
CONTINUOUS
 62
     7
 48
5.0
100
AcDbLine
 10
5148.329900851805
 20
2333.537121576657
 30
0.0
 11
7000.000005045713
 21
2333.537121576657
 31
0.0
  0
LINE
  5
332
330
126
100
AcDbEntity
  8
OBJECT
  6
CONTINUOUS
 62
     7
 48
5.0
100
AcDbLine
 10
7000.000005045713
 20
1864.239291178486
 30
0.0
 11
5148.329900851805
 21
1864.239291178486
 31
0.0
  0
LINE
  5
333
330
126
100
AcDbEntity
  8
OBJECT
  6
CONTINUOUS
 62
     7
 48
5.0
100
AcDbLine
 10
7000.000005045713
 20
2377.078849841989
 30
0.0
 11
5148.329900851805
 21
2377.078849841989
 31
0.0
  0
LINE
  5
334
330
126
100
AcDbEntity
  8
OBJECT
  6
CONTINUOUS
 62
     7
 48
5.0
100
AcDbLine
 10
5148.329900851805
 20
1820.697562913152
 30
0.0
 11
7000.000005045713
 21
1820.697562913152
 31
0.0
  0
LINE
  5
335
330
126
100
AcDbEntity
  8
OBJECT
  6
CONTINUOUS
 62
     7
 48
5.0
100
AcDbLine
 10
5148.329900851805
 20
1500.000007334847
 30
0.0
 11
4848.329900851805
 21
1800.000007334847
 31
0.0
  0
LINE
  5
336
330
126
100
AcDbEntity
  8
OBJECT
  6
CONTINUOUS
 62
     7
 48
5.0
100
AcDbLine
 10
5148.329900851805
 20
2377.078849841989
 30
0.0
 11
5148.329900851805
 21
1500.000007334847
 31
0.0
  0
LINE
  5
337
330
126
100
AcDbEntity
  8
OBJECT
  6
CONTINUOUS
 62
     7
 48
5.0
100
AcDbLine
 10
4848.329900851805
 20
2387.313708818601
 30
0.0
 11
4848.329900851805
 21
1800.000007334847
 31
0.0
  0
LINE
  5
338
330
126
100
AcDbEntity
  8
OBJECT
  6
CONTINUOUS
 62
     7
 48
5.0
100
AcDbLine
 10
6803.940808160914
 20
2099.500295261856
 30
0.0
 11
6803.940808160914
 21
2186.583768187467
 31
0.0
  0
LINE
  5
339
330
126
100
AcDbEntity
  8
OBJECT
  6
CONTINUOUS
 62
     7
 48
5.0
100
AcDbLine
 10
6803.940808160914
 20
2012.416822336243
 30
0.0
 11
6825.725154509638
 21
1952.546941872671
 31
0.0
  0
LINE
  5
33A
330
126
100
AcDbEntity
  8
OBJECT
  6
CONTINUOUS
 62
     7
 48
5.0
100
AcDbLine
 10
6880.186046963543
 20
1914.447925541767
 30
0.0
 11
6919.261380737323
 21
1864.239291178486
 31
0.0
  0
LINE
  5
33B
330
126
100
AcDbEntity
  8
OBJECT
  6
CONTINUOUS
 62
     7
 48
5.0
100
AcDbLine
 10
6825.725154509638
 20
1952.546941872671
 30
0.0
 11
6880.186046963543
 21
1914.447925541767
 31
0.0
  0
LINE
  5
33C
330
126
100
AcDbEntity
  8
OBJECT
  6
CONTINUOUS
 62
     7
 48
5.0
100
AcDbLine
 10
6803.940808160914
 20
2099.500295261856
 30
0.0
 11
6803.940808160914
 21
2012.416822336243
 31
0.0
  0
LINE
  5
33D
330
126
100
AcDbEntity
  8
OBJECT
  6
CONTINUOUS
 62
     0
100
AcDbLine
 10
7000.000005045712
 20
1864.239291178486
 30
0.0
 11
7000.000005045712
 21
1820.697562913152
 31
0.0
  0
LINE
  5
33E
330
126
100
AcDbEntity
  8
OBJECT
  6
CONTINUOUS
 62
     7
 48
5.0
100
AcDbLine
 10
6825.725154509638
 20
2246.453648651039
 30
0.0
 11
6880.186046963543
 21
2284.552664981944
 31
0.0
  0
LINE
  5
33F
330
126
100
AcDbEntity
  8
OBJECT
  6
CONTINUOUS
 62
     7
 48
5.0
100
AcDbLine
 10
6803.940808160914
 20
2186.583768187467
 30
0.0
 11
6825.725154509638
 21
2246.453648651039
 31
0.0
  0
LINE
  5
340
330
126
100
AcDbEntity
  8
OBJECT
  6
CONTINUOUS
 62
     7
 48
5.0
100
AcDbLine
 10
6880.186046963543
 20
2284.552664981944
 30
0.0
 11
6918.308653073808
 21
2333.537121576657
 31
0.0
  0
LINE
  5
341
330
126
100
AcDbEntity
  8
OBJECT
  6
CONTINUOUS
 62
     7
 48
5.0
100
AcDbLine
 10
7000.000005045713
 20
2333.537121576657
 30
0.0
 11
7000.000005045713
 21
2377.078849841989
 31
0.0
  0
INSERT
  5
342
330
126
100
AcDbEntity
  8
HATCH
  6
CONTINUOUS
 62
   251
100
AcDbBlockReference
  2
*U9
 10
0.0
 20
0.0
 30
0.0
1001
ACAD
1002
{
1000
R14_HATCH_DATA
1000
342
1011
1.0
1021
0.0
1031
0.0
1011
0.0
1021
1.0
1031
0.0
1011
0.0
1021
0.0
1031
1.0
1040
0.0
1010
0.0
1020
0.0
1030
1.0
1000
SOLID
1070
     1
1070
     0
1071
        8
1071
        7
1070
     0
1070
     1
1071
        4
1040
3092.69341953396
1040
3569.605034702035
1040
3092.69341953396
1040
3669.605034702035
1040
2492.693419533962
1040
3669.605034702037
1040
2492.693419533962
1040
3569.605034702034
1071
        0
1071
        7
1070
     0
1070
     1
1071
        4
1040
2492.693419533962
1040
3519.605034702035
1040
2492.693419533962
1040
3419.605034702035
1040
3092.693419533961
1040
3419.605034702037
1040
3092.693419533961
1040
3519.605034702034
1071
        0
1071
        7
1070
     0
1070
     1
1071
        4
1040
2492.693419533962
1040
3369.605034702035
1040
2492.693419533962
1040
3269.605034702035
1040
3092.693419533961
1040
3269.605034702035
1040
3092.693419533961
1040
3369.605034702035
1071
        0
1071
        7
1070
     0
1070
     1
1071
        4
1040
2492.693419533962
1040
3219.605034702035
1040
2492.693419533962
1040
3119.605034702033
1040
3092.693419533961
1040
3119.605034702033
1040
3092.693419533961
1040
3219.605034702035
1071
        0
1071
        7
1070
     0
1070
     1
1071
        4
1040
2492.69341953396
1040
3069.605034702034
1040
2492.693419533962
1040
2969.605034702036
1040
3092.69341953396
1040
2969.605034702036
1040
3092.69341953396
1040
3069.605034702034
1071
        0
1071
        7
1070
     0
1070
     1
1071
        4
1040
2492.693419533962
1040
2919.605034702035
1040
2492.693419533962
1040
2819.605034702037
1040
3092.69341953396
1040
2819.605034702034
1040
3092.69341953396
1040
2919.605034702035
1071
        0
1071
        7
1070
     0
1070
     1
1071
        6
1040
2492.693419533962
1040
2769.605034702034
1040
2492.69341953396
1040
2687.313708818602
1040
2692.693419533962
1040
2687.3137088186
1040
2692.693419533962
1040
2669.605034702035
1040
3092.69341953396
1040
2669.605034702036
1040
3092.69341953396
1040
2769.605034702035
1071
        0
1071
        7
1070
     0
1070
     1
1071
        4
1040
2692.693419533962
1040
2619.605034702033
1040
2692.693419533962
1040
2469.605034702034
1040
3092.693419533961
1040
2469.605034702037
1040
3092.693419533961
1040
2619.605034702033
1071
        0
1070
     0
1070
     1
1040
2.491668907196068
1071
        8
1040
2953.222671727317
1040
3594.507620223037
1040
0.0
1040
2935.764079805859
1040
3482.382517867714
1040
0.0
1040
2915.811398700904
1040
3322.915695146759
1040
0.0
1040
2893.36466077548
1040
3175.907235850296
1040
0.0
1040
2860.941533753036
1040
3031.390442500123
1040
0.0
1040
2845.977031015077
1040
2881.890300410858
1040
0.0
1040
2816.048025539158
1040
2732.390158321588
1040
0.0
1040
2803.577611984698
1040
2557.973339922868
1040
0.0
1002
}
  0
INSERT
  5
343
330
126
100
AcDbEntity
  8
HATCH
  6
CONTINUOUS
 62
   251
100
AcDbBlockReference
  2
*U10
 10
0.0
 20
0.0
 30
0.0
1001
ACAD
1002
{
1000
R14_HATCH_DATA
1000
343
1011
1.0
1021
0.0
1031
0.0
1011
0.0
1021
1.0
1031
0.0
1011
0.0
1021
0.0
1031
1.0
1040
0.0
1010
0.0
1020
0.0
1030
1.0
1000
SOLID
1070
     1
1070
     0
1071
        7
1071
        7
1070
     0
1070
     1
1071
        4
1040
2492.693419533962
1040
3569.605034702035
1040
2492.693419533961
1040
3519.605034702035
1040
3092.693419533961
1040
3519.605034702035
1040
3092.693419533961
1040
3569.605034702035
1071
        0
1071
        7
1070
     0
1070
     1
1071
        4
1040
2492.693419533962
1040
3419.605034702035
1040
2492.693419533962
1040
3369.605034702035
1040
3092.693419533961
1040
3369.605034702035
1040
3092.693419533961
1040
3419.605034702035
1071
        0
1071
        7
1070
     0
1070
     1
1071
        4
1040
2492.693419533962
1040
3269.605034702037
1040
2492.693419533962
1040
3219.605034702035
1040
3092.693419533961
1040
3219.605034702035
1040
3092.693419533961
1040
3269.605034702034
1071
        0
1071
        7
1070
     0
1070
     1
1071
        4
1040
3092.693419533961
1040
3069.605034702036
1040
3092.693419533961
1040
3119.605034702033
1040
2492.693419533962
1040
3119.605034702033
1040
2492.693419533962
1040
3069.605034702036
1071
        0
1071
        7
1070
     0
1070
     1
1071
        4
1040
3092.693419533961
1040
2919.605034702036
1040
3092.693419533961
1040
2969.605034702034
1040
2492.693419533962
1040
2969.605034702036
1040
2492.693419533962
1040
2919.605034702033
1071
        0
1071
        7
1070
     0
1070
     1
1071
        4
1040
2492.693419533962
1040
2819.605034702036
1040
2492.693419533962
1040
2769.605034702036
1040
3092.693419533961
1040
2769.605034702034
1040
3092.693419533961
1040
2819.605034702034
1071
        0
1071
        7
1070
     0
1070
     1
1071
        4
1040
3092.693419533961
1040
2619.605034702033
1040
3092.693419533961
1040
2669.605034702036
1040
2692.693419533962
1040
2669.605034702034
1040
2692.693419533962
1040
2619.605034702033
1071
        0
1070
     0
1070
     1
1040
2.491668907196068
1071
        7
1040
2763.672249774787
1040
3554.640914542801
1040
0.0
1040
2771.154484962255
1040
3405.140772453531
1040
0.0
1040
2766.166338958286
1040
3248.165632525378
1040
0.0
1040
2766.166338958286
1040
3086.207160704638
1040
0.0
1040
2753.695893040796
1040
2944.182016454255
1040
0.0
1040
2713.790563193914
1040
2797.173557157792
1040
0.0
1040
2885.882393224987
1040
2640.198417229639
1040
0.0
1002
}
  0
INSERT
  5
344
330
126
100
AcDbEntity
  8
HATCH
100
AcDbBlockReference
  2
1
 10
-5000.0
 20
-5000.0
 30
0.0
  0
LINE
  5
345
330
126
100
AcDbEntity
  8
OBJECT
  6
CONTINUOUS
 62
     0
100
AcDbLine
 10
1500.000005045712
 20
2449.605034702035
 30
0.0
 11
1250.000005045712
 21
2449.605034702035
 31
0.0
  0
LINE
  5
346
330
126
100
AcDbEntity
  8
OBJECT
  6
CONTINUOUS
 62
     0
100
AcDbLine
 10
1500.000005045712
 20
1820.000007334847
 30
0.0
 11
1250.000005045712
 21
1820.000007334847
 31
0.0
  0
ENDBLK
  5
128
330
126
100
AcDbEntity
  8
0
100
AcDbBlockEnd
  0
BLOCK
  5
2B2
330
2B1
100
AcDbEntity
  8
0
100
AcDbBlockBegin
  2
1
 70
     0
 10
0.0
 20
0.0
 30
0.0
  3
1
  1

  0
POLYLINE
  5
2B4
330
2B1
100
AcDbEntity
  8
OBJECT
  6
CONTINUOUS
 62
     0
100
AcDb2dPolyline
 66
     1
 10
0.0
 20
0.0
 30
0.0
  0
VERTEX
  5
34D
330
2B4
100
AcDbEntity
  8
OBJECT
  6
CONTINUOUS
 62
     0
100
AcDbVertex
100
AcDb2dVertex
 10
7692.693419533963
 20
7469.605034702036
 30
0.0
  0
VERTEX
  5
34E
330
2B4
100
AcDbEntity
  8
OBJECT
  6
CONTINUOUS
 62
     0
100
AcDbVertex
100
AcDb2dVertex
 10
8092.69341953396
 20
7469.605034702036
 30
0.0
  0
VERTEX
  5
34F
330
2B4
100
AcDbEntity
  8
OBJECT
  6
CONTINUOUS
 62
     0
100
AcDbVertex
100
AcDb2dVertex
 10
8092.69341953396
 20
8669.605034702035
 30
0.0
  0
VERTEX
  5
350
330
2B4
100
AcDbEntity
  8
OBJECT
  6
CONTINUOUS
 62
     0
100
AcDbVertex
100
AcDb2dVertex
 10
7492.693419533963
 20
8669.605034702035
 30
0.0
  0
VERTEX
  5
351
330
2B4
100
AcDbEntity
  8
OBJECT
  6
CONTINUOUS
 62
     0
100
AcDbVertex
100
AcDb2dVertex
 10
7492.693419533963
 20
7687.313708818601
 30
0.0
  0
SEQEND
  5
352
330
2B4
100
AcDbEntity
  8
OBJECT
  6
CONTINUOUS
 62
     0
  0
LINE
  5
2B5
330
2B1
100
AcDbEntity
  8
OBJECT
  6
CONTINUOUS
 62
     0
100
AcDbLine
 10
7692.693419533963
 20
7669.605034702036
 30
0.0
 11
8092.69341953396
 21
7669.605034702036
 31
0.0
  0
LINE
  5
2B6
330
2B1
100
AcDbEntity
  8
OBJECT
  6
CONTINUOUS
 62
     0
100
AcDbLine
 10
7492.693419533963
 20
7819.605034702036
 30
0.0
 11
8092.69341953396
 21
7819.605034702036
 31
0.0
  0
LINE
  5
2B7
330
2B1
100
AcDbEntity
  8
OBJECT
  6
CONTINUOUS
 62
     0
100
AcDbLine
 10
7492.693419533963
 20
7969.605034702036
 30
0.0
 11
8092.69341953396
 21
7969.605034702036
 31
0.0
  0
LINE
  5
2B8
330
2B1
100
AcDbEntity
  8
OBJECT
  6
CONTINUOUS
 62
     0
100
AcDbLine
 10
7692.693419533963
 20
7619.605034702033
 30
0.0
 11
8092.69341953396
 21
7619.605034702033
 31
0.0
  0
LINE
  5
2B9
330
2B1
100
AcDbEntity
  8
OBJECT
  6
CONTINUOUS
 62
     0
100
AcDbLine
 10
7492.693419533963
 20
7919.605034702036
 30
0.0
 11
8092.69341953396
 21
7919.605034702036
 31
0.0
  0
LINE
  5
2BA
330
2B1
100
AcDbEntity
  8
OBJECT
  6
CONTINUOUS
 62
     0
100
AcDbLine
 10
7492.693419533963
 20
7769.605034702036
 30
0.0
 11
8092.69341953396
 21
7769.605034702036
 31
0.0
  0
LINE
  5
2BB
330
2B1
100
AcDbEntity
  8
OBJECT
  6
CONTINUOUS
 62
     0
100
AcDbLine
 10
7492.693419533963
 20
8119.605034702033
 30
0.0
 11
8092.69341953396
 21
8119.605034702033
 31
0.0
  0
LINE
  5
2BC
330
2B1
100
AcDbEntity
  8
OBJECT
  6
CONTINUOUS
 62
     0
100
AcDbLine
 10
7492.693419533963
 20
8269.605034702037
 30
0.0
 11
8092.69341953396
 21
8269.605034702037
 31
0.0
  0
LINE
  5
2BD
330
2B1
100
AcDbEntity
  8
OBJECT
  6
CONTINUOUS
 62
     0
100
AcDbLine
 10
7492.693419533963
 20
8219.605034702036
 30
0.0
 11
8092.69341953396
 21
8219.605034702036
 31
0.0
  0
LINE
  5
2BE
330
2B1
100
AcDbEntity
  8
OBJECT
  6
CONTINUOUS
 62
     0
100
AcDbLine
 10
7492.693419533963
 20
8069.605034702036
 30
0.0
 11
8092.69341953396
 21
8069.605034702036
 31
0.0
  0
LINE
  5
2BF
330
2B1
100
AcDbEntity
  8
OBJECT
  6
CONTINUOUS
 62
     0
100
AcDbLine
 10
7492.693419533963
 20
8369.605034702036
 30
0.0
 11
8092.69341953396
 21
8369.605034702036
 31
0.0
  0
LINE
  5
2C0
330
2B1
100
AcDbEntity
  8
OBJECT
  6
CONTINUOUS
 62
     0
100
AcDbLine
 10
7492.693419533963
 20
8419.605034702035
 30
0.0
 11
8092.69341953396
 21
8419.605034702035
 31
0.0
  0
LINE
  5
2C1
330
2B1
100
AcDbEntity
  8
OBJECT
  6
CONTINUOUS
 62
     0
100
AcDbLine
 10
7492.693419533963
 20
8569.605034702036
 30
0.0
 11
8092.69341953396
 21
8569.605034702036
 31
0.0
  0
LINE
  5
2C2
330
2B1
100
AcDbEntity
  8
OBJECT
  6
CONTINUOUS
 62
     0
100
AcDbLine
 10
7492.693419533963
 20
8519.605034702037
 30
0.0
 11
8092.69341953396
 21
8519.605034702037
 31
0.0
  0
LINE
  5
2C3
330
2B1
100
AcDbEntity
  8
OBJECT
  6
CONTINUOUS
 62
     0
100
AcDbLine
 10
7492.693419533963
 20
8669.605034702035
 30
0.0
 11
8092.69341953396
 21
8669.605034702035
 31
0.0
  0
LINE
  5
2C4
330
2B1
100
AcDbEntity
  8
HATCH
100
AcDbLine
 10
7692.693419533963
 20
7469.605034702036
 30
0.0
 11
7692.693419533963
 21
7687.313708818603
 31
0.0
  0
LINE
  5
2C5
330
2B1
100
AcDbEntity
  8
HATCH
100
AcDbLine
 10
7492.693419533963
 20
7687.313708818601
 30
0.0
 11
7692.693419533963
 21
7687.313708818601
 31
0.0
  0
ENDBLK
  5
2B3
330
2B1
100
AcDbEntity
  8
0
100
AcDbBlockEnd
  0
BLOCK
  5
365
330
353
100
AcDbEntity
  8
0
100
AcDbBlockBegin
  2
*U2
 70
     1
 10
0.0
 20
0.0
 30
0.0
  3
*U2
  1

  0
SOLID
  5
354
330
353
100
AcDbEntity
  8
HATCH
  6
CONTINUOUS
 62
     2
100
AcDbTrace
 10
5148.329900851805
 20
2377.078849841989
 30
0.0
 11
5148.329900851805
 21
2333.537121576657
 31
0.0
 12
7000.000005045712
 22
2377.078849841989
 32
0.0
 13
7000.000005045712
 23
2377.078849841989
 33
0.0
210
0.0
220
0.0
230
1.0
  0
SOLID
  5
355
330
353
100
AcDbEntity
  8
HATCH
  6
CONTINUOUS
 62
     2
100
AcDbTrace
 10
7000.000005045713
 20
2333.537121576657
 30
0.0
 11
7000.000005045712
 21
2377.078849841989
 31
0.0
 12
5148.329900851805
 22
2333.537121576657
 32
0.0
 13
5148.329900851805
 23
2333.537121576657
 33
0.0
210
0.0
220
0.0
230
1.0
  0
SOLID
  5
356
330
353
100
AcDbEntity
  8
HATCH
  6
CONTINUOUS
 62
     2
100
AcDbTrace
 10
6869.502552171387
 20
2277.078849841989
 30
0.0
 11
6880.186046963546
 21
2284.552664981946
 31
0.0
 12
5148.329900851807
 22
2277.078849841989
 32
0.0
 13
5148.329900851807
 23
2277.078849841989
 33
0.0
210
0.0
220
0.0
230
1.0
  0
SOLID
  5
357
330
353
100
AcDbEntity
  8
HATCH
  6
CONTINUOUS
 62
     2
100
AcDbTrace
 10
6918.308653073808
 20
2333.537121576657
 30
0.0
 11
5148.329900851807
 21
2277.078849841989
 31
0.0
 12
6880.186046963546
 22
2284.552664981946
 32
0.0
 13
6880.186046963546
 23
2284.552664981946
 33
0.0
210
0.0
220
0.0
230
1.0
  0
SOLID
  5
358
330
353
100
AcDbEntity
  8
HATCH
  6
CONTINUOUS
 62
     2
100
AcDbTrace
 10
5148.329900851807
 20
2277.078849841989
 30
0.0
 11
6918.308653073808
 21
2333.537121576657
 31
0.0
 12
5148.329900851805
 22
2333.537121576657
 32
0.0
 13
5148.329900851805
 23
2333.537121576657
 33
0.0
210
0.0
220
0.0
230
1.0
  0
SOLID
  5
359
330
353
100
AcDbEntity
  8
HATCH
  6
CONTINUOUS
 62
     2
100
AcDbTrace
 10
6825.72515450964
 20
1952.546941872669
 30
0.0
 11
5148.329900851805
 21
1920.697562913152
 31
0.0
 12
6871.252461229919
 22
1920.697562913152
 32
0.0
 13
6871.252461229919
 23
1920.697562913152
 33
0.0
210
0.0
220
0.0
230
1.0
  0
SOLID
  5
35A
330
353
100
AcDbEntity
  8
HATCH
  6
CONTINUOUS
 62
     2
100
AcDbTrace
 10
6803.940808160914
 20
2012.416822336248
 30
0.0
 11
5148.329900851805
 21
1920.697562913152
 31
0.0
 12
6825.72515450964
 22
1952.546941872669
 32
0.0
 13
6825.72515450964
 23
1952.546941872669
 33
0.0
210
0.0
220
0.0
230
1.0
  0
SOLID
  5
35B
330
353
100
AcDbEntity
  8
HATCH
  6
CONTINUOUS
 62
     2
100
AcDbTrace
 10
6803.940808160914
 20
2099.500295261856
 30
0.0
 11
5148.329900851805
 21
1920.697562913152
 31
0.0
 12
6803.940808160914
 22
2012.416822336248
 32
0.0
 13
6803.940808160914
 23
2012.416822336248
 33
0.0
210
0.0
220
0.0
230
1.0
  0
SOLID
  5
35C
330
353
100
AcDbEntity
  8
HATCH
  6
CONTINUOUS
 62
     2
100
AcDbTrace
 10
6803.940808160915
 20
2186.583768187466
 30
0.0
 11
5148.329900851805
 21
1920.697562913152
 31
0.0
 12
6803.940808160914
 22
2099.500295261856
 32
0.0
 13
6803.940808160914
 23
2099.500295261856
 33
0.0
210
0.0
220
0.0
230
1.0
  0
SOLID
  5
35D
330
353
100
AcDbEntity
  8
HATCH
  6
CONTINUOUS
 62
     2
100
AcDbTrace
 10
6825.725154509637
 20
2246.453648651038
 30
0.0
 11
5148.329900851805
 21
1920.697562913152
 31
0.0
 12
6803.940808160915
 22
2186.583768187466
 32
0.0
 13
6803.940808160915
 23
2186.583768187466
 33
0.0
210
0.0
220
0.0
230
1.0
  0
SOLID
  5
35E
330
353
100
AcDbEntity
  8
HATCH
  6
CONTINUOUS
 62
     2
100
AcDbTrace
 10
6825.725154509637
 20
2246.453648651038
 30
0.0
 11
6869.502552171387
 21
2277.078849841989
 31
0.0
 12
5148.329900851805
 22
2277.078849841989
 32
0.0
 13
5148.329900851805
 23
2277.078849841989
 33
0.0
210
0.0
220
0.0
230
1.0
  0
SOLID
  5
35F
330
353
100
AcDbEntity
  8
HATCH
  6
CONTINUOUS
 62
     2
100
AcDbTrace
 10
5148.329900851805
 20
2277.078849841989
 30
0.0
 11
5148.329900851805
 21
1920.697562913152
 31
0.0
 12
6825.725154509637
 22
2246.453648651038
 32
0.0
 13
6825.725154509637
 23
2246.453648651038
 33
0.0
210
0.0
220
0.0
230
1.0
  0
SOLID
  5
360
330
353
100
AcDbEntity
  8
HATCH
  6
CONTINUOUS
 62
     2
100
AcDbTrace
 10
5148.329900851805
 20
1920.697562913152
 30
0.0
 11
5148.329900851805
 21
1864.239291178486
 31
0.0
 12
6871.252461229919
 22
1920.697562913152
 32
0.0
 13
6871.252461229919
 23
1920.697562913152
 33
0.0
210
0.0
220
0.0
230
1.0
  0
SOLID
  5
361
330
353
100
AcDbEntity
  8
HATCH
  6
CONTINUOUS
 62
     2
100
AcDbTrace
 10
6919.261380737322
 20
1864.239291178486
 30
0.0
 11
6871.252461229919
 21
1920.697562913152
 31
0.0
 12
5148.329900851805
 22
1864.239291178486
 32
0.0
 13
5148.329900851805
 23
1864.239291178486
 33
0.0
210
0.0
220
0.0
230
1.0
  0
SOLID
  5
362
330
353
100
AcDbEntity
  8
HATCH
  6
CONTINUOUS
 62
     2
100
AcDbTrace
 10
6871.252461229919
 20
1920.697562913152
 30
0.0
 11
6919.261380737322
 21
1864.239291178486
 31
0.0
 12
6880.186046963543
 22
1914.447925541767
 32
0.0
 13
6880.186046963543
 23
1914.447925541767
 33
0.0
210
0.0
220
0.0
230
1.0
  0
SOLID
  5
363
330
353
100
AcDbEntity
  8
HATCH
  6
CONTINUOUS
 62
     2
100
AcDbTrace
 10
7000.000005045712
 20
1864.239291178486
 30
0.0
 11
5148.329900851805
 21
1864.239291178485
 31
0.0
 12
7000.000005045712
 22
1820.697562913151
 32
0.0
 13
7000.000005045712
 23
1820.697562913151
 33
0.0
  0
SOLID
  5
364
330
353
100
AcDbEntity
  8
HATCH
  6
CONTINUOUS
 62
     2
100
AcDbTrace
 10
5148.329900851805
 20
1820.697562913151
 30
0.0
 11
7000.000005045712
 21
1820.697562913151
 31
0.0
 12
5148.329900851805
 22
1864.239291178485
 32
0.0
 13
5148.329900851805
 23
1864.239291178485
 33
0.0
210
0.0
220
0.0
230
1.0
  0
ENDBLK
  5
366
330
353
100
AcDbEntity
  8
0
100
AcDbBlockEnd
  0
BLOCK
  5
37C
330
367
100
AcDbEntity
  8
0
100
AcDbBlockBegin
  2
*U3
 70
     1
 10
0.0
 20
0.0
 30
0.0
  3
*U3
  1

  0
SOLID
  5
368
330
367
100
AcDbEntity
  8
HATCH
  6
CONTINUOUS
 62
     3
100
AcDbTrace
 10
3932.053907419383
 20
1144.96933425594
 30
0.0
 11
3442.644628996989
 21
1140.064006673613
 31
0.0
 12
3687.847455771305
 22
1092.812015333576
 32
0.0
 13
3687.847455771305
 23
1092.812015333576
 33
0.0
  0
SOLID
  5
369
330
367
100
AcDbEntity
  8
HATCH
  6
CONTINUOUS
 62
     3
100
AcDbTrace
 10
3621.059202880485
 20
1196.263316928489
 30
0.0
 11
3442.644628996989
 21
1140.064006673613
 31
0.0
 12
3932.053907419383
 22
1144.96933425594
 32
0.0
 13
3932.053907419383
 23
1144.96933425594
 33
0.0
210
0.0
220
0.0
230
1.0
  0
SOLID
  5
36A
330
367
100
AcDbEntity
  8
HATCH
  6
CONTINUOUS
 62
     3
100
AcDbTrace
 10
3839.101532831917
 20
1216.867216323569
 30
0.0
 11
3621.059202880485
 21
1196.263316928489
 31
0.0
 12
3932.053907419383
 22
1144.96933425594
 32
0.0
 13
3932.053907419383
 23
1144.96933425594
 33
0.0
210
0.0
220
0.0
230
1.0
  0
SOLID
  5
36B
330
367
100
AcDbEntity
  8
HATCH
  6
CONTINUOUS
 62
     3
100
AcDbTrace
 10
3413.456482049332
 20
1266.035006204538
 30
0.0
 11
3442.644628996989
 21
1140.064006673613
 31
0.0
 12
3621.059202880485
 22
1196.263316928489
 32
0.0
 13
3621.059202880485
 23
1196.263316928489
 33
0.0
  0
SOLID
  5
36C
330
367
100
AcDbEntity
  8
HATCH
  6
CONTINUOUS
 62
     3
100
AcDbTrace
 10
3235.308467583791
 20
1279.236177433988
 30
0.0
 11
3442.644628996989
 21
1140.064006673613
 31
0.0
 12
3413.456482049332
 22
1266.035006204538
 32
0.0
 13
3413.456482049332
 23
1266.035006204538
 33
0.0
210
0.0
220
0.0
230
1.0
  0
SOLID
  5
36D
330
367
100
AcDbEntity
  8
HATCH
  6
CONTINUOUS
 62
     3
100
AcDbTrace
 10
4136.558862379112
 20
1288.269370336304
 30
0.0
 11
3839.101532831917
 21
1216.867216323569
 31
0.0
 12
3932.053907419383
 22
1144.96933425594
 32
0.0
 13
3932.053907419383
 23
1144.96933425594
 33
0.0
210
0.0
220
0.0
230
1.0
  0
SOLID
  5
36E
330
367
100
AcDbEntity
  8
HATCH
  6
CONTINUOUS
 62
     3
100
AcDbTrace
 10
4029.960129877607
 20
1324.291488509524
 30
0.0
 11
3839.101532831917
 21
1216.867216323569
 31
0.0
 12
4136.558862379112
 22
1288.269370336304
 32
0.0
 13
4136.558862379112
 23
1288.269370336304
 33
0.0
210
0.0
220
0.0
230
1.0
  0
SOLID
  5
36F
330
367
100
AcDbEntity
  8
HATCH
  6
CONTINUOUS
 62
     3
100
AcDbTrace
 10
3252.115351203833
 20
1414.14313501058
 30
0.0
 11
3235.308467583791
 21
1279.236177433988
 31
0.0
 12
3413.456482049332
 22
1266.035006204538
 32
0.0
 13
3413.456482049332
 23
1266.035006204538
 33
0.0
210
0.0
220
0.0
230
1.0
  0
SOLID
  5
370
330
367
100
AcDbEntity
  8
HATCH
  6
CONTINUOUS
 62
     3
100
AcDbTrace
 10
3098.700393814219
 20
1488.270650965703
 30
0.0
 11
3235.308467583791
 21
1279.236177433988
 31
0.0
 12
3252.115351203833
 22
1414.14313501058
 32
0.0
 13
3252.115351203833
 23
1414.14313501058
 33
0.0
  0
SOLID
  5
371
330
367
100
AcDbEntity
  8
HATCH
  6
CONTINUOUS
 62
     3
100
AcDbTrace
 10
4029.960129877607
 20
1324.291488509524
 30
0.0
 11
4268.949626029396
 21
1500.000007334847
 31
0.0
 12
4160.702222308249
 22
1500.000007334847
 32
0.0
 13
4160.702222308249
 23
1500.000007334847
 33
0.0
210
0.0
220
0.0
230
1.0
  0
SOLID
  5
372
330
367
100
AcDbEntity
  8
HATCH
  6
CONTINUOUS
 62
     3
100
AcDbTrace
 10
4268.949626029396
 20
1500.000007334847
 30
0.0
 11
4029.960129877607
 21
1324.291488509524
 31
0.0
 12
4136.558862379112
 22
1288.269370336304
 32
0.0
 13
4136.558862379112
 23
1288.269370336304
 33
0.0
210
0.0
220
0.0
230
1.0
  0
SOLID
  5
373
330
367
100
AcDbEntity
  8
HATCH
  6
CONTINUOUS
 62
     3
100
AcDbTrace
 10
3164.875324579675
 20
1615.031551987636
 30
0.0
 11
3098.700393814219
 21
1488.270650965703
 31
0.0
 12
3252.115351203833
 22
1414.14313501058
 32
0.0
 13
3252.115351203833
 23
1414.14313501058
 33
0.0
210
0.0
220
0.0
230
1.0
  0
SOLID
  5
374
330
367
100
AcDbEntity
  8
HATCH
  6
CONTINUOUS
 62
     3
100
AcDbTrace
 10
3054.471891774515
 20
1734.036833649648
 30
0.0
 11
3098.700393814219
 21
1488.270650965703
 31
0.0
 12
3164.875324579675
 22
1615.031551987636
 32
0.0
 13
3164.875324579675
 23
1615.031551987636
 33
0.0
210
0.0
220
0.0
230
1.0
  0
SOLID
  5
375
330
367
100
AcDbEntity
  8
HATCH
  6
CONTINUOUS
 62
     3
100
AcDbTrace
 10
2692.693419533962
 20
1759.129185809288
 30
0.0
 11
2692.693419533962
 21
1734.036833649648
 31
0.0
 12
3054.471891774515
 22
1734.036833649648
 32
0.0
 13
3054.471891774515
 23
1734.036833649648
 33
0.0
210
0.0
220
0.0
230
1.0
  0
SOLID
  5
376
330
367
100
AcDbEntity
  8
HATCH
  6
CONTINUOUS
 62
     3
100
AcDbTrace
 10
2692.693419533962
 20
1834.036833649648
 30
0.0
 11
2692.693419533962
 21
1759.129185809288
 31
0.0
 12
3054.471891774515
 22
1734.036833649648
 32
0.0
 13
3054.471891774515
 23
1734.036833649648
 33
0.0
  0
SOLID
  5
377
330
367
100
AcDbEntity
  8
HATCH
  6
CONTINUOUS
 62
     3
100
AcDbTrace
 10
3140.453730630477
 20
1834.036833649648
 30
0.0
 11
2692.693419533962
 21
1834.036833649648
 31
0.0
 12
3054.471891774515
 22
1734.036833649648
 32
0.0
 13
3054.471891774515
 23
1734.036833649648
 33
0.0
210
0.0
220
0.0
230
1.0
  0
SOLID
  5
378
330
367
100
AcDbEntity
  8
HATCH
  6
CONTINUOUS
 62
     3
100
AcDbTrace
 10
3140.453730630477
 20
1834.036833649648
 30
0.0
 11
3054.471891774515
 21
1734.036833649648
 31
0.0
 12
3164.875324579675
 22
1615.031551987636
 32
0.0
 13
3164.875324579675
 23
1615.031551987636
 33
0.0
210
0.0
220
0.0
230
1.0
  0
SOLID
  5
379
330
367
100
AcDbEntity
  8
HATCH
  6
CONTINUOUS
 62
     3
100
AcDbTrace
 10
3166.78972398263
 20
1834.036833649649
 30
0.0
 11
3140.453730630477
 21
1834.036833649648
 31
0.0
 12
3164.875324579675
 22
1615.031551987636
 32
0.0
 13
3164.875324579675
 23
1615.031551987636
 33
0.0
210
0.0
220
0.0
230
1.0
  0
SOLID
  5
37A
330
367
100
AcDbEntity
  8
HATCH
  6
CONTINUOUS
 62
     3
100
AcDbTrace
 10
3955.636486363554
 20
2369.605034702034
 30
0.0
 11
3955.636486363554
 21
2469.605034702035
 31
0.0
 12
2692.693419533962
 22
2469.605034702035
 32
0.0
 13
2692.693419533962
 23
2469.605034702035
 33
0.0
210
0.0
220
0.0
230
1.0
  0
SOLID
  5
37B
330
367
100
AcDbEntity
  8
HATCH
  6
CONTINUOUS
 62
     3
100
AcDbTrace
 10
2692.693419533962
 20
2469.605034702035
 30
0.0
 11
2692.693419533962
 21
2369.605034702034
 31
0.0
 12
3955.636486363554
 22
2369.605034702034
 32
0.0
 13
3955.636486363554
 23
2369.605034702034
 33
0.0
210
0.0
220
0.0
230
1.0
  0
ENDBLK
  5
37D
330
367
100
AcDbEntity
  8
0
100
AcDbBlockEnd
  0
BLOCK
  5
38A
330
37E
100
AcDbEntity
  8
0
100
AcDbBlockBegin
  2
*U4
 70
     1
 10
0.0
 20
0.0
 30
0.0
  3
*U4
  1

  0
SOLID
  5
37F
330
37E
100
AcDbEntity
  8
HATCH
  6
CONTINUOUS
 62
   251
100
AcDbTrace
 10
3413.4564820493
 20
1266.035006204557
 30
0.0
 11
3621.059202880458
 21
1196.263316928493
 31
0.0
 12
3839.101532831898
 22
1216.867216323564
 32
0.0
 13
3839.101532831898
 23
1216.867216323564
 33
0.0
210
0.0
220
0.0
230
1.0
  0
SOLID
  5
380
330
37E
100
AcDbEntity
  8
HATCH
  6
CONTINUOUS
 62
   251
100
AcDbTrace
 10
4029.9601298776
 20
1324.291488509518
 30
0.0
 11
3413.4564820493
 21
1266.035006204557
 31
0.0
 12
3839.101532831898
 22
1216.867216323564
 32
0.0
 13
3839.101532831898
 23
1216.867216323564
 33
0.0
  0
SOLID
  5
381
330
37E
100
AcDbEntity
  8
HATCH
  6
CONTINUOUS
 62
   251
100
AcDbTrace
 10
3252.115351203807
 20
1414.143135010618
 30
0.0
 11
3413.4564820493
 21
1266.035006204557
 31
0.0
 12
4029.9601298776
 22
1324.291488509518
 32
0.0
 13
4029.9601298776
 23
1324.291488509518
 33
0.0
210
0.0
220
0.0
230
1.0
  0
SOLID
  5
382
330
37E
100
AcDbEntity
  8
HATCH
  6
CONTINUOUS
 62
   251
100
AcDbTrace
 10
3955.636486363554
 20
1500.000007334847
 30
0.0
 11
3252.115351203807
 21
1414.143135010618
 31
0.0
 12
4029.9601298776
 22
1324.291488509518
 32
0.0
 13
4029.9601298776
 23
1324.291488509518
 33
0.0
210
0.0
220
0.0
230
1.0
  0
SOLID
  5
383
330
37E
100
AcDbEntity
  8
HATCH
  6
CONTINUOUS
 62
   251
100
AcDbTrace
 10
4160.702222308249
 20
1500.000007334847
 30
0.0
 11
3955.636486363554
 21
1500.000007334847
 31
0.0
 12
4029.9601298776
 22
1324.291488509518
 32
0.0
 13
4029.9601298776
 23
1324.291488509518
 33
0.0
  0
SOLID
  5
384
330
37E
100
AcDbEntity
  8
HATCH
  6
CONTINUOUS
 62
   251
100
AcDbTrace
 10
3164.875324579663
 20
1615.031551987691
 30
0.0
 11
3252.115351203807
 21
1414.143135010618
 31
0.0
 12
3955.636486363554
 22
1500.000007334847
 32
0.0
 13
3955.636486363554
 23
1500.000007334847
 33
0.0
210
0.0
220
0.0
230
1.0
  0
SOLID
  5
385
330
37E
100
AcDbEntity
  8
HATCH
  6
CONTINUOUS
 62
   251
100
AcDbTrace
 10
3166.789723982644
 20
1834.036833649711
 30
0.0
 11
2692.693419533962
 21
1834.036833649648
 31
0.0
 12
3140.453730630477
 22
1834.036833649648
 32
0.0
 13
3140.453730630477
 23
1834.036833649648
 33
0.0
210
0.0
220
0.0
230
1.0
  0
SOLID
  5
386
330
37E
100
AcDbEntity
  8
HATCH
  6
CONTINUOUS
 62
   251
100
AcDbTrace
 10
3166.789723982644
 20
1834.036833649711
 30
0.0
 11
3164.875324579663
 21
1615.031551987691
 31
0.0
 12
3955.636486363554
 22
1500.000007334847
 32
0.0
 13
3955.636486363554
 23
1500.000007334847
 33
0.0
210
0.0
220
0.0
230
1.0
  0
SOLID
  5
387
330
37E
100
AcDbEntity
  8
HATCH
  6
CONTINUOUS
 62
   251
100
AcDbTrace
 10
3955.636486363554
 20
2369.605034702034
 30
0.0
 11
3166.789723982644
 21
1834.036833649711
 31
0.0
 12
3955.636486363554
 22
1500.000007334847
 32
0.0
 13
3955.636486363554
 23
1500.000007334847
 33
0.0
210
0.0
220
0.0
230
1.0
  0
SOLID
  5
388
330
37E
100
AcDbEntity
  8
HATCH
  6
CONTINUOUS
 62
   251
100
AcDbTrace
 10
2692.693419533962
 20
2369.605034702034
 30
0.0
 11
3166.789723982644
 21
1834.036833649711
 31
0.0
 12
3955.636486363554
 22
2369.605034702034
 32
0.0
 13
3955.636486363554
 23
2369.605034702034
 33
0.0
210
0.0
220
0.0
230
1.0
  0
SOLID
  5
389
330
37E
100
AcDbEntity
  8
HATCH
  6
CONTINUOUS
 62
   251
100
AcDbTrace
 10
2692.693419533962
 20
2369.605034702034
 30
0.0
 11
2692.693419533962
 21
1834.036833649648
 31
0.0
 12
3166.789723982644
 22
1834.036833649711
 32
0.0
 13
3166.789723982644
 23
1834.036833649711
 33
0.0
210
0.0
220
0.0
230
1.0
  0
ENDBLK
  5
38B
330
37E
100
AcDbEntity
  8
0
100
AcDbBlockEnd
  0
BLOCK
  5
391
330
38C
100
AcDbEntity
  8
0
100
AcDbBlockBegin
  2
*U5
 70
     1
 10
0.0
 20
0.0
 30
0.0
  3
*U5
  1

  0
SOLID
  5
38D
330
38C
100
AcDbEntity
  8
HATCH
  6
CONTINUOUS
 62
     2
100
AcDbTrace
 10
1250.000005045712
 20
1820.000007334846
 30
0.0
 11
1250.000005045712
 21
1800.000007334847
 31
0.0
 12
1500.000005045712
 22
1800.000007334847
 32
0.0
 13
1500.000005045712
 23
1800.000007334847
 33
0.0
210
0.0
220
0.0
230
1.0
  0
SOLID
  5
38E
330
38C
100
AcDbEntity
  8
HATCH
  6
CONTINUOUS
 62
     2
100
AcDbTrace
 10
1500.000005045712
 20
1820.000007334847
 30
0.0
 11
1250.000005045712
 21
1820.000007334846
 31
0.0
 12
1500.000005045712
 22
1800.000007334847
 32
0.0
 13
1500.000005045712
 23
1800.000007334847
 33
0.0
210
0.0
220
0.0
230
1.0
  0
SOLID
  5
38F
330
38C
100
AcDbEntity
  8
HATCH
  6
CONTINUOUS
 62
     2
100
AcDbTrace
 10
1500.000005045712
 20
2449.605034702035
 30
0.0
 11
1500.000005045712
 21
2469.605034702035
 31
0.0
 12
1250.000005045712
 22
2469.605034702035
 32
0.0
 13
1250.000005045712
 23
2469.605034702035
 33
0.0
210
0.0
220
0.0
230
1.0
  0
SOLID
  5
390
330
38C
100
AcDbEntity
  8
HATCH
  6
CONTINUOUS
 62
     2
100
AcDbTrace
 10
1250.000005045712
 20
2469.605034702035
 30
0.0
 11
1250.000005045712
 21
2449.605034702035
 31
0.0
 12
1500.000005045712
 22
2449.605034702035
 32
0.0
 13
1500.000005045712
 23
2449.605034702035
 33
0.0
210
0.0
220
0.0
230
1.0
  0
ENDBLK
  5
392
330
38C
100
AcDbEntity
  8
0
100
AcDbBlockEnd
  0
BLOCK
  5
398
330
393
100
AcDbEntity
  8
0
100
AcDbBlockBegin
  2
*U6
 70
     1
 10
0.0
 20
0.0
 30
0.0
  3
*U6
  1

  0
SOLID
  5
394
330
393
100
AcDbEntity
  8
HATCH
  6
CONTINUOUS
 62
   251
100
AcDbTrace
 10
1375.000005045712
 20
2134.80252101844
 30
0.0
 11
1500.000005045712
 21
2449.605034702035
 31
0.0
 12
1250.000005045712
 22
2449.605034702035
 32
0.0
 13
1250.000005045712
 23
2449.605034702035
 33
0.0
210
0.0
220
0.0
230
1.0
  0
SOLID
  5
395
330
393
100
AcDbEntity
  8
HATCH
  6
CONTINUOUS
 62
   251
100
AcDbTrace
 10
1375.000005045712
 20
2134.80252101844
 30
0.0
 11
1250.000005045712
 21
2449.605034702035
 31
0.0
 12
1250.000005045712
 22
1820.000007334846
 32
0.0
 13
1250.000005045712
 23
1820.000007334846
 33
0.0
210
0.0
220
0.0
230
1.0
  0
SOLID
  5
396
330
393
100
AcDbEntity
  8
HATCH
  6
CONTINUOUS
 62
   251
100
AcDbTrace
 10
1375.000005045712
 20
2134.80252101844
 30
0.0
 11
1250.000005045712
 21
1820.000007334846
 31
0.0
 12
1500.000005045712
 22
1820.000007334846
 32
0.0
 13
1500.000005045712
 23
1820.000007334846
 33
0.0
210
0.0
220
0.0
230
1.0
  0
SOLID
  5
397
330
393
100
AcDbEntity
  8
HATCH
  6
CONTINUOUS
 62
   251
100
AcDbTrace
 10
1375.000005045712
 20
2134.80252101844
 30
0.0
 11
1500.000005045712
 21
1820.000007334846
 31
0.0
 12
1500.000005045712
 22
2449.605034702035
 32
0.0
 13
1500.000005045712
 23
2449.605034702035
 33
0.0
210
0.0
220
0.0
230
1.0
  0
ENDBLK
  5
399
330
393
100
AcDbEntity
  8
0
100
AcDbBlockEnd
  0
BLOCK
  5
3A9
330
39A
100
AcDbEntity
  8
0
100
AcDbBlockBegin
  2
*U7
 70
     1
 10
0.0
 20
0.0
 30
0.0
  3
*U7
  1

  0
SOLID
  5
39B
330
39A
100
AcDbEntity
  8
HATCH
  6
CONTINUOUS
 62
     3
100
AcDbTrace
 10
4848.329900851805
 20
2387.313708818601
 30
0.0
 11
5148.329900851805
 21
2687.313708818601
 31
0.0
 12
4255.636486363553
 22
2387.313708818601
 32
0.0
 13
4255.636486363553
 23
2387.313708818601
 33
0.0
210
0.0
220
0.0
230
1.0
  0
SOLID
  5
39C
330
39A
100
AcDbEntity
  8
HATCH
  6
CONTINUOUS
 62
     3
100
AcDbTrace
 10
3955.636486363554
 20
2687.313708818601
 30
0.0
 11
4255.636486363553
 21
2387.313708818601
 31
0.0
 12
5148.329900851805
 22
2687.313708818601
 32
0.0
 13
5148.329900851805
 23
2687.313708818601
 33
0.0
210
0.0
220
0.0
230
1.0
  0
SOLID
  5
39D
330
39A
100
AcDbEntity
  8
HATCH
  6
CONTINUOUS
 62
     3
100
AcDbTrace
 10
4255.636486363552
 20
2387.313708818601
 30
0.0
 11
4551.983193607679
 21
2093.656858076724
 31
0.0
 12
4848.329900851805
 22
2387.313708818601
 32
0.0
 13
4848.329900851805
 23
2387.313708818601
 33
0.0
210
0.0
220
0.0
230
1.0
  0
SOLID
  5
39E
330
39A
100
AcDbEntity
  8
HATCH
  6
CONTINUOUS
 62
     3
100
AcDbTrace
 10
4848.329900851805
 20
2387.3137088186
 30
0.0
 11
4551.983193607679
 21
2093.656858076724
 31
0.0
 12
4848.329900851805
 22
1800.000007334846
 32
0.0
 13
4848.329900851805
 23
1800.000007334846
 33
0.0
210
0.0
220
0.0
230
1.0
  0
SOLID
  5
39F
330
39A
100
AcDbEntity
  8
HATCH
  6
CONTINUOUS
 62
     3
100
AcDbTrace
 10
5148.329900851805
 20
2377.078849841989
 30
0.0
 11
5148.329900851805
 21
2687.313708818601
 31
0.0
 12
5148.329900851805
 22
1500.000007334846
 32
0.0
 13
5148.329900851805
 23
1500.000007334846
 33
0.0
210
0.0
220
0.0
230
1.0
  0
SOLID
  5
3A0
330
39A
100
AcDbEntity
  8
HATCH
  6
CONTINUOUS
 62
     3
100
AcDbTrace
 10
4848.329900851805
 20
2387.313708818601
 30
0.0
 11
5148.329900851805
 21
1500.000007334846
 31
0.0
 12
5148.329900851805
 22
2687.313708818601
 32
0.0
 13
5148.329900851805
 23
2687.313708818601
 33
0.0
210
0.0
220
0.0
230
1.0
  0
SOLID
  5
3A1
330
39A
100
AcDbEntity
  8
HATCH
  6
CONTINUOUS
 62
     3
100
AcDbTrace
 10
5148.329900851805
 20
1500.000007334846
 30
0.0
 11
4848.329900851805
 21
2387.313708818601
 31
0.0
 12
4848.329900851805
 22
1800.000007334846
 32
0.0
 13
4848.329900851805
 23
1800.000007334846
 33
0.0
210
0.0
220
0.0
230
1.0
  0
SOLID
  5
3A2
330
39A
100
AcDbEntity
  8
HATCH
  6
CONTINUOUS
 62
     3
100
AcDbTrace
 10
5148.329900851805
 20
1500.000007334847
 30
0.0
 11
4848.329900851806
 21
1800.000007334847
 31
0.0
 12
3955.636486363554
 22
1500.000007334847
 32
0.0
 13
3955.636486363554
 23
1500.000007334847
 33
0.0
210
0.0
220
0.0
230
1.0
  0
SOLID
  5
3A3
330
39A
100
AcDbEntity
  8
HATCH
  6
CONTINUOUS
 62
     3
100
AcDbTrace
 10
4255.636486363553
 20
1800.000007334847
 30
0.0
 11
3955.636486363554
 21
1500.000007334847
 31
0.0
 12
4848.329900851806
 22
1800.000007334847
 32
0.0
 13
4848.329900851806
 23
1800.000007334847
 33
0.0
210
0.0
220
0.0
230
1.0
  0
SOLID
  5
3A4
330
39A
100
AcDbEntity
  8
HATCH
  6
CONTINUOUS
 62
     3
100
AcDbTrace
 10
4848.329900851805
 20
1800.000007334847
 30
0.0
 11
4551.983193607679
 21
2093.656858076723
 31
0.0
 12
4255.636486363553
 22
1800.000007334846
 32
0.0
 13
4255.636486363553
 23
1800.000007334846
 33
0.0
210
0.0
220
0.0
230
1.0
  0
SOLID
  5
3A5
330
39A
100
AcDbEntity
  8
HATCH
  6
CONTINUOUS
 62
     3
100
AcDbTrace
 10
4551.98319360768
 20
2093.656858076724
 30
0.0
 11
4255.636486363552
 21
2387.313708818601
 31
0.0
 12
4255.636486363552
 22
1800.000007334847
 32
0.0
 13
4255.636486363552
 23
1800.000007334847
 33
0.0
210
0.0
220
0.0
230
1.0
  0
SOLID
  5
3A6
330
39A
100
AcDbEntity
  8
HATCH
  6
CONTINUOUS
 62
     3
100
AcDbTrace
 10
4255.636486363552
 20
2387.3137088186
 30
0.0
 11
3955.636486363554
 21
2687.313708818601
 31
0.0
 12
4255.636486363552
 22
1800.000007334847
 32
0.0
 13
4255.636486363552
 23
1800.000007334847
 33
0.0
210
0.0
220
0.0
230
1.0
  0
SOLID
  5
3A7
330
39A
100
AcDbEntity
  8
HATCH
  6
CONTINUOUS
 62
     3
100
AcDbTrace
 10
3955.636486363554
 20
2469.605034702035
 30
0.0
 11
4255.636486363552
 21
1800.000007334847
 31
0.0
 12
3955.636486363554
 22
2687.313708818601
 32
0.0
 13
3955.636486363554
 23
2687.313708818601
 33
0.0
210
0.0
220
0.0
230
1.0
  0
SOLID
  5
3A8
330
39A
100
AcDbEntity
  8
HATCH
  6
CONTINUOUS
 62
     3
100
AcDbTrace
 10
4255.636486363552
 20
1800.000007334847
 30
0.0
 11
3955.636486363554
 21
2469.605034702035
 31
0.0
 12
3955.636486363554
 22
1500.000007334847
 32
0.0
 13
3955.636486363554
 23
1500.000007334847
 33
0.0
210
0.0
220
0.0
230
1.0
  0
ENDBLK
  5
3AA
330
39A
100
AcDbEntity
  8
0
100
AcDbBlockEnd
  0
BLOCK
  5
3B8
330
3AB
100
AcDbEntity
  8
0
100
AcDbBlockBegin
  2
*U8
 70
     1
 10
0.0
 20
0.0
 30
0.0
  3
*U8
  1

  0
SOLID
  5
3AC
330
3AB
100
AcDbEntity
  8
HATCH
  6
CONTINUOUS
 62
     3
100
AcDbTrace
 10
2692.693419533962
 20
2687.313708818601
 30
0.0
 11
2392.693419533963
 21
2387.313708818601
 31
0.0
 12
2692.693419533962
 22
1500.000007334847
 32
0.0
 13
2692.693419533962
 23
1500.000007334847
 33
0.0
  0
SOLID
  5
3AD
330
3AB
100
AcDbEntity
  8
HATCH
  6
CONTINUOUS
 62
     3
100
AcDbTrace
 10
2392.693419533962
 20
1800.000007334847
 30
0.0
 11
2692.693419533962
 21
1500.000007334847
 31
0.0
 12
2392.693419533963
 22
2387.313708818601
 32
0.0
 13
2392.693419533963
 23
2387.313708818601
 33
0.0
210
0.0
220
0.0
230
1.0
  0
SOLID
  5
3AE
330
3AB
100
AcDbEntity
  8
HATCH
  6
CONTINUOUS
 62
     3
100
AcDbTrace
 10
2096.346712289837
 20
2093.656858076724
 30
0.0
 11
2392.693419533962
 21
1800.000007334847
 31
0.0
 12
2392.693419533963
 22
2387.313708818601
 32
0.0
 13
2392.693419533963
 23
2387.313708818601
 33
0.0
210
0.0
220
0.0
230
1.0
  0
SOLID
  5
3AF
330
3AB
100
AcDbEntity
  8
HATCH
  6
CONTINUOUS
 62
     3
100
AcDbTrace
 10
1800.000005045711
 20
2387.313708818601
 30
0.0
 11
2096.346712289836
 21
2093.656858076724
 31
0.0
 12
2392.693419533963
 22
2387.313708818601
 32
0.0
 13
2392.693419533963
 23
2387.313708818601
 33
0.0
210
0.0
220
0.0
230
1.0
  0
SOLID
  5
3B0
330
3AB
100
AcDbEntity
  8
HATCH
  6
CONTINUOUS
 62
     3
100
AcDbTrace
 10
2392.693419533962
 20
2387.313708818601
 30
0.0
 11
2692.693419533962
 21
2687.313708818601
 31
0.0
 12
1800.000005045712
 22
2387.313708818601
 32
0.0
 13
1800.000005045712
 23
2387.313708818601
 33
0.0
210
0.0
220
0.0
230
1.0
  0
SOLID
  5
3B1
330
3AB
100
AcDbEntity
  8
HATCH
  6
CONTINUOUS
 62
     3
100
AcDbTrace
 10
1500.000005045712
 20
2687.313708818601
 30
0.0
 11
1800.000005045712
 21
2387.313708818601
 31
0.0
 12
2692.693419533962
 22
2687.313708818601
 32
0.0
 13
2692.693419533962
 23
2687.313708818601
 33
0.0
210
0.0
220
0.0
230
1.0
  0
SOLID
  5
3B2
330
3AB
100
AcDbEntity
  8
HATCH
  6
CONTINUOUS
 62
     3
100
AcDbTrace
 10
1500.000005045712
 20
1500.000007334847
 30
0.0
 11
1800.000005045711
 21
1800.000007334847
 31
0.0
 12
1500.000005045712
 22
2687.313708818601
 32
0.0
 13
1500.000005045712
 23
2687.313708818601
 33
0.0
210
0.0
220
0.0
230
1.0
  0
SOLID
  5
3B3
330
3AB
100
AcDbEntity
  8
HATCH
  6
CONTINUOUS
 62
     3
100
AcDbTrace
 10
1800.000005045712
 20
2387.3137088186
 30
0.0
 11
1500.000005045712
 21
2687.313708818601
 31
0.0
 12
1800.000005045711
 22
1800.000007334847
 32
0.0
 13
1800.000005045711
 23
1800.000007334847
 33
0.0
210
0.0
220
0.0
230
1.0
  0
SOLID
  5
3B4
330
3AB
100
AcDbEntity
  8
HATCH
  6
CONTINUOUS
 62
     3
100
AcDbTrace
 10
1800.000005045711
 20
1800.000007334847
 30
0.0
 11
2096.346712289837
 21
2093.656858076724
 31
0.0
 12
1800.000005045712
 22
2387.313708818602
 32
0.0
 13
1800.000005045712
 23
2387.313708818602
 33
0.0
210
0.0
220
0.0
230
1.0
  0
SOLID
  5
3B5
330
3AB
100
AcDbEntity
  8
HATCH
  6
CONTINUOUS
 62
     3
100
AcDbTrace
 10
2392.693419533962
 20
1800.000007334847
 30
0.0
 11
2096.346712289837
 21
2093.656858076724
 31
0.0
 12
1800.000005045711
 22
1800.000007334847
 32
0.0
 13
1800.000005045711
 23
1800.000007334847
 33
0.0
  0
SOLID
  5
3B6
330
3AB
100
AcDbEntity
  8
HATCH
  6
CONTINUOUS
 62
     3
100
AcDbTrace
 10
1800.00000504571
 20
1800.000007334847
 30
0.0
 11
1500.000005045712
 21
1500.000007334847
 31
0.0
 12
2392.693419533962
 22
1800.000007334847
 32
0.0
 13
2392.693419533962
 23
1800.000007334847
 33
0.0
  0
SOLID
  5
3B7
330
3AB
100
AcDbEntity
  8
HATCH
  6
CONTINUOUS
 62
     3
100
AcDbTrace
 10
2692.693419533962
 20
1500.000007334847
 30
0.0
 11
2392.693419533962
 21
1800.000007334847
 31
0.0
 12
1500.000005045712
 22
1500.000007334847
 32
0.0
 13
1500.000005045712
 23
1500.000007334847
 33
0.0
210
0.0
220
0.0
230
1.0
  0
ENDBLK
  5
3B9
330
3AB
100
AcDbEntity
  8
0
100
AcDbBlockEnd
  0
BLOCK
  5
3E2
330
3CF
100
AcDbEntity
  8
0
100
AcDbBlockBegin
  2
*U9
 70
     1
 10
0.0
 20
0.0
 30
0.0
  3
*U9
  1

  0
SOLID
  5
3D0
330
3CF
100
AcDbEntity
  8
HATCH
  6
CONTINUOUS
 62
   251
100
AcDbTrace
 10
3092.693419533961
 20
2469.605034702037
 30
0.0
 11
3092.693419533961
 21
2619.605034702033
 31
0.0
 12
2692.693419533962
 22
2619.605034702033
 32
0.0
 13
2692.693419533962
 23
2619.605034702033
 33
0.0
210
0.0
220
0.0
230
1.0
  0
SOLID
  5
3D1
330
3CF
100
AcDbEntity
  8
HATCH
  6
CONTINUOUS
 62
   251
100
AcDbTrace
 10
2692.693419533962
 20
2619.605034702033
 30
0.0
 11
2692.693419533962
 21
2469.605034702034
 31
0.0
 12
3092.693419533961
 22
2469.605034702037
 32
0.0
 13
3092.693419533961
 23
2469.605034702037
 33
0.0
210
0.0
220
0.0
230
1.0
  0
SOLID
  5
3D2
330
3CF
100
AcDbEntity
  8
HATCH
  6
CONTINUOUS
 62
   251
100
AcDbTrace
 10
2692.693419533962
 20
2687.3137088186
 30
0.0
 11
2692.693419533962
 21
2669.605034702035
 31
0.0
 12
3092.69341953396
 22
2669.605034702036
 32
0.0
 13
3092.69341953396
 23
2669.605034702036
 33
0.0
210
0.0
220
0.0
230
1.0
  0
SOLID
  5
3D3
330
3CF
100
AcDbEntity
  8
HATCH
  6
CONTINUOUS
 62
   251
100
AcDbTrace
 10
2492.693419533962
 20
2769.605034702034
 30
0.0
 11
2492.69341953396
 21
2687.313708818602
 31
0.0
 12
2692.693419533962
 22
2687.3137088186
 32
0.0
 13
2692.693419533962
 23
2687.3137088186
 33
0.0
210
0.0
220
0.0
230
1.0
  0
SOLID
  5
3D4
330
3CF
100
AcDbEntity
  8
HATCH
  6
CONTINUOUS
 62
   251
100
AcDbTrace
 10
2492.693419533962
 20
2769.605034702034
 30
0.0
 11
2692.693419533962
 21
2687.3137088186
 31
0.0
 12
3092.69341953396
 22
2669.605034702036
 32
0.0
 13
3092.69341953396
 23
2669.605034702036
 33
0.0
210
0.0
220
0.0
230
1.0
  0
SOLID
  5
3D5
330
3CF
100
AcDbEntity
  8
HATCH
  6
CONTINUOUS
 62
   251
100
AcDbTrace
 10
3092.69341953396
 20
2769.605034702035
 30
0.0
 11
2492.693419533962
 21
2769.605034702034
 31
0.0
 12
3092.69341953396
 22
2669.605034702036
 32
0.0
 13
3092.69341953396
 23
2669.605034702036
 33
0.0
210
0.0
220
0.0
230
1.0
  0
SOLID
  5
3D6
330
3CF
100
AcDbEntity
  8
HATCH
  6
CONTINUOUS
 62
   251
100
AcDbTrace
 10
2492.693419533962
 20
2819.605034702037
 30
0.0
 11
3092.69341953396
 21
2919.605034702035
 31
0.0
 12
2492.693419533962
 22
2919.605034702035
 32
0.0
 13
2492.693419533962
 23
2919.605034702035
 33
0.0
210
0.0
220
0.0
230
1.0
  0
SOLID
  5
3D7
330
3CF
100
AcDbEntity
  8
HATCH
  6
CONTINUOUS
 62
   251
100
AcDbTrace
 10
3092.69341953396
 20
2919.605034702035
 30
0.0
 11
2492.693419533962
 21
2819.605034702037
 31
0.0
 12
3092.69341953396
 22
2819.605034702034
 32
0.0
 13
3092.69341953396
 23
2819.605034702034
 33
0.0
  0
SOLID
  5
3D8
330
3CF
100
AcDbEntity
  8
HATCH
  6
CONTINUOUS
 62
   251
100
AcDbTrace
 10
2492.693419533962
 20
2969.605034702036
 30
0.0
 11
3092.69341953396
 21
3069.605034702034
 31
0.0
 12
2492.69341953396
 22
3069.605034702034
 32
0.0
 13
2492.69341953396
 23
3069.605034702034
 33
0.0
210
0.0
220
0.0
230
1.0
  0
SOLID
  5
3D9
330
3CF
100
AcDbEntity
  8
HATCH
  6
CONTINUOUS
 62
   251
100
AcDbTrace
 10
3092.69341953396
 20
3069.605034702034
 30
0.0
 11
2492.693419533962
 21
2969.605034702036
 31
0.0
 12
3092.69341953396
 22
2969.605034702036
 32
0.0
 13
3092.69341953396
 23
2969.605034702036
 33
0.0
210
0.0
220
0.0
230
1.0
  0
SOLID
  5
3DA
330
3CF
100
AcDbEntity
  8
HATCH
  6
CONTINUOUS
 62
   251
100
AcDbTrace
 10
3092.693419533961
 20
3119.605034702033
 30
0.0
 11
3092.693419533961
 21
3219.605034702035
 31
0.0
 12
2492.693419533962
 22
3219.605034702035
 32
0.0
 13
2492.693419533962
 23
3219.605034702035
 33
0.0
210
0.0
220
0.0
230
1.0
  0
SOLID
  5
3DB
330
3CF
100
AcDbEntity
  8
HATCH
  6
CONTINUOUS
 62
   251
100
AcDbTrace
 10
2492.693419533962
 20
3219.605034702035
 30
0.0
 11
2492.693419533962
 21
3119.605034702033
 31
0.0
 12
3092.693419533961
 22
3119.605034702033
 32
0.0
 13
3092.693419533961
 23
3119.605034702033
 33
0.0
210
0.0
220
0.0
230
1.0
  0
SOLID
  5
3DC
330
3CF
100
AcDbEntity
  8
HATCH
  6
CONTINUOUS
 62
   251
100
AcDbTrace
 10
3092.693419533961
 20
3269.605034702035
 30
0.0
 11
3092.693419533961
 21
3369.605034702035
 31
0.0
 12
2492.693419533962
 22
3369.605034702035
 32
0.0
 13
2492.693419533962
 23
3369.605034702035
 33
0.0
210
0.0
220
0.0
230
1.0
  0
SOLID
  5
3DD
330
3CF
100
AcDbEntity
  8
HATCH
  6
CONTINUOUS
 62
   251
100
AcDbTrace
 10
2492.693419533962
 20
3369.605034702035
 30
0.0
 11
2492.693419533962
 21
3269.605034702035
 31
0.0
 12
3092.693419533961
 22
3269.605034702035
 32
0.0
 13
3092.693419533961
 23
3269.605034702035
 33
0.0
210
0.0
220
0.0
230
1.0
  0
SOLID
  5
3DE
330
3CF
100
AcDbEntity
  8
HATCH
  6
CONTINUOUS
 62
   251
100
AcDbTrace
 10
3092.693419533961
 20
3519.605034702034
 30
0.0
 11
2492.693419533962
 21
3419.605034702035
 31
0.0
 12
3092.693419533961
 22
3419.605034702037
 32
0.0
 13
3092.693419533961
 23
3419.605034702037
 33
0.0
210
0.0
220
0.0
230
1.0
  0
SOLID
  5
3DF
330
3CF
100
AcDbEntity
  8
HATCH
  6
CONTINUOUS
 62
   251
100
AcDbTrace
 10
2492.693419533962
 20
3519.605034702035
 30
0.0
 11
2492.693419533962
 21
3419.605034702035
 31
0.0
 12
3092.693419533961
 22
3519.605034702034
 32
0.0
 13
3092.693419533961
 23
3519.605034702034
 33
0.0
210
0.0
220
0.0
230
1.0
  0
SOLID
  5
3E0
330
3CF
100
AcDbEntity
  8
HATCH
  6
CONTINUOUS
 62
   251
100
AcDbTrace
 10
3092.69341953396
 20
3669.605034702035
 30
0.0
 11
2492.693419533962
 21
3569.605034702034
 31
0.0
 12
3092.69341953396
 22
3569.605034702035
 32
0.0
 13
3092.69341953396
 23
3569.605034702035
 33
0.0
210
0.0
220
0.0
230
1.0
  0
SOLID
  5
3E1
330
3CF
100
AcDbEntity
  8
HATCH
  6
CONTINUOUS
 62
   251
100
AcDbTrace
 10
2492.693419533962
 20
3669.605034702037
 30
0.0
 11
2492.693419533962
 21
3569.605034702034
 31
0.0
 12
3092.69341953396
 22
3669.605034702035
 32
0.0
 13
3092.69341953396
 23
3669.605034702035
 33
0.0
210
0.0
220
0.0
230
1.0
  0
ENDBLK
  5
3E3
330
3CF
100
AcDbEntity
  8
0
100
AcDbBlockEnd
  0
BLOCK
  5
3F3
330
3E4
100
AcDbEntity
  8
0
100
AcDbBlockBegin
  2
*U10
 70
     1
 10
0.0
 20
0.0
 30
0.0
  3
*U10
  1

  0
SOLID
  5
3E5
330
3E4
100
AcDbEntity
  8
HATCH
  6
CONTINUOUS
 62
   251
100
AcDbTrace
 10
2692.693419533962
 20
2669.605034702034
 30
0.0
 11
2692.693419533962
 21
2619.605034702033
 31
0.0
 12
3092.693419533961
 22
2619.605034702033
 32
0.0
 13
3092.693419533961
 23
2619.605034702033
 33
0.0
210
0.0
220
0.0
230
1.0
  0
SOLID
  5
3E6
330
3E4
100
AcDbEntity
  8
HATCH
  6
CONTINUOUS
 62
   251
100
AcDbTrace
 10
3092.693419533961
 20
2669.605034702036
 30
0.0
 11
2692.693419533962
 21
2669.605034702034
 31
0.0
 12
3092.693419533961
 22
2619.605034702033
 32
0.0
 13
3092.693419533961
 23
2619.605034702033
 33
0.0
210
0.0
220
0.0
230
1.0
  0
SOLID
  5
3E7
330
3E4
100
AcDbEntity
  8
HATCH
  6
CONTINUOUS
 62
   251
100
AcDbTrace
 10
3092.693419533961
 20
2819.605034702034
 30
0.0
 11
2492.693419533962
 21
2769.605034702036
 31
0.0
 12
3092.693419533961
 22
2769.605034702034
 32
0.0
 13
3092.693419533961
 23
2769.605034702034
 33
0.0
210
0.0
220
0.0
230
1.0
  0
SOLID
  5
3E8
330
3E4
100
AcDbEntity
  8
HATCH
  6
CONTINUOUS
 62
   251
100
AcDbTrace
 10
2492.693419533962
 20
2819.605034702036
 30
0.0
 11
2492.693419533962
 21
2769.605034702036
 31
0.0
 12
3092.693419533961
 22
2819.605034702034
 32
0.0
 13
3092.693419533961
 23
2819.605034702034
 33
0.0
  0
SOLID
  5
3E9
330
3E4
100
AcDbEntity
  8
HATCH
  6
CONTINUOUS
 62
   251
100
AcDbTrace
 10
3092.693419533961
 20
2969.605034702034
 30
0.0
 11
2492.693419533962
 21
2919.605034702033
 31
0.0
 12
3092.693419533961
 22
2919.605034702036
 32
0.0
 13
3092.693419533961
 23
2919.605034702036
 33
0.0
210
0.0
220
0.0
230
1.0
  0
SOLID
  5
3EA
330
3E4
100
AcDbEntity
  8
HATCH
  6
CONTINUOUS
 62
   251
100
AcDbTrace
 10
2492.693419533962
 20
2969.605034702036
 30
0.0
 11
2492.693419533962
 21
2919.605034702033
 31
0.0
 12
3092.693419533961
 22
2969.605034702034
 32
0.0
 13
3092.693419533961
 23
2969.605034702034
 33
0.0
210
0.0
220
0.0
230
1.0
  0
SOLID
  5
3EB
330
3E4
100
AcDbEntity
  8
HATCH
  6
CONTINUOUS
 62
   251
100
AcDbTrace
 10
2492.693419533962
 20
3119.605034702033
 30
0.0
 11
2492.693419533962
 21
3069.605034702036
 31
0.0
 12
3092.693419533961
 22
3069.605034702036
 32
0.0
 13
3092.693419533961
 23
3069.605034702036
 33
0.0
210
0.0
220
0.0
230
1.0
  0
SOLID
  5
3EC
330
3E4
100
AcDbEntity
  8
HATCH
  6
CONTINUOUS
 62
   251
100
AcDbTrace
 10
3092.693419533961
 20
3119.605034702033
 30
0.0
 11
2492.693419533962
 21
3119.605034702033
 31
0.0
 12
3092.693419533961
 22
3069.605034702036
 32
0.0
 13
3092.693419533961
 23
3069.605034702036
 33
0.0
210
0.0
220
0.0
230
1.0
  0
SOLID
  5
3ED
330
3E4
100
AcDbEntity
  8
HATCH
  6
CONTINUOUS
 62
   251
100
AcDbTrace
 10
3092.693419533961
 20
3269.605034702034
 30
0.0
 11
2492.693419533962
 21
3219.605034702035
 31
0.0
 12
3092.693419533961
 22
3219.605034702035
 32
0.0
 13
3092.693419533961
 23
3219.605034702035
 33
0.0
210
0.0
220
0.0
230
1.0
  0
SOLID
  5
3EE
330
3E4
100
AcDbEntity
  8
HATCH
  6
CONTINUOUS
 62
   251
100
AcDbTrace
 10
2492.693419533962
 20
3269.605034702037
 30
0.0
 11
2492.693419533962
 21
3219.605034702035
 31
0.0
 12
3092.693419533961
 22
3269.605034702034
 32
0.0
 13
3092.693419533961
 23
3269.605034702034
 33
0.0
210
0.0
220
0.0
230
1.0
  0
SOLID
  5
3EF
330
3E4
100
AcDbEntity
  8
HATCH
  6
CONTINUOUS
 62
   251
100
AcDbTrace
 10
3092.693419533961
 20
3369.605034702035
 30
0.0
 11
3092.693419533961
 21
3419.605034702035
 31
0.0
 12
2492.693419533962
 22
3419.605034702035
 32
0.0
 13
2492.693419533962
 23
3419.605034702035
 33
0.0
210
0.0
220
0.0
230
1.0
  0
SOLID
  5
3F0
330
3E4
100
AcDbEntity
  8
HATCH
  6
CONTINUOUS
 62
   251
100
AcDbTrace
 10
2492.693419533962
 20
3419.605034702035
 30
0.0
 11
2492.693419533962
 21
3369.605034702035
 31
0.0
 12
3092.693419533961
 22
3369.605034702035
 32
0.0
 13
3092.693419533961
 23
3369.605034702035
 33
0.0
210
0.0
220
0.0
230
1.0
  0
SOLID
  5
3F1
330
3E4
100
AcDbEntity
  8
HATCH
  6
CONTINUOUS
 62
   251
100
AcDbTrace
 10
3092.693419533961
 20
3519.605034702035
 30
0.0
 11
3092.693419533961
 21
3569.605034702035
 31
0.0
 12
2492.693419533962
 22
3569.605034702035
 32
0.0
 13
2492.693419533962
 23
3569.605034702035
 33
0.0
210
0.0
220
0.0
230
1.0
  0
SOLID
  5
3F2
330
3E4
100
AcDbEntity
  8
HATCH
  6
CONTINUOUS
 62
   251
100
AcDbTrace
 10
2492.693419533962
 20
3569.605034702035
 30
0.0
 11
2492.693419533961
 21
3519.605034702035
 31
0.0
 12
3092.693419533961
 22
3519.605034702035
 32
0.0
 13
3092.693419533961
 23
3519.605034702035
 33
0.0
210
0.0
220
0.0
230
1.0
  0
ENDBLK
  5
3F4
330
3E4
100
AcDbEntity
  8
0
100
AcDbBlockEnd
  0
ENDSEC
  0
SECTION
  2
ENTITIES
  0
INSERT
  5
347
330
1F
100
AcDbEntity
  8
HATCH
100
AcDbBlockReference
  2
ADKF
 10
0.0
 20
0.0
 30
0.0
  0
ENDSEC
  0
SECTION
  2
OBJECTS
  0
DICTIONARY
  5
C
330
0
100
AcDbDictionary
  3
ACAD_GROUP
350
D
  3
ACAD_LAYOUT
350
1A
  3
ACAD_MLINESTYLE
350
17
  3
ACAD_PLOTSETTINGS
350
19
1001
ACAD
1000
TREAT_AS_HARD
1070
     0
1000
TREAT_AS_HARD
1070
     0
  0
DICTIONARY
  5
118
330
1F
100
AcDbDictionary
  3
ACAD_LAYOUTSELFREF
350
349
  3
ACAD_SORTENTS
350
2B0
1001
ACAD
1000
TREAT_AS_HARD
1070
     1
1000
TREAT_AS_HARD
1070
     0
  0
DICTIONARY
  5
11A
330
50
100
AcDbDictionary
  3
ACAD_LAYOUTSELFREF
350
34A
1001
ACAD
1000
TREAT_AS_HARD
1070
     1
1000
TREAT_AS_HARD
1070
     0
  0
DICTIONARY
  5
D
102
{ACAD_REACTORS
330
C
102
}
330
C
100
AcDbDictionary
1001
ACAD
1000
TREAT_AS_HARD
1070
     0
1000
TREAT_AS_HARD
1070
     0
  0
DICTIONARY
  5
1A
102
{ACAD_REACTORS
330
C
102
}
330
C
100
AcDbDictionary
1001
ACAD
1000
TREAT_AS_HARD
1070
     0
1000
TREAT_AS_HARD
1070
     0
  0
DICTIONARY
  5
17
102
{ACAD_REACTORS
330
C
102
}
330
C
100
AcDbDictionary
  3
STANDARD
350
18
1001
ACAD
1000
TREAT_AS_HARD
1070
     0
1000
TREAT_AS_HARD
1070
     0
  0
DICTIONARY
  5
19
102
{ACAD_REACTORS
330
C
102
}
330
C
100
AcDbDictionary
1001
ACAD
1000
TREAT_AS_HARD
1070
     0
1000
TREAT_AS_HARD
1070
     0
  0
XRECORD
  5
349
102
{ACAD_REACTORS
330
118
102
}
330
118
100
AcDbXrecord
340
1F
  0
SORTENTSTABLE
  5
2B0
102
{ACAD_REACTORS
330
118
102
}
330
118
100
AcDbSortentsTable
330
1F
331
2C6
  5
2CC
331
204
  5
1FB
331
1DF
  5
1E5
331
1F3
  5
20F
331
215
  5
20C
331
302
  5
1A5
331
293
  5
1D5
331
202
  5
1F9
331
213
  5
20A
331
1F1
  5
1F7
331
1DD
  5
1E3
331
200
  5
2C6
331
211
  5
208
331
1EF
  5
1F5
331
1DB
  5
1E1
331
2AF
  5
2CA
331
20F
  5
206
331
1ED
  5
1F3
331
1D9
  5
1DF
331
29E
  5
1D0
331
1FE
  5
2AC
331
1D7
  5
20E
331
1FC
  5
293
331
20D
  5
204
331
1EB
  5
1F1
331
20B
  5
202
331
1E9
  5
1EF
331
1D5
  5
1DC
331
1FA
  5
216
331
1E6
  5
1EC
331
209
  5
200
331
1D3
  5
1DA
331
1F8
  5
214
331
1E4
  5
1EA
331
207
  5
1FE
331
1D1
  5
1D8
331
1F6
  5
212
331
1E2
  5
1E8
331
2C7
  5
2E6
331
205
  5
1FC
331
1F4
  5
210
331
1E0
  5
1E6
331
216
  5
20D
331
203
  5
1FA
331
214
  5
20B
331
1F2
  5
1F8
331
1DE
  5
1E4
331
201
  5
2C7
331
212
  5
209
331
1F0
  5
1F6
331
1DC
  5
1E2
331
210
  5
207
331
1EE
  5
1F4
331
1DA
  5
1E0
331
1FF
  5
2AF
331
1A5
  5
1D6
331
1FD
  5
29E
331
20E
  5
205
331
1EC
  5
1F2
331
1D8
  5
1DE
331
2AC
  5
2C8
331
20C
  5
203
331
1EA
  5
1F0
331
1D6
  5
1DD
331
279
  5
1D4
331
1FB
  5
279
331
1E7
  5
1ED
331
20A
  5
201
331
1E8
  5
1EE
331
1D4
  5
1DB
331
1E5
  5
1EB
331
2CC
  5
1D3
331
1F9
  5
215
331
2E6
  5
1D1
331
208
  5
1FF
331
1D2
  5
1D9
331
1F7
  5
213
331
1E3
  5
1E9
331
2CA
  5
1D2
331
2C8
  5
302
331
206
  5
1FD
331
1D0
  5
1D7
331
1F5
  5
211
331
1E1
  5
1E7
  0
XRECORD
  5
34A
102
{ACAD_REACTORS
330
11A
102
}
330
11A
100
AcDbXrecord
340
50
  0
MLINESTYLE
  5
18
102
{ACAD_REACTORS
330
17
102
}
330
17
100
AcDbMlineStyle
  2
STANDARD
 70
     0
  3

 62
   256
 51
90.0
 52
90.0
 71
     2
 49
0.5
 62
   256
  6
BYLAYER
 49
-0.5
 62
   256
  6
BYLAYER
  0
ENDSEC
  0
EOF
