  0
SECTION
  2
HEADER
  9
$ACADVER
  1
AC1012
  9
$DWGCODEPAGE
  3
ANSI_1252
  9
$INSBASE
 10
0.0
 20
0.0
 30
0.0
  9
$EXTMIN
 10
-3975.629755760399
 20
-15.75433445472663
 30
-0.0015258207003583
  9
$EXTMAX
 10
8813.630450064648
 20
5016.928923202694
 30
0.0000000349246037
  9
$LIMMIN
 10
0.0
 20
0.0
  9
$LIMMAX
 10
420.0
 20
297.0
  9
$ORTHOMODE
 70
     0
  9
$REGENMODE
 70
     1
  9
$FILLMODE
 70
     1
  9
$QTEXTMODE
 70
     0
  9
$MIRRTEXT
 70
     1
  9
$DRAGMODE
 70
     2
  9
$LTSCALE
 40
1.0
  9
$OSMODE
 70
  2559
  9
$ATTMODE
 70
     1
  9
$TEXTSIZE
 40
2.5
  9
$TRACEWID
 40
1.0
  9
$TEXTSTYLE
  7
STANDARD
  9
$CLAYER
  8
HATCH
  9
$CELTYPE
  6
BYLAYER
  9
$CECOLOR
 62
   256
  9
$CELTSCALE
 40
1.0
  9
$DELOBJ
 70
     1
  9
$DISPSILH
 70
     0
  9
$DIMSCALE
 40
1.0
  9
$DIMASZ
 40
2.5
  9
$DIMEXO
 40
0.625
  9
$DIMDLI
 40
3.75
  9
$DIMRND
 40
0.0
  9
$DIMDLE
 40
0.0
  9
$DIMEXE
 40
1.25
  9
$DIMTP
 40
0.0
  9
$DIMTM
 40
0.0
  9
$DIMTXT
 40
2.5
  9
$DIMCEN
 40
2.5
  9
$DIMTSZ
 40
0.0
  9
$DIMTOL
 70
     0
  9
$DIMLIM
 70
     0
  9
$DIMTIH
 70
     0
  9
$DIMTOH
 70
     0
  9
$DIMSE1
 70
     0
  9
$DIMSE2
 70
     0
  9
$DIMTAD
 70
     1
  9
$DIMZIN
 70
     8
  9
$DIMBLK
  1

  9
$DIMASO
 70
     1
  9
$DIMSHO
 70
     1
  9
$DIMPOST
  1

  9
$DIMAPOST
  1

  9
$DIMALT
 70
     0
  9
$DIMALTD
 70
     3
  9
$DIMALTF
 40
0.03937007874016
  9
$DIMLFAC
 40
1.0
  9
$DIMTOFL
 70
     1
  9
$DIMTVP
 40
0.0
  9
$DIMTIX
 70
     0
  9
$DIMSOXD
 70
     0
  9
$DIMSAH
 70
     0
  9
$DIMBLK1
  1

  9
$DIMBLK2
  1

  9
$DIMSTYLE
  2
ISO-25
  9
$DIMCLRD
 70
     0
  9
$DIMCLRE
 70
     0
  9
$DIMCLRT
 70
     0
  9
$DIMTFAC
 40
1.0
  9
$DIMGAP
 40
0.625
  9
$DIMJUST
 70
     0
  9
$DIMSD1
 70
     0
  9
$DIMSD2
 70
     0
  9
$DIMTOLJ
 70
     0
  9
$DIMTZIN
 70
     8
  9
$DIMALTZ
 70
     0
  9
$DIMALTTZ
 70
     0
  9
$DIMFIT
 70
     3
  9
$DIMUPT
 70
     0
  9
$DIMUNIT
 70
     2
  9
$DIMDEC
 70
     2
  9
$DIMTDEC
 70
     2
  9
$DIMALTU
 70
     2
  9
$DIMALTTD
 70
     3
  9
$DIMTXSTY
  7
STANDARD
  9
$DIMAUNIT
 70
     0
  9
$LUNITS
 70
     2
  9
$LUPREC
 70
     4
  9
$SKETCHINC
 40
1.0
  9
$FILLETRAD
 40
10.0
  9
$AUNITS
 70
     0
  9
$AUPREC
 70
     0
  9
$MENU
  1
.
  9
$ELEVATION
 40
0.0
  9
$PELEVATION
 40
0.0
  9
$THICKNESS
 40
0.0
  9
$LIMCHECK
 70
     0
  9
$BLIPMODE
 70
     0
  9
$CHAMFERA
 40
10.0
  9
$CHAMFERB
 40
10.0
  9
$CHAMFERC
 40
20.0
  9
$CHAMFERD
 40
0.0
  9
$SKPOLY
 70
     0
  9
$TDCREATE
 40
2452626.595140509
  9
$TDUPDATE
 40
2452776.559212036
  9
$TDINDWG
 40
0.0055861111
  9
$TDUSRTIMER
 40
0.0055861111
  9
$USRTIMER
 70
     1
  9
$ANGBASE
 50
0.0
  9
$ANGDIR
 70
     0
  9
$PDMODE
 70
     0
  9
$PDSIZE
 40
0.0
  9
$PLINEWID
 40
0.0
  9
$COORDS
 70
     2
  9
$SPLFRAME
 70
     0
  9
$SPLINETYPE
 70
     6
  9
$SPLINESEGS
 70
     8
  9
$ATTDIA
 70
     0
  9
$ATTREQ
 70
     1
  9
$HANDLING
 70
-16383
  9
$HANDSEED
  5
3BA
  9
$SURFTAB1
 70
     6
  9
$SURFTAB2
 70
     6
  9
$SURFTYPE
 70
     6
  9
$SURFU
 70
     6
  9
$SURFV
 70
     6
  9
$UCSNAME
  2

  9
$UCSORG
 10
0.0
 20
0.0
 30
0.0
  9
$UCSXDIR
 10
1.0
 20
0.0
 30
0.0
  9
$UCSYDIR
 10
0.0
 20
1.0
 30
0.0
  9
$PUCSNAME
  2

  9
$PUCSORG
 10
0.0
 20
0.0
 30
0.0
  9
$PUCSXDIR
 10
1.0
 20
0.0
 30
0.0
  9
$PUCSYDIR
 10
0.0
 20
1.0
 30
0.0
  9
$USERI1
 70
     0
  9
$USERI2
 70
     0
  9
$USERI3
 70
     0
  9
$USERI4
 70
     0
  9
$USERI5
 70
     0
  9
$USERR1
 40
0.0
  9
$USERR2
 40
0.0
  9
$USERR3
 40
0.0
  9
$USERR4
 40
0.0
  9
$USERR5
 40
0.0
  9
$WORLDVIEW
 70
     1
  9
$SHADEDGE
 70
     3
  9
$SHADEDIF
 70
    70
  9
$TILEMODE
 70
     1
  9
$MAXACTVP
 70
    64
  9
$PINSBASE
 10
0.0
 20
0.0
 30
0.0
  9
$PLIMCHECK
 70
     0
  9
$PEXTMIN
 10
0.0
 20
0.0
 30
0.0
  9
$PEXTMAX
 10
0.0
 20
0.0
 30
0.0
  9
$PLIMMIN
 10
0.0
 20
0.0
  9
$PLIMMAX
 10
12.0
 20
9.0
  9
$UNITMODE
 70
     0
  9
$VISRETAIN
 70
     1
  9
$PLINEGEN
 70
     0
  9
$PSLTSCALE
 70
     1
  9
$TREEDEPTH
 70
  3020
  9
$PICKSTYLE
 70
     1
  9
$CMLSTYLE
  2
STANDARD
  9
$CMLJUST
 70
     0
  9
$CMLSCALE
 40
20.0
  9
$SAVEIMAGES
 70
     1
  0
ENDSEC
  0
SECTION
  2
CLASSES
  0
CLASS
  1
ACDBDICTIONARYWDFLT
  2
AcDbDictionaryWithDefault
  3
AutoCAD 2000
 90
    32768
280
     0
281
     0
  0
CLASS
  1
ACDBPLACEHOLDER
  2
AcDbPlaceHolder
  3
AutoCAD 2000
 90
    32768
280
     0
281
     0
  0
CLASS
  1
LAYOUT
  2
AcDbLayout
  3
AutoCAD 2000
 90
    32768
280
     0
281
     0
  0
CLASS
  1
LONG_TRANSACTION
  2
AcDbLongTransaction
  3
AutoCAD 2000
 90
    32768
280
     0
281
     0
  0
CLASS
  1
LWPOLYLINE
  2
AcDbPolyline
  3
AutoCAD 2000
 90
    32768
280
     0
281
     1
  0
CLASS
  1
HATCH
  2
AcDbHatch
  3
AutoCAD 2000
 90
    32768
280
     0
281
     1
  0
CLASS
  1
XRECORD
  2
AcDbXrecord
  3
AutoCAD 2000
 90
    32768
280
     0
281
     0
  0
CLASS
  1
LONG_TRANSACTION
  2
AcDbLongTransaction
  3
AutoCAD 2000
 90
    32768
280
     0
281
     0
  0
CLASS
  1
LWPOLYLINE
  2
AcDbPolyline
  3
AutoCAD 2000
 90
    32768
280
     0
281
     1
  0
CLASS
  1
HATCH
  2
AcDbHatch
  3
AutoCAD 2000
 90
    32768
280
     0
281
     1
  0
CLASS
  1
XRECORD
  2
AcDbXrecord
  3
AutoCAD 2000
 90
    32768
280
     0
281
     0
  0
CLASS
  1
LONG_TRANSACTION
  2
AcDbLongTransaction
  3
AutoCAD 2000
 90
    32768
280
     0
281
     0
  0
CLASS
  1
LWPOLYLINE
  2
AcDbPolyline
  3
AutoCAD 2000
 90
    32768
280
     0
281
     1
  0
CLASS
  1
HATCH
  2
AcDbHatch
  3
AutoCAD 2000
 90
    32768
280
     0
281
     1
  0
CLASS
  1
XRECORD
  2
AcDbXrecord
  3
AutoCAD 2000
 90
    32768
280
     0
281
     0
  0
CLASS
  1
DICTIONARYVAR
  2
AcDbDictionaryVar
  3
AutoCAD 2000
 90
    32768
280
     0
281
     0
  0
CLASS
  1
SORTENTSTABLE
  2
AcDbSortentsTable
  3
AutoCAD 2000
 90
    32768
280
     0
281
     0
  0
CLASS
  1
LONG_TRANSACTION
  2
AcDbLongTransaction
  3
AutoCAD 2000
 90
    32768
280
     0
281
     0
  0
CLASS
  1
LWPOLYLINE
  2
AcDbPolyline
  3
AutoCAD 2000
 90
    32768
280
     0
281
     1
  0
CLASS
  1
HATCH
  2
AcDbHatch
  3
AutoCAD 2000
 90
    32768
280
     0
281
     1
  0
CLASS
  1
XRECORD
  2
AcDbXrecord
  3
AutoCAD 2000
 90
    32768
280
     0
281
     0
  0
ENDSEC
  0
SECTION
  2
TABLES
  0
TABLE
  2
VPORT
  5
8
330
0
100
AcDbSymbolTable
 70
     2
  0
VPORT
  5
303
330
8
100
AcDbSymbolTableRecord
100
AcDbViewportTableRecord
  2
*ACTIVE
 70
     0
 10
0.0
 20
0.0
 11
1.0
 21
1.0
 12
4149.585201912308
 22
2089.50464099935
 13
0.0
 23
0.0
 14
10.0
 24
10.0
 15
10.0
 25
10.0
 16
0.0
 26
0.0
 36
1.0
 17
0.0
 27
0.0
 37
0.0
 40
8260.877272865018
 41
1.921052631578947
 42
50.0
 43
0.0
 44
0.0
 50
0.0
 51
0.0
 71
     0
 72
   100
 73
     1
 74
     3
 75
     0
 76
     0
 77
     0
 78
     0
  0
ENDTAB
  0
TABLE
  2
LTYPE
  5
5
330
0
100
AcDbSymbolTable
 70
     1
  0
LTYPE
  5
14
330
5
100
AcDbSymbolTableRecord
100
AcDbLinetypeTableRecord
  2
BYBLOCK
 70
     0
  3

 72
    65
 73
     0
 40
0.0
  0
LTYPE
  5
15
330
5
100
AcDbSymbolTableRecord
100
AcDbLinetypeTableRecord
  2
BYLAYER
 70
     0
  3

 72
    65
 73
     0
 40
0.0
  0
LTYPE
  5
16
330
5
100
AcDbSymbolTableRecord
100
AcDbLinetypeTableRecord
  2
CONTINUOUS
 70
     0
  3
Solid line
 72
    65
 73
     0
 40
0.0
  0
ENDTAB
  0
TABLE
  2
LAYER
  5
2
330
0
100
AcDbSymbolTable
 70
     5
  0
LAYER
  5
10
330
2
100
AcDbSymbolTableRecord
100
AcDbLayerTableRecord
  2
0
 70
     0
 62
     7
  6
CONTINUOUS
  0
LAYER
  5
5D
330
2
100
AcDbSymbolTableRecord
100
AcDbLayerTableRecord
  2
SAFETY
 70
     0
 62
     7
  6
CONTINUOUS
  0
LAYER
  5
5E
330
2
100
AcDbSymbolTableRecord
100
AcDbLayerTableRecord
  2
OBJECT
 70
     0
 62
     7
  6
CONTINUOUS
  0
LAYER
  5
19E
330
2
100
AcDbSymbolTableRecord
100
AcDbLayerTableRecord
  2
TEKST
 70
     0
 62
     7
  6
CONTINUOUS
  0
LAYER
  5
222
330
2
100
AcDbSymbolTableRecord
100
AcDbLayerTableRecord
  2
HATCH
 70
     0
 62
     7
  6
CONTINUOUS
  0
ENDTAB
  0
TABLE
  2
STYLE
  5
3
330
0
100
AcDbSymbolTable
 70
     1
  0
STYLE
  5
11
330
3
100
AcDbSymbolTableRecord
100
AcDbTextStyleTableRecord
  2
STANDARD
 70
     0
 40
0.0
 41
1.0
 50
0.0
 71
     0
 42
2.5
  3
txt
  4

  0
ENDTAB
  0
TABLE
  2
VIEW
  5
6
330
0
100
AcDbSymbolTable
 70
     0
  0
ENDTAB
  0
TABLE
  2
UCS
  5
7
330
0
100
AcDbSymbolTable
 70
     0
  0
ENDTAB
  0
TABLE
  2
APPID
  5
9
330
0
100
AcDbSymbolTable
 70
     2
  0
APPID
  5
12
330
9
100
AcDbSymbolTableRecord
100
AcDbRegAppTableRecord
  2
ACAD
 70
     0
  0
APPID
  5
197
330
9
100
AcDbSymbolTableRecord
100
AcDbRegAppTableRecord
  2
CONTENTBLOCKICON
 70
     0
  0
ENDTAB
  0
TABLE
  2
DIMSTYLE
  5
A
330
0
100
AcDbSymbolTable
 70
     1
  0
DIMSTYLE
105
27
330
A
100
AcDbSymbolTableRecord
100
AcDbDimStyleTableRecord
  2
ISO-25
 70
     0
  3

  4

  5

  6

  7

 40
1.0
 41
2.5
 42
0.625
 43
3.75
 44
1.25
 45
0.0
 46
0.0
 47
0.0
 48
0.0
140
2.5
141
2.5
142
0.0
143
0.03937007874016
144
1.0
145
0.0
146
1.0
147
0.625
 71
     0
 72
     0
 73
     0
 74
     0
 75
     0
 76
     0
 77
     1
 78
     8
170
     0
171
     3
172
     1
173
     0
174
     0
175
     0
176
     0
177
     0
178
     0
270
     2
271
     2
272
     2
273
     2
274
     3
340
11
275
     0
280
     0
281
     0
282
     0
283
     0
284
     8
285
     0
286
     0
287
     3
288
     0
  0
ENDTAB
  0
TABLE
  2
BLOCK_RECORD
  5
1
330
0
100
AcDbSymbolTable
 70
     8
  0
BLOCK_RECORD
  5
1F
102
{ACAD_XDICTIONARY
360
119
102
}
330
1
100
AcDbSymbolTableRecord
100
AcDbBlockTableRecord
  2
*MODEL_SPACE
  0
BLOCK_RECORD
  5
50
102
{ACAD_XDICTIONARY
360
11B
102
}
330
1
100
AcDbSymbolTableRecord
100
AcDbBlockTableRecord
  2
*PAPER_SPACE
  0
BLOCK_RECORD
  5
125
330
1
100
AcDbSymbolTableRecord
100
AcDbBlockTableRecord
  2
ADKE
1001
ACAD
1000
DesignCenter Data
1002
{
1070
     1
1070
     4
1002
}
1001
CONTENTBLOCKICON
1071
        0
1004
28000000200000002000000001000800000000000004000000000000000000000000000000000000000000004000000080000000FF000000002000004020000080200000FF200000004000004040000080400000FF400000006000004060000080600000FF600000008000004080000080800000FF80000000A0000040A000
1004
0080A00000FFA0000000C0000040C0000080C00000FFC0000000FF000040FF000080FF0000FFFF0000000020004000200080002000FF002000002020004020200080202000FF202000004020004040200080402000FF402000006020004060200080602000FF602000008020004080200080802000FF80200000A0200040A0
1004
200080A02000FFA0200000C0200040C0200080C02000FFC0200000FF200040FF200080FF2000FFFF2000000040004000400080004000FF004000002040004020400080204000FF204000004040004040400080404000FF404000006040004060400080604000FF604000008040004080400080804000FF80400000A0400040
1004
A0400080A04000FFA0400000C0400040C0400080C04000FFC0400000FF400040FF400080FF4000FFFF4000000060004000600080006000FF006000002060004020600080206000FF206000004060004040600080406000FF406000006060004060600080606000FF606000008060004080600080806000FF80600000A06000
1004
40A0600080A06000FFA0600000C0600040C0600080C06000FFC0600000FF600040FF600080FF6000FFFF6000000080004000800080008000FF008000002080004020800080208000FF208000004080004040800080408000FF408000006080004060800080608000FF608000008080004080800080808000FF80800000A080
1004
0040A0800080A08000FFA0800000C0800040C0800080C08000FFC0800000FF800040FF800080FF8000FFFF80000000A0004000A0008000A000FF00A0000020A0004020A0008020A000FF20A0000040A0004040A0008040A000FF40A0000060A0004060A0008060A000FF60A0000080A0004080A0008080A000FF80A00000A0
1004
A00040A0A00080A0A000FFA0A00000C0A00040C0A00080C0A000FFC0A00000FFA00040FFA00080FFA000FFFFA0000000C0004000C0008000C000FF00C0000020C0004020C0008020C000FF20C0000040C0004040C0008040C000FF40C0000060C0004060C0008060C000FF60C0000080C0004080C0008080C000FF80C00000
1004
A0C00040A0C00080A0C000FFA0C00000C0C00040C0C00080C0C000FFC0C00000FFC00040FFC00080FFC000FFFFC0000000FF004000FF008000FF00FF00FF000020FF004020FF008020FF00FF20FF000040FF004040FF008040FF00FF40FF000060FF004060FF008060FF00FF60FF000080FF004080FF008080FF00FF80FF00
1004
00A0FF0040A0FF0080A0FF00FFA0FF0000C0FF0040C0FF0080C0FF00FFC0FF0000FFFF0040FFFF0080FFFF00FFFFFF0000000000000000000000000000000000000000000000000000000000000000000000000000000000000000000000000000000000000000000000000000000000000000000000000000000000000000
1004
00000000000000000000000000000000000000000000000000000000000000000000000000000000000000000000000000000000000000000000000000000000000000000000000000000000000000000000000000000000000000000000000000000000000000000000000000000000000000000000000000000000000000
1004
0000000000000000000000000000000000000000000000000000000000000000000000000000000000000000000000000000000000000000000000000000FFFFFFFFFFFF00000000000000000000000000000000000000000000000000FF000000000000FF000000000000000000000000000000000000FFFFFFFFFFFF0000
1004
000000000000FFFF0000000000000000000000000000FFFF00000000000000000000000000000000FFFFFFFFFFFFFFFFFFFF000000FF00000000000000000000FF1C1C0000000000000000000000000000FF000000FF000000000000000000FF1C1C1C1C00000000000000000000000000FF0000FF000000491C1C1C1C1C1C
1004
E0E000491C1C1C1C00000000000000000000FF0000FF000000491C1C1C1C1C1CE0E000491C1C1CFCFCFCFCFC000000000000FF0000FF000000491C1C1C490000E01C1C1C1C1C1CFCFCFCFCFC000000000000FF000000FF0000491C1C1C1C0000E01C1C1C1C1C1C1C00000000000000000000FF000000FF0000000000FF1C1C
1004
1C1C0000000000000000000000000000000000FF000000FF000000000000FF1C1CFFFFFF000000000000000000000000000000FF00000000FF00000000000000FFFFFFFF00000000000000FFFFFFFFFFFFFFFFFF0000000000FFFF000000000000000000FFFFFFFFFFFFFF00000000000000000000000000000000FF000000
1004
00000000FF000000000000000000000000000000000000000000000000FFFFFFFFFFFFFF00000000000000000000000000000000000000000000000000000000000000000000000000000000000000000000000000000000000000000000000000000000000000000000000000000000000000000000000000000000000000
1004
00000000000000000000000000000000000000000000000000000000000000000000000000000000000000000000000000000000000000000000000000000000000000000000000000000000000000000000000000000000000000000000000000000000000000000000000000000000000000000000000000000000000000
1004
0000000000000000000000000000000000000000000000000000000000000000000000000000000000000000000000000000000000000000
  0
BLOCK_RECORD
  5
307
330
1
100
AcDbSymbolTableRecord
100
AcDbBlockTableRecord
  2
*U1
  0
BLOCK_RECORD
  5
314
330
1
100
AcDbSymbolTableRecord
100
AcDbBlockTableRecord
  2
*U2
  0
BLOCK_RECORD
  5
340
330
1
100
AcDbSymbolTableRecord
100
AcDbBlockTableRecord
  2
*U3
  0
BLOCK_RECORD
  5
35F
330
1
100
AcDbSymbolTableRecord
100
AcDbBlockTableRecord
  2
*U4
  0
BLOCK_RECORD
  5
366
330
1
100
AcDbSymbolTableRecord
100
AcDbBlockTableRecord
  2
*U5
  0
BLOCK_RECORD
  5
36D
330
1
100
AcDbSymbolTableRecord
100
AcDbBlockTableRecord
  2
*U6
  0
BLOCK_RECORD
  5
381
330
1
100
AcDbSymbolTableRecord
100
AcDbBlockTableRecord
  2
*U7
  0
ENDTAB
  0
ENDSEC
  0
SECTION
  2
BLOCKS
  0
BLOCK
  5
20
330
1F
100
AcDbEntity
  8
0
100
AcDbBlockBegin
  2
*MODEL_SPACE
 70
     0
 10
0.0
 20
0.0
 30
0.0
  3
*MODEL_SPACE
  1

  0
ENDBLK
  5
21
330
1F
100
AcDbEntity
  8
0
100
AcDbBlockEnd
  0
BLOCK
  5
52
330
50
100
AcDbEntity
 67
     1
  8
0
100
AcDbBlockBegin
  2
*PAPER_SPACE
 70
     0
 10
0.0
 20
0.0
 30
0.0
  3
*PAPER_SPACE
  1

  0
ENDBLK
  5
53
330
50
100
AcDbEntity
 67
     1
  8
0
100
AcDbBlockEnd
  0
BLOCK
  5
126
330
125
100
AcDbEntity
  8
0
100
AcDbBlockBegin
  2
ADKE
 70
     0
 10
0.0
 20
0.0
 30
0.0
  3
ADKE
  1

  0
INSERT
  5
2B0
330
125
100
AcDbEntity
  8
HATCH
  6
CONTINUOUS
 62
     1
100
AcDbBlockReference
  2
*U1
 10
0.0
 20
0.0
 30
0.0
1001
ACAD
1002
{
1000
R14_HATCH_DATA
1000
2B0
1011
1.0
1021
0.0
1031
0.0
1011
0.0
1021
1.0
1031
0.0
1011
0.0
1021
0.0
1031
1.0
1040
0.0
1010
0.0
1020
0.0
1030
1.0
1000
SOLID
1070
     1
1070
     0
1071
        2
1071
        7
1070
     1
1070
     1
1071
        6
1040
3367.66778891088
1040
2874.396544943295
1040
0.0009236257998612
1040
3367.663508170111
1040
2876.713899610959
1040
0.0
1040
3267.844303622691
1040
2876.713899610959
1040
-0.0077413669991395
1040
3267.66778891088
1040
2860.385747412744
1040
0.0
1040
3267.66778891088
1040
2776.713899610959
1040
0.0
1040
3367.66778891088
1040
2776.713899610959
1040
0.0
1071
        0
1071
        7
1070
     0
1070
     1
1071
        6
1040
3467.66778891088
1040
2241.145698558571
1040
3453.806127041599
1040
2241.145698558571
1040
3367.66778891088
1040
2241.145698558571
1040
3367.667788910879
1040
2141.145698558571
1040
3367.824288185637
1040
2141.145698558571
1040
3467.667788910881
1040
2141.145698558571
1071
        0
1070
     0
1070
     1
1040
9.39177003830385
1071
        2
1040
3317.294285593431
1040
2830.635151272654
1040
0.0
1040
3420.692368018892
1040
2191.994767560441
1040
0.0
1002
}
  0
INSERT
  5
2B1
330
125
100
AcDbEntity
  8
HATCH
  6
CONTINUOUS
 62
     3
100
AcDbBlockReference
  2
*U2
 10
0.0
 20
0.0
 30
0.0
1001
ACAD
1002
{
1000
R14_HATCH_DATA
1000
2B1
1011
1.0
1021
0.0
1031
0.0
1011
0.0
1021
1.0
1031
0.0
1011
0.0
1021
0.0
1031
1.0
1040
0.0
1010
0.0
1020
0.0
1030
1.0
1000
SOLID
1070
     1
1070
     1
1071
        4
1071
        7
1070
     1
1070
     1
1071
        4
1040
3267.844303622691
1040
2876.713899610959
1040
0.0
1040
3367.663508170111
1040
2876.713899610959
1040
0.8335619865335615
1040
2153.033555381242
1040
3094.422573727523
1040
0.0
1040
2261.280959102388
1040
3094.422573727523
1040
-0.8029842846110458
1071
        4
1005
2C3
1005
2D7
1005
2DC
1005
2D8
1071
        7
1070
     0
1070
     1
1071
        5
1040
2466.346695047085
1040
2241.145698558571
1040
2466.346695047085
1040
2166.23805071821
1040
2466.346695047085
1040
2141.145698558572
1040
3367.66778891088
1040
2141.145698558572
1040
3367.667788910881
1040
2241.145698558571
1071
        5
1005
2CD
1005
2C4
1005
2C3
1005
2CC
1005
2D0
1071
        7
1070
     0
1070
     1
1071
        4
1040
4268.988882774675
1040
2776.713899610958
1040
4268.988882774674
1040
2876.713899610958
1040
3367.66778891088
1040
2876.713899610958
1040
3367.66778891088
1040
2776.713899610958
1071
        4
1005
2DA
1005
2DC
1005
2DB
1005
2BF
1071
        7
1070
     1
1070
     1
1071
        4
1040
4582.302022440518
1040
1907.10887224377
1040
0.0
1040
4474.05461871937
1040
1907.10887224377
1040
-0.8157968044770409
1040
3467.667788910881
1040
2141.145698558571
1040
0.0
1040
3367.824288185637
1040
2141.145698558571
1040
0.8446528229252653
1071
        4
1005
2BB
1005
2BE
1005
2D0
1005
2BD
1070
     0
1070
     1
1040
9.39177003830385
1071
        4
1040
3289.094854757873
1040
3046.645862086851
1040
0.0
1040
3157.497341496855
1040
2210.778300022299
1040
0.0
1040
3881.283664432441
1040
2811.851583809664
1040
0.0
1040
3843.684402148145
1040
1553.354383848229
1040
0.0
1002
}
  0
INSERT
  5
2B2
330
125
100
AcDbEntity
  8
HATCH
  6
CONTINUOUS
 62
   251
100
AcDbBlockReference
  2
*U3
 10
0.0
 20
0.0
 30
0.0
1001
ACAD
1002
{
1000
R14_HATCH_DATA
1000
2B2
1011
1.0
1021
0.0
1031
0.0
1011
0.0
1021
1.0
1031
0.0
1011
0.0
1021
0.0
1031
1.0
1040
0.0
1010
0.0
1020
0.0
1030
1.0
1000
SOLID
1070
     1
1070
     1
1071
        2
1071
        7
1070
     1
1070
     1
1071
        7
1040
3467.667788910881
1040
2241.145698558571
1040
0.0
1040
3467.667788910881
1040
2141.145698558573
1040
0.8157968044770472
1040
4474.054618719371
1040
1907.10887224377
1040
0.0
1040
4268.988882774674
1040
1907.108872243769
1040
0.0
1040
4268.988882774676
1040
2776.713899610958
1040
0.0
1040
3367.66778891088
1040
2776.713899610958
1040
0.0
1040
3367.66778891088
1040
2241.14569855857
1040
0.0
1071
        6
1005
2DB
1005
2C8
1005
2D0
1005
2BE
1005
2BB
1005
2BF
1071
        7
1070
     1
1070
     1
1071
        9
1040
3367.66778891088
1040
2776.713899610959
1040
0.0
1040
3281.529450780162
1040
2776.713899610959
1040
0.0
1040
3267.66778891088
1040
2776.713899610959
1040
0.0
1040
3267.66778891088
1040
2876.713899610959
1040
0.0
1040
3267.844303622691
1040
2876.713899610959
1040
0.8029842846110458
1040
2261.280959102388
1040
3094.422573727523
1040
0.0
1040
2466.346695047085
1040
3094.422573727523
1040
0.0
1040
2466.346695047084
1040
2241.145698558571
1040
0.0
1040
3367.66778891088
1040
2241.145698558571
1040
0.0
1071
        6
1005
2DD
1005
2DC
1005
2D7
1005
2C3
1005
2CD
1005
2C8
1070
     0
1070
     1
1040
11.12281060053112
1071
        2
1040
3546.842508619775
1040
2248.029514731381
1040
0.0
1040
3212.872093805308
1040
2470.485753994791
1040
0.0
1002
}
  0
INSERT
  5
2B3
330
125
100
AcDbEntity
  8
HATCH
  6
CONTINUOUS
 62
   251
100
AcDbBlockReference
  2
*U4
 10
0.0
 20
0.0
 30
0.0
1001
ACAD
1002
{
1000
R14_HATCH_DATA
1000
2B3
1011
1.0
1021
0.0
1031
0.0
1011
0.0
1021
1.0
1031
0.0
1011
0.0
1021
0.0
1031
1.0
1040
0.0
1010
0.0
1020
0.0
1030
1.0
1000
SOLID
1070
     1
1070
     1
1071
        1
1071
        7
1070
     0
1070
     1
1071
        4
1040
1273.653280558835
1040
2815.568236669241
1040
1023.653280558834
1040
2815.568236669241
1040
1023.653280558834
1040
2185.963209302054
1040
1273.653280558835
1040
2185.963209302053
1071
        4
1005
2D6
1005
2C2
1005
2CB
1005
301
1070
     0
1070
     1
1040
1.83403927489829
1071
        1
1040
1167.625524406918
1040
2553.777984604434
1040
0.0
1002
}
  0
INSERT
  5
2B4
330
125
100
AcDbEntity
  8
HATCH
  6
CONTINUOUS
 62
     2
100
AcDbBlockReference
  2
*U5
 10
0.0
 20
0.0
 30
0.0
1001
ACAD
1002
{
1000
R14_HATCH_DATA
1000
2B4
1011
1.0
1021
0.0
1031
0.0
1011
0.0
1021
1.0
1031
0.0
1011
0.0
1021
0.0
1031
1.0
1040
0.0
1010
0.0
1020
0.0
1030
1.0
1000
SOLID
1070
     1
1070
     0
1071
        2
1071
        7
1070
     0
1070
     1
1071
        4
1040
1273.653280558835
1040
2815.568236669241
1040
1273.653280558835
1040
2835.56823666924
1040
1023.653280558834
1040
2835.56823666924
1040
1023.653280558834
1040
2815.568236669241
1071
        0
1071
        7
1070
     0
1070
     1
1071
        4
1040
1273.653280558835
1040
2165.963209302052
1040
1273.653280558835
1040
2185.963209302053
1040
1023.653280558834
1040
2185.963209302053
1040
1023.653280558834
1040
2165.963209302052
1071
        0
1070
     0
1070
     1
1040
1.83403927489829
1071
        2
1040
1163.954354323251
1040
2823.381798626482
1040
0.0
1040
1136.420134121152
1040
2172.297812486568
1040
0.0
1002
}
  0
INSERT
  5
2B5
330
125
100
AcDbEntity
  8
HATCH
  6
CONTINUOUS
 62
     2
100
AcDbBlockReference
  2
*U6
 10
0.0
 20
0.0
 30
0.0
1001
ACAD
1002
{
1000
R14_HATCH_DATA
1000
2B5
1011
1.0
1021
0.0
1031
0.0
1011
0.0
1021
1.0
1031
0.0
1011
0.0
1021
0.0
1031
1.0
1040
0.0
1010
0.0
1020
0.0
1030
1.0
1000
SOLID
1070
     1
1070
     1
1071
        5
1071
        7
1070
     0
1070
     1
1071
        4
1040
6813.352401456835
1040
2740.64598648558
1040
6813.352401456835
1040
2784.187714750911
1040
5461.682297262926
1040
2784.187714750911
1040
5461.682297262926
1040
2740.64598648558
1071
        4
1005
2F1
1005
2E2
1005
2F2
1005
2FB
1071
        7
1070
     0
1070
     1
1071
        5
1040
6682.854948582512
1040
2684.187714750911
1040
6693.538443374666
1040
2691.661529890865
1040
6731.66104948493
1040
2740.64598648558
1040
5461.682297262926
1040
2740.64598648558
1040
5461.682297262927
1040
2684.187714750911
1071
        5
1005
2F2
1005
2E2
1005
2F3
1005
2F8
1005
2F7
1071
        7
1070
     0
1070
     1
1071
        9
1040
5461.682297262926
1040
2684.187714750911
1040
5461.682297262927
1040
2327.806427822074
1040
6684.604857641042
1040
2327.806427822074
1040
6639.07755092076
1040
2359.655806781594
1040
6617.293204572033
1040
2419.525687245167
1040
6617.293204572033
1040
2506.609160170778
1040
6617.293204572033
1040
2593.692633096389
1040
6639.07755092076
1040
2653.562513559963
1040
6682.854948582509
1040
2684.187714750911
1071
        9
1005
2F8
1005
2F3
1005
2E2
1005
2E9
1005
2EF
1005
2F0
1005
2E1
1005
2FA
1005
2F9
1071
        7
1070
     0
1070
     1
1071
        5
1040
5461.682297262926
1040
2327.806427822074
1040
5461.682297262925
1040
2271.348156087409
1040
6732.613777148443
1040
2271.348156087408
1040
6693.538443374665
1040
2321.55679045069
1040
6684.604857641042
1040
2327.806427822074
1071
        5
1005
2EF
1005
2E9
1005
2E2
1005
2E8
1005
2ED
1071
        7
1070
     0
1070
     1
1071
        4
1040
6813.352401456834
1040
2227.806427822075
1040
6813.352401456835
1040
2271.348156087409
1040
5461.682297262926
1040
2271.348156087409
1040
5461.682297262925
1040
2227.806427822073
1071
        4
1005
2E8
1005
2E2
1005
2E7
1005
2EE
1070
     0
1070
     1
1040
2.909348258544494
1071
        5
1040
6339.626974005543
1040
2752.757387695761
1040
0.0
1040
6333.803300695873
1040
2709.117171365542
1040
0.0
1040
6313.420380601398
1040
2601.471295084047
1040
0.0
1040
6316.332217256233
1040
2316.355154391356
1040
0.0
1040
6316.332217256233
1040
2246.530801262794
1040
0.0
1002
}
  0
INSERT
  5
2B6
330
125
100
AcDbEntity
  8
HATCH
  6
CONTINUOUS
 62
     3
100
AcDbBlockReference
  2
*U7
 10
0.0
 20
0.0
 30
0.0
1001
ACAD
1002
{
1000
R14_HATCH_DATA
1000
2B6
1011
1.0
1021
0.0
1031
0.0
1011
0.0
1021
1.0
1031
0.0
1011
0.0
1021
0.0
1031
1.0
1040
0.0
1010
0.0
1020
0.0
1030
1.0
1000
SOLID
1070
     1
1070
     1
1071
       16
1071
        7
1070
     0
1070
     1
1071
        5
1040
5461.682297262926
1040
2784.187714750911
1040
5461.682297262926
1040
3094.422573727523
1040
5161.682297262927
1040
2794.422573727524
1040
5161.682297262927
1040
2207.108872243768
1040
5461.682297262925
1040
1907.108872243769
1071
        5
1005
2F5
1005
2F6
1005
2E4
1005
2EB
1005
2E2
1071
        7
1070
     0
1070
     1
1071
        4
1040
4268.988882774674
1040
3094.422573727523
1040
4568.988882774674
1040
2794.422573727524
1040
5161.682297262927
1040
2794.422573727524
1040
5461.682297262926
1040
3094.422573727523
1071
        4
1005
2B9
1005
2B8
1005
2F4
1005
2F6
1071
        7
1070
     0
1070
     1
1071
        3
1040
4568.988882774675
1040
2794.422573727524
1040
4865.335590018801
1040
2500.765722985647
1040
5161.682297262927
1040
2794.422573727524
1071
        3
1005
2F4
1005
2E6
1005
2E5
1071
        7
1070
     0
1070
     1
1071
        3
1040
4865.335590018801
1040
2500.765722985647
1040
5161.682297262927
1040
2207.108872243768
1040
5161.682297262927
1040
2794.422573727523
1071
        3
1005
2E5
1005
2E6
1005
2E4
1071
        7
1070
     0
1070
     1
1071
        3
1040
5161.682297262927
1040
2207.108872243769
1040
4865.335590018801
1040
2500.765722985647
1040
4568.988882774675
1040
2207.108872243769
1071
        3
1005
2E5
1005
2EA
1005
2E6
1071
        7
1070
     0
1070
     1
1071
        4
1040
4568.988882774676
1040
2207.108872243769
1040
4268.988882774675
1040
1907.10887224377
1040
5461.682297262925
1040
1907.108872243769
1040
5161.682297262927
1040
2207.108872243769
1071
        4
1005
2EA
1005
2BA
1005
2BB
1005
2EB
1071
        7
1070
     0
1070
     1
1071
        5
1040
4268.988882774675
1040
1907.108872243769
1040
4568.988882774674
1040
2207.108872243768
1040
4568.988882774676
1040
2794.422573727523
1040
4268.988882774675
1040
3094.422573727523
1040
4268.988882774675
1040
2876.713899610958
1071
        5
1005
2B8
1005
2E0
1005
2BF
1005
2BA
1005
2E3
1071
        7
1070
     0
1070
     1
1071
        3
1040
4568.988882774675
1040
2207.108872243769
1040
4865.335590018801
1040
2500.765722985646
1040
4568.988882774675
1040
2794.422573727525
1071
        3
1005
2E6
1005
2E3
1005
2E5
1071
        7
1070
     0
1070
     1
1071
        4
1040
1273.653280558835
1040
3094.422573727523
1040
1573.653280558836
1040
2794.422573727524
1040
2166.346695047085
1040
2794.422573727524
1040
2466.346695047085
1040
3094.422573727523
1071
        4
1005
2C3
1005
2D4
1005
2FF
1005
2D9
1071
        7
1070
     0
1070
     1
1071
        3
1040
1573.653280558835
1040
2794.422573727523
1040
1869.999987802959
1040
2500.765722985645
1040
2166.346695047086
1040
2794.422573727523
1071
        3
1005
2FF
1005
2C1
1005
2C0
1071
        7
1070
     0
1070
     1
1071
        4
1040
2466.346695047085
1040
3094.422573727523
1040
2166.346695047085
1040
2794.422573727524
1040
2166.346695047085
1040
2207.108872243768
1040
2466.346695047085
1040
1907.108872243769
1071
        4
1005
2D9
1005
300
1005
2CE
1005
2C3
1071
        7
1070
     0
1070
     1
1071
        3
1040
2166.346695047086
1040
2794.422573727524
1040
1869.99998780296
1040
2500.765722985646
1040
2166.346695047085
1040
2207.108872243769
1071
        3
1005
2C0
1005
2C1
1005
300
1071
        7
1070
     0
1070
     1
1071
        3
1040
1869.99998780296
1040
2500.765722985646
1040
1573.653280558835
1040
2207.108872243768
1040
2166.346695047084
1040
2207.108872243769
1071
        3
1005
2C0
1005
2FD
1005
2C1
1071
        7
1070
     0
1070
     1
1071
        4
1040
2466.346695047084
1040
1907.10887224377
1040
2166.346695047085
1040
2207.108872243769
1040
1573.653280558835
1040
2207.108872243769
1040
1273.653280558835
1040
1907.10887224377
1071
        4
1005
2FD
1005
2C9
1005
2C3
1005
2CE
1071
        7
1070
     0
1070
     1
1071
        3
1040
1573.653280558835
1040
2207.108872243769
1040
1869.99998780296
1040
2500.765722985647
1040
1573.653280558836
1040
2794.422573727524
1071
        3
1005
2C1
1005
2FE
1005
2C0
1071
        7
1070
     0
1070
     1
1071
        4
1040
1573.653280558836
1040
2794.422573727524
1040
1273.653280558835
1040
3094.422573727523
1040
1273.653280558835
1040
1907.108872243769
1040
1573.653280558835
1040
2207.108872243769
1071
        4
1005
2D4
1005
2C3
1005
2C9
1005
2FE
1070
     0
1070
     1
1040
9.39177003830385
1071
       16
1040
5366.455636098559
1040
2483.1396432232
1040
0.0
1040
4905.86433968501
1040
2971.511697238289
1040
0.0
1040
4887.06467678753
1040
2736.717453962235
1040
0.0
1040
5009.262358599809
1040
2520.706708146914
1040
0.0
1040
4877.66484533879
1040
2314.087781064212
1040
0.0
1040
4896.464508236269
1040
2060.509970325176
1040
0.0
1040
4323.075361459173
1040
2304.695997332717
1040
0.0
1040
4586.270387981204
1040
2426.789010836495
1040
0.0
1040
1738.124126461247
1040
2952.728164776432
1040
0.0
1040
1813.322714540496
1040
2717.933886499245
1040
0.0
1040
2339.712767584555
1040
2642.799721650684
1040
0.0
1040
2095.317340449342
1040
2577.057340533618
1040
0.0
1040
1944.920227801507
1040
2332.871313526069
1040
0.0
1040
1907.320902006555
1040
2032.334689132957
1040
0.0
1040
1691.124969217555
1040
2492.531426954694
1040
0.0
1040
1427.929942695525
1040
2501.923175685057
1040
0.0
1002
}
  0
MTEXT
  5
2B7
330
125
100
AcDbEntity
  8
TEKST
100
AcDbMText
 10
2919.273973914496
 20
4007.75698157478
 30
0.0
 40
100.0
 41
1991.156099999999
 71
     1
 72
     1
  1
{\FIMPACT.TTF;Hoogte: 315 cm\PMax. valhoogte: 90 cm}
1001
ACAD
1000
MTEXTBEGIN
1070
    73
1070
     1
1070
    44
1040
1.0
1070
    74
1070
     0
1000
MTEXTEND
1000
MTEXTBEGIN
1070
    73
1070
     1
1070
    44
1040
1.0
1070
    74
1070
     0
1000
MTEXTEND
  0
LINE
  5
2B8
330
125
100
AcDbEntity
  8
OBJECT
  6
CONTINUOUS
 62
     7
 48
5.0
100
AcDbLine
 10
4268.988882774675
 20
3094.422573727523
 30
0.0
 11
4568.988882774675
 21
2794.422573727524
 31
0.0
  0
LINE
  5
2B9
330
125
100
AcDbEntity
  8
OBJECT
  6
CONTINUOUS
 62
     7
 48
5.0
100
AcDbLine
 10
5461.682297262926
 20
3094.422573727523
 30
0.0
 11
4268.988882774675
 21
3094.422573727523
 31
0.0
  0
LINE
  5
2BA
330
125
100
AcDbEntity
  8
OBJECT
  6
CONTINUOUS
 62
     7
 48
5.0
100
AcDbLine
 10
4568.988882774675
 20
2207.108872243769
 30
0.0
 11
4268.988882774675
 21
1907.10887224377
 31
0.0
  0
LINE
  5
2BB
330
125
100
AcDbEntity
  8
OBJECT
  6
CONTINUOUS
 62
     7
 48
5.0
100
AcDbLine
 10
4268.988882774675
 20
1907.10887224377
 30
0.0
 11
5461.682297262926
 21
1907.10887224377
 31
0.0
  0
POLYLINE
  5
2BC
330
125
100
AcDbEntity
  8
SAFETY
  6
CONTINUOUS
 48
5.0
100
AcDb2dPolyline
 66
     1
 10
0.0
 20
0.0
 30
0.0
 70
     1
  0
VERTEX
  5
39E
330
2BC
100
AcDbEntity
  8
SAFETY
  6
CONTINUOUS
 48
5.0
100
AcDbVertex
100
AcDb2dVertex
 10
1410.209486196477
 20
633.4555794878952
 30
0.0
  0
VERTEX
  5
39F
330
2BC
100
AcDbEntity
  8
SAFETY
  6
CONTINUOUS
 48
5.0
100
AcDbVertex
100
AcDb2dVertex
 10
2480.286096459861
 20
633.4555794878952
 30
0.0
 42
0.4243026161541108
  0
VERTEX
  5
3A0
330
2BC
100
AcDbEntity
  8
SAFETY
  6
CONTINUOUS
 48
5.0
100
AcDbVertex
100
AcDb2dVertex
 10
5539.689102792732
 20
664.6571116026077
 30
0.0
 42
0.1815197014476603
  0
VERTEX
  5
3A1
330
2BC
100
AcDbEntity
  8
SAFETY
  6
CONTINUOUS
 48
5.0
100
AcDbVertex
100
AcDb2dVertex
 10
6431.077875834176
 20
1227.806427822075
 30
0.0
  0
VERTEX
  5
3A2
330
2BC
100
AcDbEntity
  8
SAFETY
  6
CONTINUOUS
 48
5.0
100
AcDbVertex
100
AcDb2dVertex
 10
8813.352401456834
 20
1227.806427822075
 30
0.0
  0
VERTEX
  5
3A3
330
2BC
100
AcDbEntity
  8
SAFETY
  6
CONTINUOUS
 48
5.0
100
AcDbVertex
100
AcDb2dVertex
 10
8813.352401456834
 20
3784.187714750911
 30
0.0
  0
VERTEX
  5
3A4
330
2BC
100
AcDbEntity
  8
SAFETY
  6
CONTINUOUS
 48
5.0
100
AcDbVertex
100
AcDb2dVertex
 10
6425.150813051175
 20
3784.187714750911
 30
0.0
 42
0.2331053060144919
  0
VERTEX
  5
3A5
330
2BC
100
AcDbEntity
  8
SAFETY
  6
CONTINUOUS
 48
5.0
100
AcDbVertex
100
AcDb2dVertex
 10
5235.3355900188
 20
4370.765722985646
 30
0.0
  0
VERTEX
  5
3A6
330
2BC
100
AcDbEntity
  8
SAFETY
  6
CONTINUOUS
 48
5.0
100
AcDbVertex
100
AcDb2dVertex
 10
4252.392107010914
 20
4370.765722985646
 30
0.0
 42
0.4231262855255897
  0
VERTEX
  5
3A7
330
2BC
100
AcDbEntity
  8
SAFETY
  6
CONTINUOUS
 48
5.0
100
AcDbVertex
100
AcDb2dVertex
 10
1198.884751557697
 20
4340.287270914063
 30
0.0
 42
0.3732348019176037
  0
VERTEX
  5
3A8
330
2BC
100
AcDbEntity
  8
SAFETY
  6
CONTINUOUS
 48
5.0
100
AcDbVertex
100
AcDb2dVertex
 10
-0.0000121970397231
 20
2778.20482089726
 30
0.0
  0
VERTEX
  5
3A9
330
2BC
100
AcDbEntity
  8
SAFETY
  6
CONTINUOUS
 48
5.0
100
AcDbVertex
100
AcDb2dVertex
 10
-0.0000121970399505
 20
2130.765722985646
 30
0.0
 42
0.3967772334478364
  0
SEQEND
  5
3AA
330
2BC
100
AcDbEntity
  8
SAFETY
  6
CONTINUOUS
 48
5.0
  0
ARC
  5
2BD
330
125
100
AcDbEntity
  8
OBJECT
  6
CONTINUOUS
 62
     7
 48
5.0
100
AcDbCircle
 10
3994.913313753693
 20
2127.134901028003
 30
0.0
 40
627.2455248428131
100
AcDbArc
 50
178.7200764222861
 51
339.4648869002411
  0
ARC
  5
2BE
330
125
100
AcDbEntity
  8
OBJECT
  6
CONTINUOUS
 62
     7
 48
5.0
100
AcDbCircle
 10
3994.849898470327
 20
2127.281591265919
 30
0.0
 40
527.364380775352
100
AcDbArc
 50
178.493553237667
 51
335.3233760088677
  0
LINE
  5
2BF
330
125
100
AcDbEntity
  8
OBJECT
  6
CONTINUOUS
 62
     7
 48
5.0
100
AcDbLine
 10
4268.988882774675
 20
2876.713899610958
 30
0.0
 11
4268.988882774675
 21
1907.10887224377
 31
0.0
  0
LINE
  5
2C0
330
125
100
AcDbEntity
  8
OBJECT
  6
CONTINUOUS
 62
     7
 48
5.0
100
AcDbLine
 10
2166.346695047086
 20
2794.422573727524
 30
0.0
 11
1573.653280558835
 21
2207.108872243769
 31
0.0
  0
LINE
  5
2C1
330
125
100
AcDbEntity
  8
OBJECT
  6
CONTINUOUS
 62
     7
 48
5.0
100
AcDbLine
 10
2166.346695047085
 20
2207.108872243769
 30
0.0
 11
1573.653280558836
 21
2794.422573727524
 31
0.0
  0
LINE
  5
2C2
330
125
100
AcDbEntity
  8
OBJECT
  6
CONTINUOUS
 62
     0
100
AcDbLine
 10
1023.653280558834
 20
2835.56823666924
 30
0.0
 11
1023.653280558834
 21
2165.963209302052
 31
0.0
  0
POLYLINE
  5
2C3
330
125
100
AcDbEntity
  8
OBJECT
  6
CONTINUOUS
 62
     0
100
AcDb2dPolyline
 66
     1
 10
0.0
 20
0.0
 30
0.0
 70
     1
  0
VERTEX
  5
3AB
330
2C3
100
AcDbEntity
  8
OBJECT
  6
CONTINUOUS
 62
     0
100
AcDbVertex
100
AcDb2dVertex
 10
1273.653280558835
 20
1907.10887224377
 30
0.0
  0
VERTEX
  5
3AC
330
2C3
100
AcDbEntity
  8
OBJECT
  6
CONTINUOUS
 62
     0
100
AcDbVertex
100
AcDb2dVertex
 10
2466.346695047085
 20
1907.10887224377
 30
0.0
  0
VERTEX
  5
3AD
330
2C3
100
AcDbEntity
  8
OBJECT
  6
CONTINUOUS
 62
     0
100
AcDbVertex
100
AcDb2dVertex
 10
2466.346695047085
 20
3094.422573727523
 30
0.0
  0
VERTEX
  5
3AE
330
2C3
100
AcDbEntity
  8
OBJECT
  6
CONTINUOUS
 62
     0
100
AcDbVertex
100
AcDb2dVertex
 10
1273.653280558835
 20
3094.422573727523
 30
0.0
  0
SEQEND
  5
3AF
330
2C3
100
AcDbEntity
  8
OBJECT
  6
CONTINUOUS
 62
     0
  0
LINE
  5
2C4
330
125
100
AcDbEntity
  8
OBJECT
  6
CONTINUOUS
 62
     0
100
AcDbLine
 10
2466.346695047085
 20
2876.713899610958
 30
0.0
 11
2466.346695047085
 21
2166.23805071821
 31
0.0
  0
LINE
  5
2C5
330
125
100
AcDbEntity
  8
OBJECT
100
AcDbLine
 10
3367.66778891088
 20
2127.134901028003
 30
0.0
 11
3367.66778891088
 21
2876.713899610958
 31
0.0
  0
LINE
  5
2C6
330
125
100
AcDbEntity
  8
OBJECT
100
AcDbLine
 10
3367.66778891088
 20
2127.134901028003
 30
0.0
 11
3367.66778891088
 21
2876.713899610958
 31
0.0
  0
LINE
  5
2C7
330
125
100
AcDbEntity
  8
OBJECT
100
AcDbLine
 10
3367.66778891088
 20
2893.522661571891
 30
0.0
 11
3367.66778891088
 21
2143.943662988936
 31
0.0
  0
LINE
  5
2C8
330
125
100
AcDbEntity
  8
OBJECT
100
AcDbLine
 10
3367.66778891088
 20
2893.522661571891
 30
0.0
 11
3367.66778891088
 21
2143.943662988936
 31
0.0
  0
LINE
  5
2C9
330
125
100
AcDbEntity
  8
OBJECT
  6
CONTINUOUS
 62
     7
 48
5.0
100
AcDbLine
 10
1573.653280558835
 20
2207.108872243769
 30
0.0
 11
1273.653280558835
 21
1907.10887224377
 31
0.0
  0
LINE
  5
2CA
330
125
100
AcDbEntity
  8
OBJECT
  6
CONTINUOUS
 62
     0
100
AcDbLine
 10
1273.653280558835
 20
2165.963209302052
 30
0.0
 11
1023.653280558834
 21
2165.963209302052
 31
0.0
  0
LINE
  5
2CB
330
125
100
AcDbEntity
  8
OBJECT
  6
CONTINUOUS
 62
     0
100
AcDbLine
 10
1273.653280558835
 20
2185.963209302053
 30
0.0
 11
1023.653280558834
 21
2185.963209302053
 31
0.0
  0
LINE
  5
2CC
330
125
100
AcDbEntity
  8
OBJECT
  6
CONTINUOUS
 62
     7
 48
5.0
100
AcDbLine
 10
2466.346695047085
 20
2141.145698558572
 30
0.0
 11
3367.66778891088
 21
2141.145698558572
 31
0.0
  0
LINE
  5
2CD
330
125
100
AcDbEntity
  8
OBJECT
  6
CONTINUOUS
 62
     7
 48
5.0
100
AcDbLine
 10
2466.346695047085
 20
2241.145698558571
 30
0.0
 11
3367.66778891088
 21
2241.145698558571
 31
0.0
  0
LINE
  5
2CE
330
125
100
AcDbEntity
  8
OBJECT
  6
CONTINUOUS
 62
     7
 48
5.0
100
AcDbLine
 10
2466.346695047085
 20
1907.10887224377
 30
0.0
 11
2166.346695047085
 21
2207.108872243769
 31
0.0
  0
LINE
  5
2CF
330
125
100
AcDbEntity
  8
OBJECT
  6
CONTINUOUS
 62
     7
 48
5.0
100
AcDbLine
 10
3367.66778891088
 20
2241.145698558571
 30
0.0
 11
3453.806127041599
 21
2241.145698558571
 31
0.0
  0
POLYLINE
  5
2D0
330
125
100
AcDbEntity
  8
OBJECT
100
AcDb2dPolyline
 66
     1
 10
0.0
 20
0.0
 30
0.0
 70
     1
  0
VERTEX
  5
3B0
330
2D0
100
AcDbEntity
  8
OBJECT
100
AcDbVertex
100
AcDb2dVertex
 10
3367.66778891088
 20
2141.145698558571
 30
0.0
  0
VERTEX
  5
3B1
330
2D0
100
AcDbEntity
  8
OBJECT
100
AcDbVertex
100
AcDb2dVertex
 10
3467.667788910881
 20
2141.145698558571
 30
0.0
  0
VERTEX
  5
3B2
330
2D0
100
AcDbEntity
  8
OBJECT
100
AcDbVertex
100
AcDb2dVertex
 10
3467.667788910881
 20
2241.145698558571
 30
0.0
  0
VERTEX
  5
3B3
330
2D0
100
AcDbEntity
  8
OBJECT
100
AcDbVertex
100
AcDb2dVertex
 10
3367.66778891088
 20
2241.145698558571
 30
0.0
  0
SEQEND
  5
3B4
330
2D0
100
AcDbEntity
  8
OBJECT
  0
LINE
  5
2D1
330
125
100
AcDbEntity
  8
OBJECT
  6
CONTINUOUS
 62
     7
 48
5.0
100
AcDbLine
 10
3367.66778891088
 20
2141.145698558571
 30
0.0
 11
3367.824288185637
 21
2141.145698558571
 31
0.0
  0
LINE
  5
2D2
330
125
100
AcDbEntity
  8
OBJECT
  6
CONTINUOUS
 62
     7
 48
5.0
100
AcDbLine
 10
3367.66778891088
 20
2141.145698558571
 30
0.0
 11
3367.511289636123
 21
2141.145698558571
 31
0.0
  0
LINE
  5
2D3
330
125
100
AcDbEntity
  8
OBJECT
  6
CONTINUOUS
 62
     7
 48
5.0
100
AcDbLine
 10
3453.806127041599
 20
2241.145698558571
 30
0.0
 11
3467.667788910881
 21
2241.145698558571
 31
0.0
  0
LINE
  5
2D4
330
125
100
AcDbEntity
  8
OBJECT
  6
CONTINUOUS
 62
     7
 48
5.0
100
AcDbLine
 10
1273.653280558835
 20
3094.422573727523
 30
0.0
 11
1573.653280558836
 21
2794.422573727524
 31
0.0
  0
LINE
  5
2D5
330
125
100
AcDbEntity
  8
OBJECT
  6
CONTINUOUS
 62
     0
100
AcDbLine
 10
1273.653280558835
 20
2835.56823666924
 30
0.0
 11
1023.653280558834
 21
2835.56823666924
 31
0.0
  0
LINE
  5
2D6
330
125
100
AcDbEntity
  8
OBJECT
  6
CONTINUOUS
 62
     0
100
AcDbLine
 10
1273.653280558835
 20
2815.568236669241
 30
0.0
 11
1023.653280558834
 21
2815.568236669241
 31
0.0
  0
ARC
  5
2D7
330
125
100
AcDbEntity
  8
OBJECT
  6
CONTINUOUS
 62
     7
 48
5.0
100
AcDbCircle
 10
2740.485679351432
 20
2874.249854705371
 30
0.0
 40
527.3643807753532
100
AcDbArc
 50
358.4935532376673
 51
155.3233760088678
  0
ARC
  5
2D8
330
125
100
AcDbEntity
  8
OBJECT
  6
CONTINUOUS
 62
     7
 48
5.0
100
AcDbCircle
 10
2740.422264068067
 20
2874.396544943289
 30
0.0
 40
627.2455248428131
100
AcDbArc
 50
358.7200764222862
 51
159.4648869002412
  0
LINE
  5
2D9
330
125
100
AcDbEntity
  8
OBJECT
  6
CONTINUOUS
 62
     7
 48
5.0
100
AcDbLine
 10
2466.346695047085
 20
3094.422573727523
 30
0.0
 11
2166.346695047086
 21
2794.422573727524
 31
0.0
  0
LINE
  5
2DA
330
125
100
AcDbEntity
  8
OBJECT
  6
CONTINUOUS
 62
     7
 48
5.0
100
AcDbLine
 10
4268.988882774675
 20
2876.713899610958
 30
0.0
 11
3367.66778891088
 21
2876.713899610958
 31
0.0
  0
LINE
  5
2DB
330
125
100
AcDbEntity
  8
OBJECT
  6
CONTINUOUS
 62
     7
 48
5.0
100
AcDbLine
 10
4268.988882774675
 20
2776.713899610958
 30
0.0
 11
3367.66778891088
 21
2776.713899610958
 31
0.0
  0
POLYLINE
  5
2DC
330
125
100
AcDbEntity
  8
OBJECT
100
AcDb2dPolyline
 66
     1
 10
0.0
 20
0.0
 30
0.0
 70
     1
  0
VERTEX
  5
3B5
330
2DC
100
AcDbEntity
  8
OBJECT
100
AcDbVertex
100
AcDb2dVertex
 10
3267.66778891088
 20
2776.713899610959
 30
0.0
  0
VERTEX
  5
3B6
330
2DC
100
AcDbEntity
  8
OBJECT
100
AcDbVertex
100
AcDb2dVertex
 10
3367.66778891088
 20
2776.713899610959
 30
0.0
  0
VERTEX
  5
3B7
330
2DC
100
AcDbEntity
  8
OBJECT
100
AcDbVertex
100
AcDb2dVertex
 10
3367.66778891088
 20
2876.713899610959
 30
0.0
  0
VERTEX
  5
3B8
330
2DC
100
AcDbEntity
  8
OBJECT
100
AcDbVertex
100
AcDb2dVertex
 10
3267.66778891088
 20
2876.713899610959
 30
0.0
  0
SEQEND
  5
3B9
330
2DC
100
AcDbEntity
  8
OBJECT
  0
LINE
  5
2DD
330
125
100
AcDbEntity
  8
OBJECT
  6
CONTINUOUS
 62
     7
 48
5.0
100
AcDbLine
 10
3367.66778891088
 20
2776.713899610959
 30
0.0
 11
3281.529450780162
 21
2776.713899610959
 31
0.0
  0
LINE
  5
2DE
330
125
100
AcDbEntity
  8
OBJECT
  6
CONTINUOUS
 62
     7
 48
5.0
100
AcDbLine
 10
3367.66778891088
 20
2879.511864041322
 30
0.0
 11
3367.511289636123
 21
2879.511864041324
 31
0.0
  0
LINE
  5
2DF
330
125
100
AcDbEntity
  8
OBJECT
  6
CONTINUOUS
 62
     7
 48
5.0
100
AcDbLine
 10
3367.66778891088
 20
2879.511864041322
 30
0.0
 11
3367.824288185637
 21
2879.511864041324
 31
0.0
  0
LINE
  5
2E0
330
125
100
AcDbEntity
  8
OBJECT
  6
CONTINUOUS
 62
     7
 48
5.0
100
AcDbLine
 10
4268.988882774675
 20
3094.422573727523
 30
0.0
 11
4268.988882774675
 21
2876.713899610958
 31
0.0
  0
LINE
  5
2E1
330
125
100
AcDbEntity
  8
OBJECT
  6
CONTINUOUS
 62
     7
 48
5.0
100
AcDbLine
 10
6617.293204572033
 20
2506.609160170778
 30
0.0
 11
6617.293204572033
 21
2419.525687245165
 31
0.0
  0
LINE
  5
2E2
330
125
100
AcDbEntity
  8
OBJECT
  6
CONTINUOUS
 62
     7
 48
5.0
100
AcDbLine
 10
5461.682297262926
 20
2784.187714750911
 30
0.0
 11
5461.682297262926
 21
1907.10887224377
 31
0.0
  0
LINE
  5
2E3
330
125
100
AcDbEntity
  8
OBJECT
  6
CONTINUOUS
 62
     7
 48
5.0
100
AcDbLine
 10
4568.988882774675
 20
2794.422573727524
 30
0.0
 11
4568.988882774675
 21
2207.108872243769
 31
0.0
  0
LINE
  5
2E4
330
125
100
AcDbEntity
  8
OBJECT
  6
CONTINUOUS
 62
     7
 48
5.0
100
AcDbLine
 10
5161.682297262927
 20
2794.422573727524
 30
0.0
 11
5161.682297262927
 21
2207.108872243769
 31
0.0
  0
LINE
  5
2E5
330
125
100
AcDbEntity
  8
OBJECT
  6
CONTINUOUS
 62
     7
 48
5.0
100
AcDbLine
 10
5161.682297262927
 20
2794.422573727524
 30
0.0
 11
4568.988882774675
 21
2207.108872243769
 31
0.0
  0
LINE
  5
2E6
330
125
100
AcDbEntity
  8
OBJECT
  6
CONTINUOUS
 62
     7
 48
5.0
100
AcDbLine
 10
5161.682297262927
 20
2207.108872243769
 30
0.0
 11
4568.988882774675
 21
2794.422573727524
 31
0.0
  0
LINE
  5
2E7
330
125
100
AcDbEntity
  8
OBJECT
  6
CONTINUOUS
 62
     7
 48
5.0
100
AcDbLine
 10
5461.682297262926
 20
2227.806427822073
 30
0.0
 11
6813.352401456835
 21
2227.806427822075
 31
0.0
  0
LINE
  5
2E8
330
125
100
AcDbEntity
  8
OBJECT
  6
CONTINUOUS
 62
     7
 48
5.0
100
AcDbLine
 10
6813.352401456835
 20
2271.348156087409
 30
0.0
 11
5461.682297262926
 21
2271.348156087409
 31
0.0
  0
LINE
  5
2E9
330
125
100
AcDbEntity
  8
OBJECT
  6
CONTINUOUS
 62
     7
 48
5.0
100
AcDbLine
 10
5461.682297262925
 20
2327.806427822074
 30
0.0
 11
6684.604857641041
 21
2327.806427822074
 31
0.0
  0
LINE
  5
2EA
330
125
100
AcDbEntity
  8
OBJECT
  6
CONTINUOUS
 62
     7
 48
5.0
100
AcDbLine
 10
4568.988882774675
 20
2207.108872243769
 30
0.0
 11
5161.682297262927
 21
2207.108872243769
 31
0.0
  0
LINE
  5
2EB
330
125
100
AcDbEntity
  8
OBJECT
  6
CONTINUOUS
 62
     7
 48
5.0
100
AcDbLine
 10
5461.682297262926
 20
1907.10887224377
 30
0.0
 11
5161.682297262927
 21
2207.108872243769
 31
0.0
  0
LINE
  5
2EC
330
125
100
AcDbEntity
  8
SAFETY
  6
CONTINUOUS
 62
     7
 48
5.0
100
AcDbLine
 10
6431.077875834176
 20
1227.806427822075
 30
0.0
 11
6813.352401456835
 21
1227.806427822075
 31
0.0
  0
LINE
  5
2ED
330
125
100
AcDbEntity
  8
OBJECT
  6
CONTINUOUS
 62
     7
 48
5.0
100
AcDbLine
 10
6693.538443374666
 20
2321.556790450689
 30
0.0
 11
6732.613777148444
 21
2271.348156087408
 31
0.0
  0
LINE
  5
2EE
330
125
100
AcDbEntity
  8
OBJECT
  6
CONTINUOUS
 62
     0
100
AcDbLine
 10
6813.352401456834
 20
2271.348156087409
 30
0.0
 11
6813.352401456834
 21
2227.806427822075
 31
0.0
  0
LINE
  5
2EF
330
125
100
AcDbEntity
  8
OBJECT
  6
CONTINUOUS
 62
     7
 48
5.0
100
AcDbLine
 10
6639.07755092076
 20
2359.655806781594
 30
0.0
 11
6693.538443374666
 21
2321.556790450689
 31
0.0
  0
LINE
  5
2F0
330
125
100
AcDbEntity
  8
OBJECT
  6
CONTINUOUS
 62
     7
 48
5.0
100
AcDbLine
 10
6617.293204572033
 20
2419.525687245165
 30
0.0
 11
6639.07755092076
 21
2359.655806781594
 31
0.0
  0
LINE
  5
2F1
330
125
100
AcDbEntity
  8
OBJECT
  6
CONTINUOUS
 62
     7
 48
5.0
100
AcDbLine
 10
6813.352401456835
 20
2784.187714750911
 30
0.0
 11
5461.682297262926
 21
2784.187714750911
 31
0.0
  0
LINE
  5
2F2
330
125
100
AcDbEntity
  8
OBJECT
  6
CONTINUOUS
 62
     7
 48
5.0
100
AcDbLine
 10
5461.682297262926
 20
2740.64598648558
 30
0.0
 11
6813.352401456835
 21
2740.64598648558
 31
0.0
  0
LINE
  5
2F3
330
125
100
AcDbEntity
  8
OBJECT
  6
CONTINUOUS
 62
     7
 48
5.0
100
AcDbLine
 10
6682.854948582511
 20
2684.187714750911
 30
0.0
 11
5461.682297262926
 21
2684.187714750911
 31
0.0
  0
LINE
  5
2F4
330
125
100
AcDbEntity
  8
OBJECT
  6
CONTINUOUS
 62
     7
 48
5.0
100
AcDbLine
 10
5161.682297262927
 20
2794.422573727524
 30
0.0
 11
4568.988882774675
 21
2794.422573727524
 31
0.0
  0
LINE
  5
2F5
330
125
100
AcDbEntity
  8
OBJECT
  6
CONTINUOUS
 62
     7
 48
5.0
100
AcDbLine
 10
5461.682297262926
 20
2784.187714750911
 30
0.0
 11
5461.682297262926
 21
3094.422573727523
 31
0.0
  0
LINE
  5
2F6
330
125
100
AcDbEntity
  8
OBJECT
  6
CONTINUOUS
 62
     7
 48
5.0
100
AcDbLine
 10
5461.682297262926
 20
3094.422573727523
 30
0.0
 11
5161.682297262927
 21
2794.422573727524
 31
0.0
  0
LINE
  5
2F7
330
125
100
AcDbEntity
  8
OBJECT
  6
CONTINUOUS
 62
     7
 48
5.0
100
AcDbLine
 10
6693.538443374666
 20
2691.661529890866
 30
0.0
 11
6731.66104948493
 21
2740.64598648558
 31
0.0
  0
LINE
  5
2F8
330
125
100
AcDbEntity
  8
OBJECT
  6
CONTINUOUS
 62
     7
 48
5.0
100
AcDbLine
 10
6639.07755092076
 20
2653.562513559963
 30
0.0
 11
6693.538443374666
 21
2691.661529890866
 31
0.0
  0
LINE
  5
2F9
330
125
100
AcDbEntity
  8
OBJECT
  6
CONTINUOUS
 62
     7
 48
5.0
100
AcDbLine
 10
6617.293204572033
 20
2593.692633096392
 30
0.0
 11
6639.07755092076
 21
2653.562513559963
 31
0.0
  0
LINE
  5
2FA
330
125
100
AcDbEntity
  8
OBJECT
  6
CONTINUOUS
 62
     7
 48
5.0
100
AcDbLine
 10
6617.293204572033
 20
2506.609160170778
 30
0.0
 11
6617.293204572033
 21
2593.692633096392
 31
0.0
  0
LINE
  5
2FB
330
125
100
AcDbEntity
  8
OBJECT
  6
CONTINUOUS
 62
     7
 48
5.0
100
AcDbLine
 10
6813.352401456835
 20
2740.64598648558
 30
0.0
 11
6813.352401456835
 21
2784.187714750911
 31
0.0
  0
LINE
  5
2FC
330
125
100
AcDbEntity
  8
SAFETY
  6
CONTINUOUS
 62
     7
 48
5.0
100
AcDbLine
 10
6813.352401456835
 20
3784.187714750911
 30
0.0
 11
6425.150813051175
 21
3784.187714750911
 31
0.0
  0
LINE
  5
2FD
330
125
100
AcDbEntity
  8
OBJECT
  6
CONTINUOUS
 62
     7
 48
5.0
100
AcDbLine
 10
1573.653280558834
 20
2207.108872243769
 30
0.0
 11
2166.346695047086
 21
2207.108872243769
 31
0.0
  0
LINE
  5
2FE
330
125
100
AcDbEntity
  8
0
100
AcDbLine
 10
1573.653280558835
 20
2207.108872243769
 30
0.0
 11
1573.653280558836
 21
2794.422573727524
 31
0.0
  0
LINE
  5
2FF
330
125
100
AcDbEntity
  8
0
100
AcDbLine
 10
1573.653280558836
 20
2794.422573727524
 30
0.0
 11
2166.346695047086
 21
2794.422573727524
 31
0.0
  0
LINE
  5
300
330
125
100
AcDbEntity
  8
0
100
AcDbLine
 10
2166.346695047086
 20
2794.422573727524
 30
0.0
 11
2166.346695047085
 21
2207.108872243769
 31
0.0
  0
LINE
  5
301
330
125
100
AcDbEntity
  8
HATCH
100
AcDbLine
 10
1273.653280558835
 20
2835.56823666924
 30
0.0
 11
1273.653280558835
 21
2165.963209302052
 31
0.0
  0
ENDBLK
  5
127
330
125
100
AcDbEntity
  8
0
100
AcDbBlockEnd
  0
BLOCK
  5
312
330
307
100
AcDbEntity
  8
0
100
AcDbBlockBegin
  2
*U1
 70
     1
 10
0.0
 20
0.0
 30
0.0
  3
*U1
  1

  0
SOLID
  5
308
330
307
100
AcDbEntity
  8
HATCH
  6
CONTINUOUS
 62
     1
100
AcDbTrace
 10
3467.667788910881
 20
2141.145698558571
 30
0.0
 11
3467.66778891088
 21
2241.145698558571
 31
0.0
 12
3453.806127041599
 22
2241.145698558571
 32
0.0
 13
3453.806127041599
 23
2241.145698558571
 33
0.0
210
0.0
220
0.0
230
1.0
  0
SOLID
  5
309
330
307
100
AcDbEntity
  8
HATCH
  6
CONTINUOUS
 62
     1
100
AcDbTrace
 10
3467.667788910881
 20
2141.145698558571
 30
0.0
 11
3453.806127041599
 21
2241.145698558571
 31
0.0
 12
3367.66778891088
 22
2241.145698558571
 32
0.0
 13
3367.66778891088
 23
2241.145698558571
 33
0.0
  0
SOLID
  5
30A
330
307
100
AcDbEntity
  8
HATCH
  6
CONTINUOUS
 62
     1
100
AcDbTrace
 10
3367.66778891088
 20
2241.145698558571
 30
0.0
 11
3367.824288185637
 21
2141.145698558571
 31
0.0
 12
3467.667788910881
 22
2141.145698558571
 32
0.0
 13
3467.667788910881
 23
2141.145698558571
 33
0.0
  0
SOLID
  5
30B
330
307
100
AcDbEntity
  8
HATCH
  6
CONTINUOUS
 62
     1
100
AcDbTrace
 10
3367.66778891088
 20
2241.145698558571
 30
0.0
 11
3367.667788910879
 21
2141.145698558571
 31
0.0
 12
3367.824288185637
 22
2141.145698558571
 32
0.0
 13
3367.824288185637
 23
2141.145698558571
 33
0.0
210
0.0
220
0.0
230
1.0
  0
SOLID
  5
30C
330
307
100
AcDbEntity
  8
HATCH
  6
CONTINUOUS
 62
     1
100
AcDbTrace
 10
3267.66778891088
 20
2860.385747412744
 30
0.0
 11
3267.66778891088
 21
2776.713899610959
 31
0.0
 12
3367.66778891088
 22
2776.713899610959
 32
0.0
 13
3367.66778891088
 23
2776.713899610959
 33
0.0
210
0.0
220
0.0
230
1.0
  0
SOLID
  5
30D
330
307
100
AcDbEntity
  8
HATCH
  6
CONTINUOUS
 62
     1
100
AcDbTrace
 10
3267.819247376077
 20
2868.549140279269
 30
0.0
 11
3267.66778891088
 21
2860.385747412744
 31
0.0
 12
3367.66778891088
 22
2776.713899610959
 32
0.0
 13
3367.66778891088
 23
2776.713899610959
 33
0.0
  0
SOLID
  5
30E
330
307
100
AcDbEntity
  8
HATCH
  6
CONTINUOUS
 62
     1
100
AcDbTrace
 10
3367.66778891088
 20
2874.396544943295
 30
0.0
 11
3267.819247376077
 21
2868.549140279269
 31
0.0
 12
3367.66778891088
 22
2776.713899610959
 32
0.0
 13
3367.66778891088
 23
2776.713899610959
 33
0.0
210
0.0
220
0.0
230
1.0
  0
SOLID
  5
30F
330
307
100
AcDbEntity
  8
HATCH
  6
CONTINUOUS
 62
     1
100
AcDbTrace
 10
3367.666718724775
 20
2875.555224254028
 30
0.0
 11
3267.819247376077
 21
2868.549140279269
 31
0.0
 12
3367.66778891088
 22
2874.396544943295
 32
0.0
 13
3367.66778891088
 23
2874.396544943295
 33
0.0
210
0.0
220
0.0
230
1.0
  0
SOLID
  5
310
330
307
100
AcDbEntity
  8
HATCH
  6
CONTINUOUS
 62
     1
100
AcDbTrace
 10
3367.666718724775
 20
2875.555224254028
 30
0.0
 11
3367.663508170111
 21
2876.713899610959
 31
0.0
 12
3267.844303622691
 22
2876.713899610959
 32
0.0
 13
3267.844303622691
 23
2876.713899610959
 33
0.0
210
0.0
220
0.0
230
1.0
  0
SOLID
  5
311
330
307
100
AcDbEntity
  8
HATCH
  6
CONTINUOUS
 62
     1
100
AcDbTrace
 10
3267.844303622691
 20
2876.713899610959
 30
0.0
 11
3267.819247376077
 21
2868.549140279269
 31
0.0
 12
3367.666718724775
 22
2875.555224254028
 32
0.0
 13
3367.666718724775
 23
2875.555224254028
 33
0.0
  0
ENDBLK
  5
313
330
307
100
AcDbEntity
  8
0
100
AcDbBlockEnd
  0
BLOCK
  5
33E
330
314
100
AcDbEntity
  8
0
100
AcDbBlockBegin
  2
*U2
 70
     1
 10
0.0
 20
0.0
 30
0.0
  3
*U2
  1

  0
SOLID
  5
315
330
314
100
AcDbEntity
  8
HATCH
  6
CONTINUOUS
 62
     3
100
AcDbTrace
 10
3782.052312837663
 20
1537.111899167599
 30
0.0
 11
3973.271654320221
 21
1500.262835122764
 31
0.0
 12
4166.576996994923
 22
1523.836858356396
 32
0.0
 13
4166.576996994923
 23
1523.836858356396
 33
0.0
210
0.0
220
0.0
230
1.0
  0
SOLID
  5
316
330
314
100
AcDbEntity
  8
HATCH
  6
CONTINUOUS
 62
     3
100
AcDbTrace
 10
3954.585872136636
 20
1601.456526920399
 30
0.0
 11
3782.052312837663
 21
1537.111899167599
 31
0.0
 12
4166.576996994923
 22
1523.836858356396
 32
0.0
 13
4166.576996994923
 23
1523.836858356396
 33
0.0
210
0.0
220
0.0
230
1.0
  0
SOLID
  5
317
330
314
100
AcDbEntity
  8
HATCH
  6
CONTINUOUS
 62
     3
100
AcDbTrace
 10
4343.335981522289
 20
1605.561710554843
 30
0.0
 11
3954.585872136636
 21
1601.456526920399
 31
0.0
 12
4166.576996994923
 22
1523.836858356396
 32
0.0
 13
4166.576996994923
 23
1523.836858356396
 33
0.0
210
0.0
220
0.0
230
1.0
  0
SOLID
  5
318
330
314
100
AcDbEntity
  8
HATCH
  6
CONTINUOUS
 62
     3
100
AcDbTrace
 10
4113.900467487857
 20
1613.530530802612
 30
0.0
 11
3954.585872136636
 21
1601.456526920399
 31
0.0
 12
4343.335981522289
 22
1605.561710554843
 32
0.0
 13
4343.335981522289
 23
1605.561710554843
 33
0.0
210
0.0
220
0.0
230
1.0
  0
SOLID
  5
319
330
314
100
AcDbEntity
  8
HATCH
  6
CONTINUOUS
 62
     3
100
AcDbTrace
 10
3611.35026592933
 20
1630.832234523962
 30
0.0
 11
3782.052312837663
 21
1537.111899167599
 31
0.0
 12
3954.585872136636
 22
1601.456526920399
 32
0.0
 13
3954.585872136636
 23
1601.456526920399
 33
0.0
210
0.0
220
0.0
230
1.0
  0
SOLID
  5
31A
330
314
100
AcDbEntity
  8
HATCH
  6
CONTINUOUS
 62
     3
100
AcDbTrace
 10
3798.966954267119
 20
1637.645948894111
 30
0.0
 11
3611.35026592933
 21
1630.832234523962
 31
0.0
 12
3954.585872136636
 22
1601.456526920399
 32
0.0
 13
3954.585872136636
 23
1601.456526920399
 33
0.0
210
0.0
220
0.0
230
1.0
  0
SOLID
  5
31B
330
314
100
AcDbEntity
  8
HATCH
  6
CONTINUOUS
 62
     3
100
AcDbTrace
 10
4262.287876783322
 20
1672.759734952685
 30
0.0
 11
4113.900467487857
 21
1613.530530802612
 31
0.0
 12
4343.335981522289
 22
1605.561710554843
 32
0.0
 13
4343.335981522289
 23
1605.561710554843
 33
0.0
  0
SOLID
  5
31C
330
314
100
AcDbEntity
  8
HATCH
  6
CONTINUOUS
 62
     3
100
AcDbTrace
 10
3661.327365636612
 20
1718.777111238155
 30
0.0
 11
3611.35026592933
 21
1630.832234523962
 31
0.0
 12
3798.966954267119
 22
1637.645948894111
 32
0.0
 13
3798.966954267119
 23
1637.645948894111
 33
0.0
  0
SOLID
  5
31D
330
314
100
AcDbEntity
  8
HATCH
  6
CONTINUOUS
 62
     3
100
AcDbTrace
 10
4486.511122695627
 20
1737.560078075047
 30
0.0
 11
4262.287876783322
 21
1672.759734952685
 31
0.0
 12
4343.335981522289
 22
1605.561710554843
 32
0.0
 13
4343.335981522289
 23
1605.561710554843
 33
0.0
  0
SOLID
  5
31E
330
314
100
AcDbEntity
  8
HATCH
  6
CONTINUOUS
 62
     3
100
AcDbTrace
 10
3477.619181320966
 20
1772.390304189645
 30
0.0
 11
3611.35026592933
 21
1630.832234523962
 31
0.0
 12
3661.327365636612
 22
1718.777111238155
 32
0.0
 13
3661.327365636612
 23
1718.777111238155
 33
0.0
210
0.0
220
0.0
230
1.0
  0
SOLID
  5
31F
330
314
100
AcDbEntity
  8
HATCH
  6
CONTINUOUS
 62
     3
100
AcDbTrace
 10
4386.128200151201
 20
1773.707722400726
 30
0.0
 11
4262.287876783322
 21
1672.759734952685
 31
0.0
 12
4486.511122695627
 22
1737.560078075047
 32
0.0
 13
4486.511122695627
 23
1737.560078075047
 33
0.0
210
0.0
220
0.0
230
1.0
  0
SOLID
  5
320
330
314
100
AcDbEntity
  8
HATCH
  6
CONTINUOUS
 62
     3
100
AcDbTrace
 10
3554.300505698936
 20
1837.403301911008
 30
0.0
 11
3477.619181320966
 21
1772.390304189645
 31
0.0
 12
3661.327365636612
 22
1718.777111238155
 32
0.0
 13
3661.327365636612
 23
1718.777111238155
 33
0.0
210
0.0
220
0.0
230
1.0
  0
SOLID
  5
321
330
314
100
AcDbEntity
  8
HATCH
  6
CONTINUOUS
 62
     3
100
AcDbTrace
 10
4582.302022440518
 20
1907.10887224377
 30
0.0
 11
4386.128200151201
 21
1773.707722400726
 31
0.0
 12
4486.511122695627
 22
1737.560078075047
 32
0.0
 13
4486.511122695627
 23
1737.560078075047
 33
0.0
210
0.0
220
0.0
230
1.0
  0
SOLID
  5
322
330
314
100
AcDbEntity
  8
HATCH
  6
CONTINUOUS
 62
     3
100
AcDbTrace
 10
4474.05461871937
 20
1907.10887224377
 30
0.0
 11
4386.128200151201
 21
1773.707722400726
 31
0.0
 12
4582.302022440518
 22
1907.10887224377
 32
0.0
 13
4582.302022440518
 23
1907.10887224377
 33
0.0
210
0.0
220
0.0
230
1.0
  0
SOLID
  5
323
330
314
100
AcDbEntity
  8
HATCH
  6
CONTINUOUS
 62
     3
100
AcDbTrace
 10
3393.749161214633
 20
1948.141576746538
 30
0.0
 11
3477.619181320966
 21
1772.390304189645
 31
0.0
 12
3554.300505698936
 22
1837.403301911008
 32
0.0
 13
3554.300505698936
 23
1837.403301911008
 33
0.0
210
0.0
220
0.0
230
1.0
  0
SOLID
  5
324
330
314
100
AcDbEntity
  8
HATCH
  6
CONTINUOUS
 62
     3
100
AcDbTrace
 10
3487.70995128496
 20
1982.636286885188
 30
0.0
 11
3393.749161214633
 21
1948.141576746538
 31
0.0
 12
3554.300505698936
 22
1837.403301911008
 32
0.0
 13
3554.300505698936
 23
1837.403301911008
 33
0.0
210
0.0
220
0.0
230
1.0
  0
SOLID
  5
325
330
314
100
AcDbEntity
  8
HATCH
  6
CONTINUOUS
 62
     3
100
AcDbTrace
 10
3487.70995128496
 20
1982.636286885188
 30
0.0
 11
3467.667788910881
 21
2141.145698558571
 31
0.0
 12
3367.824288185637
 22
2141.145698558571
 32
0.0
 13
3367.824288185637
 23
2141.145698558571
 33
0.0
210
0.0
220
0.0
230
1.0
  0
SOLID
  5
326
330
314
100
AcDbEntity
  8
HATCH
  6
CONTINUOUS
 62
     3
100
AcDbTrace
 10
3367.824288185637
 20
2141.145698558571
 30
0.0
 11
3393.749161214633
 21
1948.141576746538
 31
0.0
 12
3487.70995128496
 22
1982.636286885188
 32
0.0
 13
3487.70995128496
 23
1982.636286885188
 33
0.0
  0
SOLID
  5
327
330
314
100
AcDbEntity
  8
HATCH
  6
CONTINUOUS
 62
     3
100
AcDbTrace
 10
2466.346695047085
 20
2166.23805071821
 30
0.0
 11
2466.346695047085
 21
2141.145698558572
 31
0.0
 12
3367.66778891088
 22
2141.145698558572
 32
0.0
 13
3367.66778891088
 23
2141.145698558572
 33
0.0
210
0.0
220
0.0
230
1.0
  0
SOLID
  5
328
330
314
100
AcDbEntity
  8
HATCH
  6
CONTINUOUS
 62
     3
100
AcDbTrace
 10
2466.346695047085
 20
2166.23805071821
 30
0.0
 11
3367.667788910881
 21
2241.145698558571
 31
0.0
 12
2466.346695047085
 22
2241.145698558571
 32
0.0
 13
2466.346695047085
 23
2241.145698558571
 33
0.0
210
0.0
220
0.0
230
1.0
  0
SOLID
  5
329
330
314
100
AcDbEntity
  8
HATCH
  6
CONTINUOUS
 62
     3
100
AcDbTrace
 10
3367.667788910881
 20
2241.145698558571
 30
0.0
 11
2466.346695047085
 21
2166.23805071821
 31
0.0
 12
3367.66778891088
 22
2141.145698558572
 32
0.0
 13
3367.66778891088
 23
2141.145698558572
 33
0.0
210
0.0
220
0.0
230
1.0
  0
SOLID
  5
32A
330
314
100
AcDbEntity
  8
HATCH
  6
CONTINUOUS
 62
     3
100
AcDbTrace
 10
4268.988882774674
 20
2876.713899610958
 30
0.0
 11
3367.66778891088
 21
2776.713899610958
 31
0.0
 12
4268.988882774675
 22
2776.713899610958
 32
0.0
 13
4268.988882774675
 23
2776.713899610958
 33
0.0
210
0.0
220
0.0
230
1.0
  0
SOLID
  5
32B
330
314
100
AcDbEntity
  8
HATCH
  6
CONTINUOUS
 62
     3
100
AcDbTrace
 10
3367.66778891088
 20
2876.713899610958
 30
0.0
 11
3367.66778891088
 21
2776.713899610958
 31
0.0
 12
4268.988882774674
 22
2876.713899610958
 32
0.0
 13
4268.988882774674
 23
2876.713899610958
 33
0.0
210
0.0
220
0.0
230
1.0
  0
SOLID
  5
32C
330
314
100
AcDbEntity
  8
HATCH
  6
CONTINUOUS
 62
     3
100
AcDbTrace
 10
3243.452777563915
 20
3032.79728680784
 30
0.0
 11
3267.844303622691
 21
2876.713899610959
 31
0.0
 12
3367.663508170111
 22
2876.713899610959
 32
0.0
 13
3367.663508170111
 23
2876.713899610959
 33
0.0
210
0.0
220
0.0
230
1.0
  0
SOLID
  5
32D
330
314
100
AcDbEntity
  8
HATCH
  6
CONTINUOUS
 62
     3
100
AcDbTrace
 10
3337.283787006094
 20
3067.252114921018
 30
0.0
 11
3243.452777563915
 21
3032.79728680784
 31
0.0
 12
3367.663508170111
 22
2876.713899610959
 32
0.0
 13
3367.663508170111
 23
2876.713899610959
 33
0.0
210
0.0
220
0.0
230
1.0
  0
SOLID
  5
32E
330
314
100
AcDbEntity
  8
HATCH
  6
CONTINUOUS
 62
     3
100
AcDbTrace
 10
3173.926625103038
 20
3174.653144728175
 30
0.0
 11
3243.452777563915
 21
3032.79728680784
 31
0.0
 12
3337.283787006094
 22
3067.252114921018
 32
0.0
 13
3337.283787006094
 23
3067.252114921018
 33
0.0
210
0.0
220
0.0
230
1.0
  0
SOLID
  5
32F
330
314
100
AcDbEntity
  8
HATCH
  6
CONTINUOUS
 62
     3
100
AcDbTrace
 10
2347.993211284914
 20
3226.475425358079
 30
0.0
 11
2153.033555381242
 21
3094.422573727523
 31
0.0
 12
2261.280959102388
 22
3094.422573727523
 32
0.0
 13
2261.280959102388
 23
3094.422573727523
 33
0.0
210
0.0
220
0.0
230
1.0
  0
SOLID
  5
330
330
314
100
AcDbEntity
  8
HATCH
  6
CONTINUOUS
 62
     3
100
AcDbTrace
 10
3250.427913679639
 20
3239.541975969906
 30
0.0
 11
3173.926625103038
 21
3174.653144728175
 31
0.0
 12
3337.283787006094
 22
3067.252114921018
 32
0.0
 13
3337.283787006094
 23
3067.252114921018
 33
0.0
210
0.0
220
0.0
230
1.0
  0
SOLID
  5
331
330
314
100
AcDbEntity
  8
HATCH
  6
CONTINUOUS
 62
     3
100
AcDbTrace
 10
2247.699629939638
 20
3262.547745189891
 30
0.0
 11
2153.033555381242
 21
3094.422573727523
 31
0.0
 12
2347.993211284914
 22
3226.475425358079
 32
0.0
 13
2347.993211284914
 23
3226.475425358079
 33
0.0
210
0.0
220
0.0
230
1.0
  0
SOLID
  5
332
330
314
100
AcDbEntity
  8
HATCH
  6
CONTINUOUS
 62
     3
100
AcDbTrace
 10
3065.504896324351
 20
3289.551791504229
 30
0.0
 11
3173.926625103038
 21
3174.653144728175
 31
0.0
 12
3250.427913679639
 22
3239.541975969906
 32
0.0
 13
3250.427913679639
 23
3239.541975969906
 33
0.0
  0
SOLID
  5
333
330
314
100
AcDbEntity
  8
HATCH
  6
CONTINUOUS
 62
     3
100
AcDbTrace
 10
2469.926456997193
 20
3326.920703457133
 30
0.0
 11
2247.699629939638
 21
3262.547745189891
 31
0.0
 12
2347.993211284914
 22
3226.475425358079
 32
0.0
 13
2347.993211284914
 23
3226.475425358079
 33
0.0
  0
SOLID
  5
334
330
314
100
AcDbEntity
  8
HATCH
  6
CONTINUOUS
 62
     3
100
AcDbTrace
 10
2927.917003429342
 20
3367.182597445162
 30
0.0
 11
3065.504896324351
 21
3289.551791504229
 31
0.0
 12
3250.427913679639
 22
3239.541975969906
 32
0.0
 13
3250.427913679639
 23
3239.541975969906
 33
0.0
210
0.0
220
0.0
230
1.0
  0
SOLID
  5
335
330
314
100
AcDbEntity
  8
HATCH
  6
CONTINUOUS
 62
     3
100
AcDbTrace
 10
3115.314353160711
 20
3377.281094289447
 30
0.0
 11
2927.917003429342
 21
3367.182597445162
 31
0.0
 12
3250.427913679639
 22
3239.541975969906
 32
0.0
 13
3250.427913679639
 23
3239.541975969906
 33
0.0
210
0.0
220
0.0
230
1.0
  0
SOLID
  5
336
330
314
100
AcDbEntity
  8
HATCH
  6
CONTINUOUS
 62
     3
100
AcDbTrace
 10
2616.138804591086
 20
3386.744776483048
 30
0.0
 11
2247.699629939638
 21
3262.547745189891
 31
0.0
 12
2469.926456997193
 22
3326.920703457133
 32
0.0
 13
2469.926456997193
 23
3326.920703457133
 33
0.0
210
0.0
220
0.0
230
1.0
  0
SOLID
  5
337
330
314
100
AcDbEntity
  8
HATCH
  6
CONTINUOUS
 62
     3
100
AcDbTrace
 10
2388.988040482997
 20
3393.945325067441
 30
0.0
 11
2247.699629939638
 21
3262.547745189891
 31
0.0
 12
2616.138804591086
 22
3386.744776483048
 32
0.0
 13
2616.138804591086
 23
3386.744776483048
 33
0.0
210
0.0
220
0.0
230
1.0
  0
SOLID
  5
338
330
314
100
AcDbEntity
  8
HATCH
  6
CONTINUOUS
 62
     3
100
AcDbTrace
 10
2773.509635029131
 20
3400.579227305807
 30
0.0
 11
2388.988040482997
 21
3393.945325067441
 31
0.0
 12
2616.138804591086
 22
3386.744776483048
 32
0.0
 13
2616.138804591086
 23
3386.744776483048
 33
0.0
210
0.0
220
0.0
230
1.0
  0
SOLID
  5
339
330
314
100
AcDbEntity
  8
HATCH
  6
CONTINUOUS
 62
     3
100
AcDbTrace
 10
2773.509635029131
 20
3400.579227305807
 30
0.0
 11
2927.917003429342
 21
3367.182597445162
 31
0.0
 12
3115.314353160711
 22
3377.281094289447
 32
0.0
 13
3115.314353160711
 23
3377.281094289447
 33
0.0
210
0.0
220
0.0
230
1.0
  0
SOLID
  5
33A
330
314
100
AcDbEntity
  8
HATCH
  6
CONTINUOUS
 62
     3
100
AcDbTrace
 10
2944.727802920701
 20
3467.436337224945
 30
0.0
 11
2773.509635029131
 21
3400.579227305807
 31
0.0
 12
3115.314353160711
 22
3377.281094289447
 32
0.0
 13
3115.314353160711
 23
3377.281094289447
 33
0.0
210
0.0
220
0.0
230
1.0
  0
SOLID
  5
33B
330
314
100
AcDbEntity
  8
HATCH
  6
CONTINUOUS
 62
     3
100
AcDbTrace
 10
2563.529813696779
 20
3476.182228918055
 30
0.0
 11
2773.509635029131
 21
3400.579227305807
 31
0.0
 12
2944.727802920701
 22
3467.436337224945
 32
0.0
 13
2944.727802920701
 23
3467.436337224945
 33
0.0
  0
SOLID
  5
33C
330
314
100
AcDbEntity
  8
HATCH
  6
CONTINUOUS
 62
     3
100
AcDbTrace
 10
2563.529813696779
 20
3476.182228918055
 30
0.0
 11
2388.988040482997
 21
3393.945325067441
 31
0.0
 12
2773.509635029131
 22
3400.579227305807
 32
0.0
 13
2773.509635029131
 23
3400.579227305807
 33
0.0
210
0.0
220
0.0
230
1.0
  0
SOLID
  5
33D
330
314
100
AcDbEntity
  8
HATCH
  6
CONTINUOUS
 62
     3
100
AcDbTrace
 10
2754.809480977478
 20
3501.477047291222
 30
0.0
 11
2563.529813696779
 21
3476.182228918055
 31
0.0
 12
2944.727802920701
 22
3467.436337224945
 32
0.0
 13
2944.727802920701
 23
3467.436337224945
 33
0.0
210
0.0
220
0.0
230
1.0
  0
ENDBLK
  5
33F
330
314
100
AcDbEntity
  8
0
100
AcDbBlockEnd
  0
BLOCK
  5
35D
330
340
100
AcDbEntity
  8
0
100
AcDbBlockBegin
  2
*U3
 70
     1
 10
0.0
 20
0.0
 30
0.0
  3
*U3
  1

  0
SOLID
  5
341
330
340
100
AcDbEntity
  8
HATCH
  6
CONTINUOUS
 62
   251
100
AcDbTrace
 10
3798.966954267116
 20
1637.645948894109
 30
0.0
 11
3954.585872136635
 21
1601.456526920397
 31
0.0
 12
4113.900467487857
 22
1613.530530802609
 32
0.0
 13
4113.900467487857
 23
1613.530530802609
 33
0.0
210
0.0
220
0.0
230
1.0
  0
SOLID
  5
342
330
340
100
AcDbEntity
  8
HATCH
  6
CONTINUOUS
 62
   251
100
AcDbTrace
 10
4262.287876783322
 20
1672.759734952682
 30
0.0
 11
3798.966954267116
 21
1637.645948894109
 31
0.0
 12
4113.900467487857
 22
1613.530530802609
 32
0.0
 13
4113.900467487857
 23
1613.530530802609
 33
0.0
210
0.0
220
0.0
230
1.0
  0
SOLID
  5
343
330
340
100
AcDbEntity
  8
HATCH
  6
CONTINUOUS
 62
   251
100
AcDbTrace
 10
3661.327365636608
 20
1718.777111238155
 30
0.0
 11
3798.966954267116
 21
1637.645948894109
 31
0.0
 12
4262.287876783322
 22
1672.759734952682
 32
0.0
 13
4262.287876783322
 23
1672.759734952682
 33
0.0
210
0.0
220
0.0
230
1.0
  0
SOLID
  5
344
330
340
100
AcDbEntity
  8
HATCH
  6
CONTINUOUS
 62
   251
100
AcDbTrace
 10
4386.128200151203
 20
1773.707722400725
 30
0.0
 11
3661.327365636608
 21
1718.777111238155
 31
0.0
 12
4262.287876783322
 22
1672.759734952682
 32
0.0
 13
4262.287876783322
 23
1672.759734952682
 33
0.0
210
0.0
220
0.0
230
1.0
  0
SOLID
  5
345
330
340
100
AcDbEntity
  8
HATCH
  6
CONTINUOUS
 62
   251
100
AcDbTrace
 10
3554.300505698934
 20
1837.403301911009
 30
0.0
 11
3661.327365636608
 21
1718.777111238155
 31
0.0
 12
4386.128200151203
 22
1773.707722400725
 32
0.0
 13
4386.128200151203
 23
1773.707722400725
 33
0.0
210
0.0
220
0.0
230
1.0
  0
SOLID
  5
346
330
340
100
AcDbEntity
  8
HATCH
  6
CONTINUOUS
 62
   251
100
AcDbTrace
 10
4268.988882774674
 20
1907.108872243769
 30
0.0
 11
3554.300505698934
 21
1837.403301911009
 31
0.0
 12
4386.128200151203
 22
1773.707722400725
 32
0.0
 13
4386.128200151203
 23
1773.707722400725
 33
0.0
210
0.0
220
0.0
230
1.0
  0
SOLID
  5
347
330
340
100
AcDbEntity
  8
HATCH
  6
CONTINUOUS
 62
   251
100
AcDbTrace
 10
4474.054618719371
 20
1907.10887224377
 30
0.0
 11
4268.988882774674
 21
1907.108872243769
 31
0.0
 12
4386.128200151203
 22
1773.707722400725
 32
0.0
 13
4386.128200151203
 23
1773.707722400725
 33
0.0
210
0.0
220
0.0
230
1.0
  0
SOLID
  5
348
330
340
100
AcDbEntity
  8
HATCH
  6
CONTINUOUS
 62
   251
100
AcDbTrace
 10
3487.709951284959
 20
1982.63628688519
 30
0.0
 11
3554.300505698934
 21
1837.403301911009
 31
0.0
 12
4268.988882774674
 22
1907.108872243769
 32
0.0
 13
4268.988882774674
 23
1907.108872243769
 33
0.0
210
0.0
220
0.0
230
1.0
  0
SOLID
  5
349
330
340
100
AcDbEntity
  8
HATCH
  6
CONTINUOUS
 62
   251
100
AcDbTrace
 10
3467.667788910881
 20
2141.145698558573
 30
0.0
 11
3487.709951284959
 21
1982.63628688519
 31
0.0
 12
4268.988882774674
 22
1907.108872243769
 32
0.0
 13
4268.988882774674
 23
1907.108872243769
 33
0.0
210
0.0
220
0.0
230
1.0
  0
SOLID
  5
34A
330
340
100
AcDbEntity
  8
HATCH
  6
CONTINUOUS
 62
   251
100
AcDbTrace
 10
3467.667788910881
 20
2241.145698558571
 30
0.0
 11
3467.667788910881
 21
2141.145698558573
 31
0.0
 12
4268.988882774674
 22
1907.108872243769
 32
0.0
 13
4268.988882774674
 23
1907.108872243769
 33
0.0
210
0.0
220
0.0
230
1.0
  0
SOLID
  5
34B
330
340
100
AcDbEntity
  8
HATCH
  6
CONTINUOUS
 62
   251
100
AcDbTrace
 10
3367.66778891088
 20
2776.713899610958
 30
0.0
 11
3367.66778891088
 21
2241.14569855857
 31
0.0
 12
3467.667788910881
 22
2241.145698558571
 32
0.0
 13
3467.667788910881
 23
2241.145698558571
 33
0.0
210
0.0
220
0.0
230
1.0
  0
SOLID
  5
34C
330
340
100
AcDbEntity
  8
HATCH
  6
CONTINUOUS
 62
   251
100
AcDbTrace
 10
3467.667788910881
 20
2241.145698558571
 30
0.0
 11
4268.988882774676
 21
2776.713899610958
 31
0.0
 12
3367.66778891088
 22
2776.713899610958
 32
0.0
 13
3367.66778891088
 23
2776.713899610958
 33
0.0
210
0.0
220
0.0
230
1.0
  0
SOLID
  5
34D
330
340
100
AcDbEntity
  8
HATCH
  6
CONTINUOUS
 62
   251
100
AcDbTrace
 10
4268.988882774676
 20
2776.713899610958
 30
0.0
 11
3467.667788910881
 21
2241.145698558571
 31
0.0
 12
4268.988882774674
 22
1907.108872243769
 32
0.0
 13
4268.988882774674
 23
1907.108872243769
 33
0.0
210
0.0
220
0.0
230
1.0
  0
SOLID
  5
34E
330
340
100
AcDbEntity
  8
HATCH
  6
CONTINUOUS
 62
   251
100
AcDbTrace
 10
3367.66778891088
 20
2776.713899610959
 30
0.0
 11
2466.346695047084
 21
2241.145698558571
 31
0.0
 12
3367.66778891088
 22
2241.145698558571
 32
0.0
 13
3367.66778891088
 23
2241.145698558571
 33
0.0
210
0.0
220
0.0
230
1.0
  0
SOLID
  5
34F
330
340
100
AcDbEntity
  8
HATCH
  6
CONTINUOUS
 62
   251
100
AcDbTrace
 10
2466.346695047084
 20
2241.145698558571
 30
0.0
 11
3367.66778891088
 21
2776.713899610959
 31
0.0
 12
3281.529450780162
 22
2776.713899610959
 32
0.0
 13
3281.529450780162
 23
2776.713899610959
 33
0.0
210
0.0
220
0.0
230
1.0
  0
SOLID
  5
350
330
340
100
AcDbEntity
  8
HATCH
  6
CONTINUOUS
 62
   251
100
AcDbTrace
 10
2466.346695047084
 20
2241.145698558571
 30
0.0
 11
3281.529450780162
 21
2776.713899610959
 31
0.0
 12
3267.66778891088
 22
2776.713899610959
 32
0.0
 13
3267.66778891088
 23
2776.713899610959
 33
0.0
210
0.0
220
0.0
230
1.0
  0
SOLID
  5
351
330
340
100
AcDbEntity
  8
HATCH
  6
CONTINUOUS
 62
   251
100
AcDbTrace
 10
3267.66778891088
 20
2876.713899610959
 30
0.0
 11
2466.346695047084
 21
2241.145698558571
 31
0.0
 12
3267.66778891088
 22
2776.713899610959
 32
0.0
 13
3267.66778891088
 23
2776.713899610959
 33
0.0
210
0.0
220
0.0
230
1.0
  0
SOLID
  5
352
330
340
100
AcDbEntity
  8
HATCH
  6
CONTINUOUS
 62
   251
100
AcDbTrace
 10
3243.452777563914
 20
3032.79728680784
 30
0.0
 11
3267.66778891088
 21
2876.713899610959
 31
0.0
 12
3267.844303622691
 22
2876.713899610959
 32
0.0
 13
3267.844303622691
 23
2876.713899610959
 33
0.0
210
0.0
220
0.0
230
1.0
  0
SOLID
  5
353
330
340
100
AcDbEntity
  8
HATCH
  6
CONTINUOUS
 62
   251
100
AcDbTrace
 10
3243.452777563914
 20
3032.79728680784
 30
0.0
 11
2466.346695047084
 21
2241.145698558571
 31
0.0
 12
3267.66778891088
 22
2876.713899610959
 32
0.0
 13
3267.66778891088
 23
2876.713899610959
 33
0.0
210
0.0
220
0.0
230
1.0
  0
SOLID
  5
354
330
340
100
AcDbEntity
  8
HATCH
  6
CONTINUOUS
 62
   251
100
AcDbTrace
 10
2466.346695047085
 20
3094.422573727523
 30
0.0
 11
2466.346695047084
 21
2241.145698558571
 31
0.0
 12
3243.452777563914
 22
3032.79728680784
 32
0.0
 13
3243.452777563914
 23
3032.79728680784
 33
0.0
210
0.0
220
0.0
230
1.0
  0
SOLID
  5
355
330
340
100
AcDbEntity
  8
HATCH
  6
CONTINUOUS
 62
   251
100
AcDbTrace
 10
3173.926625103038
 20
3174.653144728175
 30
0.0
 11
2261.280959102388
 21
3094.422573727523
 31
0.0
 12
2466.346695047085
 22
3094.422573727523
 32
0.0
 13
2466.346695047085
 23
3094.422573727523
 33
0.0
210
0.0
220
0.0
230
1.0
  0
SOLID
  5
356
330
340
100
AcDbEntity
  8
HATCH
  6
CONTINUOUS
 62
   251
100
AcDbTrace
 10
3173.926625103038
 20
3174.653144728175
 30
0.0
 11
2466.346695047085
 21
3094.422573727523
 31
0.0
 12
3243.452777563914
 22
3032.79728680784
 32
0.0
 13
3243.452777563914
 23
3032.79728680784
 33
0.0
210
0.0
220
0.0
230
1.0
  0
SOLID
  5
357
330
340
100
AcDbEntity
  8
HATCH
  6
CONTINUOUS
 62
   251
100
AcDbTrace
 10
2347.993211284915
 20
3226.475425358077
 30
0.0
 11
2261.280959102388
 21
3094.422573727523
 31
0.0
 12
3173.926625103038
 22
3174.653144728175
 32
0.0
 13
3173.926625103038
 23
3174.653144728175
 33
0.0
210
0.0
220
0.0
230
1.0
  0
SOLID
  5
358
330
340
100
AcDbEntity
  8
HATCH
  6
CONTINUOUS
 62
   251
100
AcDbTrace
 10
3065.504896324351
 20
3289.551791504227
 30
0.0
 11
2347.993211284915
 21
3226.475425358077
 31
0.0
 12
3173.926625103038
 22
3174.653144728175
 32
0.0
 13
3173.926625103038
 23
3174.653144728175
 33
0.0
210
0.0
220
0.0
230
1.0
  0
SOLID
  5
359
330
340
100
AcDbEntity
  8
HATCH
  6
CONTINUOUS
 62
   251
100
AcDbTrace
 10
2469.926456997193
 20
3326.920703457133
 30
0.0
 11
2347.993211284915
 21
3226.475425358077
 31
0.0
 12
3065.504896324351
 22
3289.551791504227
 32
0.0
 13
3065.504896324351
 23
3289.551791504227
 33
0.0
210
0.0
220
0.0
230
1.0
  0
SOLID
  5
35A
330
340
100
AcDbEntity
  8
HATCH
  6
CONTINUOUS
 62
   251
100
AcDbTrace
 10
2927.917003429342
 20
3367.182597445161
 30
0.0
 11
2469.926456997193
 21
3326.920703457133
 31
0.0
 12
3065.504896324351
 22
3289.551791504227
 32
0.0
 13
3065.504896324351
 23
3289.551791504227
 33
0.0
210
0.0
220
0.0
230
1.0
  0
SOLID
  5
35B
330
340
100
AcDbEntity
  8
HATCH
  6
CONTINUOUS
 62
   251
100
AcDbTrace
 10
2616.138804591086
 20
3386.744776483046
 30
0.0
 11
2469.926456997193
 21
3326.920703457133
 31
0.0
 12
2927.917003429342
 22
3367.182597445161
 32
0.0
 13
2927.917003429342
 23
3367.182597445161
 33
0.0
210
0.0
220
0.0
230
1.0
  0
SOLID
  5
35C
330
340
100
AcDbEntity
  8
HATCH
  6
CONTINUOUS
 62
   251
100
AcDbTrace
 10
2773.509635029132
 20
3400.579227305807
 30
0.0
 11
2616.138804591086
 21
3386.744776483046
 31
0.0
 12
2927.917003429342
 22
3367.182597445161
 32
0.0
 13
2927.917003429342
 23
3367.182597445161
 33
0.0
210
0.0
220
0.0
230
1.0
  0
ENDBLK
  5
35E
330
340
100
AcDbEntity
  8
0
100
AcDbBlockEnd
  0
BLOCK
  5
364
330
35F
100
AcDbEntity
  8
0
100
AcDbBlockBegin
  2
*U4
 70
     1
 10
0.0
 20
0.0
 30
0.0
  3
*U4
  1

  0
SOLID
  5
360
330
35F
100
AcDbEntity
  8
HATCH
  6
CONTINUOUS
 62
   251
100
AcDbTrace
 10
1148.653280558834
 20
2500.765722985647
 30
0.0
 11
1273.653280558835
 21
2815.568236669241
 31
0.0
 12
1023.653280558834
 22
2815.568236669241
 32
0.0
 13
1023.653280558834
 23
2815.568236669241
 33
0.0
210
0.0
220
0.0
230
1.0
  0
SOLID
  5
361
330
35F
100
AcDbEntity
  8
HATCH
  6
CONTINUOUS
 62
   251
100
AcDbTrace
 10
1148.653280558834
 20
2500.765722985647
 30
0.0
 11
1023.653280558834
 21
2815.568236669241
 31
0.0
 12
1023.653280558834
 22
2185.963209302054
 32
0.0
 13
1023.653280558834
 23
2185.963209302054
 33
0.0
210
0.0
220
0.0
230
1.0
  0
SOLID
  5
362
330
35F
100
AcDbEntity
  8
HATCH
  6
CONTINUOUS
 62
   251
100
AcDbTrace
 10
1148.653280558834
 20
2500.765722985647
 30
0.0
 11
1023.653280558834
 21
2185.963209302054
 31
0.0
 12
1273.653280558835
 22
2185.963209302053
 32
0.0
 13
1273.653280558835
 23
2185.963209302053
 33
0.0
210
0.0
220
0.0
230
1.0
  0
SOLID
  5
363
330
35F
100
AcDbEntity
  8
HATCH
  6
CONTINUOUS
 62
   251
100
AcDbTrace
 10
1148.653280558834
 20
2500.765722985647
 30
0.0
 11
1273.653280558835
 21
2185.963209302053
 31
0.0
 12
1273.653280558835
 22
2815.568236669241
 32
0.0
 13
1273.653280558835
 23
2815.568236669241
 33
0.0
210
0.0
220
0.0
230
1.0
  0
ENDBLK
  5
365
330
35F
100
AcDbEntity
  8
0
100
AcDbBlockEnd
  0
BLOCK
  5
36B
330
366
100
AcDbEntity
  8
0
100
AcDbBlockBegin
  2
*U5
 70
     1
 10
0.0
 20
0.0
 30
0.0
  3
*U5
  1

  0
SOLID
  5
367
330
366
100
AcDbEntity
  8
HATCH
  6
CONTINUOUS
 62
     2
100
AcDbTrace
 10
1273.653280558835
 20
2165.963209302052
 30
0.0
 11
1273.653280558835
 21
2185.963209302053
 31
0.0
 12
1023.653280558834
 22
2185.963209302053
 32
0.0
 13
1023.653280558834
 23
2185.963209302053
 33
0.0
210
0.0
220
0.0
230
1.0
  0
SOLID
  5
368
330
366
100
AcDbEntity
  8
HATCH
  6
CONTINUOUS
 62
     2
100
AcDbTrace
 10
1023.653280558834
 20
2185.963209302053
 30
0.0
 11
1023.653280558834
 21
2165.963209302052
 31
0.0
 12
1273.653280558835
 22
2165.963209302052
 32
0.0
 13
1273.653280558835
 23
2165.963209302052
 33
0.0
210
0.0
220
0.0
230
1.0
  0
SOLID
  5
369
330
366
100
AcDbEntity
  8
HATCH
  6
CONTINUOUS
 62
     2
100
AcDbTrace
 10
1023.653280558834
 20
2815.568236669241
 30
0.0
 11
1273.653280558835
 21
2835.56823666924
 31
0.0
 12
1023.653280558834
 22
2835.56823666924
 32
0.0
 13
1023.653280558834
 23
2835.56823666924
 33
0.0
210
0.0
220
0.0
230
1.0
  0
SOLID
  5
36A
330
366
100
AcDbEntity
  8
HATCH
  6
CONTINUOUS
 62
     2
100
AcDbTrace
 10
1273.653280558835
 20
2835.56823666924
 30
0.0
 11
1023.653280558834
 21
2815.568236669241
 31
0.0
 12
1273.653280558835
 22
2815.568236669241
 32
0.0
 13
1273.653280558835
 23
2815.568236669241
 33
0.0
210
0.0
220
0.0
230
1.0
  0
ENDBLK
  5
36C
330
366
100
AcDbEntity
  8
0
100
AcDbBlockEnd
  0
BLOCK
  5
37F
330
36D
100
AcDbEntity
  8
0
100
AcDbBlockBegin
  2
*U6
 70
     1
 10
0.0
 20
0.0
 30
0.0
  3
*U6
  1

  0
SOLID
  5
36E
330
36D
100
AcDbEntity
  8
HATCH
  6
CONTINUOUS
 62
     2
100
AcDbTrace
 10
6813.352401456835
 20
2740.64598648558
 30
0.0
 11
6813.352401456835
 21
2784.187714750911
 31
0.0
 12
5461.682297262926
 22
2740.64598648558
 32
0.0
 13
5461.682297262926
 23
2740.64598648558
 33
0.0
  0
SOLID
  5
36F
330
36D
100
AcDbEntity
  8
HATCH
  6
CONTINUOUS
 62
     2
100
AcDbTrace
 10
5461.682297262926
 20
2784.187714750911
 30
0.0
 11
5461.682297262926
 21
2740.64598648558
 31
0.0
 12
6813.352401456835
 22
2784.187714750911
 32
0.0
 13
6813.352401456835
 23
2784.187714750911
 33
0.0
  0
SOLID
  5
370
330
36D
100
AcDbEntity
  8
HATCH
  6
CONTINUOUS
 62
     2
100
AcDbTrace
 10
6682.854948582512
 20
2684.187714750911
 30
0.0
 11
6693.538443374666
 21
2691.661529890865
 31
0.0
 12
5461.682297262927
 22
2684.187714750911
 32
0.0
 13
5461.682297262927
 23
2684.187714750911
 33
0.0
210
0.0
220
0.0
230
1.0
  0
SOLID
  5
371
330
36D
100
AcDbEntity
  8
HATCH
  6
CONTINUOUS
 62
     2
100
AcDbTrace
 10
6731.66104948493
 20
2740.64598648558
 30
0.0
 11
5461.682297262927
 21
2684.187714750911
 31
0.0
 12
6693.538443374666
 22
2691.661529890865
 32
0.0
 13
6693.538443374666
 23
2691.661529890865
 33
0.0
210
0.0
220
0.0
230
1.0
  0
SOLID
  5
372
330
36D
100
AcDbEntity
  8
HATCH
  6
CONTINUOUS
 62
     2
100
AcDbTrace
 10
5461.682297262927
 20
2684.187714750911
 30
0.0
 11
6731.66104948493
 21
2740.64598648558
 31
0.0
 12
5461.682297262926
 22
2740.64598648558
 32
0.0
 13
5461.682297262926
 23
2740.64598648558
 33
0.0
210
0.0
220
0.0
230
1.0
  0
SOLID
  5
373
330
36D
100
AcDbEntity
  8
HATCH
  6
CONTINUOUS
 62
     2
100
AcDbTrace
 10
6639.07755092076
 20
2359.655806781594
 30
0.0
 11
5461.682297262927
 21
2327.806427822074
 31
0.0
 12
6684.604857641042
 22
2327.806427822074
 32
0.0
 13
6684.604857641042
 23
2327.806427822074
 33
0.0
210
0.0
220
0.0
230
1.0
  0
SOLID
  5
374
330
36D
100
AcDbEntity
  8
HATCH
  6
CONTINUOUS
 62
     2
100
AcDbTrace
 10
6617.293204572033
 20
2419.525687245167
 30
0.0
 11
5461.682297262927
 21
2327.806427822074
 31
0.0
 12
6639.07755092076
 22
2359.655806781594
 32
0.0
 13
6639.07755092076
 23
2359.655806781594
 33
0.0
210
0.0
220
0.0
230
1.0
  0
SOLID
  5
375
330
36D
100
AcDbEntity
  8
HATCH
  6
CONTINUOUS
 62
     2
100
AcDbTrace
 10
6617.293204572033
 20
2506.609160170778
 30
0.0
 11
5461.682297262927
 21
2327.806427822074
 31
0.0
 12
6617.293204572033
 22
2419.525687245167
 32
0.0
 13
6617.293204572033
 23
2419.525687245167
 33
0.0
210
0.0
220
0.0
230
1.0
  0
SOLID
  5
376
330
36D
100
AcDbEntity
  8
HATCH
  6
CONTINUOUS
 62
     2
100
AcDbTrace
 10
6617.293204572033
 20
2593.692633096389
 30
0.0
 11
5461.682297262927
 21
2327.806427822074
 31
0.0
 12
6617.293204572033
 22
2506.609160170778
 32
0.0
 13
6617.293204572033
 23
2506.609160170778
 33
0.0
210
0.0
220
0.0
230
1.0
  0
SOLID
  5
377
330
36D
100
AcDbEntity
  8
HATCH
  6
CONTINUOUS
 62
     2
100
AcDbTrace
 10
6639.07755092076
 20
2653.562513559963
 30
0.0
 11
5461.682297262927
 21
2327.806427822074
 31
0.0
 12
6617.293204572033
 22
2593.692633096389
 32
0.0
 13
6617.293204572033
 23
2593.692633096389
 33
0.0
210
0.0
220
0.0
230
1.0
  0
SOLID
  5
378
330
36D
100
AcDbEntity
  8
HATCH
  6
CONTINUOUS
 62
     2
100
AcDbTrace
 10
5461.682297262926
 20
2684.187714750911
 30
0.0
 11
5461.682297262927
 21
2327.806427822074
 31
0.0
 12
6639.07755092076
 22
2653.562513559963
 32
0.0
 13
6639.07755092076
 23
2653.562513559963
 33
0.0
210
0.0
220
0.0
230
1.0
  0
SOLID
  5
379
330
36D
100
AcDbEntity
  8
HATCH
  6
CONTINUOUS
 62
     2
100
AcDbTrace
 10
6682.854948582509
 20
2684.187714750911
 30
0.0
 11
5461.682297262926
 21
2684.187714750911
 31
0.0
 12
6639.07755092076
 22
2653.562513559963
 32
0.0
 13
6639.07755092076
 23
2653.562513559963
 33
0.0
  0
SOLID
  5
37A
330
36D
100
AcDbEntity
  8
HATCH
  6
CONTINUOUS
 62
     2
100
AcDbTrace
 10
5461.682297262926
 20
2327.806427822074
 30
0.0
 11
5461.682297262925
 21
2271.348156087409
 31
0.0
 12
6684.604857641042
 22
2327.806427822074
 32
0.0
 13
6684.604857641042
 23
2327.806427822074
 33
0.0
210
0.0
220
0.0
230
1.0
  0
SOLID
  5
37B
330
36D
100
AcDbEntity
  8
HATCH
  6
CONTINUOUS
 62
     2
100
AcDbTrace
 10
6732.613777148443
 20
2271.348156087408
 30
0.0
 11
6684.604857641042
 21
2327.806427822074
 31
0.0
 12
5461.682297262925
 22
2271.348156087409
 32
0.0
 13
5461.682297262925
 23
2271.348156087409
 33
0.0
210
0.0
220
0.0
230
1.0
  0
SOLID
  5
37C
330
36D
100
AcDbEntity
  8
HATCH
  6
CONTINUOUS
 62
     2
100
AcDbTrace
 10
6684.604857641042
 20
2327.806427822074
 30
0.0
 11
6732.613777148443
 21
2271.348156087408
 31
0.0
 12
6693.538443374665
 22
2321.55679045069
 32
0.0
 13
6693.538443374665
 23
2321.55679045069
 33
0.0
210
0.0
220
0.0
230
1.0
  0
SOLID
  5
37D
330
36D
100
AcDbEntity
  8
HATCH
  6
CONTINUOUS
 62
     2
100
AcDbTrace
 10
6813.352401456834
 20
2227.806427822075
 30
0.0
 11
6813.352401456835
 21
2271.348156087409
 31
0.0
 12
5461.682297262925
 22
2227.806427822073
 32
0.0
 13
5461.682297262925
 23
2227.806427822073
 33
0.0
210
0.0
220
0.0
230
1.0
  0
SOLID
  5
37E
330
36D
100
AcDbEntity
  8
HATCH
  6
CONTINUOUS
 62
     2
100
AcDbTrace
 10
5461.682297262926
 20
2271.348156087409
 30
0.0
 11
5461.682297262925
 21
2227.806427822073
 31
0.0
 12
6813.352401456835
 22
2271.348156087409
 32
0.0
 13
6813.352401456835
 23
2271.348156087409
 33
0.0
  0
ENDBLK
  5
380
330
36D
100
AcDbEntity
  8
0
100
AcDbBlockEnd
  0
BLOCK
  5
39C
330
381
100
AcDbEntity
  8
0
100
AcDbBlockBegin
  2
*U7
 70
     1
 10
0.0
 20
0.0
 30
0.0
  3
*U7
  1

  0
SOLID
  5
382
330
381
100
AcDbEntity
  8
HATCH
  6
CONTINUOUS
 62
     3
100
AcDbTrace
 10
5461.682297262926
 20
2784.187714750911
 30
0.0
 11
5461.682297262926
 21
3094.422573727523
 31
0.0
 12
5461.682297262925
 22
1907.108872243769
 32
0.0
 13
5461.682297262925
 23
1907.108872243769
 33
0.0
210
0.0
220
0.0
230
1.0
  0
SOLID
  5
383
330
381
100
AcDbEntity
  8
HATCH
  6
CONTINUOUS
 62
     3
100
AcDbTrace
 10
5161.682297262927
 20
2794.422573727524
 30
0.0
 11
5461.682297262925
 21
1907.108872243769
 31
0.0
 12
5461.682297262926
 22
3094.422573727523
 32
0.0
 13
5461.682297262926
 23
3094.422573727523
 33
0.0
210
0.0
220
0.0
230
1.0
  0
SOLID
  5
384
330
381
100
AcDbEntity
  8
HATCH
  6
CONTINUOUS
 62
     3
100
AcDbTrace
 10
5461.682297262925
 20
1907.108872243769
 30
0.0
 11
5161.682297262927
 21
2794.422573727524
 31
0.0
 12
5161.682297262927
 22
2207.108872243768
 32
0.0
 13
5161.682297262927
 23
2207.108872243768
 33
0.0
210
0.0
220
0.0
230
1.0
  0
SOLID
  5
385
330
381
100
AcDbEntity
  8
HATCH
  6
CONTINUOUS
 62
     3
100
AcDbTrace
 10
4268.988882774674
 20
3094.422573727523
 30
0.0
 11
4568.988882774674
 21
2794.422573727524
 31
0.0
 12
5461.682297262926
 22
3094.422573727523
 32
0.0
 13
5461.682297262926
 23
3094.422573727523
 33
0.0
210
0.0
220
0.0
230
1.0
  0
SOLID
  5
386
330
381
100
AcDbEntity
  8
HATCH
  6
CONTINUOUS
 62
     3
100
AcDbTrace
 10
5161.682297262927
 20
2794.422573727524
 30
0.0
 11
5461.682297262926
 21
3094.422573727523
 31
0.0
 12
4568.988882774674
 22
2794.422573727524
 32
0.0
 13
4568.988882774674
 23
2794.422573727524
 33
0.0
210
0.0
220
0.0
230
1.0
  0
SOLID
  5
387
330
381
100
AcDbEntity
  8
HATCH
  6
CONTINUOUS
 62
     3
100
AcDbTrace
 10
4568.988882774675
 20
2794.422573727524
 30
0.0
 11
4865.335590018801
 21
2500.765722985647
 31
0.0
 12
5161.682297262927
 22
2794.422573727524
 32
0.0
 13
5161.682297262927
 23
2794.422573727524
 33
0.0
210
0.0
220
0.0
230
1.0
  0
SOLID
  5
388
330
381
100
AcDbEntity
  8
HATCH
  6
CONTINUOUS
 62
     3
100
AcDbTrace
 10
4865.335590018801
 20
2500.765722985647
 30
0.0
 11
5161.682297262927
 21
2207.108872243768
 31
0.0
 12
5161.682297262927
 22
2794.422573727523
 32
0.0
 13
5161.682297262927
 23
2794.422573727523
 33
0.0
210
0.0
220
0.0
230
1.0
  0
SOLID
  5
389
330
381
100
AcDbEntity
  8
HATCH
  6
CONTINUOUS
 62
     3
100
AcDbTrace
 10
5161.682297262927
 20
2207.108872243769
 30
0.0
 11
4865.335590018801
 21
2500.765722985647
 31
0.0
 12
4568.988882774675
 22
2207.108872243769
 32
0.0
 13
4568.988882774675
 23
2207.108872243769
 33
0.0
210
0.0
220
0.0
230
1.0
  0
SOLID
  5
38A
330
381
100
AcDbEntity
  8
HATCH
  6
CONTINUOUS
 62
     3
100
AcDbTrace
 10
4568.988882774676
 20
2207.108872243769
 30
0.0
 11
4268.988882774675
 21
1907.10887224377
 31
0.0
 12
5161.682297262927
 22
2207.108872243769
 32
0.0
 13
5161.682297262927
 23
2207.108872243769
 33
0.0
210
0.0
220
0.0
230
1.0
  0
SOLID
  5
38B
330
381
100
AcDbEntity
  8
HATCH
  6
CONTINUOUS
 62
     3
100
AcDbTrace
 10
5461.682297262925
 20
1907.108872243769
 30
0.0
 11
5161.682297262927
 21
2207.108872243769
 31
0.0
 12
4268.988882774675
 22
1907.10887224377
 32
0.0
 13
4268.988882774675
 23
1907.10887224377
 33
0.0
210
0.0
220
0.0
230
1.0
  0
SOLID
  5
38C
330
381
100
AcDbEntity
  8
HATCH
  6
CONTINUOUS
 62
     3
100
AcDbTrace
 10
4268.988882774675
 20
1907.108872243769
 30
0.0
 11
4568.988882774674
 21
2207.108872243768
 31
0.0
 12
4268.988882774675
 22
2876.713899610958
 32
0.0
 13
4268.988882774675
 23
2876.713899610958
 33
0.0
210
0.0
220
0.0
230
1.0
  0
SOLID
  5
38D
330
381
100
AcDbEntity
  8
HATCH
  6
CONTINUOUS
 62
     3
100
AcDbTrace
 10
4568.988882774676
 20
2794.422573727523
 30
0.0
 11
4268.988882774675
 21
2876.713899610958
 31
0.0
 12
4568.988882774674
 22
2207.108872243768
 32
0.0
 13
4568.988882774674
 23
2207.108872243768
 33
0.0
210
0.0
220
0.0
230
1.0
  0
SOLID
  5
38E
330
381
100
AcDbEntity
  8
HATCH
  6
CONTINUOUS
 62
     3
100
AcDbTrace
 10
4268.988882774675
 20
2876.713899610958
 30
0.0
 11
4568.988882774676
 21
2794.422573727523
 31
0.0
 12
4268.988882774675
 22
3094.422573727523
 32
0.0
 13
4268.988882774675
 23
3094.422573727523
 33
0.0
210
0.0
220
0.0
230
1.0
  0
SOLID
  5
38F
330
381
100
AcDbEntity
  8
HATCH
  6
CONTINUOUS
 62
     3
100
AcDbTrace
 10
4568.988882774675
 20
2794.422573727525
 30
0.0
 11
4568.988882774675
 21
2207.108872243769
 31
0.0
 12
4865.335590018801
 22
2500.765722985646
 32
0.0
 13
4865.335590018801
 23
2500.765722985646
 33
0.0
210
0.0
220
0.0
230
1.0
  0
SOLID
  5
390
330
381
100
AcDbEntity
  8
HATCH
  6
CONTINUOUS
 62
     3
100
AcDbTrace
 10
1273.653280558835
 20
3094.422573727523
 30
0.0
 11
1573.653280558836
 21
2794.422573727524
 31
0.0
 12
2166.346695047085
 22
2794.422573727524
 32
0.0
 13
2166.346695047085
 23
2794.422573727524
 33
0.0
210
0.0
220
0.0
230
1.0
  0
SOLID
  5
391
330
381
100
AcDbEntity
  8
HATCH
  6
CONTINUOUS
 62
     3
100
AcDbTrace
 10
2466.346695047085
 20
3094.422573727523
 30
0.0
 11
1273.653280558835
 21
3094.422573727523
 31
0.0
 12
2166.346695047085
 22
2794.422573727524
 32
0.0
 13
2166.346695047085
 23
2794.422573727524
 33
0.0
210
0.0
220
0.0
230
1.0
  0
SOLID
  5
392
330
381
100
AcDbEntity
  8
HATCH
  6
CONTINUOUS
 62
     3
100
AcDbTrace
 10
1573.653280558835
 20
2794.422573727523
 30
0.0
 11
1869.999987802959
 21
2500.765722985645
 31
0.0
 12
2166.346695047086
 22
2794.422573727523
 32
0.0
 13
2166.346695047086
 23
2794.422573727523
 33
0.0
210
0.0
220
0.0
230
1.0
  0
SOLID
  5
393
330
381
100
AcDbEntity
  8
HATCH
  6
CONTINUOUS
 62
     3
100
AcDbTrace
 10
2466.346695047085
 20
3094.422573727523
 30
0.0
 11
2166.346695047085
 21
2794.422573727524
 31
0.0
 12
2466.346695047085
 22
1907.108872243769
 32
0.0
 13
2466.346695047085
 23
1907.108872243769
 33
0.0
210
0.0
220
0.0
230
1.0
  0
SOLID
  5
394
330
381
100
AcDbEntity
  8
HATCH
  6
CONTINUOUS
 62
     3
100
AcDbTrace
 10
2166.346695047085
 20
2207.108872243768
 30
0.0
 11
2466.346695047085
 21
1907.108872243769
 31
0.0
 12
2166.346695047085
 22
2794.422573727524
 32
0.0
 13
2166.346695047085
 23
2794.422573727524
 33
0.0
210
0.0
220
0.0
230
1.0
  0
SOLID
  5
395
330
381
100
AcDbEntity
  8
HATCH
  6
CONTINUOUS
 62
     3
100
AcDbTrace
 10
2166.346695047086
 20
2794.422573727524
 30
0.0
 11
1869.99998780296
 21
2500.765722985646
 31
0.0
 12
2166.346695047085
 22
2207.108872243769
 32
0.0
 13
2166.346695047085
 23
2207.108872243769
 33
0.0
  0
SOLID
  5
396
330
381
100
AcDbEntity
  8
HATCH
  6
CONTINUOUS
 62
     3
100
AcDbTrace
 10
1869.99998780296
 20
2500.765722985646
 30
0.0
 11
1573.653280558835
 21
2207.108872243768
 31
0.0
 12
2166.346695047084
 22
2207.108872243769
 32
0.0
 13
2166.346695047084
 23
2207.108872243769
 33
0.0
210
0.0
220
0.0
230
1.0
  0
SOLID
  5
397
330
381
100
AcDbEntity
  8
HATCH
  6
CONTINUOUS
 62
     3
100
AcDbTrace
 10
2466.346695047084
 20
1907.10887224377
 30
0.0
 11
2166.346695047085
 21
2207.108872243769
 31
0.0
 12
1273.653280558835
 22
1907.10887224377
 32
0.0
 13
1273.653280558835
 23
1907.10887224377
 33
0.0
210
0.0
220
0.0
230
1.0
  0
SOLID
  5
398
330
381
100
AcDbEntity
  8
HATCH
  6
CONTINUOUS
 62
     3
100
AcDbTrace
 10
1573.653280558835
 20
2207.108872243769
 30
0.0
 11
1273.653280558835
 21
1907.10887224377
 31
0.0
 12
2166.346695047085
 22
2207.108872243769
 32
0.0
 13
2166.346695047085
 23
2207.108872243769
 33
0.0
210
0.0
220
0.0
230
1.0
  0
SOLID
  5
399
330
381
100
AcDbEntity
  8
HATCH
  6
CONTINUOUS
 62
     3
100
AcDbTrace
 10
1573.653280558835
 20
2207.108872243769
 30
0.0
 11
1869.99998780296
 21
2500.765722985647
 31
0.0
 12
1573.653280558836
 22
2794.422573727524
 32
0.0
 13
1573.653280558836
 23
2794.422573727524
 33
0.0
  0
SOLID
  5
39A
330
381
100
AcDbEntity
  8
HATCH
  6
CONTINUOUS
 62
     3
100
AcDbTrace
 10
1573.653280558836
 20
2794.422573727524
 30
0.0
 11
1273.653280558835
 21
3094.422573727523
 31
0.0
 12
1573.653280558835
 22
2207.108872243769
 32
0.0
 13
1573.653280558835
 23
2207.108872243769
 33
0.0
210
0.0
220
0.0
230
1.0
  0
SOLID
  5
39B
330
381
100
AcDbEntity
  8
HATCH
  6
CONTINUOUS
 62
     3
100
AcDbTrace
 10
1273.653280558835
 20
1907.108872243769
 30
0.0
 11
1573.653280558835
 21
2207.108872243769
 31
0.0
 12
1273.653280558835
 22
3094.422573727523
 32
0.0
 13
1273.653280558835
 23
3094.422573727523
 33
0.0
210
0.0
220
0.0
230
1.0
  0
ENDBLK
  5
39D
330
381
100
AcDbEntity
  8
0
100
AcDbBlockEnd
  0
ENDSEC
  0
SECTION
  2
ENTITIES
  0
INSERT
  5
302
330
1F
100
AcDbEntity
  8
HATCH
100
AcDbBlockReference
  2
ADKE
 10
0.0
 20
0.0
 30
0.0
  0
ENDSEC
  0
SECTION
  2
OBJECTS
  0
DICTIONARY
  5
C
330
0
100
AcDbDictionary
  3
ACAD_GROUP
350
D
  3
ACAD_LAYOUT
350
1A
  3
ACAD_MLINESTYLE
350
17
  3
ACAD_PLOTSETTINGS
350
19
1001
ACAD
1000
TREAT_AS_HARD
1070
     0
1000
TREAT_AS_HARD
1070
     0
  0
DICTIONARY
  5
119
330
1F
100
AcDbDictionary
  3
ACAD_LAYOUTSELFREF
350
304
  3
ACAD_SORTENTS
350
25D
1001
ACAD
1000
TREAT_AS_HARD
1070
     1
1000
TREAT_AS_HARD
1070
     0
  0
DICTIONARY
  5
11B
330
50
100
AcDbDictionary
  3
ACAD_LAYOUTSELFREF
350
305
1001
ACAD
1000
TREAT_AS_HARD
1070
     1
1000
TREAT_AS_HARD
1070
     0
  0
DICTIONARY
  5
D
102
{ACAD_REACTORS
330
C
102
}
330
C
100
AcDbDictionary
1001
ACAD
1000
TREAT_AS_HARD
1070
     0
1000
TREAT_AS_HARD
1070
     0
  0
DICTIONARY
  5
1A
102
{ACAD_REACTORS
330
C
102
}
330
C
100
AcDbDictionary
1001
ACAD
1000
TREAT_AS_HARD
1070
     0
1000
TREAT_AS_HARD
1070
     0
  0
DICTIONARY
  5
17
102
{ACAD_REACTORS
330
C
102
}
330
C
100
AcDbDictionary
  3
STANDARD
350
18
1001
ACAD
1000
TREAT_AS_HARD
1070
     0
1000
TREAT_AS_HARD
1070
     0
  0
DICTIONARY
  5
19
102
{ACAD_REACTORS
330
C
102
}
330
C
100
AcDbDictionary
1001
ACAD
1000
TREAT_AS_HARD
1070
     0
1000
TREAT_AS_HARD
1070
     0
  0
XRECORD
  5
304
102
{ACAD_REACTORS
330
119
102
}
330
119
100
AcDbXrecord
340
1F
  0
SORTENTSTABLE
  5
25D
102
{ACAD_REACTORS
330
119
102
}
330
119
100
AcDbSortentsTable
330
1F
331
20C
  5
213
331
21D
  5
27B
331
1FB
  5
202
331
1E2
  5
1EB
331
2A7
  5
1D5
331
1A5
  5
1DA
331
20A
  5
211
331
21B
  5
25C
331
1F9
  5
200
331
1E0
  5
1E9
331
208
  5
20F
331
219
  5
220
331
1F7
  5
1FE
331
1DE
  5
1E5
331
1EF
  5
1F7
331
217
  5
21E
331
1F5
  5
1FC
331
206
  5
20D
331
1ED
  5
1F5
331
215
  5
21C
331
1F3
  5
1FB
331
1DA
  5
1E3
331
204
  5
20B
331
1EB
  5
1F2
331
213
  5
21A
331
1F1
  5
1F9
331
1D8
  5
1E1
331
202
  5
209
331
1E9
  5
1F0
331
27B
  5
1A5
331
211
  5
218
331
200
  5
207
331
2AC
  5
1D7
331
1D6
  5
1DF
331
20F
  5
216
331
220
  5
2A8
331
1FE
  5
205
331
1E5
  5
1EE
331
1D4
  5
1DB
331
20D
  5
214
331
21E
  5
297
331
1FC
  5
203
331
1E3
  5
1EC
331
297
  5
1D8
331
2A8
  5
2AF
331
20B
  5
212
331
21C
  5
26D
331
1FA
  5
201
331
1E1
  5
1EA
331
209
  5
210
331
21A
  5
221
331
1F8
  5
1FF
331
1DF
  5
1E6
331
218
  5
21F
331
1F6
  5
1FD
331
207
  5
20E
331
1EE
  5
1F6
331
25C
  5
1D9
331
1DB
  5
1E4
331
216
  5
21D
331
26D
  5
1D4
331
205
  5
20C
331
1EC
  5
1F3
331
214
  5
21B
331
1F2
  5
1FA
331
1D9
  5
1E2
331
203
  5
20A
331
1EA
  5
1F1
331
2AF
  5
1D6
331
212
  5
219
331
1F0
  5
1F8
331
201
  5
208
331
1D7
  5
1E0
331
210
  5
217
331
221
  5
2AC
331
1FF
  5
206
331
1E6
  5
1EF
331
1D5
  5
1DE
331
20E
  5
215
331
21F
  5
2A7
331
1FD
  5
204
331
1E4
  5
1ED
  0
XRECORD
  5
305
102
{ACAD_REACTORS
330
11B
102
}
330
11B
100
AcDbXrecord
340
50
  0
MLINESTYLE
  5
18
102
{ACAD_REACTORS
330
17
102
}
330
17
100
AcDbMlineStyle
  2
STANDARD
 70
     0
  3

 62
   256
 51
90.0
 52
90.0
 71
     2
 49
0.5
 62
   256
  6
BYLAYER
 49
-0.5
 62
   256
  6
BYLAYER
  0
ENDSEC
  0
EOF
