  0
SECTION
  2
HEADER
  9
$ACADVER
  1
AC1012
  9
$DWGCODEPAGE
  3
ANSI_1252
  9
$INSBASE
 10
0.0
 20
0.0
 30
0.0
  9
$EXTMIN
 10
-581.3226575740882
 20
-71.63309379272686
 30
-0.0015258207003583
  9
$EXTMAX
 10
9698.408880047296
 20
7545.104695051136
 30
0.0000000349246037
  9
$LIMMIN
 10
0.0
 20
0.0
  9
$LIMMAX
 10
420.0
 20
297.0
  9
$ORTHOMODE
 70
     1
  9
$REGENMODE
 70
     1
  9
$FILLMODE
 70
     1
  9
$QTEXTMODE
 70
     0
  9
$MIRRTEXT
 70
     1
  9
$DRAGMODE
 70
     2
  9
$LTSCALE
 40
1.0
  9
$OSMODE
 70
  2559
  9
$ATTMODE
 70
     1
  9
$TEXTSIZE
 40
2.5
  9
$TRACEWID
 40
1.0
  9
$TEXTSTYLE
  7
STANDARD
  9
$CLAYER
  8
OBJECT
  9
$CELTYPE
  6
BYLAYER
  9
$CECOLOR
 62
   256
  9
$CELTSCALE
 40
1.0
  9
$DELOBJ
 70
     1
  9
$DISPSILH
 70
     0
  9
$DIMSCALE
 40
1.0
  9
$DIMASZ
 40
2.5
  9
$DIMEXO
 40
0.625
  9
$DIMDLI
 40
3.75
  9
$DIMRND
 40
0.0
  9
$DIMDLE
 40
0.0
  9
$DIMEXE
 40
1.25
  9
$DIMTP
 40
0.0
  9
$DIMTM
 40
0.0
  9
$DIMTXT
 40
2.5
  9
$DIMCEN
 40
2.5
  9
$DIMTSZ
 40
0.0
  9
$DIMTOL
 70
     0
  9
$DIMLIM
 70
     0
  9
$DIMTIH
 70
     0
  9
$DIMTOH
 70
     0
  9
$DIMSE1
 70
     0
  9
$DIMSE2
 70
     0
  9
$DIMTAD
 70
     1
  9
$DIMZIN
 70
     8
  9
$DIMBLK
  1

  9
$DIMASO
 70
     1
  9
$DIMSHO
 70
     1
  9
$DIMPOST
  1

  9
$DIMAPOST
  1

  9
$DIMALT
 70
     0
  9
$DIMALTD
 70
     3
  9
$DIMALTF
 40
0.03937007874016
  9
$DIMLFAC
 40
1.0
  9
$DIMTOFL
 70
     1
  9
$DIMTVP
 40
0.0
  9
$DIMTIX
 70
     0
  9
$DIMSOXD
 70
     0
  9
$DIMSAH
 70
     0
  9
$DIMBLK1
  1

  9
$DIMBLK2
  1

  9
$DIMSTYLE
  2
ISO-25
  9
$DIMCLRD
 70
     0
  9
$DIMCLRE
 70
     0
  9
$DIMCLRT
 70
     0
  9
$DIMTFAC
 40
1.0
  9
$DIMGAP
 40
0.625
  9
$DIMJUST
 70
     0
  9
$DIMSD1
 70
     0
  9
$DIMSD2
 70
     0
  9
$DIMTOLJ
 70
     0
  9
$DIMTZIN
 70
     8
  9
$DIMALTZ
 70
     0
  9
$DIMALTTZ
 70
     0
  9
$DIMFIT
 70
     3
  9
$DIMUPT
 70
     0
  9
$DIMUNIT
 70
     2
  9
$DIMDEC
 70
     2
  9
$DIMTDEC
 70
     2
  9
$DIMALTU
 70
     2
  9
$DIMALTTD
 70
     3
  9
$DIMTXSTY
  7
STANDARD
  9
$DIMAUNIT
 70
     0
  9
$LUNITS
 70
     2
  9
$LUPREC
 70
     4
  9
$SKETCHINC
 40
1.0
  9
$FILLETRAD
 40
10.0
  9
$AUNITS
 70
     0
  9
$AUPREC
 70
     0
  9
$MENU
  1
.
  9
$ELEVATION
 40
0.0
  9
$PELEVATION
 40
0.0
  9
$THICKNESS
 40
0.0
  9
$LIMCHECK
 70
     0
  9
$BLIPMODE
 70
     0
  9
$CHAMFERA
 40
10.0
  9
$CHAMFERB
 40
10.0
  9
$CHAMFERC
 40
20.0
  9
$CHAMFERD
 40
0.0
  9
$SKPOLY
 70
     0
  9
$TDCREATE
 40
2452626.591934606
  9
$TDUPDATE
 40
2452776.551376273
  9
$TDINDWG
 40
0.0379894676
  9
$TDUSRTIMER
 40
0.0379888889
  9
$USRTIMER
 70
     1
  9
$ANGBASE
 50
0.0
  9
$ANGDIR
 70
     0
  9
$PDMODE
 70
     0
  9
$PDSIZE
 40
0.0
  9
$PLINEWID
 40
0.0
  9
$COORDS
 70
     2
  9
$SPLFRAME
 70
     0
  9
$SPLINETYPE
 70
     6
  9
$SPLINESEGS
 70
     8
  9
$ATTDIA
 70
     0
  9
$ATTREQ
 70
     1
  9
$HANDLING
 70
-16383
  9
$HANDSEED
  5
40B
  9
$SURFTAB1
 70
     6
  9
$SURFTAB2
 70
     6
  9
$SURFTYPE
 70
     6
  9
$SURFU
 70
     6
  9
$SURFV
 70
     6
  9
$UCSNAME
  2

  9
$UCSORG
 10
0.0
 20
0.0
 30
0.0
  9
$UCSXDIR
 10
1.0
 20
0.0
 30
0.0
  9
$UCSYDIR
 10
0.0
 20
1.0
 30
0.0
  9
$PUCSNAME
  2

  9
$PUCSORG
 10
0.0
 20
0.0
 30
0.0
  9
$PUCSXDIR
 10
1.0
 20
0.0
 30
0.0
  9
$PUCSYDIR
 10
0.0
 20
1.0
 30
0.0
  9
$USERI1
 70
     0
  9
$USERI2
 70
     0
  9
$USERI3
 70
     0
  9
$USERI4
 70
     0
  9
$USERI5
 70
     0
  9
$USERR1
 40
0.0
  9
$USERR2
 40
0.0
  9
$USERR3
 40
0.0
  9
$USERR4
 40
0.0
  9
$USERR5
 40
0.0
  9
$WORLDVIEW
 70
     1
  9
$SHADEDGE
 70
     3
  9
$SHADEDIF
 70
    70
  9
$TILEMODE
 70
     1
  9
$MAXACTVP
 70
    64
  9
$PINSBASE
 10
0.0
 20
0.0
 30
0.0
  9
$PLIMCHECK
 70
     0
  9
$PEXTMIN
 10
0.0
 20
0.0
 30
0.0
  9
$PEXTMAX
 10
0.0
 20
0.0
 30
0.0
  9
$PLIMMIN
 10
0.0
 20
0.0
  9
$PLIMMAX
 10
12.0
 20
9.0
  9
$UNITMODE
 70
     0
  9
$VISRETAIN
 70
     1
  9
$PLINEGEN
 70
     0
  9
$PSLTSCALE
 70
     1
  9
$TREEDEPTH
 70
  3020
  9
$PICKSTYLE
 70
     1
  9
$CMLSTYLE
  2
STANDARD
  9
$CMLJUST
 70
     0
  9
$CMLSCALE
 40
20.0
  9
$SAVEIMAGES
 70
     1
  0
ENDSEC
  0
SECTION
  2
CLASSES
  0
CLASS
  1
ACDBDICTIONARYWDFLT
  2
AcDbDictionaryWithDefault
  3
AutoCAD 2000
 90
    32768
280
     0
281
     0
  0
CLASS
  1
ACDBPLACEHOLDER
  2
AcDbPlaceHolder
  3
AutoCAD 2000
 90
    32768
280
     0
281
     0
  0
CLASS
  1
LAYOUT
  2
AcDbLayout
  3
AutoCAD 2000
 90
    32768
280
     0
281
     0
  0
CLASS
  1
LONG_TRANSACTION
  2
AcDbLongTransaction
  3
AutoCAD 2000
 90
    32768
280
     0
281
     0
  0
CLASS
  1
LWPOLYLINE
  2
AcDbPolyline
  3
AutoCAD 2000
 90
    32768
280
     0
281
     1
  0
CLASS
  1
HATCH
  2
AcDbHatch
  3
AutoCAD 2000
 90
    32768
280
     0
281
     1
  0
CLASS
  1
XRECORD
  2
AcDbXrecord
  3
AutoCAD 2000
 90
    32768
280
     0
281
     0
  0
CLASS
  1
LONG_TRANSACTION
  2
AcDbLongTransaction
  3
AutoCAD 2000
 90
    32768
280
     0
281
     0
  0
CLASS
  1
LWPOLYLINE
  2
AcDbPolyline
  3
AutoCAD 2000
 90
    32768
280
     0
281
     1
  0
CLASS
  1
HATCH
  2
AcDbHatch
  3
AutoCAD 2000
 90
    32768
280
     0
281
     1
  0
CLASS
  1
XRECORD
  2
AcDbXrecord
  3
AutoCAD 2000
 90
    32768
280
     0
281
     0
  0
CLASS
  1
LONG_TRANSACTION
  2
AcDbLongTransaction
  3
AutoCAD 2000
 90
    32768
280
     0
281
     0
  0
CLASS
  1
LWPOLYLINE
  2
AcDbPolyline
  3
AutoCAD 2000
 90
    32768
280
     0
281
     1
  0
CLASS
  1
HATCH
  2
AcDbHatch
  3
AutoCAD 2000
 90
    32768
280
     0
281
     1
  0
CLASS
  1
XRECORD
  2
AcDbXrecord
  3
AutoCAD 2000
 90
    32768
280
     0
281
     0
  0
CLASS
  1
DICTIONARYVAR
  2
AcDbDictionaryVar
  3
AutoCAD 2000
 90
    32768
280
     0
281
     0
  0
CLASS
  1
SORTENTSTABLE
  2
AcDbSortentsTable
  3
AutoCAD 2000
 90
    32768
280
     0
281
     0
  0
CLASS
  1
LONG_TRANSACTION
  2
AcDbLongTransaction
  3
AutoCAD 2000
 90
    32768
280
     0
281
     0
  0
CLASS
  1
LWPOLYLINE
  2
AcDbPolyline
  3
AutoCAD 2000
 90
    32768
280
     0
281
     1
  0
CLASS
  1
HATCH
  2
AcDbHatch
  3
AutoCAD 2000
 90
    32768
280
     0
281
     1
  0
CLASS
  1
XRECORD
  2
AcDbXrecord
  3
AutoCAD 2000
 90
    32768
280
     0
281
     0
  0
ENDSEC
  0
SECTION
  2
TABLES
  0
TABLE
  2
VPORT
  5
8
330
0
100
AcDbSymbolTable
 70
     3
  0
VPORT
  5
349
330
8
100
AcDbSymbolTableRecord
100
AcDbViewportTableRecord
  2
*ACTIVE
 70
     0
 10
0.0
 20
0.0
 11
1.0
 21
1.0
 12
4558.543111236602
 22
3736.735800629205
 13
0.0
 23
0.0
 14
10.0
 24
10.0
 15
10.0
 25
10.0
 16
0.0
 26
0.0
 36
1.0
 17
0.0
 27
0.0
 37
0.0
 40
7703.952343677954
 41
1.81453154875717
 42
50.0
 43
0.0
 44
0.0
 50
0.0
 51
0.0
 71
     0
 72
   100
 73
     1
 74
     3
 75
     0
 76
     0
 77
     0
 78
     0
  0
ENDTAB
  0
TABLE
  2
LTYPE
  5
5
330
0
100
AcDbSymbolTable
 70
     1
  0
LTYPE
  5
14
330
5
100
AcDbSymbolTableRecord
100
AcDbLinetypeTableRecord
  2
BYBLOCK
 70
     0
  3

 72
    65
 73
     0
 40
0.0
  0
LTYPE
  5
15
330
5
100
AcDbSymbolTableRecord
100
AcDbLinetypeTableRecord
  2
BYLAYER
 70
     0
  3

 72
    65
 73
     0
 40
0.0
  0
LTYPE
  5
16
330
5
100
AcDbSymbolTableRecord
100
AcDbLinetypeTableRecord
  2
CONTINUOUS
 70
     0
  3
Solid line
 72
    65
 73
     0
 40
0.0
  0
ENDTAB
  0
TABLE
  2
LAYER
  5
2
330
0
100
AcDbSymbolTable
 70
     5
  0
LAYER
  5
10
330
2
100
AcDbSymbolTableRecord
100
AcDbLayerTableRecord
  2
0
 70
     0
 62
     7
  6
CONTINUOUS
  0
LAYER
  5
5D
330
2
100
AcDbSymbolTableRecord
100
AcDbLayerTableRecord
  2
SAFETY
 70
     0
 62
     7
  6
CONTINUOUS
  0
LAYER
  5
5E
330
2
100
AcDbSymbolTableRecord
100
AcDbLayerTableRecord
  2
OBJECT
 70
     0
 62
     7
  6
CONTINUOUS
  0
LAYER
  5
1D4
330
2
100
AcDbSymbolTableRecord
100
AcDbLayerTableRecord
  2
TEKST
 70
     0
 62
     7
  6
CONTINUOUS
  0
LAYER
  5
2F4
330
2
100
AcDbSymbolTableRecord
100
AcDbLayerTableRecord
  2
HATCH
 70
     0
 62
     7
  6
CONTINUOUS
  0
ENDTAB
  0
TABLE
  2
STYLE
  5
3
330
0
100
AcDbSymbolTable
 70
     3
  0
STYLE
  5
11
330
3
100
AcDbSymbolTableRecord
100
AcDbTextStyleTableRecord
  2
STANDARD
 70
     0
 40
0.0
 41
1.0
 50
0.0
 71
     0
 42
2.5
  3
txt
  4

  0
STYLE
  5
5F
330
3
100
AcDbSymbolTableRecord
100
AcDbTextStyleTableRecord
  2
STYLE1
 70
     0
 40
5.0
 41
1.0
 50
0.0
 71
     0
 42
2.5
  3
romans.shx
  4

  0
STYLE
  5
60
330
3
100
AcDbSymbolTableRecord
100
AcDbTextStyleTableRecord
  2
STYLE2
 70
     0
 40
3.0
 41
1.0
 50
0.0
 71
     0
 42
1.5
  3
romand.shx
  4

  0
ENDTAB
  0
TABLE
  2
VIEW
  5
6
330
0
100
AcDbSymbolTable
 70
     0
  0
ENDTAB
  0
TABLE
  2
UCS
  5
7
330
0
100
AcDbSymbolTable
 70
     0
  0
ENDTAB
  0
TABLE
  2
APPID
  5
9
330
0
100
AcDbSymbolTable
 70
     2
  0
APPID
  5
12
330
9
100
AcDbSymbolTableRecord
100
AcDbRegAppTableRecord
  2
ACAD
 70
     0
  0
APPID
  5
1CB
330
9
100
AcDbSymbolTableRecord
100
AcDbRegAppTableRecord
  2
CONTENTBLOCKICON
 70
     0
  0
ENDTAB
  0
TABLE
  2
DIMSTYLE
  5
A
330
0
100
AcDbSymbolTable
 70
     2
  0
DIMSTYLE
105
27
330
A
100
AcDbSymbolTableRecord
100
AcDbDimStyleTableRecord
  2
ISO-25
 70
     0
  3

  4

  5

  6

  7

 40
1.0
 41
2.5
 42
0.625
 43
3.75
 44
1.25
 45
0.0
 46
0.0
 47
0.0
 48
0.0
140
2.5
141
2.5
142
0.0
143
0.03937007874016
144
1.0
145
0.0
146
1.0
147
0.625
 71
     0
 72
     0
 73
     0
 74
     0
 75
     0
 76
     0
 77
     1
 78
     8
170
     0
171
     3
172
     1
173
     0
174
     0
175
     0
176
     0
177
     0
178
     0
270
     2
271
     2
272
     2
273
     2
274
     3
340
11
275
     0
280
     0
281
     0
282
     0
283
     0
284
     8
285
     0
286
     0
287
     3
288
     0
  0
DIMSTYLE
105
61
330
A
100
AcDbSymbolTableRecord
100
AcDbDimStyleTableRecord
  2
STANDARD
 70
     0
  3

  4

  5

  6

  7

 40
1.0
 41
4.0
 42
2.0
 43
7.0
 44
2.0
 45
0.0
 46
0.0
 47
0.0
 48
0.0
140
5.0
141
0.09
142
0.0
143
25.4
144
1.0
145
0.0
146
1.0
147
2.0
 71
     0
 72
     0
 73
     0
 74
     0
 75
     0
 76
     0
 77
     1
 78
     8
170
     0
171
     2
172
     1
173
     0
174
     0
175
     0
176
     1
177
     1
178
     1
270
     2
271
     1
272
     0
273
     2
274
     2
340
5F
275
     0
280
     0
281
     0
282
     0
283
     1
284
     0
285
     0
286
     0
287
     3
288
     0
  0
ENDTAB
  0
TABLE
  2
BLOCK_RECORD
  5
1
330
0
100
AcDbSymbolTable
 70
    10
  0
BLOCK_RECORD
  5
1F
102
{ACAD_XDICTIONARY
360
13C
102
}
330
1
100
AcDbSymbolTableRecord
100
AcDbBlockTableRecord
  2
*MODEL_SPACE
  0
BLOCK_RECORD
  5
50
102
{ACAD_XDICTIONARY
360
13E
102
}
330
1
100
AcDbSymbolTableRecord
100
AcDbBlockTableRecord
  2
*PAPER_SPACE
  0
BLOCK_RECORD
  5
14A
330
1
100
AcDbSymbolTableRecord
100
AcDbBlockTableRecord
  2
ADKD0
1001
ACAD
1000
DesignCenter Data
1002
{
1070
     1
1070
     4
1002
}
1001
CONTENTBLOCKICON
1071
        0
1004
28000000200000002000000001000800000000000004000000000000000000000000000000000000000000004000000080000000FF000000002000004020000080200000FF200000004000004040000080400000FF400000006000004060000080600000FF600000008000004080000080800000FF80000000A0000040A000
1004
0080A00000FFA0000000C0000040C0000080C00000FFC0000000FF000040FF000080FF0000FFFF0000000020004000200080002000FF002000002020004020200080202000FF202000004020004040200080402000FF402000006020004060200080602000FF602000008020004080200080802000FF80200000A0200040A0
1004
200080A02000FFA0200000C0200040C0200080C02000FFC0200000FF200040FF200080FF2000FFFF2000000040004000400080004000FF004000002040004020400080204000FF204000004040004040400080404000FF404000006040004060400080604000FF604000008040004080400080804000FF80400000A0400040
1004
A0400080A04000FFA0400000C0400040C0400080C04000FFC0400000FF400040FF400080FF4000FFFF4000000060004000600080006000FF006000002060004020600080206000FF206000004060004040600080406000FF406000006060004060600080606000FF606000008060004080600080806000FF80600000A06000
1004
40A0600080A06000FFA0600000C0600040C0600080C06000FFC0600000FF600040FF600080FF6000FFFF6000000080004000800080008000FF008000002080004020800080208000FF208000004080004040800080408000FF408000006080004060800080608000FF608000008080004080800080808000FF80800000A080
1004
0040A0800080A08000FFA0800000C0800040C0800080C08000FFC0800000FF800040FF800080FF8000FFFF80000000A0004000A0008000A000FF00A0000020A0004020A0008020A000FF20A0000040A0004040A0008040A000FF40A0000060A0004060A0008060A000FF60A0000080A0004080A0008080A000FF80A00000A0
1004
A00040A0A00080A0A000FFA0A00000C0A00040C0A00080C0A000FFC0A00000FFA00040FFA00080FFA000FFFFA0000000C0004000C0008000C000FF00C0000020C0004020C0008020C000FF20C0000040C0004040C0008040C000FF40C0000060C0004060C0008060C000FF60C0000080C0004080C0008080C000FF80C00000
1004
A0C00040A0C00080A0C000FFA0C00000C0C00040C0C00080C0C000FFC0C00000FFC00040FFC00080FFC000FFFFC0000000FF004000FF008000FF00FF00FF000020FF004020FF008020FF00FF20FF000040FF004040FF008040FF00FF40FF000060FF004060FF008060FF00FF60FF000080FF004080FF008080FF00FF80FF00
1004
00A0FF0040A0FF0080A0FF00FFA0FF0000C0FF0040C0FF0080C0FF00FFC0FF0000FFFF0040FFFF0080FFFF00FFFFFF0000000000000000000000000000000000000000000000000000000000000000000000000000000000000000000000000000000000000000000000000000000000000000000000000000000000000000
1004
00000000000000000000000000000000000000000000000000000000000000000000000000000000000000000000000000000000000000000000000000000000000000000000000000000000000000000000000000000000000000000000FFFFFF000000000000000000000000000000000000000000000000000000FFFF00
1004
0000FFFFFF00000000000000000000000000000000000000000000FFFF0000000000000000FF00000000000000000000000000000000000000FFFF0000000000000000000000FF0000000000000000000000000000000000FF0000000000000000000000000000FFFFFFFFFFFFFFFFFFFF00000000000000FF000000000000
1004
1C1C1C1C00000000000000000000000000FF00000000000000FF0000001C1C1C1C001C1C1C1C0000000000000000000000FF000000000000FF000000001C1C1C1C001C1C1C1CFCFCFCFCFCFC0000000000FF000000000000FF000000001C1C1C1C1C1C1C1C1CFCFCFCFCFCFC0000000000FF0000000000FF00000000001C1C
1004
1C1C1C1C1C1C1C0000000000000000000000FF0000000000FF00000000000049000000000000000000000000000000000000FF00000000FF000000000000004900000000000000000000FFFFFFFFFFFFFFFFFF00000000FF000000000000004900000000000000000000FF0000000000000000000000FF00000000000000FC
1004
49FC0000000000000000FF0000000000000000000000FFFF0000000000FCFC0000FCFCFC000000000000FF0000000000000000000000FF0000000000E0E000000000FCE0000000000000FF0000000000000000000000FFFF0000000000000000000000000000000000FF00000000000000000000000000FF00000000000000
1004
00000000000000000000FF00000000000000000000000000FF00000000000000000000000000000000FF000000000000000000000000000000FFFF00000000000000000000000000FFFF00000000000000000000000000000000FFFF00000000000000000000FFFF00000000000000000000000000000000000000FFFFFFFF
1004
FFFFFFFFFFFFFFFF0000000000000000000000000000000000000000000000000000000000000000000000000000000000000000000000000000000000000000000000000000000000000000000000000000000000000000000000000000000000000000000000000000000000000000000000000000000000000000000000
1004
0000000000000000000000000000000000000000000000000000000000000000000000000000000000000000000000000000000000000000
  0
BLOCK_RECORD
  5
2F5
330
1
100
AcDbSymbolTableRecord
100
AcDbBlockTableRecord
  2
1
1001
CONTENTBLOCKICON
1071
        0
1004
28000000200000002000000001000800000000000004000000000000000000000000000000000000000000004000000080000000FF000000002000004020000080200000FF200000004000004040000080400000FF400000006000004060000080600000FF600000008000004080000080800000FF80000000A0000040A000
1004
0080A00000FFA0000000C0000040C0000080C00000FFC0000000FF000040FF000080FF0000FFFF0000000020004000200080002000FF002000002020004020200080202000FF202000004020004040200080402000FF402000006020004060200080602000FF602000008020004080200080802000FF80200000A0200040A0
1004
200080A02000FFA0200000C0200040C0200080C02000FFC0200000FF200040FF200080FF2000FFFF2000000040004000400080004000FF004000002040004020400080204000FF204000004040004040400080404000FF404000006040004060400080604000FF604000008040004080400080804000FF80400000A0400040
1004
A0400080A04000FFA0400000C0400040C0400080C04000FFC0400000FF400040FF400080FF4000FFFF4000000060004000600080006000FF006000002060004020600080206000FF206000004060004040600080406000FF406000006060004060600080606000FF606000008060004080600080806000FF80600000A06000
1004
40A0600080A06000FFA0600000C0600040C0600080C06000FFC0600000FF600040FF600080FF6000FFFF6000000080004000800080008000FF008000002080004020800080208000FF208000004080004040800080408000FF408000006080004060800080608000FF608000008080004080800080808000FF80800000A080
1004
0040A0800080A08000FFA0800000C0800040C0800080C08000FFC0800000FF800040FF800080FF8000FFFF80000000A0004000A0008000A000FF00A0000020A0004020A0008020A000FF20A0000040A0004040A0008040A000FF40A0000060A0004060A0008060A000FF60A0000080A0004080A0008080A000FF80A00000A0
1004
A00040A0A00080A0A000FFA0A00000C0A00040C0A00080C0A000FFC0A00000FFA00040FFA00080FFA000FFFFA0000000C0004000C0008000C000FF00C0000020C0004020C0008020C000FF20C0000040C0004040C0008040C000FF40C0000060C0004060C0008060C000FF60C0000080C0004080C0008080C000FF80C00000
1004
A0C00040A0C00080A0C000FFA0C00000C0C00040C0C00080C0C000FFC0C00000FFC00040FFC00080FFC000FFFFC0000000FF004000FF008000FF00FF00FF000020FF004020FF008020FF00FF20FF000040FF004040FF008040FF00FF40FF000060FF004060FF008060FF00FF60FF000080FF004080FF008080FF00FF80FF00
1004
00A0FF0040A0FF0080A0FF00FFA0FF0000C0FF0040C0FF0080C0FF00FFC0FF0000FFFF0040FFFF0080FFFF00FFFFFF0000000000000000000000000000000000000000000000000000000000000000000000000000000000000000000000000000000000000000000000000000000000000000000000000000000000000000
1004
00000000000000000000000000000000000000000000000000000000000000000000000000000000000000000000000000000000000000000000000000000000000000000000000000000000000000000000000000000000000000000000FFFFFFFF0000000000000000000000000000000000000000000000000000FFFF00
1004
000000FFFF00000000000000000000000000000000000000000000FFFF0000000000000000FF0000000000000000000000000000000000000000FF0000000000000000000000FF000000000000000000000000000000000000FF00000000000000000000000000FFFFFFFFFFFFFFFFFFFF00000000000000FF000000000000
1004
FFFFFFFF00000000000000000000000000FF00000000000000FF000000FFFFFFFF00FFFFFFFF0000000000000000000000FF000000000000FF00000000FFFFFFFF00FFFFFFFFFFFFFFFFFFFF0000000000FF000000000000FF00000000FFFFFFFFFFFFFFFFFFFFFFFFFFFFFF0000000000FF0000000000FF0000000000FFFF
1004
FFFFFFFFFFFFFF0000000000000000000000FF0000000000FF000000000000FF000000000000000000000000000000000000FF00000000FF00000000000000FF00000000000000000000FFFFFFFFFFFFFFFFFF00000000FF00000000000000FF00000000000000000000FF0000000000000000000000FF00000000000000FF
1004
FFFF0000000000000000FF000000000000000000000000FF0000000000FFFF0000FFFFFF000000000000FF0000000000000000000000FF0000000000FFFF00000000FFFF000000000000FF000000000000000000000000FF0000000000000000000000000000000000FF00000000000000000000000000FF00000000000000
1004
00000000000000000000FF0000000000000000000000000000FF000000000000000000000000000000FF000000000000000000000000000000FFFF0000000000000000000000000000FF0000000000000000000000000000000000FF00000000000000000000FFFFFF00000000000000000000000000000000000000FFFFFF
1004
FFFFFFFFFFFFFF000000000000000000000000000000000000000000000000000000000000000000000000000000000000000000000000000000000000000000000000000000000000000000000000000000000000000000000000000000000000000000000000000000000000000000000000000000000000000000000000
1004
0000000000000000000000000000000000000000000000000000000000000000000000000000000000000000000000000000000000000000
  0
BLOCK_RECORD
  5
381
330
1
100
AcDbSymbolTableRecord
100
AcDbBlockTableRecord
  2
*U2
  0
BLOCK_RECORD
  5
3A4
330
1
100
AcDbSymbolTableRecord
100
AcDbBlockTableRecord
  2
*U3
  0
BLOCK_RECORD
  5
3B5
330
1
100
AcDbSymbolTableRecord
100
AcDbBlockTableRecord
  2
*U4
  0
BLOCK_RECORD
  5
3C9
330
1
100
AcDbSymbolTableRecord
100
AcDbBlockTableRecord
  2
*U5
  0
BLOCK_RECORD
  5
3D0
330
1
100
AcDbSymbolTableRecord
100
AcDbBlockTableRecord
  2
*U6
  0
BLOCK_RECORD
  5
3E0
330
1
100
AcDbSymbolTableRecord
100
AcDbBlockTableRecord
  2
*U7
  0
BLOCK_RECORD
  5
3E7
330
1
100
AcDbSymbolTableRecord
100
AcDbBlockTableRecord
  2
*U8
  0
BLOCK_RECORD
  5
3EE
330
1
100
AcDbSymbolTableRecord
100
AcDbBlockTableRecord
  2
*U9
  0
ENDTAB
  0
ENDSEC
  0
SECTION
  2
BLOCKS
  0
BLOCK
  5
20
330
1F
100
AcDbEntity
  8
0
100
AcDbBlockBegin
  2
*MODEL_SPACE
 70
     0
 10
0.0
 20
0.0
 30
0.0
  3
*MODEL_SPACE
  1

  0
ENDBLK
  5
21
330
1F
100
AcDbEntity
  8
0
100
AcDbBlockEnd
  0
BLOCK
  5
52
330
50
100
AcDbEntity
 67
     1
  8
0
100
AcDbBlockBegin
  2
*PAPER_SPACE
 70
     0
 10
0.0
 20
0.0
 30
0.0
  3
*PAPER_SPACE
  1

  0
ENDBLK
  5
53
330
50
100
AcDbEntity
 67
     1
  8
0
100
AcDbBlockEnd
  0
BLOCK
  5
14B
330
14A
100
AcDbEntity
  8
0
100
AcDbBlockBegin
  2
ADKD0
 70
     0
 10
0.0
 20
0.0
 30
0.0
  3
ADKD0
  1

  0
INSERT
  5
33F
330
14A
100
AcDbEntity
  8
HATCH
  6
CONTINUOUS
 62
     3
100
AcDbBlockReference
  2
*U2
 10
0.0
 20
0.0
 30
0.0
1001
ACAD
1002
{
1000
R14_HATCH_DATA
1000
33F
1011
1.0
1021
0.0
1031
0.0
1011
0.0
1021
1.0
1031
0.0
1011
0.0
1021
0.0
1031
1.0
1040
0.0
1010
0.0
1020
0.0
1030
1.0
1000
SOLID
1070
     1
1070
     0
1071
        1
1071
        7
1070
     1
1070
     1
1071
       18
1040
3259.532972689751
1040
2876.782443143616
1040
0.0
1040
2913.9400778601
1040
2876.782443143616
1040
0.0
1040
2913.9400778601
1040
2797.581217209048
1040
0.0
1040
2913.9400778601
1040
2217.412274753038
1040
0.0
1040
2913.9400778601
1040
2146.656954025657
1040
0.0
1040
3126.266852714183
1040
2146.656954025658
1040
0.0
1040
3126.266852714183
1040
2108.557937694757
1040
0.0
1040
3278.757356901536
1040
2108.557937694757
1040
0.0
1040
3278.757356901536
1040
2141.214242091229
1040
0.0
1040
3752.567049478849
1040
2141.214242091229
1040
0.844652822925266
1040
4967.04478373373
1040
1907.177415776428
1040
0.0
1040
4858.797380012584
1040
1907.177415776428
1040
-0.8990080223738463
1040
3864.884881686965
1040
2241.214242091229
1040
0.0
1040
3838.548888334811
1040
2241.214242091229
1040
0.0
1040
3013.9400778601
1040
2241.214242091229
1040
0.0
1040
3013.9400778601
1040
2776.782443143615
1040
0.0
1040
4653.731644067888
1040
2776.782443143614
1040
0.0
1040
4653.731644067887
1040
2876.782443143616
1040
0.0
1071
        0
1070
     0
1070
     1
1040
3.446947199435031
1071
        1
1040
4425.907990933192
1040
2839.056613641764
1040
0.0
1002
}
  0
INSERT
  5
340
330
14A
100
AcDbEntity
  8
HATCH
  6
CONTINUOUS
 62
     3
100
AcDbBlockReference
  2
*U3
 10
0.0
 20
0.0
 30
0.0
1001
ACAD
1002
{
1000
R14_HATCH_DATA
1000
340
1011
1.0
1021
0.0
1031
0.0
1011
0.0
1021
1.0
1031
0.0
1011
0.0
1021
0.0
1031
1.0
1040
0.0
1010
0.0
1020
0.0
1030
1.0
1000
SOLID
1070
     1
1070
     0
1071
        8
1071
        7
1070
     0
1070
     1
1071
        5
1040
5546.425058556136
1040
2794.491117260181
1040
5546.425058556136
1040
2207.177415776429
1040
5846.425058556139
1040
1907.177415776427
1040
5846.425058556139
1040
2784.256258283571
1040
5846.425058556139
1040
3094.491117260181
1071
        0
1071
        7
1070
     0
1070
     1
1071
        4
1040
5546.425058556138
1040
2794.491117260182
1040
5846.425058556138
1040
3094.491117260182
1040
4653.731644067887
1040
3094.491117260182
1040
4953.731644067887
1040
2794.491117260182
1071
        0
1071
        7
1070
     0
1070
     1
1071
        3
1040
5546.425058556138
1040
2794.491117260182
1040
4953.731644067887
1040
2794.491117260182
1040
5250.078351312013
1040
2500.834266518305
1071
        0
1071
        7
1070
     0
1070
     1
1071
        3
1040
5250.078351312012
1040
2500.834266518305
1040
5546.425058556138
1040
2207.177415776429
1040
5546.425058556138
1040
2794.491117260182
1071
        0
1071
        7
1070
     0
1070
     1
1071
        3
1040
4953.731644067887
1040
2207.177415776428
1040
5546.425058556136
1040
2207.177415776428
1040
5250.078351312012
1040
2500.834266518304
1071
        0
1071
        7
1070
     0
1070
     1
1071
        3
1040
4953.731644067888
1040
2207.177415776427
1040
5250.078351312012
1040
2500.834266518304
1040
4953.731644067888
1040
2794.49111726018
1071
        0
1071
        7
1070
     0
1070
     1
1071
        5
1040
4653.731644067888
1040
1907.177415776429
1040
4953.731644067888
1040
2207.177415776428
1040
4953.731644067888
1040
2794.491117260182
1040
4653.731644067888
1040
3094.491117260182
1040
4653.731644067888
1040
2876.782443143616
1071
        0
1071
        7
1070
     0
1070
     1
1071
        4
1040
5846.425058556139
1040
1907.177415776428
1040
5546.425058556138
1040
2207.177415776428
1040
4953.731644067888
1040
2207.177415776428
1040
4653.731644067888
1040
1907.177415776428
1071
        0
1070
     0
1070
     1
1040
2.755480430891326
1071
        8
1040
5668.993496940387
1040
2839.243364090964
1040
0.0
1040
5495.291891510744
1040
2869.553644571502
1040
0.0
1040
5373.976479762936
1040
2718.002223570014
1040
0.0
1040
5437.39134724002
1040
2552.6733955869
1040
0.0
1040
5216.817871334908
1040
2357.034287123251
1040
0.0
1040
5051.387791788613
1040
2486.541864393655
1040
0.0
1040
4803.242617704094
1040
2525.118600222444
1040
0.0
1040
4999.001570724246
1040
2037.398553022567
1040
0.0
1002
}
  0
INSERT
  5
341
330
14A
100
AcDbEntity
  8
HATCH
  6
CONTINUOUS
 62
     2
100
AcDbBlockReference
  2
*U4
 10
0.0
 20
0.0
 30
0.0
1001
ACAD
1002
{
1000
R14_HATCH_DATA
1000
341
1011
1.0
1021
0.0
1031
0.0
1011
0.0
1021
1.0
1031
0.0
1011
0.0
1021
0.0
1031
1.0
1040
0.0
1010
0.0
1020
0.0
1030
1.0
1000
SOLID
1070
     1
1070
     0
1071
        5
1071
        7
1070
     0
1070
     1
1071
        4
1040
7698.095162750047
1040
2740.714530018237
1040
7698.095162750047
1040
2784.256258283571
1040
5846.425058556139
1040
2784.256258283571
1040
5846.425058556139
1040
2740.714530018236
1071
        0
1071
        7
1070
     0
1070
     1
1071
        5
1040
5846.425058556139
1040
2740.714530018237
1040
5846.425058556139
1040
2684.25625828357
1040
7567.59770987572
1040
2684.256258283569
1040
7578.281204667877
1040
2691.730073423523
1040
7616.403810778142
1040
2740.714530018237
1071
        0
1071
        7
1070
     0
1070
     1
1071
        9
1040
5846.425058556139
1040
2684.25625828357
1040
5846.425058556138
1040
2327.874971354733
1040
7569.347618934251
1040
2327.874971354732
1040
7523.820312213967
1040
2359.724350314253
1040
7502.035965865251
1040
2419.594230777826
1040
7502.035965865251
1040
2506.677703703436
1040
7502.035965865251
1040
2593.761176629048
1040
7523.820312213968
1040
2653.631057092622
1040
7567.59770987572
1040
2684.25625828357
1071
        0
1071
        7
1070
     0
1070
     1
1071
        5
1040
7617.356538441658
1040
2271.416699620067
1040
7578.281204667876
1040
2321.62533398335
1040
7569.347618934253
1040
2327.874971354733
1040
5846.425058556139
1040
2327.874971354733
1040
5846.425058556139
1040
2271.416699620067
1071
        0
1071
        7
1070
     0
1070
     1
1071
        4
1040
5846.425058556139
1040
2271.416699620067
1040
5846.425058556139
1040
2227.874971354733
1040
7687.947554074104
1040
2227.874971354733
1040
7687.947554074104
1040
2271.416699620067
1071
        0
1070
     0
1070
     1
1040
2.959461949037637
1071
        5
1040
7057.507013560353
1040
2758.787342511734
1040
0.0
1040
7051.584471453698
1040
2720.314332134114
1040
0.0
1040
7039.739359857853
1040
2625.611544511817
1040
0.0
1040
7004.204079835393
1040
2276.395030266112
1040
0.0
1040
7004.204079835393
1040
2255.67880535434
1040
0.0
1002
}
  0
INSERT
  5
342
330
14A
100
AcDbEntity
  8
HATCH
  6
CONTINUOUS
 62
     1
100
AcDbBlockReference
  2
*U5
 10
0.0
 20
0.0
 30
0.0
1001
ACAD
1002
{
1000
R14_HATCH_DATA
1000
342
1011
1.0
1021
0.0
1031
0.0
1011
0.0
1021
1.0
1031
0.0
1011
0.0
1021
0.0
1031
1.0
1040
0.0
1010
0.0
1020
0.0
1030
1.0
1000
SOLID
1070
     1
1070
     0
1071
        2
1071
        7
1070
     0
1070
     1
1071
        4
1040
4328.036316171966
1040
5181.491159437551
1040
4257.05233647237
1040
5079.514854719251
1040
4376.866267972448
1040
5003.316822057444
1040
4447.850247672042
1040
5105.293126775745
1071
        0
1071
        7
1070
     0
1070
     1
1071
        4
1040
2020.966386061427
1040
5003.316822057442
1040
2140.780317561503
1040
5079.514854719251
1040
2069.796337861906
1040
5181.491159437553
1040
1949.982406361829
1040
5105.293126775745
1071
        0
1070
     0
1070
     1
1040
4.095125391011505
1071
        2
1040
4359.1381325572
1040
5094.114933481241
1040
0.0
1040
2011.193933979957
1040
5090.019796128794
1040
0.0
1002
}
  0
INSERT
  5
343
330
14A
100
AcDbEntity
  8
HATCH
  6
CONTINUOUS
 62
   251
100
AcDbBlockReference
  2
*U6
 10
0.0
 20
0.0
 30
0.0
1001
ACAD
1002
{
1000
R14_HATCH_DATA
1000
343
1011
1.0
1021
0.0
1031
0.0
1011
0.0
1021
1.0
1031
0.0
1011
0.0
1021
0.0
1031
1.0
1040
0.0
1010
0.0
1020
0.0
1030
1.0
1000
SOLID
1070
     1
1070
     0
1071
        1
1071
        7
1070
     1
1070
     1
1071
        7
1040
3864.884881686979
1040
2241.214242091295
1040
0.8990080223739047
1040
4858.797380012584
1040
1907.177415776428
1040
0.0
1040
4653.731644067888
1040
1907.177415776428
1040
0.0
1040
4653.731644067888
1040
2776.782443143615
1040
0.0
1040
3013.9400778601
1040
2776.782443143615
1040
0.0
1040
3013.9400778601
1040
2241.214242091229
1040
0.0
1040
3838.548888334811
1040
2241.214242091229
1040
0.0
1071
        0
1070
     0
1070
     1
1040
5.57951830939697
1071
        1
1040
3874.079636627214
1040
2503.631994834997
1040
0.0
1002
}
  0
INSERT
  5
344
330
14A
100
AcDbEntity
  8
HATCH
  6
CONTINUOUS
 62
     2
100
AcDbBlockReference
  2
*U7
 10
0.0
 20
0.0
 30
0.0
1001
ACAD
1002
{
1000
R14_HATCH_DATA
1000
344
1011
1.0
1021
0.0
1031
0.0
1011
0.0
1021
1.0
1031
0.0
1011
0.0
1021
0.0
1031
1.0
1040
0.0
1010
0.0
1020
0.0
1030
1.0
1000
SOLID
1070
     1
1070
     0
1071
        2
1071
        7
1070
     0
1070
     1
1071
        4
1040
2913.9400778601
1040
2876.782443143616
1040
2864.85461678321
1040
2876.782443143616
1040
2864.85461678321
1040
2797.581217209048
1040
2913.9400778601
1040
2797.581217209048
1071
        0
1071
        7
1070
     0
1070
     1
1071
        4
1040
2913.9400778601
1040
2217.412274753038
1040
2864.85461678321
1040
2217.412274753038
1040
2864.85461678321
1040
2146.656954025657
1040
2913.9400778601
1040
2146.656954025657
1071
        0
1070
     0
1070
     1
1040
2.417081411970823
1071
        2
1040
2878.810988054785
1040
2834.319613451722
1040
0.0
1040
2883.649291123601
1040
2172.03930330628
1040
0.0
1002
}
  0
INSERT
  5
345
330
14A
100
AcDbEntity
  8
HATCH
  6
CONTINUOUS
 62
   251
100
AcDbBlockReference
  2
*U8
 10
0.0
 20
0.0
 30
0.0
1001
ACAD
1002
{
1000
R14_HATCH_DATA
1000
345
1011
1.0
1021
0.0
1031
0.0
1011
0.0
1021
1.0
1031
0.0
1011
0.0
1021
0.0
1031
1.0
1040
0.0
1010
0.0
1020
0.0
1030
1.0
1000
SOLID
1070
     1
1070
     0
1071
        1
1071
        7
1070
     0
1070
     1
1071
        4
1040
3259.532972689751
1040
4511.975356290601
1040
3137.655872200339
1040
4511.975356290601
1040
3137.655872200339
1040
2876.782443143616
1040
3259.532972689751
1040
2876.782443143616
1071
        0
1070
     0
1070
     1
1040
4.319881211133888
1071
        1
1040
3185.903349221007
1040
3943.24790972503
1040
0.0
1002
}
  0
INSERT
  5
346
330
14A
100
AcDbEntity
  8
HATCH
  6
CONTINUOUS
 62
     2
100
AcDbBlockReference
  2
*U9
 10
0.0
 20
0.0
 30
0.0
1001
ACAD
1002
{
1000
R14_HATCH_DATA
1000
346
1011
1.0
1021
0.0
1031
0.0
1011
0.0
1021
1.0
1031
0.0
1011
0.0
1021
0.0
1031
1.0
1040
0.0
1010
0.0
1020
0.0
1030
1.0
1000
SOLID
1070
     1
1070
     0
1071
        2
1071
        7
1070
     1
1070
     1
1071
       11
1040
4199.161194144869
1040
4848.65711734806
1040
0.1103683208211134
1040
4295.535925194108
1040
4937.162129308571
1040
0.0
1040
4350.740750603254
1040
5016.469941038325
1040
0.0
1040
4293.150899600433
1040
5056.557261575966
1040
0.0
1040
4256.200795428163
1040
5003.474367401948
1040
-0.1124445043418377
1040
4157.689141588884
1040
4913.748929233909
1040
0.0
1040
3426.962809532165
1040
4500.386327124727
1040
-0.1461747253261146
1040
3259.532972689751
1040
4462.151412883561
1040
0.0
1040
3259.53297268975
1040
4392.297223962486
1040
0.0
1040
3327.357182184459
1040
4392.297223962486
1040
0.1315028299852904
1040
3477.204264058851
1040
4432.401375489049
1040
0.0
1071
        0
1071
        7
1070
     1
1070
     1
1071
       11
1040
2920.628389975048
1040
4432.401375489045
1040
0.1315028299852927
1040
3070.475471849428
1040
4392.297223962486
1040
0.0
1040
3137.655872200339
1040
4392.297223962487
1040
0.0
1040
3137.655872200339
1040
4462.109697353058
1040
-0.1456256480237513
1040
2970.869844501705
1040
4500.386327124728
1040
0.0
1040
2240.143512444988
1040
4913.748929233911
1040
-0.1124445043418253
1040
2141.631858605717
1040
5003.474367401938
1040
0.0
1040
2103.011411544097
1040
5058.95689310111
1040
0.0
1040
2045.421560541282
1040
5018.869572563468
1040
0.0
1040
2102.296728839789
1040
4937.162129308552
1040
0.1103683208211018
1040
2198.671459889047
1040
4848.657117348028
1040
0.0
1071
        0
1070
     0
1070
     1
1040
3.819941570429333
1071
        2
1040
3881.962090590881
1040
4689.453695429292
1040
0.0
1040
2830.577459688939
1040
4517.556309894956
1040
0.0
1002
}
  0
INSERT
  5
347
330
14A
100
AcDbEntity
  8
OBJECT
100
AcDbBlockReference
  2
1
 10
0.0
 20
0.0
 30
0.0
  0
ENDBLK
  5
14C
330
14A
100
AcDbEntity
  8
0
100
AcDbBlockEnd
  0
BLOCK
  5
2F6
330
2F5
100
AcDbEntity
  8
0
100
AcDbBlockBegin
  2
1
 70
     0
 10
0.0
 20
0.0
 30
0.0
  3
1
  1

  0
LINE
  5
2F8
330
2F5
100
AcDbEntity
  8
OBJECT
  6
CONTINUOUS
 62
     7
 48
5.0
100
AcDbLine
 10
4953.731644067888
 20
2794.491117260182
 30
0.0
 11
4953.731644067888
 21
2207.177415776428
 31
0.0
  0
LINE
  5
2F9
330
2F5
100
AcDbEntity
  8
OBJECT
  6
CONTINUOUS
 62
     7
 48
5.0
100
AcDbLine
 10
5546.425058556138
 20
2794.491117260182
 30
0.0
 11
4953.731644067888
 21
2207.177415776428
 31
0.0
  0
LINE
  5
2FA
330
2F5
100
AcDbEntity
  8
OBJECT
  6
CONTINUOUS
 62
     7
 48
5.0
100
AcDbLine
 10
5546.425058556138
 20
2207.177415776428
 30
0.0
 11
4953.731644067888
 21
2794.491117260182
 31
0.0
  0
LINE
  5
2FB
330
2F5
100
AcDbEntity
  8
OBJECT
  6
CONTINUOUS
 62
     7
 48
5.0
100
AcDbLine
 10
4653.731644067888
 20
3094.491117260182
 30
0.0
 11
4953.731644067888
 21
2794.491117260182
 31
0.0
  0
LINE
  5
2FC
330
2F5
100
AcDbEntity
  8
OBJECT
  6
CONTINUOUS
 62
     7
 48
5.0
100
AcDbLine
 10
5846.425058556139
 20
3094.491117260182
 30
0.0
 11
4653.731644067888
 21
3094.491117260182
 31
0.0
  0
LINE
  5
2FD
330
2F5
100
AcDbEntity
  8
OBJECT
  6
CONTINUOUS
 62
     7
 48
5.0
100
AcDbLine
 10
4653.731644067888
 20
1907.177415776428
 30
0.0
 11
5846.425058556139
 21
1907.177415776428
 31
0.0
  0
LINE
  5
2FE
330
2F5
100
AcDbEntity
  8
OBJECT
  6
CONTINUOUS
 62
     7
 48
5.0
100
AcDbLine
 10
4953.731644067888
 20
2207.177415776428
 30
0.0
 11
4653.731644067888
 21
1907.177415776428
 31
0.0
  0
ARC
  5
2FF
330
2F5
100
AcDbEntity
  8
OBJECT
  6
CONTINUOUS
 62
     7
 48
5.0
100
AcDbCircle
 10
4379.656075046905
 20
2127.203444560661
 30
0.0
 40
627.2455248428131
100
AcDbArc
 50
178.7200764222861
 51
339.4648869002396
  0
ARC
  5
300
330
2F5
100
AcDbEntity
  8
OBJECT
  6
CONTINUOUS
 62
     7
 48
5.0
100
AcDbCircle
 10
4379.656075046905
 20
2127.203444560661
 30
0.0
 40
527.2455248428131
100
AcDbArc
 50
167.5118006900444
 51
335.334983990824
  0
POLYLINE
  5
301
330
2F5
100
AcDbEntity
  8
SAFETY
  6
CONTINUOUS
 62
     0
100
AcDb2dPolyline
 66
     1
 10
0.0
 20
0.0
 30
0.0
  0
VERTEX
  5
34E
330
301
100
AcDbEntity
  8
SAFETY
  6
CONTINUOUS
 62
     0
100
AcDbVertex
100
AcDb2dVertex
 10
174.251700951183
 20
4299.513714118783
 30
0.0
  0
VERTEX
  5
34F
330
301
100
AcDbEntity
  8
SAFETY
  6
CONTINUOUS
 62
     0
100
AcDbVertex
100
AcDb2dVertex
 10
1491.164241980148
 20
1544.183092208049
 30
0.0
 42
0.1579382655114341
  0
VERTEX
  5
350
330
301
100
AcDbEntity
  8
SAFETY
  6
CONTINUOUS
 62
     0
100
AcDbVertex
100
AcDb2dVertex
 10
2105.387643452337
 20
853.130797962458
 30
0.0
  0
VERTEX
  5
351
330
301
100
AcDbEntity
  8
SAFETY
  6
CONTINUOUS
 62
     0
100
AcDbVertex
100
AcDb2dVertex
 10
3466.164198128513
 20
206.0823880501957
 30
0.0
 42
0.2637696024970626
  0
VERTEX
  5
352
330
301
100
AcDbEntity
  8
SAFETY
  6
CONTINUOUS
 62
     0
100
AcDbVertex
100
AcDb2dVertex
 10
5559.152018254735
 20
356.9032319074385
 30
0.0
  0
VERTEX
  5
353
330
301
100
AcDbEntity
  8
SAFETY
  6
CONTINUOUS
 62
     0
100
AcDbVertex
100
AcDb2dVertex
 10
6373.654179849583
 20
822.9384408034951
 30
0.0
 42
0.1028800283091593
  0
VERTEX
  5
354
330
301
100
AcDbEntity
  8
SAFETY
  6
CONTINUOUS
 62
     0
100
AcDbVertex
100
AcDb2dVertex
 10
6830.95224034254
 20
1227.874971354733
 30
0.0
  0
VERTEX
  5
355
330
301
100
AcDbEntity
  8
SAFETY
  6
CONTINUOUS
 62
     0
100
AcDbVertex
100
AcDb2dVertex
 10
9698.095162750048
 20
1227.874971354733
 30
0.0
  0
VERTEX
  5
356
330
301
100
AcDbEntity
  8
SAFETY
  6
CONTINUOUS
 62
     0
100
AcDbVertex
100
AcDb2dVertex
 10
9698.095162750048
 20
3784.256258283571
 30
0.0
  0
VERTEX
  5
357
330
301
100
AcDbEntity
  8
SAFETY
  6
CONTINUOUS
 62
     0
100
AcDbVertex
100
AcDb2dVertex
 10
6913.885734240311
 20
3784.256258283571
 30
0.0
  0
VERTEX
  5
358
330
301
100
AcDbEntity
  8
SAFETY
  6
CONTINUOUS
 62
     0
100
AcDbVertex
100
AcDb2dVertex
 10
6326.594440095425
 20
5627.615115050616
 30
0.0
 42
0.3368441498398841
  0
VERTEX
  5
359
330
301
100
AcDbEntity
  8
SAFETY
  6
CONTINUOUS
 62
     0
100
AcDbVertex
100
AcDb2dVertex
 10
4447.850247672042
 20
7055.293126775743
 30
0.0
  0
VERTEX
  5
35A
330
301
100
AcDbEntity
  8
SAFETY
  6
CONTINUOUS
 62
     0
100
AcDbVertex
100
AcDb2dVertex
 10
1949.98240636183
 20
7055.293126775743
 30
0.0
 42
0.5582154982251294
  0
VERTEX
  5
35B
330
301
100
AcDbEntity
  8
SAFETY
  6
CONTINUOUS
 62
     0
100
AcDbVertex
100
AcDb2dVertex
 10
207.659427308903
 20
4229.61588220208
 30
0.0
  0
SEQEND
  5
35C
330
301
100
AcDbEntity
  8
SAFETY
  6
CONTINUOUS
 62
     0
  0
LINE
  5
302
330
2F5
100
AcDbEntity
  8
OBJECT
  6
CONTINUOUS
 62
     7
 48
5.0
100
AcDbLine
 10
3259.532972689751
 20
2876.782443143616
 30
0.0
 11
3259.532972689751
 21
4511.975356290601
 31
0.0
  0
LINE
  5
303
330
2F5
100
AcDbEntity
  8
OBJECT
  6
CONTINUOUS
 62
     7
 48
5.0
100
AcDbLine
 10
3137.655872200339
 20
4511.975356290601
 30
0.0
 11
3137.655872200339
 21
2876.782443143616
 31
0.0
  0
LINE
  5
304
330
2F5
100
AcDbEntity
  8
OBJECT
  6
CONTINUOUS
 62
     7
 48
5.0
100
AcDbLine
 10
3013.9400778601
 20
2241.214242091229
 30
0.0
 11
3838.548888334811
 21
2241.214242091229
 31
0.0
  0
LINE
  5
305
330
2F5
100
AcDbEntity
  8
OBJECT
  6
CONTINUOUS
 62
     7
 48
5.0
100
AcDbLine
 10
3278.757356901536
 20
2141.214242091229
 30
0.0
 11
3752.56704947885
 21
2141.214242091229
 31
0.0
  0
LINE
  5
306
330
2F5
100
AcDbEntity
  8
OBJECT
  6
CONTINUOUS
 62
     7
 48
5.0
100
AcDbLine
 10
4653.731644067888
 20
2876.782443143616
 30
0.0
 11
3259.532972689751
 21
2876.782443143616
 31
0.0
  0
LINE
  5
307
330
2F5
100
AcDbEntity
  8
OBJECT
  6
CONTINUOUS
 62
     7
 48
5.0
100
AcDbLine
 10
4653.731644067888
 20
2776.782443143615
 30
0.0
 11
3013.9400778601
 21
2776.782443143615
 31
0.0
  0
LINE
  5
308
330
2F5
100
AcDbEntity
  8
OBJECT
  6
CONTINUOUS
 62
     7
 48
5.0
100
AcDbLine
 10
3013.9400778601
 20
2776.782443143615
 30
0.0
 11
3013.9400778601
 21
2241.214242091229
 31
0.0
  0
LINE
  5
309
330
2F5
100
AcDbEntity
  8
OBJECT
  6
CONTINUOUS
 62
     7
 48
5.0
100
AcDbLine
 10
2913.9400778601
 20
2217.412274753038
 30
0.0
 11
2913.9400778601
 21
2797.581217209048
 31
0.0
  0
LINE
  5
30A
330
2F5
100
AcDbEntity
  8
OBJECT
  6
CONTINUOUS
 62
     7
 48
5.0
100
AcDbLine
 10
2913.9400778601
 20
2797.581217209048
 30
0.0
 11
2913.9400778601
 21
2217.412274753038
 31
0.0
  0
LINE
  5
30B
330
2F5
100
AcDbEntity
  8
OBJECT
  6
CONTINUOUS
 62
     7
 48
5.0
100
AcDbLine
 10
2864.85461678321
 20
2146.656954025658
 30
0.0
 11
3126.266852714183
 21
2146.656954025658
 31
0.0
  0
LINE
  5
30C
330
2F5
100
AcDbEntity
  8
OBJECT
  6
CONTINUOUS
 62
     7
 48
5.0
100
AcDbLine
 10
2864.85461678321
 20
2217.412274753038
 30
0.0
 11
2864.85461678321
 21
2146.656954025658
 31
0.0
  0
LINE
  5
30D
330
2F5
100
AcDbEntity
  8
OBJECT
  6
CONTINUOUS
 62
     7
 48
5.0
100
AcDbLine
 10
2913.9400778601
 20
2217.412274753038
 30
0.0
 11
2864.85461678321
 21
2217.412274753038
 31
0.0
  0
LINE
  5
30E
330
2F5
100
AcDbEntity
  8
OBJECT
  6
CONTINUOUS
 62
     7
 48
5.0
100
AcDbLine
 10
3126.266852714183
 20
2108.557937694757
 30
0.0
 11
3278.757356901536
 21
2108.557937694757
 31
0.0
  0
LINE
  5
30F
330
2F5
100
AcDbEntity
  8
OBJECT
  6
CONTINUOUS
 62
     7
 48
5.0
100
AcDbLine
 10
3126.266852714183
 20
2146.656954025658
 30
0.0
 11
3126.266852714183
 21
2108.557937694757
 31
0.0
  0
LINE
  5
310
330
2F5
100
AcDbEntity
  8
OBJECT
  6
CONTINUOUS
 62
     7
 48
5.0
100
AcDbLine
 10
3278.757356901536
 20
2108.557937694757
 30
0.0
 11
3278.757356901536
 21
2141.214242091229
 31
0.0
  0
LINE
  5
311
330
2F5
100
AcDbEntity
  8
OBJECT
  6
CONTINUOUS
 62
     7
 48
5.0
100
AcDbLine
 10
3259.532972689751
 20
2876.782443143616
 30
0.0
 11
2864.85461678321
 21
2876.782443143616
 31
0.0
  0
LINE
  5
312
330
2F5
100
AcDbEntity
  8
OBJECT
  6
CONTINUOUS
 62
     7
 48
5.0
100
AcDbLine
 10
2864.85461678321
 20
2797.581217209048
 30
0.0
 11
2864.85461678321
 21
2876.782443143616
 31
0.0
  0
LINE
  5
313
330
2F5
100
AcDbEntity
  8
OBJECT
  6
CONTINUOUS
 62
     7
 48
5.0
100
AcDbLine
 10
2913.9400778601
 20
2797.581217209048
 30
0.0
 11
2864.85461678321
 21
2797.581217209048
 31
0.0
  0
LINE
  5
314
330
2F5
100
AcDbEntity
  8
OBJECT
  6
CONTINUOUS
 62
     7
 48
5.0
100
AcDbLine
 10
2864.85461678321
 20
2797.581217209048
 30
0.0
 11
2913.9400778601
 21
2797.581217209048
 31
0.0
  0
LINE
  5
315
330
2F5
100
AcDbEntity
  8
OBJECT
  6
CONTINUOUS
 62
     7
 48
5.0
100
AcDbLine
 10
4653.731644067888
 20
2876.782443143616
 30
0.0
 11
4653.731644067888
 21
1907.177415776428
 31
0.0
  0
LINE
  5
316
330
2F5
100
AcDbEntity
  8
OBJECT
  6
CONTINUOUS
 62
     7
 48
5.0
100
AcDbLine
 10
3838.548888334811
 20
2241.214242091229
 30
0.0
 11
3864.884881686965
 21
2241.214242091229
 31
0.0
  0
LINE
  5
317
330
2F5
100
AcDbEntity
  8
OBJECT
  6
CONTINUOUS
 62
     7
 48
5.0
100
AcDbLine
 10
4653.731644067888
 20
3094.491117260182
 30
0.0
 11
4653.731644067888
 21
2876.782443143616
 31
0.0
  0
LINE
  5
318
330
2F5
100
AcDbEntity
  8
OBJECT
  6
CONTINUOUS
 62
     7
 48
5.0
100
AcDbLine
 10
3259.532972689751
 20
4511.975356290601
 30
0.0
 11
3137.655872200339
 21
4511.975356290601
 31
0.0
  0
LINE
  5
319
330
2F5
100
AcDbEntity
  8
OBJECT
  6
CONTINUOUS
 62
     7
 48
5.0
100
AcDbLine
 10
2069.796337861907
 20
5181.491159437552
 30
0.0
 11
2140.780317561504
 21
5079.51485471925
 31
0.0
  0
LINE
  5
31A
330
2F5
100
AcDbEntity
  8
OBJECT
  6
CONTINUOUS
 62
     7
 48
5.0
100
AcDbLine
 10
2069.796337861907
 20
5181.491159437552
 30
0.0
 11
1949.98240636183
 21
5105.293126775745
 31
0.0
  0
LINE
  5
31B
330
2F5
100
AcDbEntity
  8
OBJECT
  6
CONTINUOUS
 62
     7
 48
5.0
100
AcDbLine
 10
1949.98240636183
 20
5105.293126775745
 30
0.0
 11
2020.966386061428
 21
5003.316822057444
 31
0.0
  0
LINE
  5
31C
330
2F5
100
AcDbEntity
  8
OBJECT
  6
CONTINUOUS
 62
     7
 48
5.0
100
AcDbLine
 10
2140.780317561504
 20
5079.51485471925
 30
0.0
 11
2020.957285489268
 21
5003.311034369101
 31
0.0
  0
LINE
  5
31D
330
2F5
100
AcDbEntity
  8
OBJECT
  6
CONTINUOUS
 62
     7
 48
5.0
100
AcDbLine
 10
4328.036316171966
 20
5181.491159437552
 30
0.0
 11
4257.05233647237
 21
5079.51485471925
 31
0.0
  0
LINE
  5
31E
330
2F5
100
AcDbEntity
  8
OBJECT
  6
CONTINUOUS
 62
     7
 48
5.0
100
AcDbLine
 10
4328.036316171966
 20
5181.491159437552
 30
0.0
 11
4447.850247672043
 21
5105.293126775745
 31
0.0
  0
LINE
  5
31F
330
2F5
100
AcDbEntity
  8
OBJECT
  6
CONTINUOUS
 62
     7
 48
5.0
100
AcDbLine
 10
4257.05233647237
 20
5079.51485471925
 30
0.0
 11
4376.875368544607
 21
5003.311034369101
 31
0.0
  0
LINE
  5
320
330
2F5
100
AcDbEntity
  8
OBJECT
  6
CONTINUOUS
 62
     7
 48
5.0
100
AcDbLine
 10
4447.850247672043
 20
5105.293126775745
 30
0.0
 11
4376.866267972448
 21
5003.316822057444
 31
0.0
  0
LINE
  5
321
330
2F5
100
AcDbEntity
  8
OBJECT
  6
CONTINUOUS
 62
     7
 48
5.0
100
AcDbLine
 10
5846.425058556139
 20
2227.874971354733
 30
0.0
 11
7687.947554074104
 21
2227.874971354733
 31
0.0
  0
LINE
  5
322
330
2F5
100
AcDbEntity
  8
OBJECT
  6
CONTINUOUS
 62
     7
 48
5.0
100
AcDbLine
 10
7698.095162750047
 20
2784.256258283571
 30
0.0
 11
5846.425058556139
 21
2784.256258283571
 31
0.0
  0
LINE
  5
323
330
2F5
100
AcDbEntity
  8
OBJECT
  6
CONTINUOUS
 62
     7
 48
5.0
100
AcDbLine
 10
7687.947554074104
 20
2271.416699620067
 30
0.0
 11
5846.425058556139
 21
2271.416699620067
 31
0.0
  0
LINE
  5
324
330
2F5
100
AcDbEntity
  8
OBJECT
  6
CONTINUOUS
 62
     7
 48
5.0
100
AcDbLine
 10
5846.425058556139
 20
2740.714530018237
 30
0.0
 11
7698.095162750047
 21
2740.714530018237
 31
0.0
  0
LINE
  5
325
330
2F5
100
AcDbEntity
  8
OBJECT
  6
CONTINUOUS
 62
     7
 48
5.0
100
AcDbLine
 10
7567.597709875723
 20
2684.25625828357
 30
0.0
 11
5846.425058556139
 21
2684.25625828357
 31
0.0
  0
LINE
  5
326
330
2F5
100
AcDbEntity
  8
OBJECT
  6
CONTINUOUS
 62
     7
 48
5.0
100
AcDbLine
 10
5846.425058556139
 20
2327.874971354733
 30
0.0
 11
7569.347618934253
 21
2327.874971354733
 31
0.0
  0
LINE
  5
327
330
2F5
100
AcDbEntity
  8
OBJECT
  6
CONTINUOUS
 62
     7
 48
5.0
100
AcDbLine
 10
5546.425058556138
 20
2794.491117260182
 30
0.0
 11
5546.425058556138
 21
2207.177415776428
 31
0.0
  0
LINE
  5
328
330
2F5
100
AcDbEntity
  8
OBJECT
  6
CONTINUOUS
 62
     7
 48
5.0
100
AcDbLine
 10
5846.425058556139
 20
2784.256258283571
 30
0.0
 11
5846.425058556139
 21
1907.177415776428
 31
0.0
  0
LINE
  5
329
330
2F5
100
AcDbEntity
  8
OBJECT
  6
CONTINUOUS
 62
     7
 48
5.0
100
AcDbLine
 10
5846.425058556139
 20
1907.177415776428
 30
0.0
 11
5546.425058556138
 21
2207.177415776428
 31
0.0
  0
LINE
  5
32A
330
2F5
100
AcDbEntity
  8
OBJECT
  6
CONTINUOUS
 62
     7
 48
5.0
100
AcDbLine
 10
4953.731644067888
 20
2207.177415776428
 30
0.0
 11
5546.425058556138
 21
2207.177415776428
 31
0.0
  0
LINE
  5
32B
330
2F5
100
AcDbEntity
  8
OBJECT
  6
CONTINUOUS
 62
     7
 48
5.0
100
AcDbLine
 10
5846.425058556139
 20
3094.491117260182
 30
0.0
 11
5546.425058556138
 21
2794.491117260182
 31
0.0
  0
LINE
  5
32C
330
2F5
100
AcDbEntity
  8
OBJECT
  6
CONTINUOUS
 62
     7
 48
5.0
100
AcDbLine
 10
5546.425058556138
 20
2794.491117260182
 30
0.0
 11
4953.731644067888
 21
2794.491117260182
 31
0.0
  0
LINE
  5
32D
330
2F5
100
AcDbEntity
  8
OBJECT
  6
CONTINUOUS
 62
     7
 48
5.0
100
AcDbLine
 10
5846.425058556139
 20
2784.256258283571
 30
0.0
 11
5846.425058556139
 21
3094.491117260182
 31
0.0
  0
LINE
  5
32E
330
2F5
100
AcDbEntity
  8
OBJECT
  6
CONTINUOUS
 62
     7
 48
5.0
100
AcDbLine
 10
7502.035965865251
 20
2506.677703703436
 30
0.0
 11
7502.035965865251
 21
2419.594230777824
 31
0.0
  0
LINE
  5
32F
330
2F5
100
AcDbEntity
  8
OBJECT
  6
CONTINUOUS
 62
     7
 48
5.0
100
AcDbLine
 10
7578.281204667877
 20
2321.625333983349
 30
0.0
 11
7617.356538441658
 21
2271.416699620067
 31
0.0
  0
LINE
  5
330
330
2F5
100
AcDbEntity
  8
OBJECT
  6
CONTINUOUS
 62
     7
 48
5.0
100
AcDbLine
 10
7687.947554074104
 20
2227.874971354733
 30
0.0
 11
7687.947554074104
 21
2271.416699620067
 31
0.0
  0
LINE
  5
331
330
2F5
100
AcDbEntity
  8
OBJECT
  6
CONTINUOUS
 62
     7
 48
5.0
100
AcDbLine
 10
7502.035965865251
 20
2419.594230777824
 30
0.0
 11
7523.820312213968
 21
2359.724350314252
 31
0.0
  0
LINE
  5
332
330
2F5
100
AcDbEntity
  8
OBJECT
  6
CONTINUOUS
 62
     7
 48
5.0
100
AcDbLine
 10
7523.820312213968
 20
2359.724350314252
 30
0.0
 11
7578.281204667877
 21
2321.625333983349
 31
0.0
  0
LINE
  5
333
330
2F5
100
AcDbEntity
  8
OBJECT
  6
CONTINUOUS
 62
     7
 48
5.0
100
AcDbLine
 10
7578.281204667877
 20
2691.730073423525
 30
0.0
 11
7616.403810778142
 21
2740.714530018237
 31
0.0
  0
LINE
  5
334
330
2F5
100
AcDbEntity
  8
OBJECT
  6
CONTINUOUS
 62
     7
 48
5.0
100
AcDbLine
 10
7502.035965865251
 20
2506.677703703436
 30
0.0
 11
7502.035965865251
 21
2593.76117662905
 31
0.0
  0
LINE
  5
335
330
2F5
100
AcDbEntity
  8
OBJECT
  6
CONTINUOUS
 62
     7
 48
5.0
100
AcDbLine
 10
7502.035965865251
 20
2593.76117662905
 30
0.0
 11
7523.820312213968
 21
2653.631057092622
 31
0.0
  0
LINE
  5
336
330
2F5
100
AcDbEntity
  8
OBJECT
  6
CONTINUOUS
 62
     7
 48
5.0
100
AcDbLine
 10
7523.820312213968
 20
2653.631057092622
 30
0.0
 11
7578.281204667877
 21
2691.730073423525
 31
0.0
  0
LINE
  5
337
330
2F5
100
AcDbEntity
  8
OBJECT
  6
CONTINUOUS
 62
     7
 48
5.0
100
AcDbLine
 10
7698.095162750047
 20
2740.714530018237
 30
0.0
 11
7698.095162750047
 21
2784.256258283571
 31
0.0
  0
POLYLINE
  5
338
330
2F5
100
AcDbEntity
  8
OBJECT
100
AcDb2dPolyline
 66
     1
 10
0.0
 20
0.0
 30
0.0
 70
     1
  0
VERTEX
  5
35D
330
338
100
AcDbEntity
  8
OBJECT
100
AcDbVertex
100
AcDb2dVertex
 10
4376.866267972448
 20
5003.316822057444
 30
0.0
  0
VERTEX
  5
35E
330
338
100
AcDbEntity
  8
OBJECT
100
AcDbVertex
100
AcDb2dVertex
 10
4257.05233647237
 20
5079.51485471925
 30
0.0
  0
VERTEX
  5
35F
330
338
100
AcDbEntity
  8
OBJECT
100
AcDbVertex
100
AcDb2dVertex
 10
4328.036316171966
 20
5181.491159437552
 30
0.0
  0
VERTEX
  5
360
330
338
100
AcDbEntity
  8
OBJECT
100
AcDbVertex
100
AcDb2dVertex
 10
4447.850247672043
 20
5105.293126775745
 30
0.0
  0
SEQEND
  5
361
330
338
100
AcDbEntity
  8
OBJECT
  0
POLYLINE
  5
339
330
2F5
100
AcDbEntity
  8
OBJECT
100
AcDb2dPolyline
 66
     1
 10
0.0
 20
0.0
 30
0.0
 70
     1
  0
VERTEX
  5
362
330
339
100
AcDbEntity
  8
OBJECT
100
AcDbVertex
100
AcDb2dVertex
 10
2140.780317561504
 20
5079.51485471925
 30
0.0
  0
VERTEX
  5
363
330
339
100
AcDbEntity
  8
OBJECT
100
AcDbVertex
100
AcDb2dVertex
 10
2020.966386061428
 20
5003.316822057444
 30
0.0
  0
VERTEX
  5
364
330
339
100
AcDbEntity
  8
OBJECT
100
AcDbVertex
100
AcDb2dVertex
 10
1949.98240636183
 20
5105.293126775745
 30
0.0
  0
VERTEX
  5
365
330
339
100
AcDbEntity
  8
OBJECT
100
AcDbVertex
100
AcDb2dVertex
 10
2069.796337861907
 20
5181.491159437552
 30
0.0
  0
SEQEND
  5
366
330
339
100
AcDbEntity
  8
OBJECT
  0
LINE
  5
33A
330
2F5
100
AcDbEntity
  8
OBJECT
100
AcDbLine
 10
2913.9400778601
 20
2797.581217209048
 30
0.0
 11
2913.9400778601
 21
2876.782443143616
 31
0.0
  0
LINE
  5
33B
330
2F5
100
AcDbEntity
  8
OBJECT
100
AcDbLine
 10
2913.9400778601
 20
2217.412274753038
 30
0.0
 11
2913.9400778601
 21
2146.656954025658
 31
0.0
  0
POLYLINE
  5
33C
330
2F5
100
AcDbEntity
  8
OBJECT
100
AcDb2dPolyline
 66
     1
 10
0.0
 20
0.0
 30
0.0
  0
VERTEX
  5
367
330
33C
100
AcDbEntity
  8
OBJECT
100
AcDbVertex
100
AcDb2dVertex
 10
2103.011411544098
 20
5058.956893101109
 30
0.0
  0
VERTEX
  5
368
330
33C
100
AcDbEntity
  8
OBJECT
100
AcDbVertex
100
AcDb2dVertex
 10
2141.631858605721
 20
5003.474367401934
 30
0.0
 42
0.1124445043418361
  0
VERTEX
  5
369
330
33C
100
AcDbEntity
  8
OBJECT
100
AcDbVertex
100
AcDb2dVertex
 10
2240.143512445004
 20
4913.748929233901
 30
0.0
  0
VERTEX
  5
36A
330
33C
100
AcDbEntity
  8
OBJECT
100
AcDbVertex
100
AcDb2dVertex
 10
2970.869844501739
 20
4500.38632712471
 30
0.0
 42
0.1456256480237181
  0
VERTEX
  5
36B
330
33C
100
AcDbEntity
  8
OBJECT
100
AcDbVertex
100
AcDb2dVertex
 10
3137.655872200339
 20
4462.109697353058
 30
0.0
  0
VERTEX
  5
36C
330
33C
100
AcDbEntity
  8
OBJECT
100
AcDbVertex
100
AcDb2dVertex
 10
3137.655872200339
 20
4392.297223962486
 30
0.0
  0
VERTEX
  5
36D
330
33C
100
AcDbEntity
  8
OBJECT
100
AcDbVertex
100
AcDb2dVertex
 10
3070.475471849423
 20
4392.297223962486
 30
0.0
 42
-0.1315028299853057
  0
VERTEX
  5
36E
330
33C
100
AcDbEntity
  8
OBJECT
100
AcDbVertex
100
AcDb2dVertex
 10
2920.62838997503
 20
4432.401375489055
 30
0.0
  0
VERTEX
  5
36F
330
33C
100
AcDbEntity
  8
OBJECT
100
AcDbVertex
100
AcDb2dVertex
 10
2198.671459889
 20
4848.657117348055
 30
0.0
 42
-0.1103683208210596
  0
VERTEX
  5
370
330
33C
100
AcDbEntity
  8
OBJECT
100
AcDbVertex
100
AcDb2dVertex
 10
2102.296728839787
 20
4937.162129308555
 30
0.0
  0
VERTEX
  5
371
330
33C
100
AcDbEntity
  8
OBJECT
100
AcDbVertex
100
AcDb2dVertex
 10
2045.421560541282
 20
5018.869572563468
 30
0.0
  0
VERTEX
  5
372
330
33C
100
AcDbEntity
  8
OBJECT
100
AcDbVertex
100
AcDb2dVertex
 10
2103.011411544098
 20
5058.956893101109
 30
0.0
  0
SEQEND
  5
373
330
33C
100
AcDbEntity
  8
OBJECT
  0
POLYLINE
  5
33D
330
2F5
100
AcDbEntity
  8
OBJECT
100
AcDb2dPolyline
 66
     1
 10
0.0
 20
0.0
 30
0.0
 70
     1
  0
VERTEX
  5
374
330
33D
100
AcDbEntity
  8
OBJECT
100
AcDbVertex
100
AcDb2dVertex
 10
4350.740750603252
 20
5016.469941038326
 30
0.0
  0
VERTEX
  5
375
330
33D
100
AcDbEntity
  8
OBJECT
100
AcDbVertex
100
AcDb2dVertex
 10
4293.150899600433
 20
5056.557261575966
 30
0.0
  0
VERTEX
  5
376
330
33D
100
AcDbEntity
  8
OBJECT
100
AcDbVertex
100
AcDb2dVertex
 10
4256.200795428152
 20
5003.474367401934
 30
0.0
 42
-0.1124445043418352
  0
VERTEX
  5
377
330
33D
100
AcDbEntity
  8
OBJECT
100
AcDbVertex
100
AcDb2dVertex
 10
4157.689141588871
 20
4913.748929233901
 30
0.0
  0
VERTEX
  5
378
330
33D
100
AcDbEntity
  8
OBJECT
100
AcDbVertex
100
AcDb2dVertex
 10
3426.962809532136
 20
4500.38632712471
 30
0.0
 42
-0.1461747253260849
  0
VERTEX
  5
379
330
33D
100
AcDbEntity
  8
OBJECT
100
AcDbVertex
100
AcDb2dVertex
 10
3259.532972689751
 20
4462.151412883563
 30
0.0
  0
VERTEX
  5
37A
330
33D
100
AcDbEntity
  8
OBJECT
100
AcDbVertex
100
AcDb2dVertex
 10
3259.532972689751
 20
4392.297223962486
 30
0.0
  0
VERTEX
  5
37B
330
33D
100
AcDbEntity
  8
OBJECT
100
AcDbVertex
100
AcDb2dVertex
 10
3327.357182184452
 20
4392.297223962486
 30
0.0
 42
0.1315028299853055
  0
VERTEX
  5
37C
330
33D
100
AcDbEntity
  8
OBJECT
100
AcDbVertex
100
AcDb2dVertex
 10
3477.20426405886
 20
4432.401375489055
 30
0.0
  0
VERTEX
  5
37D
330
33D
100
AcDbEntity
  8
OBJECT
100
AcDbVertex
100
AcDb2dVertex
 10
4199.161194144862
 20
4848.657117348055
 30
0.0
 42
0.1103683208210589
  0
VERTEX
  5
37E
330
33D
100
AcDbEntity
  8
OBJECT
100
AcDbVertex
100
AcDb2dVertex
 10
4295.535925194065
 20
4937.162129308512
 30
0.0
  0
VERTEX
  5
37F
330
33D
100
AcDbEntity
  8
OBJECT
100
AcDbVertex
100
AcDb2dVertex
 10
4350.740750603255
 20
5016.469941038326
 30
0.0
  0
SEQEND
  5
380
330
33D
100
AcDbEntity
  8
OBJECT
  0
ENDBLK
  5
2F7
330
2F5
100
AcDbEntity
  8
0
100
AcDbBlockEnd
  0
BLOCK
  5
3A2
330
381
100
AcDbEntity
  8
0
100
AcDbBlockBegin
  2
*U2
 70
     1
 10
0.0
 20
0.0
 30
0.0
  3
*U2
  1

  0
SOLID
  5
382
330
381
100
AcDbEntity
  8
HATCH
  6
CONTINUOUS
 62
     3
100
AcDbTrace
 10
4166.795074130874
 20
1537.180442700256
 30
0.0
 11
4358.014415613433
 21
1500.331378655421
 31
0.0
 12
4551.319758288134
 22
1523.905401889054
 32
0.0
 13
4551.319758288134
 23
1523.905401889054
 33
0.0
210
0.0
220
0.0
230
1.0
  0
SOLID
  5
383
330
381
100
AcDbEntity
  8
HATCH
  6
CONTINUOUS
 62
     3
100
AcDbTrace
 10
4728.078742815501
 20
1605.6302540875
 30
0.0
 11
4166.795074130874
 21
1537.180442700256
 31
0.0
 12
4551.319758288134
 22
1523.905401889054
 32
0.0
 13
4551.319758288134
 23
1523.905401889054
 33
0.0
  0
SOLID
  5
384
330
381
100
AcDbEntity
  8
HATCH
  6
CONTINUOUS
 62
     3
100
AcDbTrace
 10
4294.877143949956
 20
1606.818609742396
 30
0.0
 11
4166.795074130874
 21
1537.180442700256
 31
0.0
 12
4728.078742815501
 22
1605.6302540875
 32
0.0
 13
4728.078742815501
 23
1605.6302540875
 33
0.0
210
0.0
220
0.0
230
1.0
  0
SOLID
  5
385
330
381
100
AcDbEntity
  8
HATCH
  6
CONTINUOUS
 62
     3
100
AcDbTrace
 10
4465.713785568413
 20
1607.028556732952
 30
0.0
 11
4294.877143949956
 21
1606.818609742396
 31
0.0
 12
4728.078742815501
 22
1605.6302540875
 32
0.0
 13
4728.078742815501
 23
1605.6302540875
 33
0.0
210
0.0
220
0.0
230
1.0
  0
SOLID
  5
386
330
381
100
AcDbEntity
  8
HATCH
  6
CONTINUOUS
 62
     3
100
AcDbTrace
 10
3996.093027222542
 20
1630.900778056619
 30
0.0
 11
4166.795074130874
 21
1537.180442700256
 31
0.0
 12
4294.877143949956
 22
1606.818609742396
 32
0.0
 13
4294.877143949956
 23
1606.818609742396
 33
0.0
210
0.0
220
0.0
230
1.0
  0
SOLID
  5
387
330
381
100
AcDbEntity
  8
HATCH
  6
CONTINUOUS
 62
     3
100
AcDbTrace
 10
4132.94121617305
 20
1661.24247851562
 30
0.0
 11
3996.093027222542
 21
1630.900778056619
 31
0.0
 12
4294.877143949956
 22
1606.818609742396
 32
0.0
 13
4294.877143949956
 23
1606.818609742396
 33
0.0
210
0.0
220
0.0
230
1.0
  0
SOLID
  5
388
330
381
100
AcDbEntity
  8
HATCH
  6
CONTINUOUS
 62
     3
100
AcDbTrace
 10
4627.515457704475
 20
1661.850277712748
 30
0.0
 11
4465.713785568413
 21
1607.028556732952
 31
0.0
 12
4728.078742815501
 22
1605.6302540875
 32
0.0
 13
4728.078742815501
 23
1605.6302540875
 33
0.0
210
0.0
220
0.0
230
1.0
  0
SOLID
  5
389
330
381
100
AcDbEntity
  8
HATCH
  6
CONTINUOUS
 62
     3
100
AcDbTrace
 10
4871.253883988839
 20
1737.628621607704
 30
0.0
 11
4627.515457704475
 21
1661.850277712748
 31
0.0
 12
4728.078742815501
 22
1605.6302540875
 32
0.0
 13
4728.078742815501
 23
1605.6302540875
 33
0.0
210
0.0
220
0.0
230
1.0
  0
SOLID
  5
38A
330
381
100
AcDbEntity
  8
HATCH
  6
CONTINUOUS
 62
     3
100
AcDbTrace
 10
3996.907223356659
 20
1764.586346237137
 30
0.0
 11
3996.093027222542
 21
1630.900778056619
 31
0.0
 12
4132.94121617305
 22
1661.24247851562
 32
0.0
 13
4132.94121617305
 23
1661.24247851562
 33
0.0
210
0.0
220
0.0
230
1.0
  0
SOLID
  5
38B
330
381
100
AcDbEntity
  8
HATCH
  6
CONTINUOUS
 62
     3
100
AcDbTrace
 10
4763.295034380806
 20
1765.528186424338
 30
0.0
 11
4627.515457704475
 21
1661.850277712748
 31
0.0
 12
4871.253883988839
 22
1737.628621607704
 32
0.0
 13
4871.253883988839
 23
1737.628621607704
 33
0.0
210
0.0
220
0.0
230
1.0
  0
SOLID
  5
38C
330
381
100
AcDbEntity
  8
HATCH
  6
CONTINUOUS
 62
     3
100
AcDbTrace
 10
3862.361942614178
 20
1772.458847722303
 30
0.0
 11
3996.093027222542
 21
1630.900778056619
 31
0.0
 12
3996.907223356659
 22
1764.586346237137
 32
0.0
 13
3996.907223356659
 23
1764.586346237137
 33
0.0
210
0.0
220
0.0
230
1.0
  0
SOLID
  5
38D
330
381
100
AcDbEntity
  8
HATCH
  6
CONTINUOUS
 62
     3
100
AcDbTrace
 10
3901.057011557534
 20
1906.000415888198
 30
0.0
 11
3862.361942614178
 21
1772.458847722303
 31
0.0
 12
3996.907223356659
 22
1764.586346237137
 32
0.0
 13
3996.907223356659
 23
1764.586346237137
 33
0.0
210
0.0
220
0.0
230
1.0
  0
SOLID
  5
38E
330
381
100
AcDbEntity
  8
HATCH
  6
CONTINUOUS
 62
     3
100
AcDbTrace
 10
4858.797380012584
 20
1907.177415776427
 30
0.0
 11
4763.295034380806
 21
1765.528186424338
 31
0.0
 12
4871.253883988839
 22
1737.628621607704
 32
0.0
 13
4871.253883988839
 23
1737.628621607704
 33
0.0
  0
SOLID
  5
38F
330
381
100
AcDbEntity
  8
HATCH
  6
CONTINUOUS
 62
     3
100
AcDbTrace
 10
4967.04478373373
 20
1907.177415776428
 30
0.0
 11
4858.797380012584
 21
1907.177415776427
 31
0.0
 12
4871.253883988839
 22
1737.628621607704
 32
0.0
 13
4871.253883988839
 23
1737.628621607704
 33
0.0
210
0.0
220
0.0
230
1.0
  0
SOLID
  5
390
330
381
100
AcDbEntity
  8
HATCH
  6
CONTINUOUS
 62
     3
100
AcDbTrace
 10
3778.491922507845
 20
1948.210120279195
 30
0.0
 11
3862.361942614178
 21
1772.458847722303
 31
0.0
 12
3901.057011557534
 22
1906.000415888198
 32
0.0
 13
3901.057011557534
 23
1906.000415888198
 33
0.0
210
0.0
220
0.0
230
1.0
  0
SOLID
  5
391
330
381
100
AcDbEntity
  8
HATCH
  6
CONTINUOUS
 62
     3
100
AcDbTrace
 10
3855.453638847267
 20
2070.638001495679
 30
0.0
 11
3778.491922507845
 21
1948.210120279195
 31
0.0
 12
3901.057011557534
 22
1906.000415888198
 32
0.0
 13
3901.057011557534
 23
1906.000415888198
 33
0.0
  0
SOLID
  5
392
330
381
100
AcDbEntity
  8
HATCH
  6
CONTINUOUS
 62
     3
100
AcDbTrace
 10
3278.757356901536
 20
2141.214242091229
 30
0.0
 11
3126.266852714183
 21
2108.557937694757
 31
0.0
 12
3278.757356901536
 22
2108.557937694757
 32
0.0
 13
3278.757356901536
 23
2108.557937694757
 33
0.0
210
0.0
220
0.0
230
1.0
  0
SOLID
  5
393
330
381
100
AcDbEntity
  8
HATCH
  6
CONTINUOUS
 62
     3
100
AcDbTrace
 10
3752.567049478849
 20
2141.214242091229
 30
0.0
 11
3778.491922507845
 21
1948.210120279195
 31
0.0
 12
3855.453638847267
 22
2070.638001495679
 32
0.0
 13
3855.453638847267
 23
2070.638001495679
 33
0.0
210
0.0
220
0.0
230
1.0
  0
SOLID
  5
394
330
381
100
AcDbEntity
  8
HATCH
  6
CONTINUOUS
 62
     3
100
AcDbTrace
 10
3126.266852714183
 20
2146.656954025658
 30
0.0
 11
3126.266852714183
 21
2108.557937694757
 31
0.0
 12
3278.757356901536
 22
2141.214242091229
 32
0.0
 13
3278.757356901536
 23
2141.214242091229
 33
0.0
210
0.0
220
0.0
230
1.0
  0
SOLID
  5
395
330
381
100
AcDbEntity
  8
HATCH
  6
CONTINUOUS
 62
     3
100
AcDbTrace
 10
2913.9400778601
 20
2217.412274753038
 30
0.0
 11
2913.9400778601
 21
2146.656954025657
 31
0.0
 12
3126.266852714183
 22
2146.656954025658
 32
0.0
 13
3126.266852714183
 23
2146.656954025658
 33
0.0
210
0.0
220
0.0
230
1.0
  0
SOLID
  5
396
330
381
100
AcDbEntity
  8
HATCH
  6
CONTINUOUS
 62
     3
100
AcDbTrace
 10
3864.884881686965
 20
2241.214242091229
 30
0.0
 11
2913.9400778601
 21
2217.412274753038
 31
0.0
 12
3126.266852714183
 22
2146.656954025658
 32
0.0
 13
3126.266852714183
 23
2146.656954025658
 33
0.0
210
0.0
220
0.0
230
1.0
  0
SOLID
  5
397
330
381
100
AcDbEntity
  8
HATCH
  6
CONTINUOUS
 62
     3
100
AcDbTrace
 10
3864.884881686965
 20
2241.214242091229
 30
0.0
 11
3126.266852714183
 21
2146.656954025658
 31
0.0
 12
3278.757356901536
 22
2141.214242091229
 32
0.0
 13
3278.757356901536
 23
2141.214242091229
 33
0.0
210
0.0
220
0.0
230
1.0
  0
SOLID
  5
398
330
381
100
AcDbEntity
  8
HATCH
  6
CONTINUOUS
 62
     3
100
AcDbTrace
 10
3864.884881686965
 20
2241.214242091229
 30
0.0
 11
3278.757356901536
 21
2141.214242091229
 31
0.0
 12
3752.567049478849
 22
2141.214242091229
 32
0.0
 13
3752.567049478849
 23
2141.214242091229
 33
0.0
210
0.0
220
0.0
230
1.0
  0
SOLID
  5
399
330
381
100
AcDbEntity
  8
HATCH
  6
CONTINUOUS
 62
     3
100
AcDbTrace
 10
3864.884881686965
 20
2241.214242091229
 30
0.0
 11
3752.567049478849
 21
2141.214242091229
 31
0.0
 12
3855.453638847267
 22
2070.638001495679
 32
0.0
 13
3855.453638847267
 23
2070.638001495679
 33
0.0
210
0.0
220
0.0
230
1.0
  0
SOLID
  5
39A
330
381
100
AcDbEntity
  8
HATCH
  6
CONTINUOUS
 62
     3
100
AcDbTrace
 10
2913.9400778601
 20
2217.412274753038
 30
0.0
 11
3864.884881686965
 21
2241.214242091229
 31
0.0
 12
3838.548888334811
 22
2241.214242091229
 32
0.0
 13
3838.548888334811
 23
2241.214242091229
 33
0.0
  0
SOLID
  5
39B
330
381
100
AcDbEntity
  8
HATCH
  6
CONTINUOUS
 62
     3
100
AcDbTrace
 10
2913.9400778601
 20
2217.412274753038
 30
0.0
 11
3838.548888334811
 21
2241.214242091229
 31
0.0
 12
3013.9400778601
 22
2241.214242091229
 32
0.0
 13
3013.9400778601
 23
2241.214242091229
 33
0.0
210
0.0
220
0.0
230
1.0
  0
SOLID
  5
39C
330
381
100
AcDbEntity
  8
HATCH
  6
CONTINUOUS
 62
     3
100
AcDbTrace
 10
3013.9400778601
 20
2776.782443143615
 30
0.0
 11
2913.9400778601
 21
2217.412274753038
 31
0.0
 12
3013.9400778601
 22
2241.214242091229
 32
0.0
 13
3013.9400778601
 23
2241.214242091229
 33
0.0
210
0.0
220
0.0
230
1.0
  0
SOLID
  5
39D
330
381
100
AcDbEntity
  8
HATCH
  6
CONTINUOUS
 62
     3
100
AcDbTrace
 10
2913.9400778601
 20
2797.581217209048
 30
0.0
 11
2913.9400778601
 21
2217.412274753038
 31
0.0
 12
3013.9400778601
 22
2776.782443143615
 32
0.0
 13
3013.9400778601
 23
2776.782443143615
 33
0.0
210
0.0
220
0.0
230
1.0
  0
SOLID
  5
39E
330
381
100
AcDbEntity
  8
HATCH
  6
CONTINUOUS
 62
     3
100
AcDbTrace
 10
2913.9400778601
 20
2797.581217209048
 30
0.0
 11
4653.731644067887
 21
2876.782443143616
 31
0.0
 12
3259.532972689751
 22
2876.782443143616
 32
0.0
 13
3259.532972689751
 23
2876.782443143616
 33
0.0
210
0.0
220
0.0
230
1.0
  0
SOLID
  5
39F
330
381
100
AcDbEntity
  8
HATCH
  6
CONTINUOUS
 62
     3
100
AcDbTrace
 10
2913.9400778601
 20
2797.581217209048
 30
0.0
 11
3259.532972689751
 21
2876.782443143616
 31
0.0
 12
2913.9400778601
 22
2876.782443143616
 32
0.0
 13
2913.9400778601
 23
2876.782443143616
 33
0.0
210
0.0
220
0.0
230
1.0
  0
SOLID
  5
3A0
330
381
100
AcDbEntity
  8
HATCH
  6
CONTINUOUS
 62
     3
100
AcDbTrace
 10
4653.731644067887
 20
2876.782443143616
 30
0.0
 11
2913.9400778601
 21
2797.581217209048
 31
0.0
 12
3013.9400778601
 22
2776.782443143615
 32
0.0
 13
3013.9400778601
 23
2776.782443143615
 33
0.0
210
0.0
220
0.0
230
1.0
  0
SOLID
  5
3A1
330
381
100
AcDbEntity
  8
HATCH
  6
CONTINUOUS
 62
     3
100
AcDbTrace
 10
4653.731644067887
 20
2876.782443143616
 30
0.0
 11
3013.9400778601
 21
2776.782443143615
 31
0.0
 12
4653.731644067888
 22
2776.782443143614
 32
0.0
 13
4653.731644067888
 23
2776.782443143614
 33
0.0
  0
ENDBLK
  5
3A3
330
381
100
AcDbEntity
  8
0
100
AcDbBlockEnd
  0
BLOCK
  5
3B3
330
3A4
100
AcDbEntity
  8
0
100
AcDbBlockBegin
  2
*U3
 70
     1
 10
0.0
 20
0.0
 30
0.0
  3
*U3
  1

  0
SOLID
  5
3A5
330
3A4
100
AcDbEntity
  8
HATCH
  6
CONTINUOUS
 62
     3
100
AcDbTrace
 10
5846.425058556139
 20
2784.256258283571
 30
0.0
 11
5546.425058556136
 21
2207.177415776429
 31
0.0
 12
5846.425058556139
 22
1907.177415776427
 32
0.0
 13
5846.425058556139
 23
1907.177415776427
 33
0.0
  0
SOLID
  5
3A6
330
3A4
100
AcDbEntity
  8
HATCH
  6
CONTINUOUS
 62
     3
100
AcDbTrace
 10
5546.425058556136
 20
2794.491117260181
 30
0.0
 11
5546.425058556136
 21
2207.177415776429
 31
0.0
 12
5846.425058556139
 22
2784.256258283571
 32
0.0
 13
5846.425058556139
 23
2784.256258283571
 33
0.0
210
0.0
220
0.0
230
1.0
  0
SOLID
  5
3A7
330
3A4
100
AcDbEntity
  8
HATCH
  6
CONTINUOUS
 62
     3
100
AcDbTrace
 10
5846.425058556139
 20
3094.491117260181
 30
0.0
 11
5546.425058556136
 21
2794.491117260181
 31
0.0
 12
5846.425058556139
 22
2784.256258283571
 32
0.0
 13
5846.425058556139
 23
2784.256258283571
 33
0.0
210
0.0
220
0.0
230
1.0
  0
SOLID
  5
3A8
330
3A4
100
AcDbEntity
  8
HATCH
  6
CONTINUOUS
 62
     3
100
AcDbTrace
 10
5546.425058556138
 20
2794.491117260182
 30
0.0
 11
5846.425058556138
 21
3094.491117260182
 31
0.0
 12
4953.731644067887
 22
2794.491117260182
 32
0.0
 13
4953.731644067887
 23
2794.491117260182
 33
0.0
210
0.0
220
0.0
230
1.0
  0
SOLID
  5
3A9
330
3A4
100
AcDbEntity
  8
HATCH
  6
CONTINUOUS
 62
     3
100
AcDbTrace
 10
4653.731644067887
 20
3094.491117260182
 30
0.0
 11
4953.731644067887
 21
2794.491117260182
 31
0.0
 12
5846.425058556138
 22
3094.491117260182
 32
0.0
 13
5846.425058556138
 23
3094.491117260182
 33
0.0
  0
SOLID
  5
3AA
330
3A4
100
AcDbEntity
  8
HATCH
  6
CONTINUOUS
 62
     3
100
AcDbTrace
 10
5546.425058556138
 20
2794.491117260182
 30
0.0
 11
4953.731644067887
 21
2794.491117260182
 31
0.0
 12
5250.078351312013
 22
2500.834266518305
 32
0.0
 13
5250.078351312013
 23
2500.834266518305
 33
0.0
210
0.0
220
0.0
230
1.0
  0
SOLID
  5
3AB
330
3A4
100
AcDbEntity
  8
HATCH
  6
CONTINUOUS
 62
     3
100
AcDbTrace
 10
5250.078351312012
 20
2500.834266518305
 30
0.0
 11
5546.425058556138
 21
2207.177415776429
 31
0.0
 12
5546.425058556138
 22
2794.491117260182
 32
0.0
 13
5546.425058556138
 23
2794.491117260182
 33
0.0
210
0.0
220
0.0
230
1.0
  0
SOLID
  5
3AC
330
3A4
100
AcDbEntity
  8
HATCH
  6
CONTINUOUS
 62
     3
100
AcDbTrace
 10
4953.731644067887
 20
2207.177415776428
 30
0.0
 11
5546.425058556136
 21
2207.177415776428
 31
0.0
 12
5250.078351312012
 22
2500.834266518304
 32
0.0
 13
5250.078351312012
 23
2500.834266518304
 33
0.0
210
0.0
220
0.0
230
1.0
  0
SOLID
  5
3AD
330
3A4
100
AcDbEntity
  8
HATCH
  6
CONTINUOUS
 62
     3
100
AcDbTrace
 10
4953.731644067888
 20
2207.177415776427
 30
0.0
 11
5250.078351312012
 21
2500.834266518304
 31
0.0
 12
4953.731644067888
 22
2794.49111726018
 32
0.0
 13
4953.731644067888
 23
2794.49111726018
 33
0.0
210
0.0
220
0.0
230
1.0
  0
SOLID
  5
3AE
330
3A4
100
AcDbEntity
  8
HATCH
  6
CONTINUOUS
 62
     3
100
AcDbTrace
 10
4653.731644067888
 20
1907.177415776429
 30
0.0
 11
4953.731644067888
 21
2207.177415776428
 31
0.0
 12
4653.731644067888
 22
2876.782443143616
 32
0.0
 13
4653.731644067888
 23
2876.782443143616
 33
0.0
  0
SOLID
  5
3AF
330
3A4
100
AcDbEntity
  8
HATCH
  6
CONTINUOUS
 62
     3
100
AcDbTrace
 10
4953.731644067888
 20
2794.491117260182
 30
0.0
 11
4653.731644067888
 21
2876.782443143616
 31
0.0
 12
4953.731644067888
 22
2207.177415776428
 32
0.0
 13
4953.731644067888
 23
2207.177415776428
 33
0.0
210
0.0
220
0.0
230
1.0
  0
SOLID
  5
3B0
330
3A4
100
AcDbEntity
  8
HATCH
  6
CONTINUOUS
 62
     3
100
AcDbTrace
 10
4653.731644067888
 20
2876.782443143616
 30
0.0
 11
4953.731644067888
 21
2794.491117260182
 31
0.0
 12
4653.731644067888
 22
3094.491117260182
 32
0.0
 13
4653.731644067888
 23
3094.491117260182
 33
0.0
210
0.0
220
0.0
230
1.0
  0
SOLID
  5
3B1
330
3A4
100
AcDbEntity
  8
HATCH
  6
CONTINUOUS
 62
     3
100
AcDbTrace
 10
5846.425058556139
 20
1907.177415776428
 30
0.0
 11
5546.425058556138
 21
2207.177415776428
 31
0.0
 12
4653.731644067888
 22
1907.177415776428
 32
0.0
 13
4653.731644067888
 23
1907.177415776428
 33
0.0
210
0.0
220
0.0
230
1.0
  0
SOLID
  5
3B2
330
3A4
100
AcDbEntity
  8
HATCH
  6
CONTINUOUS
 62
     3
100
AcDbTrace
 10
4953.731644067888
 20
2207.177415776428
 30
0.0
 11
4653.731644067888
 21
1907.177415776428
 31
0.0
 12
5546.425058556138
 22
2207.177415776428
 32
0.0
 13
5546.425058556138
 23
2207.177415776428
 33
0.0
210
0.0
220
0.0
230
1.0
  0
ENDBLK
  5
3B4
330
3A4
100
AcDbEntity
  8
0
100
AcDbBlockEnd
  0
BLOCK
  5
3C7
330
3B5
100
AcDbEntity
  8
0
100
AcDbBlockBegin
  2
*U4
 70
     1
 10
0.0
 20
0.0
 30
0.0
  3
*U4
  1

  0
SOLID
  5
3B6
330
3B5
100
AcDbEntity
  8
HATCH
  6
CONTINUOUS
 62
     2
100
AcDbTrace
 10
7698.095162750047
 20
2740.714530018237
 30
0.0
 11
7698.095162750047
 21
2784.256258283571
 31
0.0
 12
5846.425058556139
 22
2740.714530018236
 32
0.0
 13
5846.425058556139
 23
2740.714530018236
 33
0.0
  0
SOLID
  5
3B7
330
3B5
100
AcDbEntity
  8
HATCH
  6
CONTINUOUS
 62
     2
100
AcDbTrace
 10
5846.425058556139
 20
2784.256258283571
 30
0.0
 11
5846.425058556139
 21
2740.714530018236
 31
0.0
 12
7698.095162750047
 22
2784.256258283571
 32
0.0
 13
7698.095162750047
 23
2784.256258283571
 33
0.0
  0
SOLID
  5
3B8
330
3B5
100
AcDbEntity
  8
HATCH
  6
CONTINUOUS
 62
     2
100
AcDbTrace
 10
5846.425058556139
 20
2740.714530018237
 30
0.0
 11
5846.425058556139
 21
2684.25625828357
 31
0.0
 12
7616.403810778142
 22
2740.714530018237
 32
0.0
 13
7616.403810778142
 23
2740.714530018237
 33
0.0
210
0.0
220
0.0
230
1.0
  0
SOLID
  5
3B9
330
3B5
100
AcDbEntity
  8
HATCH
  6
CONTINUOUS
 62
     2
100
AcDbTrace
 10
7567.59770987572
 20
2684.256258283569
 30
0.0
 11
7616.403810778142
 21
2740.714530018237
 31
0.0
 12
5846.425058556139
 22
2684.25625828357
 32
0.0
 13
5846.425058556139
 23
2684.25625828357
 33
0.0
210
0.0
220
0.0
230
1.0
  0
SOLID
  5
3BA
330
3B5
100
AcDbEntity
  8
HATCH
  6
CONTINUOUS
 62
     2
100
AcDbTrace
 10
7616.403810778142
 20
2740.714530018237
 30
0.0
 11
7567.59770987572
 21
2684.256258283569
 31
0.0
 12
7578.281204667877
 22
2691.730073423523
 32
0.0
 13
7578.281204667877
 23
2691.730073423523
 33
0.0
  0
SOLID
  5
3BB
330
3B5
100
AcDbEntity
  8
HATCH
  6
CONTINUOUS
 62
     2
100
AcDbTrace
 10
7523.820312213967
 20
2359.724350314253
 30
0.0
 11
5846.425058556138
 21
2327.874971354733
 31
0.0
 12
7569.347618934251
 22
2327.874971354732
 32
0.0
 13
7569.347618934251
 23
2327.874971354732
 33
0.0
210
0.0
220
0.0
230
1.0
  0
SOLID
  5
3BC
330
3B5
100
AcDbEntity
  8
HATCH
  6
CONTINUOUS
 62
     2
100
AcDbTrace
 10
7502.035965865251
 20
2419.594230777826
 30
0.0
 11
5846.425058556138
 21
2327.874971354733
 31
0.0
 12
7523.820312213967
 22
2359.724350314253
 32
0.0
 13
7523.820312213967
 23
2359.724350314253
 33
0.0
  0
SOLID
  5
3BD
330
3B5
100
AcDbEntity
  8
HATCH
  6
CONTINUOUS
 62
     2
100
AcDbTrace
 10
7502.035965865251
 20
2506.677703703436
 30
0.0
 11
5846.425058556138
 21
2327.874971354733
 31
0.0
 12
7502.035965865251
 22
2419.594230777826
 32
0.0
 13
7502.035965865251
 23
2419.594230777826
 33
0.0
  0
SOLID
  5
3BE
330
3B5
100
AcDbEntity
  8
HATCH
  6
CONTINUOUS
 62
     2
100
AcDbTrace
 10
7502.035965865251
 20
2593.761176629048
 30
0.0
 11
5846.425058556138
 21
2327.874971354733
 31
0.0
 12
7502.035965865251
 22
2506.677703703436
 32
0.0
 13
7502.035965865251
 23
2506.677703703436
 33
0.0
210
0.0
220
0.0
230
1.0
  0
SOLID
  5
3BF
330
3B5
100
AcDbEntity
  8
HATCH
  6
CONTINUOUS
 62
     2
100
AcDbTrace
 10
7523.820312213968
 20
2653.631057092622
 30
0.0
 11
5846.425058556138
 21
2327.874971354733
 31
0.0
 12
7502.035965865251
 22
2593.761176629048
 32
0.0
 13
7502.035965865251
 23
2593.761176629048
 33
0.0
210
0.0
220
0.0
230
1.0
  0
SOLID
  5
3C0
330
3B5
100
AcDbEntity
  8
HATCH
  6
CONTINUOUS
 62
     2
100
AcDbTrace
 10
7567.59770987572
 20
2684.25625828357
 30
0.0
 11
5846.425058556138
 21
2327.874971354733
 31
0.0
 12
7523.820312213968
 22
2653.631057092622
 32
0.0
 13
7523.820312213968
 23
2653.631057092622
 33
0.0
210
0.0
220
0.0
230
1.0
  0
SOLID
  5
3C1
330
3B5
100
AcDbEntity
  8
HATCH
  6
CONTINUOUS
 62
     2
100
AcDbTrace
 10
5846.425058556139
 20
2684.25625828357
 30
0.0
 11
5846.425058556138
 21
2327.874971354733
 31
0.0
 12
7567.59770987572
 22
2684.25625828357
 32
0.0
 13
7567.59770987572
 23
2684.25625828357
 33
0.0
  0
SOLID
  5
3C2
330
3B5
100
AcDbEntity
  8
HATCH
  6
CONTINUOUS
 62
     2
100
AcDbTrace
 10
7617.356538441658
 20
2271.416699620067
 30
0.0
 11
7578.281204667876
 21
2321.62533398335
 31
0.0
 12
5846.425058556139
 22
2271.416699620067
 32
0.0
 13
5846.425058556139
 23
2271.416699620067
 33
0.0
210
0.0
220
0.0
230
1.0
  0
SOLID
  5
3C3
330
3B5
100
AcDbEntity
  8
HATCH
  6
CONTINUOUS
 62
     2
100
AcDbTrace
 10
7569.347618934253
 20
2327.874971354733
 30
0.0
 11
5846.425058556139
 21
2271.416699620067
 31
0.0
 12
7578.281204667876
 22
2321.62533398335
 32
0.0
 13
7578.281204667876
 23
2321.62533398335
 33
0.0
210
0.0
220
0.0
230
1.0
  0
SOLID
  5
3C4
330
3B5
100
AcDbEntity
  8
HATCH
  6
CONTINUOUS
 62
     2
100
AcDbTrace
 10
5846.425058556139
 20
2271.416699620067
 30
0.0
 11
7569.347618934253
 21
2327.874971354733
 31
0.0
 12
5846.425058556139
 22
2327.874971354733
 32
0.0
 13
5846.425058556139
 23
2327.874971354733
 33
0.0
210
0.0
220
0.0
230
1.0
  0
SOLID
  5
3C5
330
3B5
100
AcDbEntity
  8
HATCH
  6
CONTINUOUS
 62
     2
100
AcDbTrace
 10
5846.425058556139
 20
2271.416699620067
 30
0.0
 11
5846.425058556139
 21
2227.874971354733
 31
0.0
 12
7687.947554074104
 22
2271.416699620067
 32
0.0
 13
7687.947554074104
 23
2271.416699620067
 33
0.0
210
0.0
220
0.0
230
1.0
  0
SOLID
  5
3C6
330
3B5
100
AcDbEntity
  8
HATCH
  6
CONTINUOUS
 62
     2
100
AcDbTrace
 10
7687.947554074104
 20
2227.874971354733
 30
0.0
 11
7687.947554074104
 21
2271.416699620067
 31
0.0
 12
5846.425058556139
 22
2227.874971354733
 32
0.0
 13
5846.425058556139
 23
2227.874971354733
 33
0.0
210
0.0
220
0.0
230
1.0
  0
ENDBLK
  5
3C8
330
3B5
100
AcDbEntity
  8
0
100
AcDbBlockEnd
  0
BLOCK
  5
3CE
330
3C9
100
AcDbEntity
  8
0
100
AcDbBlockBegin
  2
*U5
 70
     1
 10
0.0
 20
0.0
 30
0.0
  3
*U5
  1

  0
SOLID
  5
3CA
330
3C9
100
AcDbEntity
  8
HATCH
  6
CONTINUOUS
 62
     1
100
AcDbTrace
 10
4447.850247672042
 20
5105.293126775745
 30
0.0
 11
4257.05233647237
 21
5079.514854719251
 31
0.0
 12
4376.866267972448
 22
5003.316822057444
 32
0.0
 13
4376.866267972448
 23
5003.316822057444
 33
0.0
210
0.0
220
0.0
230
1.0
  0
SOLID
  5
3CB
330
3C9
100
AcDbEntity
  8
HATCH
  6
CONTINUOUS
 62
     1
100
AcDbTrace
 10
1949.982406361829
 20
5105.293126775745
 30
0.0
 11
2020.966386061427
 21
5003.316822057442
 31
0.0
 12
2140.780317561503
 22
5079.514854719251
 32
0.0
 13
2140.780317561503
 23
5079.514854719251
 33
0.0
  0
SOLID
  5
3CC
330
3C9
100
AcDbEntity
  8
HATCH
  6
CONTINUOUS
 62
     1
100
AcDbTrace
 10
4328.036316171966
 20
5181.491159437551
 30
0.0
 11
4257.05233647237
 21
5079.514854719251
 31
0.0
 12
4447.850247672042
 22
5105.293126775745
 32
0.0
 13
4447.850247672042
 23
5105.293126775745
 33
0.0
210
0.0
220
0.0
230
1.0
  0
SOLID
  5
3CD
330
3C9
100
AcDbEntity
  8
HATCH
  6
CONTINUOUS
 62
     1
100
AcDbTrace
 10
2069.796337861906
 20
5181.491159437553
 30
0.0
 11
1949.982406361829
 21
5105.293126775745
 31
0.0
 12
2140.780317561503
 22
5079.514854719251
 32
0.0
 13
2140.780317561503
 23
5079.514854719251
 33
0.0
210
0.0
220
0.0
230
1.0
  0
ENDBLK
  5
3CF
330
3C9
100
AcDbEntity
  8
0
100
AcDbBlockEnd
  0
BLOCK
  5
3DE
330
3D0
100
AcDbEntity
  8
0
100
AcDbBlockBegin
  2
*U6
 70
     1
 10
0.0
 20
0.0
 30
0.0
  3
*U6
  1

  0
SOLID
  5
3D1
330
3D0
100
AcDbEntity
  8
HATCH
  6
CONTINUOUS
 62
   251
100
AcDbTrace
 10
4132.941216173017
 20
1661.242478515637
 30
0.0
 11
4294.877143949927
 21
1606.818609742401
 31
0.0
 12
4465.713785568392
 22
1607.028556732947
 32
0.0
 13
4465.713785568392
 23
1607.028556732947
 33
0.0
210
0.0
220
0.0
230
1.0
  0
SOLID
  5
3D2
330
3D0
100
AcDbEntity
  8
HATCH
  6
CONTINUOUS
 62
   251
100
AcDbTrace
 10
4627.515457704463
 20
1661.85027771274
 30
0.0
 11
4132.941216173017
 21
1661.242478515637
 31
0.0
 12
4465.713785568392
 22
1607.028556732947
 32
0.0
 13
4465.713785568392
 23
1607.028556732947
 33
0.0
210
0.0
220
0.0
230
1.0
  0
SOLID
  5
3D3
330
3D0
100
AcDbEntity
  8
HATCH
  6
CONTINUOUS
 62
   251
100
AcDbTrace
 10
3996.907223356629
 20
1764.586346237169
 30
0.0
 11
4132.941216173017
 21
1661.242478515637
 31
0.0
 12
4627.515457704463
 22
1661.85027771274
 32
0.0
 13
4627.515457704463
 23
1661.85027771274
 33
0.0
210
0.0
220
0.0
230
1.0
  0
SOLID
  5
3D4
330
3D0
100
AcDbEntity
  8
HATCH
  6
CONTINUOUS
 62
   251
100
AcDbTrace
 10
4763.2950343808
 20
1765.528186424333
 30
0.0
 11
3996.907223356629
 21
1764.586346237169
 31
0.0
 12
4627.515457704463
 22
1661.85027771274
 32
0.0
 13
4627.515457704463
 23
1661.85027771274
 33
0.0
  0
SOLID
  5
3D5
330
3D0
100
AcDbEntity
  8
HATCH
  6
CONTINUOUS
 62
   251
100
AcDbTrace
 10
3901.057011557512
 20
1906.000415888245
 30
0.0
 11
3996.907223356629
 21
1764.586346237169
 31
0.0
 12
4763.2950343808
 22
1765.528186424333
 32
0.0
 13
4763.2950343808
 23
1765.528186424333
 33
0.0
210
0.0
220
0.0
230
1.0
  0
SOLID
  5
3D6
330
3D0
100
AcDbEntity
  8
HATCH
  6
CONTINUOUS
 62
   251
100
AcDbTrace
 10
4858.797380012584
 20
1907.177415776428
 30
0.0
 11
3901.057011557512
 21
1906.000415888245
 31
0.0
 12
4763.2950343808
 22
1765.528186424333
 32
0.0
 13
4763.2950343808
 23
1765.528186424333
 33
0.0
210
0.0
220
0.0
230
1.0
  0
SOLID
  5
3D7
330
3D0
100
AcDbEntity
  8
HATCH
  6
CONTINUOUS
 62
   251
100
AcDbTrace
 10
3901.057011557512
 20
1906.000415888245
 30
0.0
 11
4858.797380012584
 21
1907.177415776428
 31
0.0
 12
4653.731644067888
 22
1907.177415776428
 32
0.0
 13
4653.731644067888
 23
1907.177415776428
 33
0.0
210
0.0
220
0.0
230
1.0
  0
SOLID
  5
3D8
330
3D0
100
AcDbEntity
  8
HATCH
  6
CONTINUOUS
 62
   251
100
AcDbTrace
 10
3855.45363884726
 20
2070.638001495738
 30
0.0
 11
3901.057011557512
 21
1906.000415888245
 31
0.0
 12
4653.731644067888
 22
1907.177415776428
 32
0.0
 13
4653.731644067888
 23
1907.177415776428
 33
0.0
  0
SOLID
  5
3D9
330
3D0
100
AcDbEntity
  8
HATCH
  6
CONTINUOUS
 62
   251
100
AcDbTrace
 10
3864.884881686979
 20
2241.214242091295
 30
0.0
 11
3013.9400778601
 21
2241.214242091229
 31
0.0
 12
3838.548888334811
 22
2241.214242091229
 32
0.0
 13
3838.548888334811
 23
2241.214242091229
 33
0.0
210
0.0
220
0.0
230
1.0
  0
SOLID
  5
3DA
330
3D0
100
AcDbEntity
  8
HATCH
  6
CONTINUOUS
 62
   251
100
AcDbTrace
 10
3864.884881686979
 20
2241.214242091295
 30
0.0
 11
3855.45363884726
 21
2070.638001495738
 31
0.0
 12
4653.731644067888
 22
1907.177415776428
 32
0.0
 13
4653.731644067888
 23
1907.177415776428
 33
0.0
210
0.0
220
0.0
230
1.0
  0
SOLID
  5
3DB
330
3D0
100
AcDbEntity
  8
HATCH
  6
CONTINUOUS
 62
   251
100
AcDbTrace
 10
4653.731644067888
 20
2776.782443143615
 30
0.0
 11
3864.884881686979
 21
2241.214242091295
 31
0.0
 12
4653.731644067888
 22
1907.177415776428
 32
0.0
 13
4653.731644067888
 23
1907.177415776428
 33
0.0
210
0.0
220
0.0
230
1.0
  0
SOLID
  5
3DC
330
3D0
100
AcDbEntity
  8
HATCH
  6
CONTINUOUS
 62
   251
100
AcDbTrace
 10
3013.9400778601
 20
2776.782443143615
 30
0.0
 11
3864.884881686979
 21
2241.214242091295
 31
0.0
 12
4653.731644067888
 22
2776.782443143615
 32
0.0
 13
4653.731644067888
 23
2776.782443143615
 33
0.0
210
0.0
220
0.0
230
1.0
  0
SOLID
  5
3DD
330
3D0
100
AcDbEntity
  8
HATCH
  6
CONTINUOUS
 62
   251
100
AcDbTrace
 10
3013.9400778601
 20
2776.782443143615
 30
0.0
 11
3013.9400778601
 21
2241.214242091229
 31
0.0
 12
3864.884881686979
 22
2241.214242091295
 32
0.0
 13
3864.884881686979
 23
2241.214242091295
 33
0.0
210
0.0
220
0.0
230
1.0
  0
ENDBLK
  5
3DF
330
3D0
100
AcDbEntity
  8
0
100
AcDbBlockEnd
  0
BLOCK
  5
3E5
330
3E0
100
AcDbEntity
  8
0
100
AcDbBlockBegin
  2
*U7
 70
     1
 10
0.0
 20
0.0
 30
0.0
  3
*U7
  1

  0
SOLID
  5
3E1
330
3E0
100
AcDbEntity
  8
HATCH
  6
CONTINUOUS
 62
     2
100
AcDbTrace
 10
2864.85461678321
 20
2217.412274753038
 30
0.0
 11
2864.85461678321
 21
2146.656954025657
 31
0.0
 12
2913.9400778601
 22
2146.656954025657
 32
0.0
 13
2913.9400778601
 23
2146.656954025657
 33
0.0
210
0.0
220
0.0
230
1.0
  0
SOLID
  5
3E2
330
3E0
100
AcDbEntity
  8
HATCH
  6
CONTINUOUS
 62
     2
100
AcDbTrace
 10
2913.9400778601
 20
2217.412274753038
 30
0.0
 11
2864.85461678321
 21
2217.412274753038
 31
0.0
 12
2913.9400778601
 22
2146.656954025657
 32
0.0
 13
2913.9400778601
 23
2146.656954025657
 33
0.0
210
0.0
220
0.0
230
1.0
  0
SOLID
  5
3E3
330
3E0
100
AcDbEntity
  8
HATCH
  6
CONTINUOUS
 62
     2
100
AcDbTrace
 10
2913.9400778601
 20
2797.581217209048
 30
0.0
 11
2913.9400778601
 21
2876.782443143616
 31
0.0
 12
2864.85461678321
 22
2876.782443143616
 32
0.0
 13
2864.85461678321
 23
2876.782443143616
 33
0.0
210
0.0
220
0.0
230
1.0
  0
SOLID
  5
3E4
330
3E0
100
AcDbEntity
  8
HATCH
  6
CONTINUOUS
 62
     2
100
AcDbTrace
 10
2864.85461678321
 20
2876.782443143616
 30
0.0
 11
2864.85461678321
 21
2797.581217209048
 31
0.0
 12
2913.9400778601
 22
2797.581217209048
 32
0.0
 13
2913.9400778601
 23
2797.581217209048
 33
0.0
210
0.0
220
0.0
230
1.0
  0
ENDBLK
  5
3E6
330
3E0
100
AcDbEntity
  8
0
100
AcDbBlockEnd
  0
BLOCK
  5
3EC
330
3E7
100
AcDbEntity
  8
0
100
AcDbBlockBegin
  2
*U8
 70
     1
 10
0.0
 20
0.0
 30
0.0
  3
*U8
  1

  0
SOLID
  5
3E8
330
3E7
100
AcDbEntity
  8
HATCH
  6
CONTINUOUS
 62
   251
100
AcDbTrace
 10
3198.594422445045
 20
3694.378899717108
 30
0.0
 11
3259.532972689751
 21
4511.975356290601
 31
0.0
 12
3137.655872200339
 22
4511.975356290601
 32
0.0
 13
3137.655872200339
 23
4511.975356290601
 33
0.0
210
0.0
220
0.0
230
1.0
  0
SOLID
  5
3E9
330
3E7
100
AcDbEntity
  8
HATCH
  6
CONTINUOUS
 62
   251
100
AcDbTrace
 10
3198.594422445045
 20
3694.378899717108
 30
0.0
 11
3137.655872200339
 21
4511.975356290601
 31
0.0
 12
3137.655872200339
 22
2876.782443143616
 32
0.0
 13
3137.655872200339
 23
2876.782443143616
 33
0.0
210
0.0
220
0.0
230
1.0
  0
SOLID
  5
3EA
330
3E7
100
AcDbEntity
  8
HATCH
  6
CONTINUOUS
 62
   251
100
AcDbTrace
 10
3198.594422445045
 20
3694.378899717108
 30
0.0
 11
3137.655872200339
 21
2876.782443143616
 31
0.0
 12
3259.532972689751
 22
2876.782443143616
 32
0.0
 13
3259.532972689751
 23
2876.782443143616
 33
0.0
210
0.0
220
0.0
230
1.0
  0
SOLID
  5
3EB
330
3E7
100
AcDbEntity
  8
HATCH
  6
CONTINUOUS
 62
   251
100
AcDbTrace
 10
3198.594422445045
 20
3694.378899717108
 30
0.0
 11
3259.532972689751
 21
2876.782443143616
 31
0.0
 12
3259.532972689751
 22
4511.975356290601
 32
0.0
 13
3259.532972689751
 23
4511.975356290601
 33
0.0
210
0.0
220
0.0
230
1.0
  0
ENDBLK
  5
3ED
330
3E7
100
AcDbEntity
  8
0
100
AcDbBlockEnd
  0
BLOCK
  5
409
330
3EE
100
AcDbEntity
  8
0
100
AcDbBlockBegin
  2
*U9
 70
     1
 10
0.0
 20
0.0
 30
0.0
  3
*U9
  1

  0
SOLID
  5
3EF
330
3EE
100
AcDbEntity
  8
HATCH
  6
CONTINUOUS
 62
     2
100
AcDbTrace
 10
2992.915026202287
 20
4402.496642060007
 30
0.0
 11
3070.475471849428
 21
4392.297223962486
 31
0.0
 12
3137.655872200339
 22
4392.297223962487
 32
0.0
 13
3137.655872200339
 23
4392.297223962487
 33
0.0
210
0.0
220
0.0
230
1.0
  0
SOLID
  5
3F0
330
3EE
100
AcDbEntity
  8
HATCH
  6
CONTINUOUS
 62
     2
100
AcDbTrace
 10
3404.917627831606
 20
4402.496642060008
 30
0.0
 11
3259.53297268975
 21
4392.297223962486
 31
0.0
 12
3327.357182184459
 22
4392.297223962486
 32
0.0
 13
3327.357182184459
 23
4392.297223962486
 33
0.0
210
0.0
220
0.0
230
1.0
  0
SOLID
  5
3F1
330
3EE
100
AcDbEntity
  8
HATCH
  6
CONTINUOUS
 62
     2
100
AcDbTrace
 10
2920.628389975048
 20
4432.401375489045
 30
0.0
 11
2992.915026202287
 21
4402.496642060007
 31
0.0
 12
3137.655872200339
 22
4392.297223962487
 32
0.0
 13
3137.655872200339
 23
4392.297223962487
 33
0.0
210
0.0
220
0.0
230
1.0
  0
SOLID
  5
3F2
330
3EE
100
AcDbEntity
  8
HATCH
  6
CONTINUOUS
 62
     2
100
AcDbTrace
 10
3477.204264058851
 20
4432.401375489049
 30
0.0
 11
3259.53297268975
 21
4392.297223962486
 31
0.0
 12
3404.917627831606
 22
4402.496642060008
 32
0.0
 13
3404.917627831606
 23
4402.496642060008
 33
0.0
  0
SOLID
  5
3F3
330
3EE
100
AcDbEntity
  8
HATCH
  6
CONTINUOUS
 62
     2
100
AcDbTrace
 10
3137.655872200339
 20
4462.109697353058
 30
0.0
 11
2920.628389975048
 21
4432.401375489045
 31
0.0
 12
3137.655872200339
 22
4392.297223962487
 32
0.0
 13
3137.655872200339
 23
4392.297223962487
 33
0.0
210
0.0
220
0.0
230
1.0
  0
SOLID
  5
3F4
330
3EE
100
AcDbEntity
  8
HATCH
  6
CONTINUOUS
 62
     2
100
AcDbTrace
 10
3259.532972689751
 20
4462.151412883561
 30
0.0
 11
3259.53297268975
 21
4392.297223962486
 31
0.0
 12
3477.204264058851
 22
4432.401375489049
 32
0.0
 13
3477.204264058851
 23
4432.401375489049
 33
0.0
210
0.0
220
0.0
230
1.0
  0
SOLID
  5
3F5
330
3EE
100
AcDbEntity
  8
HATCH
  6
CONTINUOUS
 62
     2
100
AcDbTrace
 10
3346.042380154493
 20
4469.031864798227
 30
0.0
 11
3259.532972689751
 21
4462.151412883561
 31
0.0
 12
3477.204264058851
 22
4432.401375489049
 32
0.0
 13
3477.204264058851
 23
4432.401375489049
 33
0.0
  0
SOLID
  5
3F6
330
3EE
100
AcDbEntity
  8
HATCH
  6
CONTINUOUS
 62
     2
100
AcDbTrace
 10
3051.47582884369
 20
4469.103850556433
 30
0.0
 11
2920.628389975048
 21
4432.401375489045
 31
0.0
 12
3137.655872200339
 22
4462.109697353058
 32
0.0
 13
3137.655872200339
 23
4462.109697353058
 33
0.0
210
0.0
220
0.0
230
1.0
  0
SOLID
  5
3F7
330
3EE
100
AcDbEntity
  8
HATCH
  6
CONTINUOUS
 62
     2
100
AcDbTrace
 10
3426.962809532165
 20
4500.386327124727
 30
0.0
 11
3346.042380154493
 21
4469.031864798227
 31
0.0
 12
3477.204264058851
 22
4432.401375489049
 32
0.0
 13
3477.204264058851
 23
4432.401375489049
 33
0.0
210
0.0
220
0.0
230
1.0
  0
SOLID
  5
3F8
330
3EE
100
AcDbEntity
  8
HATCH
  6
CONTINUOUS
 62
     2
100
AcDbTrace
 10
2970.869844501705
 20
4500.386327124728
 30
0.0
 11
2920.628389975048
 21
4432.401375489045
 31
0.0
 12
3051.47582884369
 22
4469.103850556433
 32
0.0
 13
3051.47582884369
 23
4469.103850556433
 33
0.0
210
0.0
220
0.0
230
1.0
  0
SOLID
  5
3F9
330
3EE
100
AcDbEntity
  8
HATCH
  6
CONTINUOUS
 62
     2
100
AcDbTrace
 10
2198.671459889047
 20
4848.657117348028
 30
0.0
 11
2920.628389975048
 21
4432.401375489045
 31
0.0
 12
2970.869844501705
 22
4500.386327124728
 32
0.0
 13
2970.869844501705
 23
4500.386327124728
 33
0.0
210
0.0
220
0.0
230
1.0
  0
SOLID
  5
3FA
330
3EE
100
AcDbEntity
  8
HATCH
  6
CONTINUOUS
 62
     2
100
AcDbTrace
 10
4199.161194144869
 20
4848.65711734806
 30
0.0
 11
3426.962809532165
 21
4500.386327124727
 31
0.0
 12
3477.204264058851
 22
4432.401375489049
 32
0.0
 13
3477.204264058851
 23
4432.401375489049
 33
0.0
210
0.0
220
0.0
230
1.0
  0
SOLID
  5
3FB
330
3EE
100
AcDbEntity
  8
HATCH
  6
CONTINUOUS
 62
     2
100
AcDbTrace
 10
2145.600019587251
 20
4887.591264710544
 30
0.0
 11
2198.671459889047
 21
4848.657117348028
 31
0.0
 12
2970.869844501705
 22
4500.386327124728
 32
0.0
 13
2970.869844501705
 23
4500.386327124728
 33
0.0
  0
SOLID
  5
3FC
330
3EE
100
AcDbEntity
  8
HATCH
  6
CONTINUOUS
 62
     2
100
AcDbTrace
 10
4252.232634446655
 20
4887.591264710571
 30
0.0
 11
3426.962809532165
 21
4500.386327124727
 31
0.0
 12
4199.161194144869
 22
4848.65711734806
 32
0.0
 13
4199.161194144869
 23
4848.65711734806
 33
0.0
210
0.0
220
0.0
230
1.0
  0
SOLID
  5
3FD
330
3EE
100
AcDbEntity
  8
HATCH
  6
CONTINUOUS
 62
     2
100
AcDbTrace
 10
4157.689141588884
 20
4913.748929233909
 30
0.0
 11
3426.962809532165
 21
4500.386327124727
 31
0.0
 12
4252.232634446655
 22
4887.591264710571
 32
0.0
 13
4252.232634446655
 23
4887.591264710571
 33
0.0
210
0.0
220
0.0
230
1.0
  0
SOLID
  5
3FE
330
3EE
100
AcDbEntity
  8
HATCH
  6
CONTINUOUS
 62
     2
100
AcDbTrace
 10
2240.143512444988
 20
4913.748929233911
 30
0.0
 11
2145.600019587251
 21
4887.591264710544
 31
0.0
 12
2970.869844501705
 22
4500.386327124728
 32
0.0
 13
2970.869844501705
 23
4500.386327124728
 33
0.0
210
0.0
220
0.0
230
1.0
  0
SOLID
  5
3FF
330
3EE
100
AcDbEntity
  8
HATCH
  6
CONTINUOUS
 62
     2
100
AcDbTrace
 10
2102.296728839789
 20
4937.162129308552
 30
0.0
 11
2145.600019587251
 21
4887.591264710544
 31
0.0
 12
2240.143512444988
 22
4913.748929233911
 32
0.0
 13
2240.143512444988
 23
4913.748929233911
 33
0.0
210
0.0
220
0.0
230
1.0
  0
SOLID
  5
400
330
3EE
100
AcDbEntity
  8
HATCH
  6
CONTINUOUS
 62
     2
100
AcDbTrace
 10
4295.535925194108
 20
4937.162129308571
 30
0.0
 11
4157.689141588884
 21
4913.748929233909
 31
0.0
 12
4252.232634446655
 22
4887.591264710571
 32
0.0
 13
4252.232634446655
 23
4887.591264710571
 33
0.0
210
0.0
220
0.0
230
1.0
  0
SOLID
  5
401
330
3EE
100
AcDbEntity
  8
HATCH
  6
CONTINUOUS
 62
     2
100
AcDbTrace
 10
2185.843119314524
 20
4953.073101273999
 30
0.0
 11
2102.296728839789
 21
4937.162129308552
 31
0.0
 12
2240.143512444988
 22
4913.748929233911
 32
0.0
 13
2240.143512444988
 23
4913.748929233911
 33
0.0
210
0.0
220
0.0
230
1.0
  0
SOLID
  5
402
330
3EE
100
AcDbEntity
  8
HATCH
  6
CONTINUOUS
 62
     2
100
AcDbTrace
 10
4211.989534719353
 20
4953.073101274003
 30
0.0
 11
4157.689141588884
 21
4913.748929233909
 31
0.0
 12
4295.535925194108
 22
4937.162129308571
 32
0.0
 13
4295.535925194108
 23
4937.162129308571
 33
0.0
210
0.0
220
0.0
230
1.0
  0
SOLID
  5
403
330
3EE
100
AcDbEntity
  8
HATCH
  6
CONTINUOUS
 62
     2
100
AcDbTrace
 10
2141.631858605717
 20
5003.474367401938
 30
0.0
 11
2102.296728839789
 21
4937.162129308552
 31
0.0
 12
2185.843119314524
 22
4953.073101273999
 32
0.0
 13
2185.843119314524
 23
4953.073101273999
 33
0.0
210
0.0
220
0.0
230
1.0
  0
SOLID
  5
404
330
3EE
100
AcDbEntity
  8
HATCH
  6
CONTINUOUS
 62
     2
100
AcDbTrace
 10
4256.200795428163
 20
5003.474367401948
 30
0.0
 11
4211.989534719353
 21
4953.073101274003
 31
0.0
 12
4295.535925194108
 22
4937.162129308571
 32
0.0
 13
4295.535925194108
 23
4937.162129308571
 33
0.0
210
0.0
220
0.0
230
1.0
  0
SOLID
  5
405
330
3EE
100
AcDbEntity
  8
HATCH
  6
CONTINUOUS
 62
     2
100
AcDbTrace
 10
4350.740750603254
 20
5016.469941038325
 30
0.0
 11
4256.200795428163
 21
5003.474367401948
 31
0.0
 12
4295.535925194108
 22
4937.162129308571
 32
0.0
 13
4295.535925194108
 23
4937.162129308571
 33
0.0
210
0.0
220
0.0
230
1.0
  0
SOLID
  5
406
330
3EE
100
AcDbEntity
  8
HATCH
  6
CONTINUOUS
 62
     2
100
AcDbTrace
 10
2045.421560541282
 20
5018.869572563468
 30
0.0
 11
2102.296728839789
 21
4937.162129308552
 31
0.0
 12
2141.631858605717
 22
5003.474367401938
 32
0.0
 13
2141.631858605717
 23
5003.474367401938
 33
0.0
  0
SOLID
  5
407
330
3EE
100
AcDbEntity
  8
HATCH
  6
CONTINUOUS
 62
     2
100
AcDbTrace
 10
4293.150899600433
 20
5056.557261575966
 30
0.0
 11
4256.200795428163
 21
5003.474367401948
 31
0.0
 12
4350.740750603254
 22
5016.469941038325
 32
0.0
 13
4350.740750603254
 23
5016.469941038325
 33
0.0
210
0.0
220
0.0
230
1.0
  0
SOLID
  5
408
330
3EE
100
AcDbEntity
  8
HATCH
  6
CONTINUOUS
 62
     2
100
AcDbTrace
 10
2103.011411544097
 20
5058.95689310111
 30
0.0
 11
2045.421560541282
 21
5018.869572563468
 31
0.0
 12
2141.631858605717
 22
5003.474367401938
 32
0.0
 13
2141.631858605717
 23
5003.474367401938
 33
0.0
  0
ENDBLK
  5
40A
330
3EE
100
AcDbEntity
  8
0
100
AcDbBlockEnd
  0
ENDSEC
  0
SECTION
  2
ENTITIES
  0
MTEXT
  5
1DB
330
1F
100
AcDbEntity
  8
TEKST
100
AcDbMText
 10
2287.32314413094
 20
6070.668588324431
 30
0.0
 40
100.0
 41
1991.156099999999
 71
     1
 72
     1
  1
{\FIMPACT.TTF;Hoogte: 243 cm\PMax. valhoogte Klimgedeelte: 215 cm\PMax. valhoogte Glijgedeelte: 90 cm}
1001
ACAD
1000
MTEXTBEGIN
1070
    73
1070
     1
1070
    44
1040
1.0
1070
    74
1070
     0
1000
MTEXTEND
1000
MTEXTBEGIN
1070
    73
1070
     1
1070
    44
1040
1.0
1070
    74
1070
     0
1000
MTEXTEND
  0
INSERT
  5
348
330
1F
100
AcDbEntity
  8
OBJECT
100
AcDbBlockReference
  2
ADKD0
 10
0.0
 20
0.0
 30
0.0
  0
ENDSEC
  0
SECTION
  2
OBJECTS
  0
DICTIONARY
  5
C
330
0
100
AcDbDictionary
  3
ACAD_GROUP
350
D
  3
ACAD_LAYOUT
350
1A
  3
ACAD_MLINESTYLE
350
17
  3
ACAD_PLOTSETTINGS
350
19
1001
ACAD
1000
TREAT_AS_HARD
1070
     0
1000
TREAT_AS_HARD
1070
     0
  0
DICTIONARY
  5
13C
330
1F
100
AcDbDictionary
  3
ACAD_LAYOUTSELFREF
350
34A
  3
ACAD_SORTENTS
350
27F
1001
ACAD
1000
TREAT_AS_HARD
1070
     1
1000
TREAT_AS_HARD
1070
     1
  0
DICTIONARY
  5
13E
330
50
100
AcDbDictionary
  3
ACAD_LAYOUTSELFREF
350
34B
1001
ACAD
1000
TREAT_AS_HARD
1070
     1
1000
TREAT_AS_HARD
1070
     1
  0
DICTIONARY
  5
D
102
{ACAD_REACTORS
330
C
102
}
330
C
100
AcDbDictionary
1001
ACAD
1000
TREAT_AS_HARD
1070
     0
1000
TREAT_AS_HARD
1070
     0
  0
DICTIONARY
  5
1A
102
{ACAD_REACTORS
330
C
102
}
330
C
100
AcDbDictionary
1001
ACAD
1000
TREAT_AS_HARD
1070
     0
1000
TREAT_AS_HARD
1070
     0
  0
DICTIONARY
  5
17
102
{ACAD_REACTORS
330
C
102
}
330
C
100
AcDbDictionary
  3
STANDARD
350
18
1001
ACAD
1000
TREAT_AS_HARD
1070
     0
1000
TREAT_AS_HARD
1070
     0
  0
DICTIONARY
  5
19
102
{ACAD_REACTORS
330
C
102
}
330
C
100
AcDbDictionary
1001
ACAD
1000
TREAT_AS_HARD
1070
     0
1000
TREAT_AS_HARD
1070
     0
  0
XRECORD
  5
34A
102
{ACAD_REACTORS
330
13C
102
}
330
13C
100
AcDbXrecord
340
1F
  0
SORTENTSTABLE
  5
27F
102
{ACAD_REACTORS
330
13C
102
}
330
13C
100
AcDbSortentsTable
330
1F
331
239
  5
23F
331
20A
  5
210
331
24A
  5
24D
331
21B
  5
223
331
237
  5
23D
331
208
  5
20E
331
248
  5
24B
331
226
  5
22D
331
219
  5
221
331
235
  5
23B
331
2A1
  5
2B5
331
246
  5
249
331
224
  5
22C
331
217
  5
21D
331
206
  5
20C
331
255
  5
29F
331
244
  5
247
331
222
  5
22A
331
215
  5
21B
331
29F
  5
1FA
331
253
  5
261
331
213
  5
219
331
242
  5
1FD
331
251
  5
254
331
211
  5
217
331
22F
  5
237
331
200
  5
208
331
240
  5
1FB
331
23E
  5
244
331
20F
  5
215
331
24F
  5
252
331
22D
  5
235
331
1FE
  5
206
331
23C
  5
242
331
20D
  5
213
331
24D
  5
250
331
22B
  5
232
331
21E
  5
227
331
1FC
  5
203
331
23A
  5
240
331
20B
  5
211
331
24B
  5
24E
331
229
  5
22F
331
21C
  5
224
331
1FA
  5
200
331
27E
  5
1FE
331
238
  5
23E
331
209
  5
20F
331
249
  5
24C
331
227
  5
22E
331
21A
  5
222
331
2B5
  5
1DB
331
236
  5
23C
331
247
  5
24A
331
218
  5
21E
331
207
  5
20D
331
234
  5
23A
331
2A0
  5
2A1
331
245
  5
248
331
223
  5
22B
331
216
  5
21C
331
205
  5
20B
331
254
  5
27E
331
232
  5
239
331
243
  5
246
331
221
  5
229
331
214
  5
21A
331
203
  5
20A
331
252
  5
255
331
230
  5
238
331
201
  5
209
331
241
  5
1FC
331
212
  5
218
331
250
  5
253
331
261
  5
2A0
331
23F
  5
245
331
210
  5
216
331
22E
  5
236
331
1DB
  5
1FF
331
1FF
  5
207
331
23D
  5
243
331
20E
  5
214
331
24E
  5
251
331
22C
  5
234
331
1FD
  5
205
331
23B
  5
241
331
20C
  5
212
331
24C
  5
24F
331
22A
  5
230
331
21D
  5
226
331
1FB
  5
201
  0
XRECORD
  5
34B
102
{ACAD_REACTORS
330
13E
102
}
330
13E
100
AcDbXrecord
340
50
  0
MLINESTYLE
  5
18
102
{ACAD_REACTORS
330
17
102
}
330
17
100
AcDbMlineStyle
  2
STANDARD
 70
     0
  3

 62
   256
 51
90.0
 52
90.0
 71
     2
 49
0.5
 62
   256
  6
BYLAYER
 49
-0.5
 62
   256
  6
BYLAYER
  0
ENDSEC
  0
EOF
