  0
SECTION
  2
HEADER
  9
$ACADVER
  1
AC1014
  9
$ACADMAINTVER
 70
     9
  9
$DWGCODEPAGE
  3
ANSI_1252
  9
$INSBASE
 10
0.0
 20
0.0
 30
0.0
  9
$EXTMIN
 10
-0.2310280247984338
 20
-0.1635847610577912
 30
-0.0015258207003583
  9
$EXTMAX
 10
7570.231023004467
 20
5359.041853036003
 30
0.0000000349246037
  9
$LIMMIN
 10
0.0
 20
0.0
  9
$LIMMAX
 10
420.0
 20
297.0
  9
$ORTHOMODE
 70
     0
  9
$REGENMODE
 70
     1
  9
$FILLMODE
 70
     1
  9
$QTEXTMODE
 70
     0
  9
$MIRRTEXT
 70
     1
  9
$DRAGMODE
 70
     2
  9
$LTSCALE
 40
1.0
  9
$OSMODE
 70
   511
  9
$ATTMODE
 70
     1
  9
$TEXTSIZE
 40
2.5
  9
$TRACEWID
 40
1.0
  9
$TEXTSTYLE
  7
STANDARD
  9
$CLAYER
  8
0
  9
$CELTYPE
  6
BYLAYER
  9
$CECOLOR
 62
   256
  9
$CELTSCALE
 40
1.0
  9
$DELOBJ
 70
     1
  9
$DISPSILH
 70
     0
  9
$DIMSCALE
 40
1.0
  9
$DIMASZ
 40
2.5
  9
$DIMEXO
 40
0.625
  9
$DIMDLI
 40
3.75
  9
$DIMRND
 40
0.0
  9
$DIMDLE
 40
0.0
  9
$DIMEXE
 40
1.25
  9
$DIMTP
 40
0.0
  9
$DIMTM
 40
0.0
  9
$DIMTXT
 40
2.5
  9
$DIMCEN
 40
2.5
  9
$DIMTSZ
 40
0.0
  9
$DIMTOL
 70
     0
  9
$DIMLIM
 70
     0
  9
$DIMTIH
 70
     0
  9
$DIMTOH
 70
     0
  9
$DIMSE1
 70
     0
  9
$DIMSE2
 70
     0
  9
$DIMTAD
 70
     1
  9
$DIMZIN
 70
     8
  9
$DIMBLK
  1

  9
$DIMASO
 70
     1
  9
$DIMSHO
 70
     1
  9
$DIMPOST
  1

  9
$DIMAPOST
  1

  9
$DIMALT
 70
     0
  9
$DIMALTD
 70
     3
  9
$DIMALTF
 40
0.03937007874016
  9
$DIMLFAC
 40
1.0
  9
$DIMTOFL
 70
     1
  9
$DIMTVP
 40
0.0
  9
$DIMTIX
 70
     0
  9
$DIMSOXD
 70
     0
  9
$DIMSAH
 70
     0
  9
$DIMBLK1
  1

  9
$DIMBLK2
  1

  9
$DIMSTYLE
  2
ISO-25
  9
$DIMCLRD
 70
     0
  9
$DIMCLRE
 70
     0
  9
$DIMCLRT
 70
     0
  9
$DIMTFAC
 40
1.0
  9
$DIMGAP
 40
0.625
  9
$DIMJUST
 70
     0
  9
$DIMSD1
 70
     0
  9
$DIMSD2
 70
     0
  9
$DIMTOLJ
 70
     0
  9
$DIMTZIN
 70
     8
  9
$DIMALTZ
 70
     0
  9
$DIMALTTZ
 70
     0
  9
$DIMFIT
 70
     3
  9
$DIMUPT
 70
     0
  9
$DIMUNIT
 70
     2
  9
$DIMDEC
 70
     2
  9
$DIMTDEC
 70
     2
  9
$DIMALTU
 70
     2
  9
$DIMALTTD
 70
     3
  9
$DIMTXSTY
  7
STANDARD
  9
$DIMAUNIT
 70
     0
  9
$LUNITS
 70
     2
  9
$LUPREC
 70
     4
  9
$SKETCHINC
 40
1.0
  9
$FILLETRAD
 40
10.0
  9
$AUNITS
 70
     0
  9
$AUPREC
 70
     0
  9
$MENU
  1
.
  9
$ELEVATION
 40
0.0
  9
$PELEVATION
 40
0.0
  9
$THICKNESS
 40
0.0
  9
$LIMCHECK
 70
     0
  9
$BLIPMODE
 70
     0
  9
$CHAMFERA
 40
10.0
  9
$CHAMFERB
 40
10.0
  9
$CHAMFERC
 40
20.0
  9
$CHAMFERD
 40
0.0
  9
$SKPOLY
 70
     0
  9
$TDCREATE
 40
2453124.503201493
  9
$TDUPDATE
 40
2453186.695310856
  9
$TDINDWG
 40
0.0013906829
  9
$TDUSRTIMER
 40
0.0013904977
  9
$USRTIMER
 70
     1
  9
$ANGBASE
 50
0.0
  9
$ANGDIR
 70
     0
  9
$PDMODE
 70
     0
  9
$PDSIZE
 40
0.0
  9
$PLINEWID
 40
0.0
  9
$COORDS
 70
     2
  9
$SPLFRAME
 70
     0
  9
$SPLINETYPE
 70
     6
  9
$SPLINESEGS
 70
     8
  9
$ATTDIA
 70
     0
  9
$ATTREQ
 70
     1
  9
$HANDLING
 70
-16383
  9
$HANDSEED
  5
25F
  9
$SURFTAB1
 70
     6
  9
$SURFTAB2
 70
     6
  9
$SURFTYPE
 70
     6
  9
$SURFU
 70
     6
  9
$SURFV
 70
     6
  9
$UCSNAME
  2

  9
$UCSORG
 10
0.0
 20
0.0
 30
0.0
  9
$UCSXDIR
 10
1.0
 20
0.0
 30
0.0
  9
$UCSYDIR
 10
0.0
 20
1.0
 30
0.0
  9
$PUCSNAME
  2

  9
$PUCSORG
 10
0.0
 20
0.0
 30
0.0
  9
$PUCSXDIR
 10
1.0
 20
0.0
 30
0.0
  9
$PUCSYDIR
 10
0.0
 20
1.0
 30
0.0
  9
$USERI1
 70
     0
  9
$USERI2
 70
     0
  9
$USERI3
 70
     0
  9
$USERI4
 70
     0
  9
$USERI5
 70
     0
  9
$USERR1
 40
0.0
  9
$USERR2
 40
0.0
  9
$USERR3
 40
0.0
  9
$USERR4
 40
0.0
  9
$USERR5
 40
0.0
  9
$WORLDVIEW
 70
     1
  9
$SHADEDGE
 70
     3
  9
$SHADEDIF
 70
    70
  9
$TILEMODE
 70
     1
  9
$MAXACTVP
 70
    64
  9
$PINSBASE
 10
0.0
 20
0.0
 30
0.0
  9
$PLIMCHECK
 70
     0
  9
$PEXTMIN
 10
0.0
 20
0.0
 30
0.0
  9
$PEXTMAX
 10
0.0
 20
0.0
 30
0.0
  9
$PLIMMIN
 10
0.0
 20
0.0
  9
$PLIMMAX
 10
12.0
 20
9.0
  9
$UNITMODE
 70
     0
  9
$VISRETAIN
 70
     1
  9
$PLINEGEN
 70
     0
  9
$PSLTSCALE
 70
     1
  9
$TREEDEPTH
 70
  3020
  9
$PICKSTYLE
 70
     0
  9
$CMLSTYLE
  2
STANDARD
  9
$CMLJUST
 70
     0
  9
$CMLSCALE
 40
20.0
  9
$PROXYGRAPHICS
 70
     1
  9
$MEASUREMENT
 70
     1
  0
ENDSEC
  0
SECTION
  2
CLASSES
  0
CLASS
  1
ACDBDICTIONARYWDFLT
  2
AcDbDictionaryWithDefault
  3
AutoCAD 2000
 90
        0
280
     0
281
     0
  0
CLASS
  1
ACDBPLACEHOLDER
  2
AcDbPlaceHolder
  3
AutoCAD 2000
 90
        0
280
     0
281
     0
  0
CLASS
  1
LAYOUT
  2
AcDbLayout
  3
AutoCAD 2000
 90
        0
280
     0
281
     0
  0
CLASS
  1
DICTIONARYVAR
  2
AcDbDictionaryVar
  3
AutoCAD 2000
 90
        0
280
     0
281
     0
  0
CLASS
  1
SORTENTSTABLE
  2
AcDbSortentsTable
  3
AutoCAD 2000
 90
        0
280
     0
281
     0
  0
CLASS
  1
LONG_TRANSACTION
  2
AcDbLongTransaction
  3
AutoCAD 2000
 90
        0
280
     0
281
     0
  0
CLASS
  1
LWPOLYLINE
  2
AcDbPolyline
  3
AutoCAD 2000
 90
        0
280
     0
281
     1
  0
CLASS
  1
HATCH
  2
AcDbHatch
  3
AutoCAD 2000
 90
        0
280
     0
281
     1
  0
CLASS
  1
XRECORD
  2
AcDbXrecord
  3
AutoCAD 2000
 90
        0
280
     0
281
     0
  0
ENDSEC
  0
SECTION
  2
TABLES
  0
TABLE
  2
VPORT
  5
8
330
0
100
AcDbSymbolTable
 70
     2
  0
VPORT
  5
237
330
8
100
AcDbSymbolTableRecord
100
AcDbViewportTableRecord
  2
*ACTIVE
 70
     0
 10
0.0
 20
0.0
 11
1.0
 21
1.0
 12
3784.999997489834
 22
2679.439134137473
 13
0.0
 23
0.0
 14
10.0
 24
10.0
 15
10.0
 25
10.0
 16
0.0
 26
0.0
 36
1.0
 17
0.0
 27
0.0
 37
0.0
 40
5422.879165770888
 41
1.720238095238095
 42
50.0
 43
0.0
 44
0.0
 50
0.0
 51
0.0
 71
     0
 72
   100
 73
     1
 74
     3
 75
     0
 76
     0
 77
     0
 78
     0
  0
ENDTAB
  0
TABLE
  2
LTYPE
  5
5
330
0
100
AcDbSymbolTable
 70
     1
  0
LTYPE
  5
14
330
5
100
AcDbSymbolTableRecord
100
AcDbLinetypeTableRecord
  2
BYBLOCK
 70
     0
  3

 72
    65
 73
     0
 40
0.0
  0
LTYPE
  5
15
330
5
100
AcDbSymbolTableRecord
100
AcDbLinetypeTableRecord
  2
BYLAYER
 70
     0
  3

 72
    65
 73
     0
 40
0.0
  0
LTYPE
  5
16
330
5
100
AcDbSymbolTableRecord
100
AcDbLinetypeTableRecord
  2
CONTINUOUS
 70
     0
  3
Solid line
 72
    65
 73
     0
 40
0.0
  0
ENDTAB
  0
TABLE
  2
LAYER
  5
2
330
0
100
AcDbSymbolTable
 70
     1
  0
LAYER
  5
10
330
2
100
AcDbSymbolTableRecord
100
AcDbLayerTableRecord
  2
0
 70
     0
 62
     7
  6
CONTINUOUS
  0
ENDTAB
  0
TABLE
  2
STYLE
  5
3
330
0
100
AcDbSymbolTable
 70
     1
  0
STYLE
  5
11
330
3
100
AcDbSymbolTableRecord
100
AcDbTextStyleTableRecord
  2
STANDARD
 70
     0
 40
0.0
 41
1.0
 50
0.0
 71
     0
 42
2.5
  3
txt
  4

  0
ENDTAB
  0
TABLE
  2
VIEW
  5
6
330
0
100
AcDbSymbolTable
 70
     0
  0
ENDTAB
  0
TABLE
  2
UCS
  5
7
330
0
100
AcDbSymbolTable
 70
     0
  0
ENDTAB
  0
TABLE
  2
APPID
  5
9
330
0
100
AcDbSymbolTable
 70
     2
  0
APPID
  5
12
330
9
100
AcDbSymbolTableRecord
100
AcDbRegAppTableRecord
  2
ACAD
 70
     0
  0
APPID
  5
25E
330
9
100
AcDbSymbolTableRecord
100
AcDbRegAppTableRecord
  2
CONTENTBLOCKICON
 70
     0
  0
ENDTAB
  0
TABLE
  2
DIMSTYLE
  5
A
330
0
100
AcDbSymbolTable
 70
     1
  0
DIMSTYLE
105
27
330
A
100
AcDbSymbolTableRecord
100
AcDbDimStyleTableRecord
  2
ISO-25
 70
     0
  3

  4

  5

  6

  7

 40
1.0
 41
2.5
 42
0.625
 43
3.75
 44
1.25
 45
0.0
 46
0.0
 47
0.0
 48
0.0
140
2.5
141
2.5
142
0.0
143
0.03937007874016
144
1.0
145
0.0
146
1.0
147
0.625
 71
     0
 72
     0
 73
     0
 74
     0
 75
     0
 76
     0
 77
     1
 78
     8
170
     0
171
     3
172
     1
173
     0
174
     0
175
     0
176
     0
177
     0
178
     0
270
     2
271
     2
272
     2
273
     2
274
     3
340
11
275
     0
280
     0
281
     0
282
     0
283
     0
284
     8
285
     0
286
     0
287
     3
288
     0
  0
ENDTAB
  0
TABLE
  2
BLOCK_RECORD
  5
1
330
0
100
AcDbSymbolTable
 70
     2
  0
BLOCK_RECORD
  5
1F
102
{ACAD_XDICTIONARY
360
233
102
}
330
1
100
AcDbSymbolTableRecord
100
AcDbBlockTableRecord
  2
*MODEL_SPACE
  0
BLOCK_RECORD
  5
50
102
{ACAD_XDICTIONARY
360
25A
102
}
330
1
100
AcDbSymbolTableRecord
100
AcDbBlockTableRecord
  2
*PAPER_SPACE
  0
BLOCK_RECORD
  5
195
330
1
100
AcDbSymbolTableRecord
100
AcDbBlockTableRecord
  2
ADKO
1001
ACAD
1000
DesignCenter Data
1002
{
1070
     1
1070
     4
1002
}
1001
CONTENTBLOCKICON
1071
        0
1004
2800000020000000200000000100080000000000000400000000000000000000000000000000000000000000000080000080000000808000800000008000800080800000C0C0C000C0DCC000F0CAA6000020400000206000002080000020A0000020C0000020E00000400000004020000040400000406000004080000040A0
1004
000040C0000040E00000600000006020000060400000606000006080000060A0000060C0000060E00000800000008020000080400000806000008080000080A0000080C0000080E00000A0000000A0200000A0400000A0600000A0800000A0A00000A0C00000A0E00000C0000000C0200000C0400000C0600000C0800000C0
1004
A00000C0C00000C0E00000E0000000E0200000E0400000E0600000E0800000E0A00000E0C00000E0E00040000000400020004000400040006000400080004000A0004000C0004000E00040200000402020004020400040206000402080004020A0004020C0004020E000404000004040200040404000404060004040800040
1004
40A0004040C0004040E00040600000406020004060400040606000406080004060A0004060C0004060E00040800000408020004080400040806000408080004080A0004080C0004080E00040A0000040A0200040A0400040A0600040A0800040A0A00040A0C00040A0E00040C0000040C0200040C0400040C0600040C08000
1004
40C0A00040C0C00040C0E00040E0000040E0200040E0400040E0600040E0800040E0A00040E0C00040E0E00080000000800020008000400080006000800080008000A0008000C0008000E00080200000802020008020400080206000802080008020A0008020C0008020E00080400000804020008040400080406000804080
1004
008040A0008040C0008040E00080600000806020008060400080606000806080008060A0008060C0008060E00080800000808020008080400080806000808080008080A0008080C0008080E00080A0000080A0200080A0400080A0600080A0800080A0A00080A0C00080A0E00080C0000080C0200080C0400080C0600080C0
1004
800080C0A00080C0C00080C0E00080E0000080E0200080E0400080E0600080E0800080E0A00080E0C00080E0E000C0000000C0002000C0004000C0006000C0008000C000A000C000C000C000E000C0200000C0202000C0204000C0206000C0208000C020A000C020C000C020E000C0400000C0402000C0404000C0406000C0
1004
408000C040A000C040C000C040E000C0600000C0602000C0604000C0606000C0608000C060A000C060C000C060E000C0800000C0802000C0804000C0806000C0808000C080A000C080C000C080E000C0A00000C0A02000C0A04000C0A06000C0A08000C0A0A000C0A0C000C0A0E000C0C00000C0C02000C0C04000C0C06000
1004
C0C08000C0C0A000F0FBFF00A4A0A000808080000000FF0000FF000000FFFF00FF000000FF00FF00FFFF0000FFFFFF00FFFFFFFFFFFFFFFFFFFFFFFFFFFFFFFFFFFFFFFFFFFFFFFFFFFFFFFFFFFFFFFFFFFFFFFFFFFFFFFFFFFFFFFFFFFFFFFFFFFFFFFFFFFFFFFFFFFFFFFFFFFFFFFFFFFFFFFFFFFFFFFFFFFFFFFFFFFFFF
1004
FFFFFFFFFFFFFFFFFFFFFFFFFFFFFFFFFFFFFFFFFFFFFFFFFFFFFFFFFFFFFFFFFFFFFFFFFFFFFFFFFFFFFFFFFFFFFFFFFFFFFFFFFFFFFFFFFFFFFFFFFFFFFFFFFFFFFFFFFFFFFFFFFFFFFFFFFFFFFFFFFFFFFFFFFFFFFFFFFFFFFFFFFFFFFFFFFFFFFFFFFFFFFFFFFFFFFFFFFFFFFFFFFFFFFFFFFFFFFFFFFFFF0000000000
1004
0000000000FFFFFFFFFFFFFFFFFFFFFFFFFFFFFFFFFFFFFFFFFF00FFFFFFFFFFFFFFFFFFFF0000FFFFFFFFFFFFFFFFFFFFFFFFFFFFFFFFFF0000FFFFFFFFFFFFFFFFFFFFFFFFFF0000FFFFFFFFFFFFFFFFFFFFFFFFFFFF00FFFFFFFFFFFFFFFFFFFFFFFFFFFFFFFFFF0000FFFFFFFFFFFFFFFFFFFFFF00FFFFFFFFFFFFFFFF
1004
FFFFFFFFFFFFFFFFFFFFFFFF00FFFFFFFFFFFFFFFFFF00FFFFFFFFFFFFFF0000000000FFFFFFFFFFFFFFFFFFFF00FFFFFFFFFFFFFF00FFFFFFFFFFFFFFFF0000000000FFFFFFFFFFFFFFFFFFFF0000000000FFFFFF00FFFFFFFFFFFFFFFF0000000000FFFFFFFFFFFFFFFFFFFFFFFFFFFF00FFFFFF00FFFFFFFFFFFFFFFF21
1004
00000021FFFFFFFFFFFFFFFFFFFFFFFFFFFF00FFFF00FFFFFFFFFF0000FBFBFB2100212127272700E0E000FFFFFFFFFFFFFF00FFFF00FFFFFFFFFF0000FFFF2100210021FBFFFFFFFF0000FFFFFFFFFFFFFF00FFFF00FFFFFFFFFF0000FFFF212100212127272700E00000FFFFFFFFFFFFFF00FFFF00FFFFFFFFFFFF00FFFF
1004
3C00212121FFFFFFFFFFFFFFFFFFFFFFFFFFFF00FFFFFF00FFFFFFFFFF00003C0000FFFFFFFFFFFFFFFFFFFFFFFFFFFFFFFFFF00FFFFFF00FFFFFFFFFFFF000000FFFFFFFFFFFFFFFFFFFFFFFFFFFFFFFFFFFF00FFFFFF00FFFFFFFFFFFFFFFFFFFFFFFFFFFFFFFFFFFFFFFFFFFFFF0000000000FFFFFFFF00FFFFFFFFFFFF
1004
FFFFFFFFFFFFFFFFFFFFFFFFFFFF0000FFFFFFFFFFFFFFFFFFFF00FFFFFFFFFFFFFFFFFFFFFF0000000000000000FFFFFFFFFFFFFFFFFFFFFFFFFF00FFFFFFFFFFFFFFFF0000FFFFFFFFFFFFFFFFFFFFFFFFFFFFFFFFFFFFFFFFFFFF0000000000000000FFFFFFFFFFFFFFFFFFFFFFFFFFFFFFFFFFFFFFFFFFFFFFFFFFFFFF
1004
FFFFFFFFFFFFFFFFFFFFFFFFFFFFFFFFFFFFFFFFFFFFFFFFFFFFFFFFFFFFFFFFFFFFFFFFFFFFFFFFFFFFFFFFFFFFFFFFFFFFFFFFFFFFFFFFFFFFFFFFFFFFFFFFFFFFFFFFFFFFFFFFFFFFFFFFFFFFFFFFFFFFFFFFFFFFFFFFFFFFFFFFFFFFFFFFFFFFFFFFFFFFFFFFFFFFFFFFFFFFFFFFFFFFFFFFFFFFFFFFFFFFFFFFFFFFFF
1004
FFFFFFFFFFFFFFFFFFFFFFFFFFFFFFFFFFFFFFFFFFFFFFFFFFFFFFFFFFFFFFFFFFFFFFFFFFFFFFFFFFFFFFFFFFFFFFFFFFFFFFFFFFFFFFFF
  0
ENDTAB
  0
ENDSEC
  0
SECTION
  2
BLOCKS
  0
BLOCK
  5
20
330
1F
100
AcDbEntity
  8
0
100
AcDbBlockBegin
  2
*MODEL_SPACE
 70
     0
 10
0.0
 20
0.0
 30
0.0
  3
*MODEL_SPACE
  1

  0
ENDBLK
  5
21
330
1F
100
AcDbEntity
  8
0
100
AcDbBlockEnd
  0
BLOCK
  5
52
330
50
100
AcDbEntity
 67
     1
  8
0
100
AcDbBlockBegin
  2
*PAPER_SPACE
 70
     0
 10
0.0
 20
0.0
 30
0.0
  3
*PAPER_SPACE
  1

  0
ENDBLK
  5
53
330
50
100
AcDbEntity
 67
     1
  8
0
100
AcDbBlockEnd
  0
BLOCK
  5
196
330
195
100
AcDbEntity
  8
0
100
AcDbBlockBegin
  2
ADKO
 70
     0
 10
0.0
 20
0.0
 30
0.0
  3
ADKO
  1

  0
LINE
  5
198
330
195
100
AcDbEntity
  8
0
100
AcDbLine
 10
-1996.806790843806
 20
1021.189890035668
 30
0.0
 11
-3855.824425240607
 21
1021.189890035668
 31
0.0
  0
LINE
  5
199
330
195
100
AcDbEntity
  8
0
100
AcDbLine
 10
-3855.824425240607
 20
1001.852906033695
 30
0.0
 11
-1996.806790843802
 21
1001.85290603368
 31
0.0
  0
LINE
  5
19A
330
195
100
AcDbEntity
  8
0
100
AcDbLine
 10
-1996.806790843798
 20
1519.283926224488
 30
0.0
 11
-3855.824425240607
 21
1519.283926224488
 31
0.0
  0
LINE
  5
19B
330
195
100
AcDbEntity
  8
0
100
AcDbLine
 10
-3855.824425240607
 20
1538.620910226462
 30
0.0
 11
-1996.806790843802
 21
1538.620910226462
 31
0.0
  0
ARC
  5
19C
330
195
100
AcDbEntity
  8
0
100
AcDbCircle
 10
-4037.610926585767
 20
1268.569926750591
 30
0.0
 40
309.1438787374797
100
AcDbArc
 50
306.0174788174202
 51
53.98252118257972
  0
ARC
  5
19D
330
195
100
AcDbEntity
  8
0
100
AcDbCircle
 10
-4031.37492454853
 20
1268.569926750591
 30
0.0
 40
268.9014565588423
100
AcDbArc
 50
310.7563149162313
 51
49.24368508376861
  0
HATCH
  5
19E
330
195
100
AcDbEntity
  8
0
 62
    50
100
AcDbHatch
 10
0.0
 20
0.0
 30
0.0
210
0.0
220
0.0
230
1.0
  2
SOLID
 70
     1
 71
     0
 91
        3
 92
        7
 72
     1
 73
     1
 93
       22
 10
-2182.508516517941
 20
1269.903511854252
 42
0.0
 10
-2180.841535138464
 20
1361.920884001512
 42
0.0
 10
-2173.506817068748
 20
1399.928059453661
 42
0.0
 10
-2156.170210722157
 20
1427.266554077148
 42
0.0
 10
-2131.498886305839
 20
1447.93712318271
 42
0.0
 10
-2104.827184234145
 20
1463.273351873933
 42
0.0
 10
-2090.824540646513
 20
1476.609202909778
 42
0.0
 10
-2083.48982257679
 20
1490.61184649742
 42
0.0
 10
-2080.822652369624
 20
1506.614867740434
 42
0.0
 10
-2080.822652369624
 20
1519.283926224488
 42
0.0
 10
-3855.824425240607
 20
1519.283926224474
 42
0.0
 10
-3855.824425240607
 20
1518.617133672691
 42
-0.5047677450341376
 10
-3852.211209229514
 20
1021.189890035668
 42
0.0
 10
-2080.822652369624
 20
1021.189890035668
 42
0.0
 10
-2080.822652369624
 20
1033.858948519722
 42
0.0
 10
-2084.156615128587
 20
1052.529139969905
 42
0.0
 10
-2092.824918301888
 20
1066.531783557533
 42
0.0
 10
-2104.827184234153
 20
1076.533671834426
 42
0.0
 10
-2131.498886305839
 20
1092.536693077439
 42
0.0
 10
-2160.837758584697
 20
1118.541602597331
 42
0.0
 10
-2175.507194724127
 20
1146.546889772616
 42
0.0
 10
-2180.841535138468
 20
1178.552932258644
 42
0.0
 97
        0
 92
       22
 72
     1
 73
     1
 93
        2
 10
-3855.824425240607
 20
1472.260907238698
 42
0.0
 10
-3855.824425240607
 20
1064.878946262491
 42
0.4582969605586812
 97
        0
 92
        7
 72
     1
 73
     1
 93
        5
 10
-3855.824425240607
 20
1518.617133672691
 42
0.0
 10
-3855.824425240607
 20
1472.260907238698
 42
-0.4582969605586812
 10
-3855.824425240607
 20
1064.878946262491
 42
0.0
 10
-3855.824425240607
 20
1021.189890035668
 42
0.0
 10
-3852.211209229514
 20
1021.189890035668
 42
0.5047677450341411
 97
        0
 75
     0
 76
     1
 47
4.472321723810398
 98
        3
 10
-2533.11420715962
 20
1245.274754857302
 10
-3817.210831349533
 20
1303.414899167786
 10
-3772.468756514652
 20
1366.027411767594
  0
HATCH
  5
19F
330
195
100
AcDbEntity
  8
0
 62
    30
100
AcDbHatch
 10
0.0
 20
0.0
 30
0.0
210
0.0
220
0.0
230
1.0
  2
SOLID
 70
     1
 71
     0
 91
        2
 92
        7
 72
     0
 73
     1
 93
        4
 10
-2926.315608042207
 20
1538.620910226462
 10
-3855.824425240607
 20
1538.620910226462
 10
-3855.824425240607
 20
1519.283926224488
 10
-2926.315608042203
 20
1519.283926224488
 97
        0
 92
        7
 72
     1
 73
     1
 93
        5
 10
-2926.315608042211
 20
1021.189890035668
 42
0.0
 10
-3852.211209229514
 20
1021.189890035668
 42
-0.003631856113254
 10
-3855.824425240607
 20
1018.522719828499
 42
0.0
 10
-3855.824425240607
 20
1001.852906033695
 42
0.0
 10
-2926.315608042203
 20
1001.852906033687
 42
0.0
 97
        0
 75
     0
 76
     1
 47
3.387716884985549
 98
        2
 10
-3641.218500451061
 20
1527.93292202807
 10
-3549.654723843552
 20
1009.61223058214
  0
HATCH
  5
1A0
330
195
100
AcDbEntity
  8
0
 62
   250
100
AcDbHatch
 10
0.0
 20
0.0
 30
0.0
210
0.0
220
0.0
230
1.0
  2
SOLID
 70
     1
 71
     1
 91
        2
 92
        7
 72
     1
 73
     1
 93
       10
 10
-5016.71025791092
 20
1850.679824465223
 42
0.0
 10
-4862.401124553313
 20
1850.679824465223
 42
0.8054755908513648
 10
-5802.905862257206
 20
1643.02535437687
 42
0.0
 10
-5795.867300215969
 20
1643.02535437687
 42
0.0
 10
-5795.867300215969
 20
1533.02535437687
 42
0.0
 10
-5802.554383030233
 20
1533.02535437687
 42
0.0
 10
-5802.554383030233
 20
1006.751557395902
 42
0.0
 10
-5795.86730021597
 20
1006.751557395902
 42
0.0
 10
-5795.86730021597
 20
961.2759187234841
 42
0.0
 10
-5016.71025791092
 20
961.2759187234841
 42
0.0
 97
        6
330
1A9
330
203
330
20D
330
1A4
330
1B2
330
1B0
 92
        7
 72
     0
 73
     1
 93
        4
 10
-5902.554383030234
 20
1006.751557395902
 10
-5802.554383030233
 20
1006.751557395902
 10
-5802.554383030233
 20
1533.02535437687
 10
-5902.554383030234
 20
1533.02535437687
 97
        4
330
20D
330
1A2
330
1B2
330
1A4
 75
     0
 76
     1
 47
3.84816872344404
 98
        2
 10
-5256.634836626676
 20
1502.138800933746
 10
-5880.688514312638
 20
1352.060220413972
  0
ARC
  5
1A1
330
195
100
AcDbEntity
  8
0
100
AcDbCircle
 10
-5920.689395807404
 20
1075.17543578759
 30
0.0
 40
38.67231804611583
100
AcDbArc
 50
140.4045620463371
 51
270.0
  0
LINE
  5
1A2
102
{ACAD_REACTORS
330
1AE
330
1A0
102
}
330
195
100
AcDbEntity
  8
0
100
AcDbLine
 10
-5902.554383030234
 20
1006.45833459244
 30
0.0
 11
-5902.554383030234
 21
1533.318577180333
 31
0.0
  0
LINE
  5
1A3
102
{ACAD_REACTORS
330
1AE
330
20A
330
1AC
102
}
330
195
100
AcDbEntity
  8
0
100
AcDbLine
 10
-5920.689395807404
 20
1635.711562192263
 30
0.0
 11
-5920.689395807404
 21
905.6121951238528
 31
0.0
  0
LINE
  5
1A4
102
{ACAD_REACTORS
330
1A0
102
}
330
195
100
AcDbEntity
  8
0
100
AcDbLine
 10
-5802.554383030233
 20
1533.318577180333
 30
0.0
 11
-5802.554383030233
 21
1006.45833459244
 31
0.0
  0
LINE
  5
1A5
330
195
100
AcDbEntity
  8
0
100
AcDbLine
 10
-5902.554383030234
 20
1533.318577180333
 30
0.0
 11
-5902.554383030234
 21
1006.45833459244
 31
0.0
  0
LINE
  5
1A6
330
195
100
AcDbEntity
  8
0
100
AcDbLine
 10
-3855.824425240607
 20
1850.679824465238
 30
0.0
 11
-5016.710257910912
 21
689.7939917949188
 31
0.0
  0
LINE
  5
1A7
330
195
100
AcDbEntity
  8
0
100
AcDbLine
 10
-5016.710257910912
 20
1850.679824465238
 30
0.0
 11
-3855.824425240607
 21
689.7939917949188
 31
0.0
  0
LWPOLYLINE
  5
1A8
330
195
100
AcDbEntity
  8
0
100
AcDbPolyline
 90
        4
 70
     1
 43
0.0
 10
-4727.989082984874
 20
1561.958649539192
 10
-4144.68471515947
 20
1561.958649539192
 10
-4144.68471515947
 20
978.5151667209648
 10
-4727.989082984874
 20
978.5151667209648
  0
LWPOLYLINE
  5
1A9
102
{ACAD_REACTORS
330
1AA
330
204
330
1B1
330
1A0
102
}
330
195
100
AcDbEntity
  8
0
100
AcDbPolyline
 90
        4
 70
     1
 43
0.0
 10
-5016.710257910919
 20
689.7939917949188
 10
-3855.824425240607
 20
689.7939917949188
 10
-3855.824425240607
 20
1850.679824465223
 10
-5016.710257910919
 20
1850.679824465223
  0
HATCH
  5
1AA
330
195
100
AcDbEntity
  8
0
 62
    84
100
AcDbHatch
 10
0.0
 20
0.0
 30
0.0
210
0.0
220
0.0
230
1.0
  2
SOLID
 70
     1
 71
     1
 91
        1
 92
        1
 93
        4
 72
     1
 10
-5016.710257910919
 20
689.7939917949188
 11
-3855.824425240607
 21
689.7939917949188
 72
     1
 10
-3855.824425240607
 20
689.7939917949188
 11
-3855.824425240607
 21
1850.679824465223
 72
     1
 10
-3855.824425240607
 20
1850.679824465223
 11
-5016.710257910919
 21
1850.679824465223
 72
     1
 10
-5016.710257910919
 20
1850.679824465223
 11
-5016.710257910919
 21
689.7939917949188
 97
        1
330
1A9
 75
     0
 76
     1
 98
        1
 10
1996.138703149965
 20
-12901.98205923017
  0
HATCH
  5
1AB
330
195
100
AcDbEntity
  8
0
 62
    30
100
AcDbHatch
 10
0.0
 20
0.0
 30
0.0
210
0.0
220
0.0
230
1.0
  2
SOLID
 70
     1
 71
     1
 91
        2
 92
        1
 93
        8
 72
     1
 10
-5900.867300215971
 20
1533.02535437687
 11
-5800.86730021597
 21
1533.02535437687
 72
     2
 10
-5800.86730021597
 20
1538.02535437687
 40
5.0
 50
270.0
 51
360.0
 73
     1
 72
     1
 10
-5795.86730021597
 20
1538.02535437687
 11
-5795.86730021597
 21
1638.02535437687
 72
     2
 10
-5800.86730021597
 20
1638.02535437687
 40
5.0
 50
0.0
 51
90.0
 73
     1
 72
     1
 10
-5800.86730021597
 20
1643.02535437687
 11
-5900.867300215971
 21
1643.02535437687
 72
     2
 10
-5900.867300215971
 20
1638.02535437687
 40
5.0
 50
90.0
 51
180.0
 73
     1
 72
     1
 10
-5905.86730021597
 20
1638.02535437687
 11
-5905.86730021597
 21
1538.02535437687
 72
     2
 10
-5900.867300215971
 20
1538.02535437687
 40
5.0
 50
180.0
 51
270.0
 73
     1
 97
        1
330
20D
 92
        1
 93
        8
 72
     1
 10
-5900.867300215971
 20
896.7515573959026
 11
-5800.86730021597
 21
896.7515573959026
 72
     2
 10
-5800.86730021597
 20
901.7515573959027
 40
5.0
 50
270.0
 51
360.0
 73
     1
 72
     1
 10
-5795.86730021597
 20
901.7515573959027
 11
-5795.86730021597
 21
1001.751557395902
 72
     2
 10
-5800.86730021597
 20
1001.751557395902
 40
5.0
 50
0.0
 51
90.0
 73
     1
 72
     1
 10
-5800.86730021597
 20
1006.751557395902
 11
-5900.867300215971
 21
1006.751557395902
 72
     2
 10
-5900.867300215971
 20
1001.751557395902
 40
5.0
 50
90.0
 51
180.0
 73
     1
 72
     1
 10
-5905.86730021597
 20
1001.751557395902
 11
-5905.86730021597
 21
901.7515573959027
 72
     2
 10
-5900.867300215971
 20
901.7515573959027
 40
5.0
 50
180.0
 51
270.0
 73
     1
 97
        1
330
1B2
 75
     0
 76
     1
 98
        1
 10
5974.471132536162
 20
-31255.22903317566
  0
HATCH
  5
1AC
330
195
100
AcDbEntity
  8
0
 62
     6
100
AcDbHatch
 10
0.0
 20
0.0
 30
0.0
210
0.0
220
0.0
230
1.0
  2
SOLID
 70
     1
 71
     1
 91
        2
 92
        7
 72
     1
 73
     1
 93
        3
 10
-5920.689395807404
 20
1505.245610102629
 42
0.5219667480028989
 10
-5956.970904637917
 20
1453.186720425166
 42
-0.3140891564315187
 10
-5920.689395807404
 20
1478.472466839932
 42
0.0
 97
        3
330
207
330
20C
330
1A3
 92
        7
 72
     1
 73
     1
 93
        2
 10
-5920.689395807404
 20
952.3589532015721
 42
0.0
 10
-5920.689395807404
 20
1029.703589293804
 42
1.0
 97
        2
330
1B3
330
1A3
 75
     0
 76
     1
 47
2.054966041547646
 98
        2
 10
-5930.464308808398
 20
1490.159001561252
 10
-5942.806975774267
 20
1007.241973814954
  0
HATCH
  5
1AD
330
195
100
AcDbEntity
  8
0
 62
     4
100
AcDbHatch
 10
0.0
 20
0.0
 30
0.0
210
0.0
220
0.0
230
1.0
  2
SOLID
 70
     1
 71
     0
 91
        3
 92
        7
 72
     1
 73
     1
 93
        3
 10
-5920.6893958074
 20
1524.369283861691
 42
0.4894351530564897
 10
-5958.160977820298
 20
1476.135128936046
 42
-0.3427909203673928
 10
-5920.689395807404
 20
1505.245610102625
 42
0.0
 97
        0
 92
        7
 72
     1
 73
     1
 93
        2
 10
-5920.6893958074
 20
1347.581544222317
 42
1.0
 10
-5920.689395807404
 20
1270.236908130078
 42
0.0
 97
        0
 92
        7
 72
     1
 73
     1
 93
        3
 10
-5920.6893958074
 20
1085.799698987066
 42
-0.2235473832411597
 10
-5950.488891649348
 20
1099.823726410388
 42
0.6345913753680877
 10
-5920.689395807404
 20
1036.503117741464
 42
0.0
 97
        0
 75
     0
 76
     1
 47
2.054966041547646
 98
        3
 10
-5936.635642291331
 20
1508.653687626756
 10
-5936.635642291331
 20
1313.431916775029
 10
-5938.692753452309
 20
1062.726059869128
  0
HATCH
  5
1AE
330
195
100
AcDbEntity
  8
0
 62
    70
100
AcDbHatch
 10
0.0
 20
0.0
 30
0.0
210
0.0
220
0.0
230
1.0
  2
SOLID
 70
     1
 71
     1
 91
        1
 92
        7
 72
     1
 73
     1
 93
        8
 10
-5920.689395807404
 20
905.6121951238527
 42
0.0
 10
-5905.86730021597
 20
905.6121951238528
 42
0.0
 10
-5905.86730021597
 20
1006.751557395902
 42
0.0
 10
-5902.554383030235
 20
1006.751557395902
 42
0.0
 10
-5902.554383030234
 20
1533.318577180335
 42
-0.3166446299925886
 10
-5905.86730021597
 20
1538.02535437687
 42
0.0
 10
-5905.86730021597
 20
1635.711562192263
 42
0.0
 10
-5920.689395807404
 20
1635.711562192263
 42
0.0
 97
        6
330
20D
330
20F
330
1A3
330
1B4
330
1B2
330
1A2
 75
     0
 76
     1
 47
2.561669988629067
 98
        1
 10
-5914.779470985719
 20
1209.467524116858
  0
LINE
  5
1AF
102
{ACAD_REACTORS
330
1B1
102
}
330
195
100
AcDbEntity
  8
0
100
AcDbLine
 10
-5016.556478070259
 20
941.2979900851569
 30
0.0
 11
-5796.160297956383
 21
941.2979900851569
 31
0.0
  0
LINE
  5
1B0
102
{ACAD_REACTORS
330
1B1
330
1A0
102
}
330
195
100
AcDbEntity
  8
0
100
AcDbLine
 10
-5795.86730021597
 20
961.2759187234841
 30
0.0
 11
-5016.556478070259
 21
961.2759187234841
 31
0.0
  0
HATCH
  5
1B1
330
195
100
AcDbEntity
  8
0
 62
    50
100
AcDbHatch
 10
0.0
 20
0.0
 30
0.0
210
0.0
220
0.0
230
1.0
  2
SOLID
 70
     1
 71
     1
 91
        1
 92
        7
 72
     0
 73
     1
 93
        4
 10
-5016.710257910919
 20
941.2979900851569
 10
-5016.710257910919
 20
961.2759187234843
 10
-5795.86730021597
 20
961.2759187234843
 10
-5795.86730021597
 20
941.2979900851569
 97
        4
330
1B0
330
1B2
330
1AF
330
1A9
 75
     0
 76
     1
 47
5.023106726455871
 98
        1
 10
-5471.160770739596
 20
950.3283445090564
  0
LWPOLYLINE
  5
1B2
102
{ACAD_REACTORS
330
1AB
330
1B1
330
1AE
330
1A0
102
}
330
195
100
AcDbEntity
  8
0
100
AcDbPolyline
 90
        8
 70
     1
 43
0.0
 10
-5900.867300215971
 20
896.7515573959026
 10
-5800.86730021597
 20
896.7515573959026
 42
0.4142135623730951
 10
-5795.86730021597
 20
901.7515573959027
 10
-5795.86730021597
 20
1001.751557395902
 42
0.4142135623730951
 10
-5800.86730021597
 20
1006.751557395902
 10
-5900.867300215971
 20
1006.751557395902
 42
0.4142135623730951
 10
-5905.86730021597
 20
1001.751557395902
 10
-5905.86730021597
 20
901.7515573959027
 42
0.4142135623730951
  0
ARC
  5
1B3
102
{ACAD_REACTORS
330
1AC
102
}
330
195
100
AcDbEntity
  8
0
100
AcDbCircle
 10
-5920.689395807404
 20
991.031271247688
 30
0.0
 40
38.67231804611583
100
AcDbArc
 50
90.0
 51
270.0
  0
LINE
  5
1B4
102
{ACAD_REACTORS
330
1AE
102
}
330
195
100
AcDbEntity
  8
0
100
AcDbLine
 10
-5920.689395807404
 20
905.6121951238528
 30
0.0
 11
-5905.86730021597
 21
905.6121951238528
 31
0.0
  0
HATCH
  5
1B5
330
195
100
AcDbEntity
  8
0
 62
   250
100
AcDbHatch
 10
0.0
 20
0.0
 30
0.0
210
0.0
220
0.0
230
1.0
  2
SOLID
 70
     1
 71
     1
 91
       13
 92
        7
 72
     1
 73
     1
 93
        2
 10
-4796.66871581947
 20
508.4264177074293
 42
1.0
 10
-4836.676268927011
 20
508.4264177074292
 42
1.0
 97
        1
330
1E8
 92
        7
 72
     1
 73
     1
 93
        2
 10
-4872.683066723787
 20
317.0569553430541
 42
1.0
 10
-4832.675513616247
 20
317.0569553430541
 42
1.0
 97
        1
330
1E7
 92
        7
 72
     1
 73
     1
 93
        2
 10
-4869.349103964822
 20
125.0207004268814
 42
1.0
 10
-4909.356657072362
 20
125.0207004268813
 42
1.0
 97
        1
330
1C8
 92
        7
 72
     1
 73
     1
 93
        2
 10
-4554.911362243977
 20
125.0207004268813
 42
1.0
 10
-4594.918915351518
 20
125.0207004268813
 42
1.0
 97
        1
330
1CC
 92
        7
 72
     1
 73
     1
 93
        2
 10
-4575.293588624451
 20
317.0569553430541
 42
1.0
 10
-4535.28603551691
 20
317.0569553430541
 42
1.0
 97
        1
330
1EB
 92
        7
 72
     1
 73
     1
 93
        2
 10
-4515.94905151493
 20
508.4264177074292
 42
1.0
 10
-4555.956604622471
 20
508.4264177074292
 42
1.0
 97
        1
330
1EC
 92
        7
 72
     1
 73
     1
 93
        2
 10
-4415.2633761943
 20
508.4264177074293
 42
1.0
 10
-4455.270929301841
 20
508.4264177074292
 42
1.0
 97
        1
330
1ED
 92
        7
 72
     1
 73
     1
 93
        2
 10
-4311.24373811471
 20
508.4264177074292
 42
1.0
 10
-4351.251291222251
 20
508.4264177074292
 42
1.0
 97
        1
330
1FB
 92
        7
 72
     1
 73
     1
 93
        2
 10
-4291.90675411273
 20
317.0569553430541
 42
1.0
 10
-4331.91430722027
 20
317.0569553430541
 42
1.0
 97
        1
330
1FA
 92
        7
 72
     1
 73
     1
 93
        2
 10
-4272.569770110758
 20
125.0207004268814
 42
1.0
 10
-4312.577323218297
 20
125.0207004268813
 42
1.0
 97
        1
330
1D2
 92
        7
 72
     1
 73
     1
 93
        2
 10
-4033.858036569131
 20
508.4264177074292
 42
1.0
 10
-4073.865589676671
 20
508.4264177074292
 42
1.0
 97
        1
330
1FF
 92
        7
 72
     1
 73
     1
 93
        2
 10
-3996.517653668766
 20
317.0569553430541
 42
1.0
 10
-4036.525206776306
 20
317.0569553430541
 42
1.0
 97
        1
330
1FE
 92
        7
 72
     1
 73
     1
 93
        2
 10
-3959.1772707684
 20
125.0207004268814
 42
1.0
 10
-3999.184823875941
 20
125.0207004268813
 42
1.0
 97
        1
330
1D6
 75
     0
 76
     1
 47
2.676158162350435
 98
       13
 10
-4817.14497974611
 20
504.8079059643423
 10
-4849.438319141591
 20
325.539830282345
 10
-4887.603173059819
 20
122.761152800027
 10
-4570.541255546151
 20
125.7000052366638
 10
-4561.733974241644
 20
325.539830282345
 10
-4529.440634846163
 20
507.7467584009719
 10
-4432.560597618925
 20
504.8079059643423
 10
-4326.873298127968
 20
507.7467584009719
 10
-4309.258735518946
 20
316.7233818188178
 10
-4294.579939691692
 20
122.761152800027
 10
-4047.976215491734
 20
501.8690898098284
 10
-4015.682876096252
 20
313.784529382181
 10
-3983.389536700772
 20
131.5776375456844
  0
HATCH
  5
1B6
330
195
100
AcDbEntity
  8
0
 62
   250
100
AcDbHatch
 10
0.0
 20
0.0
 30
0.0
210
0.0
220
0.0
230
1.0
  2
SOLID
 70
     1
 71
     0
 91
       23
 92
        7
 72
     1
 73
     1
 93
        2
 10
-4889.352880518592
 20
105.0169238731177
 42
1.0
 10
-4889.352880518592
 20
145.0244769806595
 42
1.0
 97
        0
 92
        7
 72
     1
 73
     1
 93
        2
 10
-4852.679290170017
 20
337.060731896825
 42
1.0
 10
-4852.679290170017
 20
297.0531787892832
 42
1.0
 97
        0
 92
        7
 72
     1
 73
     1
 93
        2
 10
-4816.67249237324
 20
488.4226411536583
 42
1.0
 10
-4816.67249237324
 20
528.4301942612001
 42
1.0
 97
        0
 92
        7
 72
     1
 73
     1
 93
        4
 10
-4799.348713706044
 20
518.4283059843146
 42
-0.2679491924310617
 10
-4799.348713706044
 20
498.424529430551
 42
0.0
 10
-4553.276606735897
 20
498.424529430551
 42
-0.2679491924310617
 10
-4553.276606735897
 20
518.4283059843146
 42
0.0
 97
        0
 92
        7
 72
     1
 73
     1
 93
        4
 10
-4835.355511502829
 20
327.0588436199468
 42
-0.2679491924311883
 10
-4835.355511502829
 20
307.0550670661686
 42
0.0
 10
-4572.61359073787
 20
307.0550670661686
 42
-0.2679491924311883
 10
-4572.61359073787
 20
327.0588436199468
 42
0.0
 97
        0
 92
        7
 72
     1
 73
     1
 93
        4
 10
-4872.029101851404
 20
135.0225887037668
 42
-0.2679491924310617
 10
-4872.029101851404
 20
115.0188121500032
 42
0.0
 10
-4592.238917464943
 20
115.0188121500032
 42
-0.2679491924310617
 10
-4592.238917464943
 20
135.0225887037668
 42
0.0
 97
        0
 92
        7
 72
     1
 73
     1
 93
        2
 10
-4574.915138797747
 20
145.0244769806522
 42
1.0
 10
-4574.915138797747
 20
105.0169238731177
 42
1.0
 97
        0
 92
        7
 72
     1
 73
     1
 93
        2
 10
-4555.289812070681
 20
337.060731896825
 42
1.0
 10
-4555.289812070681
 20
297.0531787892832
 42
1.0
 97
        0
 92
        7
 72
     1
 73
     1
 93
        2
 10
-4535.9528280687
 20
488.4226411536583
 42
1.0
 10
-4535.9528280687
 20
528.4301942612001
 42
1.0
 97
        0
 92
        7
 72
     1
 73
     1
 93
        4
 10
-4518.629049401504
 20
518.4283059843146
 42
-0.2679491924310617
 10
-4518.629049401504
 20
498.424529430551
 42
0.0
 10
-4452.590931415267
 20
498.424529430551
 42
-0.2679491924310617
 10
-4452.590931415267
 20
518.4283059843146
 42
0.0
 97
        0
 92
        7
 72
     1
 73
     1
 93
        2
 10
-4435.26715274807
 20
488.4226411536583
 42
1.0
 10
-4435.26715274807
 20
528.4301942612001
 42
1.0
 97
        0
 92
        7
 72
     1
 73
     1
 93
        4
 10
-4417.943374080882
 20
518.4283059843146
 42
-0.2679491924310617
 10
-4417.943374080882
 20
498.424529430551
 42
0.0
 10
-4348.57129333567
 20
498.424529430551
 42
-0.2679491924310617
 10
-4348.57129333567
 20
518.4283059843146
 42
0.0
 97
        0
 92
        7
 72
     1
 73
     1
 93
        2
 10
-4331.247514668481
 20
528.4301942612001
 42
1.0
 10
-4331.247514668481
 20
488.4226411536583
 42
1.0
 97
        0
 92
        7
 72
     1
 73
     1
 93
        4
 10
-4313.923736001284
 20
518.4283059843146
 42
-0.2679491924310617
 10
-4313.923736001284
 20
498.424529430551
 42
0.0
 10
-4071.185591790097
 20
498.424529430551
 42
-0.2679491924310617
 10
-4071.185591790097
 20
518.4283059843146
 42
0.0
 97
        0
 92
        7
 72
     1
 73
     1
 93
        4
 10
-4537.966033403485
 20
327.0588436199468
 42
-0.2679491924311883
 10
-4537.966033403485
 20
307.0550670661686
 42
0.0
 10
-4329.234309333696
 20
307.0550670661686
 42
-0.2679491924311883
 10
-4329.234309333696
 20
327.0588436199468
 42
0.0
 97
        0
 92
        7
 72
     1
 73
     1
 93
        4
 10
-4294.586751999311
 20
327.0588436199468
 42
-0.2679491924311883
 10
-4294.586751999311
 20
307.0550670661686
 42
0.0
 10
-4033.845208889725
 20
307.0550670661686
 42
-0.2679491924311883
 10
-4033.845208889725
 20
327.0588436199468
 42
0.0
 97
        0
 92
        7
 72
     1
 73
     1
 93
        2
 10
-4311.910530666501
 20
337.060731896825
 42
1.0
 10
-4311.910530666501
 20
297.0531787892832
 42
1.0
 97
        0
 92
        7
 72
     1
 73
     1
 93
        2
 10
-4053.861813122901
 20
528.4301942612001
 42
1.0
 10
-4053.861813122901
 20
488.4226411536583
 42
1.0
 97
        0
 92
        7
 72
     1
 73
     1
 93
        2
 10
-4016.521430222535
 20
297.0531787892832
 42
1.0
 10
-4016.521430222535
 20
337.060731896825
 42
1.0
 97
        0
 92
        7
 72
     1
 73
     1
 93
        2
 10
-3979.18104732217
 20
145.0244769806522
 42
1.0
 10
-3979.18104732217
 20
105.0169238731177
 42
1.0
 97
        0
 92
        7
 72
     1
 73
     1
 93
        4
 10
-4275.249767997331
 20
135.0225887037668
 42
-0.2679491924310617
 10
-4275.249767997331
 20
115.0188121500032
 42
0.0
 10
-3996.504825989366
 20
115.0188121500032
 42
-0.2679491924310617
 10
-3996.504825989366
 20
135.0225887037668
 42
0.0
 97
        0
 92
        7
 72
     1
 73
     1
 93
        2
 10
-4292.573546664526
 20
145.0244769806522
 42
1.0
 10
-4292.573546664526
 20
105.0169238731177
 42
1.0
 97
        0
 92
        7
 72
     1
 73
     1
 93
        4
 10
-4557.59136013055
 20
135.0225887037668
 42
-0.2679491924310617
 10
-4557.59136013055
 20
115.0188121500032
 42
0.0
 10
-4309.897325331723
 20
115.0188121500032
 42
-0.2679491924310617
 10
-4309.897325331723
 20
135.0225887037668
 42
0.0
 97
        0
 75
     0
 76
     1
 47
2.764541729509131
 98
       23
 10
-4892.382298174926
 20
121.9403784812457
 10
-4850.914190145668
 20
318.4275896929102
 10
-4817.73968087331
 20
501.0777040154135
 10
-4740.332511611931
 20
509.3799621489088
 10
-4707.158002339572
 20
315.6601703150808
 10
-4712.687087218299
 20
133.0100922747078
 10
-4571.695470412756
 20
127.4752172369117
 10
-4549.579130897852
 20
321.1950090707468
 10
-4538.520961140398
 20
509.3799621489088
 10
-4477.701046515198
 20
506.6125427710794
 10
-4436.232919445145
 20
509.3799621489088
 10
-4378.177537738912
 20
512.1474178088756
 10
-4325.651240911407
 20
509.3799621489088
 10
-4278.654028962628
 20
512.1474178088756
 10
-4472.171961636472
 20
318.4275896929102
 10
-4201.246859701249
 20
318.4275896929102
 10
-4306.299453356259
 20
318.4275896929102
 10
-4046.432521178496
 20
512.1474178088756
 10
-4016.022563865895
 20
315.6601703150808
 10
-3977.3189887556
 20
130.242636614741
 10
-4024.316200704379
 20
124.707797859075
 10
-4289.712198720081
 20
127.4752172369117
 10
-4350.532113345281
 20
121.9403784812457
  0
HATCH
  5
1B7
330
195
100
AcDbEntity
  8
0
 62
    50
100
AcDbHatch
 10
0.0
 20
0.0
 30
0.0
210
0.0
220
0.0
230
1.0
  2
SOLID
 70
     1
 71
     0
 91
       15
 92
        7
 72
     1
 73
     1
 93
        5
 10
-4944.02986976556
 20
-105.6895224932377
 42
0.0
 10
-4924.026093211789
 20
-111.0238629075756
 42
0.0
 10
-4882.689590152215
 20
106.1593208933918
 42
-0.0851023481420786
 10
-4889.352880518592
 20
105.0169238731177
 42
-0.1859621584946757
 10
-4902.773798356211
 20
110.1872908117948
 42
0.0
 97
        0
 92
        7
 72
     1
 73
     1
 93
        6
 10
-4896.358170885571
 20
143.757748841388
 42
-0.0896850285161526
 10
-4889.352880518592
 20
145.0244769806522
 42
-0.1808726405839401
 10
-4876.226697321094
 20
140.1155469341829
 42
0.0
 10
-4846.148088010355
 20
298.1494310534326
 42
-0.0833413142280533
 10
-4852.679290170017
 20
297.0531787892832
 42
-0.1855709679467075
 10
-4866.077756171129
 20
302.2032626967702
 42
0.0
 97
        0
 92
        7
 72
     1
 73
     1
 93
        6
 10
-4859.656231535293
 20
335.8045782750123
 42
-0.0893038586945105
 10
-4852.679290170017
 20
337.060731896825
 42
-0.1790673735504051
 10
-4839.659008397532
 20
332.2432432034329
 42
0.0
 10
-4809.694182879365
 20
489.6793039823605
 42
-0.0893222485011883
 10
-4816.67249237324
 20
488.4226411536583
 42
-0.1772621847634118
 10
-4829.586173404423
 20
493.1493787718936
 42
0.0
 97
        0
 92
        7
 72
     1
 73
     1
 93
        5
 10
-4823.04270310072
 20
527.3887881209812
 42
-0.0812013531982661
 10
-4816.67249237324
 20
528.4301942612001
 42
-0.1852009961545732
 10
-4803.295291498777
 20
523.299264549154
 42
0.0
 10
-4773.153190882942
 20
681.6667338234983
 42
-0.2685811292006837
 10
-4792.889911851125
 20
685.1664985245879
 42
0.0
 97
        0
 92
        7
 72
     1
 73
     1
 93
        5
 10
-4586.632367259714
 20
108.8078156254923
 42
0.0
 10
-4608.633216214053
 20
-107.0231075968185
 42
0.0
 10
-4588.62943966029
 20
-109.6902778039875
 42
0.0
 10
-4566.6989214032
 20
106.7821465330416
 42
-0.10621125263883
 10
-4574.915138797747
 20
105.0169238731177
 42
-0.1577406454984231
 97
        0
 92
        7
 72
     1
 73
     1
 93
        6
 10
-4567.109738614105
 20
300.9187889998429
 42
0.0
 10
-4583.131356192302
 20
143.2592543207283
 42
-0.1062112526389573
 10
-4574.915138797747
 20
145.0244769806522
 42
-0.1577406454982801
 10
-4563.197910335795
 20
141.2335852282849
 42
0.0
 10
-4547.189130281746
 20
298.7667932068798
 42
-0.1046122499629626
 10
-4555.289812070681
 20
297.0531787892832
 42
-0.1593677876891822
 97
        0
 92
        7
 72
     1
 73
     1
 93
        6
 10
-4547.67005653066
 20
492.2135329060329
 42
0.0
 10
-4563.621658910146
 20
335.2429775759883
 42
-0.1078166695744589
 10
-4555.289812070681
 20
337.060731896825
 42
-0.1561202689644205
 10
-4543.67537552947
 20
333.3436351840646
 42
0.0
 10
-4527.736610674153
 20
490.1878638135895
 42
-0.106211252638881
 10
-4535.9528280687
 20
488.4226411536583
 42
-0.1577406454983651
 97
        0
 92
        7
 72
     1
 73
     1
 93
        5
 10
-4444.988854175345
 20
682.7465196839039
 42
0.0
 10
-4444.636047932675
 20
526.1005479387385
 42
-0.1224641477092257
 10
-4435.26715274807
 20
528.4301942612001
 42
-0.1206628716633466
 10
-4426.023982136532
 20
526.1666227079112
 42
0.0
 10
-4426.728561966978
 20
682.583345067811
 42
-0.2415336677682219
 97
        0
 92
        7
 72
     1
 73
     1
 93
        6
 10
-4319.530286206521
 20
492.2135329060329
 42
-0.1577406454983381
 10
-4331.247514668481
 20
488.4226411536583
 42
-0.1062112526390083
 10
-4339.463732063035
 20
490.1878638135895
 42
0.0
 10
-4323.524967207712
 20
333.3436351840646
 42
-0.1561202689644513
 10
-4311.910530666501
 20
337.060731896825
 42
-0.1078166695745329
 10
-4303.578683827029
 20
335.2429775759883
 42
0.0
 97
        0
 92
        7
 72
     1
 73
     1
 93
        6
 10
-4311.910530666501
 20
297.0531787892832
 42
-0.104612249963011
 10
-4320.011212455436
 20
298.7667932068798
 42
0.0
 10
-4304.021842624978
 20
141.4245900880341
 42
-0.1535182735215436
 10
-4292.573546664526
 20
145.0244769806522
 42
-0.1104223275205014
 10
-4284.054829362816
 20
143.1199416249801
 42
0.0
 10
-4300.090604123069
 20
300.9187889998502
 42
-0.1593677876892712
 97
        0
 92
        7
 72
     1
 73
     1
 93
        5
 10
-4292.573546664526
 20
105.0169238731177
 42
-0.102044031375449
 10
-4300.487905641952
 20
106.6491463720522
 42
0.0
 10
-4278.570903076892
 20
-109.0234852521971
 42
0.0
 10
-4258.567126523121
 20
-107.0231075968185
 42
0.0
 10
-4280.588027191071
 20
109.0051330200003
 42
-0.1620092734141219
 97
        0
 92
        7
 72
     1
 73
     1
 93
        5
 10
-3979.18104732217
 20
105.0169238731177
 42
-0.079198403321382
 10
-3985.400106065434
 20
106.008220715892
 42
0.0
 10
-3943.174249525393
 20
-111.0238629075684
 42
0.0
 10
-3923.155023750602
 20
-107.1019677996446
 42
0.0
 10
-3965.728929276374
 20
110.2155798095118
 42
-0.1865067590877368
 97
        0
 92
        7
 72
     1
 73
     1
 93
        6
 10
-4003.308220108767
 20
302.0382285360828
 42
-0.1823652781536637
 10
-4016.521430222535
 20
297.0531787892832
 42
-0.0827944421143663
 10
-4023.011540451007
 20
298.1352866630622
 42
0.0
 10
-3992.110177346505
 20
140.284666924068
 42
-0.1775230658767542
 10
-3979.18104732217
 20
145.0244769806522
 42
-0.0878853185701973
 10
-3972.309764525133
 20
143.8073060046954
 42
0.0
 97
        0
 92
        7
 72
     1
 73
     1
 93
        6
 10
-4040.776818952421
 20
493.2958524842907
 42
-0.1801690726475175
 10
-4053.861813122901
 20
488.4226411536583
 42
-0.0845485779383144
 10
-4060.483606400295
 20
489.5504295159626
 42
0.0
 10
-4029.6673607048
 20
332.1346072878586
 42
-0.181210605973591
 10
-4016.521430222535
 20
337.060731896825
 42
-0.0838505500870652
 10
-4009.951995169998
 20
335.9512295948952
 42
0.0
 97
        0
 92
        7
 72
     1
 73
     1
 93
        5
 10
-4078.454952136679
 20
685.6230397830294
 42
-0.2684352454930941
 10
-4098.047987170692
 20
681.4371357647323
 42
0.0
 10
-4067.112481113297
 20
523.4121066879743
 42
-0.1830103166745941
 10
-4053.861813122901
 20
528.4301942612001
 42
-0.0817096404766589
 10
-4047.453316204104
 20
527.3758832316889
 42
0.0
 97
        0
 75
     0
 76
     1
 47
3.667923569414485
 98
       15
 10
-4913.065518314143
 20
-15.76539855609735
 10
-4872.71839390415
 20
219.0805339172002
 10
-4836.039131399571
 20
398.8844260863915
 10
-4799.35993324004
 20
593.3661691306115
 10
-4579.284486902637
 20
50.28504980884463
 10
-4560.944855650341
 20
226.4194195456293
 10
-4546.273150648507
 20
380.5370527789564
 10
-4432.567565574419
 20
567.6799101947472
 10
-4318.861916155255
 20
409.8928341472128
 10
-4300.522284902959
 20
215.4110114848081
 10
-4282.182653650663
 20
13.59030319397425
 10
-3966.741253491469
 20
28.2682336871876
 10
-3996.084599150075
 20
200.733160609765
 10
-4032.763861654668
 20
402.5538689005989
 10
-4069.443124159247
 20
593.3661691306115
  0
LINE
  5
1B8
330
195
100
AcDbEntity
  8
0
100
AcDbLine
 10
-4866.077756171129
 20
302.2032626967702
 30
0.0
 11
-4896.358170885571
 21
143.757748841388
 31
0.0
  0
LINE
  5
1B9
330
195
100
AcDbEntity
  8
0
100
AcDbLine
 10
-4876.226697321094
 20
140.1155469341829
 30
0.0
 11
-4846.148088010355
 21
298.1494310534326
 31
0.0
  0
LINE
  5
1BA
330
195
100
AcDbEntity
  8
0
100
AcDbLine
 10
-3972.309764525133
 20
143.8073060046954
 30
0.0
 11
-4003.308220108767
 21
302.0382285360828
 31
0.0
  0
LINE
  5
1BB
330
195
100
AcDbEntity
  8
0
100
AcDbLine
 10
-4023.011540451007
 20
298.1352866630622
 30
0.0
 11
-3992.110177346505
 21
140.2846669240607
 31
0.0
  0
LINE
  5
1BC
330
195
100
AcDbEntity
  8
0
100
AcDbLine
 10
-4300.090604123069
 20
300.9187889998502
 30
0.0
 11
-4284.054829362816
 21
143.1199416249801
 31
0.0
  0
LINE
  5
1BD
330
195
100
AcDbEntity
  8
0
100
AcDbLine
 10
-4304.021842624978
 20
141.4245900880341
 30
0.0
 11
-4320.011212455436
 21
298.7667932068798
 31
0.0
  0
LINE
  5
1BE
330
195
100
AcDbEntity
  8
0
100
AcDbLine
 10
-4547.189130281746
 20
298.7667932068798
 30
0.0
 11
-4563.197910335795
 21
141.2335852282849
 31
0.0
  0
LINE
  5
1BF
330
195
100
AcDbEntity
  8
0
100
AcDbLine
 10
-4583.131356192302
 20
143.2592543207283
 30
0.0
 11
-4567.109738614105
 21
300.9187889998429
 31
0.0
  0
HATCH
  5
1C0
330
195
100
AcDbEntity
  8
0
 62
   250
100
AcDbHatch
 10
0.0
 20
0.0
 30
0.0
210
0.0
220
0.0
230
1.0
  2
SOLID
 70
     1
 71
     0
 91
        3
 92
        7
 72
     1
 73
     1
 93
        4
 10
-4872.029101851404
 20
135.0225887037668
 42
-0.2679491924310617
 10
-4872.029101851404
 20
115.0188121500032
 42
0.0
 10
-4592.238917464943
 20
115.0188121500032
 42
-0.2679491924310617
 10
-4592.238917464943
 20
135.0225887037668
 42
0.0
 97
        0
 92
        7
 72
     1
 73
     1
 93
        4
 10
-4557.59136013055
 20
135.0225887037668
 42
-0.2679491924310617
 10
-4557.59136013055
 20
115.0188121500032
 42
0.0
 10
-4309.897325331723
 20
115.0188121500032
 42
-0.2679491924310617
 10
-4309.897325331723
 20
135.0225887037668
 42
0.0
 97
        0
 92
        7
 72
     1
 73
     1
 93
        4
 10
-4275.249767997331
 20
135.0225887037668
 42
-0.2679491924310617
 10
-4275.249767997331
 20
115.0188121500032
 42
0.0
 10
-3996.504825989366
 20
115.0188121500032
 42
-0.2679491924310617
 10
-3996.504825989366
 20
135.0225887037668
 42
0.0
 97
        0
 75
     0
 76
     1
 47
3.005531458579665
 98
        3
 10
-4705.735978701668
 20
128.7491553450017
 10
-4489.337713683933
 20
125.7404960924614
 10
-4158.729242133042
 20
122.731836839921
  0
LINE
  5
1C1
330
195
100
AcDbEntity
  8
0
100
AcDbLine
 10
-4557.59136013055
 20
135.0225887037668
 30
0.0
 11
-4309.897325331723
 21
135.0225887037668
 31
0.0
  0
LINE
  5
1C2
330
195
100
AcDbEntity
  8
0
100
AcDbLine
 10
-4557.59136013055
 20
115.0188121500032
 30
0.0
 11
-4306.576190252163
 21
115.0188121500032
 31
0.0
  0
LINE
  5
1C3
330
195
100
AcDbEntity
  8
0
100
AcDbLine
 10
-4872.029101851396
 20
135.0225887037668
 30
0.0
 11
-4592.238917464943
 21
135.0225887037668
 31
0.0
  0
LINE
  5
1C4
330
195
100
AcDbEntity
  8
0
100
AcDbLine
 10
-4872.029101851396
 20
115.0188121500032
 30
0.0
 11
-4592.238917464943
 21
115.0188121500032
 31
0.0
  0
LINE
  5
1C5
330
195
100
AcDbEntity
  8
0
100
AcDbLine
 10
-4902.773798356211
 20
110.1872908117948
 30
0.0
 11
-4944.02986976556
 21
-105.6895224932377
 31
0.0
  0
LINE
  5
1C6
330
195
100
AcDbEntity
  8
0
100
AcDbLine
 10
-4924.026093211789
 20
-111.0238629075756
 30
0.0
 11
-4882.689590152215
 21
106.1593208933918
 31
0.0
  0
LINE
  5
1C7
330
195
100
AcDbEntity
  8
0
100
AcDbLine
 10
-4944.02986976556
 20
-105.6895224932377
 30
0.0
 11
-4924.026093211789
 21
-111.0238629075756
 31
0.0
  0
CIRCLE
  5
1C8
102
{ACAD_REACTORS
330
1B5
102
}
330
195
100
AcDbEntity
  8
0
100
AcDbCircle
 10
-4889.352880518592
 20
125.0207004268813
 30
0.0
 40
20.00377655377027
  0
LINE
  5
1C9
330
195
100
AcDbEntity
  8
0
100
AcDbLine
 10
-4566.6989214032
 20
106.7821465330416
 30
0.0
 11
-4588.62943966029
 21
-109.6902778039875
 31
0.0
  0
LINE
  5
1CA
330
195
100
AcDbEntity
  8
0
100
AcDbLine
 10
-4608.633216214053
 20
-107.0231075968185
 30
0.0
 11
-4586.632367259714
 21
108.8078156254923
 31
0.0
  0
LINE
  5
1CB
330
195
100
AcDbEntity
  8
0
100
AcDbLine
 10
-4588.62943966029
 20
-109.6902778039875
 30
0.0
 11
-4608.633216214053
 21
-107.0231075968185
 31
0.0
  0
CIRCLE
  5
1CC
102
{ACAD_REACTORS
330
1B5
102
}
330
195
100
AcDbEntity
  8
0
100
AcDbCircle
 10
-4574.915138797747
 20
125.0207004268813
 30
0.0
 40
20.00377655377027
  0
LINE
  5
1CD
330
195
100
AcDbEntity
  8
0
100
AcDbLine
 10
-3996.504825989366
 20
135.0225887037668
 30
0.0
 11
-4275.249767997331
 21
135.0225887037668
 31
0.0
  0
LINE
  5
1CE
330
195
100
AcDbEntity
  8
0
100
AcDbLine
 10
-4275.249767997331
 20
115.0188121500032
 30
0.0
 11
-3996.504825989366
 21
115.0188121500032
 31
0.0
  0
LINE
  5
1CF
330
195
100
AcDbEntity
  8
0
100
AcDbLine
 10
-4258.567126523121
 20
-107.0231075968185
 30
0.0
 11
-4280.588027191071
 21
109.0051330200003
 31
0.0
  0
LINE
  5
1D0
330
195
100
AcDbEntity
  8
0
100
AcDbLine
 10
-4300.487905641952
 20
106.6491463720522
 30
0.0
 11
-4278.570903076892
 21
-109.0234852521971
 31
0.0
  0
LINE
  5
1D1
330
195
100
AcDbEntity
  8
0
100
AcDbLine
 10
-4278.570903076892
 20
-109.0234852521971
 30
0.0
 11
-4258.567126523121
 21
-107.0231075968185
 31
0.0
  0
CIRCLE
  5
1D2
102
{ACAD_REACTORS
330
1B5
102
}
330
195
100
AcDbEntity
  8
0
100
AcDbCircle
 10
-4292.573546664526
 20
125.0207004268813
 30
0.0
 40
20.00377655377027
  0
LINE
  5
1D3
330
195
100
AcDbEntity
  8
0
100
AcDbLine
 10
-3923.155023750602
 20
-107.1019677996446
 30
0.0
 11
-3965.728929276374
 21
110.2155798095118
 31
0.0
  0
LINE
  5
1D4
330
195
100
AcDbEntity
  8
0
100
AcDbLine
 10
-3985.400106065434
 20
106.008220715892
 30
0.0
 11
-3943.174249525393
 21
-111.0238629075756
 31
0.0
  0
LINE
  5
1D5
330
195
100
AcDbEntity
  8
0
100
AcDbLine
 10
-3943.174249525393
 20
-111.0238629075756
 30
0.0
 11
-3923.155023750602
 21
-107.1019677996446
 31
0.0
  0
CIRCLE
  5
1D6
102
{ACAD_REACTORS
330
1B5
102
}
330
195
100
AcDbEntity
  8
0
100
AcDbCircle
 10
-3979.18104732217
 20
125.0207004268813
 30
0.0
 40
20.00377655377027
  0
HATCH
  5
1D7
330
195
100
AcDbEntity
  8
0
 62
   250
100
AcDbHatch
 10
0.0
 20
0.0
 30
0.0
210
0.0
220
0.0
230
1.0
  2
SOLID
 70
     1
 71
     0
 91
        3
 92
        7
 72
     1
 73
     1
 93
        4
 10
-4835.355511502829
 20
327.0588436199468
 42
-0.2679491924311883
 10
-4835.355511502829
 20
307.0550670661686
 42
0.0
 10
-4572.61359073787
 20
307.0550670661686
 42
-0.2679491924311883
 10
-4572.61359073787
 20
327.0588436199468
 42
0.0
 97
        0
 92
        7
 72
     1
 73
     1
 93
        4
 10
-4537.966033403485
 20
327.0588436199468
 42
-0.2679491924311883
 10
-4537.966033403485
 20
307.0550670661686
 42
0.0
 10
-4329.234309333696
 20
307.0550670661686
 42
-0.2679491924311883
 10
-4329.234309333696
 20
327.0588436199468
 42
0.0
 97
        0
 92
        7
 72
     1
 73
     1
 93
        4
 10
-4294.586751999311
 20
327.0588436199468
 42
-0.2679491924311883
 10
-4294.586751999311
 20
307.0550670661686
 42
0.0
 10
-4033.845208889725
 20
307.0550670661686
 42
-0.2679491924311883
 10
-4033.845208889725
 20
327.0588436199468
 42
0.0
 97
        0
 75
     0
 76
     1
 47
3.005531458579665
 98
        3
 10
-4684.697271978839
 20
321.3038191751548
 10
-4423.216023181914
 20
312.2778414175409
 10
-4110.640745142693
 20
315.2865006700813
  0
HATCH
  5
1D8
330
195
100
AcDbEntity
  8
0
 62
   250
100
AcDbHatch
 10
0.0
 20
0.0
 30
0.0
210
0.0
220
0.0
230
1.0
  2
SOLID
 70
     1
 71
     0
 91
        4
 92
        7
 72
     1
 73
     1
 93
        4
 10
-4799.348713706044
 20
518.4283059843146
 42
-0.2679491924310617
 10
-4799.348713706044
 20
498.424529430551
 42
0.0
 10
-4553.276606735897
 20
498.424529430551
 42
-0.2679491924310617
 10
-4553.276606735897
 20
518.4283059843146
 42
0.0
 97
        0
 92
        7
 72
     1
 73
     1
 93
        4
 10
-4518.629049401504
 20
518.4283059843146
 42
-0.2679491924310617
 10
-4518.629049401504
 20
498.424529430551
 42
0.0
 10
-4452.590931415267
 20
498.424529430551
 42
-0.2679491924310617
 10
-4452.590931415267
 20
518.4283059843146
 42
0.0
 97
        0
 92
        7
 72
     1
 73
     1
 93
        4
 10
-4417.943374080882
 20
518.4283059843146
 42
-0.2679491924310617
 10
-4417.943374080882
 20
498.424529430551
 42
0.0
 10
-4348.57129333567
 20
498.424529430551
 42
-0.2679491924310617
 10
-4348.57129333567
 20
518.4283059843146
 42
0.0
 97
        0
 92
        7
 72
     1
 73
     1
 93
        4
 10
-4313.923736001284
 20
518.4283059843146
 42
-0.2679491924310617
 10
-4313.923736001284
 20
498.424529430551
 42
0.0
 10
-4071.185591790097
 20
498.424529430551
 42
-0.2679491924310617
 10
-4071.185591790097
 20
518.4283059843146
 42
0.0
 97
        0
 75
     0
 76
     1
 47
3.005531458579665
 98
        4
 10
-4642.619820451597
 20
507.8411645002343
 10
-4483.326649180038
 20
507.8411645002343
 10
-4375.127526191572
 20
504.8325052476939
 10
-4233.867529390896
 20
510.8498600349048
  0
LINE
  5
1D9
330
195
100
AcDbEntity
  8
0
100
AcDbLine
 10
-4417.943374080874
 20
518.4283059843146
 30
0.0
 11
-4348.571293335677
 21
518.4283059843146
 31
0.0
  0
LINE
  5
1DA
330
195
100
AcDbEntity
  8
0
100
AcDbLine
 10
-4417.943374080874
 20
498.424529430551
 30
0.0
 11
-4348.571293335677
 21
498.424529430551
 31
0.0
  0
LINE
  5
1DB
330
195
100
AcDbEntity
  8
0
100
AcDbLine
 10
-4329.234309333696
 20
327.0588436199468
 30
0.0
 11
-4537.966033403485
 21
327.0588436199468
 31
0.0
  0
LINE
  5
1DC
330
195
100
AcDbEntity
  8
0
100
AcDbLine
 10
-4537.966033403485
 20
307.0550670661686
 30
0.0
 11
-4329.234309333696
 21
307.0550670661686
 31
0.0
  0
LINE
  5
1DD
330
195
100
AcDbEntity
  8
0
100
AcDbLine
 10
-4803.295291498777
 20
523.299264549154
 30
0.0
 11
-4772.795496624524
 21
683.5460698127499
 31
0.0
  0
LINE
  5
1DE
330
195
100
AcDbEntity
  8
0
100
AcDbLine
 10
-4426.728561966978
 20
682.583345067811
 30
0.0
 11
-4426.023982136532
 21
526.1666227079112
 31
0.0
  0
LINE
  5
1DF
330
195
100
AcDbEntity
  8
0
100
AcDbLine
 10
-4444.636047932675
 20
526.1005479387385
 30
0.0
 11
-4444.988854175345
 21
682.7465196839112
 31
0.0
  0
LINE
  5
1E0
330
195
100
AcDbEntity
  8
0
100
AcDbLine
 10
-4792.00555475003
 20
689.7939917949261
 30
0.0
 11
-4823.04270310072
 21
527.3887881209812
 31
0.0
  0
LINE
  5
1E1
330
195
100
AcDbEntity
  8
0
100
AcDbLine
 10
-4553.276606735897
 20
518.4283059843146
 30
0.0
 11
-4799.348713706044
 21
518.4283059843146
 31
0.0
  0
LINE
  5
1E2
330
195
100
AcDbEntity
  8
0
100
AcDbLine
 10
-4799.348713706044
 20
498.424529430551
 30
0.0
 11
-4553.276606735897
 21
498.424529430551
 31
0.0
  0
LINE
  5
1E3
330
195
100
AcDbEntity
  8
0
100
AcDbLine
 10
-4572.61359073787
 20
327.0588436199468
 30
0.0
 11
-4835.355511502829
 21
327.0588436199468
 31
0.0
  0
LINE
  5
1E4
330
195
100
AcDbEntity
  8
0
100
AcDbLine
 10
-4835.355511502829
 20
307.0550670661686
 30
0.0
 11
-4572.61359073787
 21
307.0550670661686
 31
0.0
  0
LINE
  5
1E5
330
195
100
AcDbEntity
  8
0
100
AcDbLine
 10
-4829.586173404423
 20
493.1493787718936
 30
0.0
 11
-4859.656231535293
 21
335.8045782750123
 31
0.0
  0
LINE
  5
1E6
330
195
100
AcDbEntity
  8
0
100
AcDbLine
 10
-4839.659008397532
 20
332.2432432034329
 30
0.0
 11
-4809.694182879365
 21
489.6793039823605
 31
0.0
  0
CIRCLE
  5
1E7
102
{ACAD_REACTORS
330
1B5
102
}
330
195
100
AcDbEntity
  8
0
100
AcDbCircle
 10
-4852.679290170017
 20
317.0569553430541
 30
0.0
 40
20.00377655377027
  0
CIRCLE
  5
1E8
102
{ACAD_REACTORS
330
1B5
102
}
330
195
100
AcDbEntity
  8
0
100
AcDbCircle
 10
-4816.67249237324
 20
508.4264177074292
 30
0.0
 40
20.00377655377027
  0
LINE
  5
1E9
330
195
100
AcDbEntity
  8
0
100
AcDbLine
 10
-4527.736610674153
 20
490.1878638135895
 30
0.0
 11
-4543.67537552947
 21
333.3436351840646
 31
0.0
  0
LINE
  5
1EA
330
195
100
AcDbEntity
  8
0
100
AcDbLine
 10
-4563.621658910146
 20
335.2429775759883
 30
0.0
 11
-4547.67005653066
 21
492.2135329060329
 31
0.0
  0
CIRCLE
  5
1EB
102
{ACAD_REACTORS
330
1B5
102
}
330
195
100
AcDbEntity
  8
0
100
AcDbCircle
 10
-4555.289812070681
 20
317.0569553430541
 30
0.0
 40
20.00377655377027
  0
CIRCLE
  5
1EC
102
{ACAD_REACTORS
330
1B5
102
}
330
195
100
AcDbEntity
  8
0
100
AcDbCircle
 10
-4535.9528280687
 20
508.4264177074292
 30
0.0
 40
20.00377655377027
  0
CIRCLE
  5
1ED
102
{ACAD_REACTORS
330
1B5
102
}
330
195
100
AcDbEntity
  8
0
100
AcDbCircle
 10
-4435.26715274807
 20
508.4264177074292
 30
0.0
 40
20.00377655377027
  0
LINE
  5
1EE
330
195
100
AcDbEntity
  8
0
100
AcDbLine
 10
-4518.629049401504
 20
518.4283059843146
 30
0.0
 11
-4452.590931415267
 21
518.4283059843146
 31
0.0
  0
LINE
  5
1EF
330
195
100
AcDbEntity
  8
0
100
AcDbLine
 10
-4518.629049401504
 20
498.424529430551
 30
0.0
 11
-4452.590931415267
 21
498.424529430551
 31
0.0
  0
ARC
  5
1F0
330
195
100
AcDbEntity
  8
0
100
AcDbCircle
 10
-4779.998902024664
 20
700.4626726235946
 30
0.0
 40
20.00377655376609
100
AcDbArc
 50
212.2309526354503
 51
327.7690473645496
  0
ARC
  5
1F1
330
195
100
AcDbEntity
  8
0
100
AcDbCircle
 10
-4435.699666835716
 20
700.4626726235946
 30
0.0
 40
20.00377655377027
100
AcDbArc
 50
212.2309526354503
 51
327.7690473645496
  0
LINE
  5
1F2
330
195
100
AcDbEntity
  8
0
100
AcDbLine
 10
-4047.453316204104
 20
527.3758832316889
 30
0.0
 11
-4078.513610453287
 21
685.9224598469227
 31
0.0
  0
LINE
  5
1F3
330
195
100
AcDbEntity
  8
0
100
AcDbLine
 10
-4098.404831595253
 20
683.2599716499171
 30
0.0
 11
-4067.112481113297
 21
523.4121066879743
 31
0.0
  0
LINE
  5
1F4
330
195
100
AcDbEntity
  8
0
100
AcDbLine
 10
-4071.185591790097
 20
518.4283059843146
 30
0.0
 11
-4313.923736001284
 21
518.4283059843146
 31
0.0
  0
LINE
  5
1F5
330
195
100
AcDbEntity
  8
0
100
AcDbLine
 10
-4313.923736001284
 20
498.424529430551
 30
0.0
 11
-4071.185591790097
 21
498.424529430551
 31
0.0
  0
LINE
  5
1F6
330
195
100
AcDbEntity
  8
0
100
AcDbLine
 10
-4033.845208889725
 20
327.0588436199468
 30
0.0
 11
-4294.586751999311
 21
327.0588436199468
 31
0.0
  0
LINE
  5
1F7
330
195
100
AcDbEntity
  8
0
100
AcDbLine
 10
-4294.586751999311
 20
307.0550670661686
 30
0.0
 11
-4033.845208889725
 21
307.0550670661686
 31
0.0
  0
LINE
  5
1F8
330
195
100
AcDbEntity
  8
0
100
AcDbLine
 10
-4319.530286206521
 20
492.2135329060329
 30
0.0
 11
-4303.578683827029
 21
335.2429775759883
 31
0.0
  0
LINE
  5
1F9
330
195
100
AcDbEntity
  8
0
100
AcDbLine
 10
-4323.524967207712
 20
333.3436351840646
 30
0.0
 11
-4339.463732063035
 21
490.1878638135968
 31
0.0
  0
CIRCLE
  5
1FA
102
{ACAD_REACTORS
330
1B5
102
}
330
195
100
AcDbEntity
  8
0
100
AcDbCircle
 10
-4311.910530666501
 20
317.0569553430541
 30
0.0
 40
20.00377655377027
  0
CIRCLE
  5
1FB
102
{ACAD_REACTORS
330
1B5
102
}
330
195
100
AcDbEntity
  8
0
100
AcDbCircle
 10
-4331.247514668481
 20
508.4264177074292
 30
0.0
 40
20.00377655377027
  0
LINE
  5
1FC
330
195
100
AcDbEntity
  8
0
100
AcDbLine
 10
-4009.951995169998
 20
335.9512295948952
 30
0.0
 11
-4040.776818952421
 21
493.2958524842907
 31
0.0
  0
LINE
  5
1FD
330
195
100
AcDbEntity
  8
0
100
AcDbLine
 10
-4060.483606400295
 20
489.5504295159553
 30
0.0
 11
-4029.6673607048
 21
332.1346072878586
 31
0.0
  0
CIRCLE
  5
1FE
102
{ACAD_REACTORS
330
1B5
102
}
330
195
100
AcDbEntity
  8
0
100
AcDbCircle
 10
-4016.521430222535
 20
317.0569553430541
 30
0.0
 40
20.00377655377027
  0
CIRCLE
  5
1FF
102
{ACAD_REACTORS
330
1B5
102
}
330
195
100
AcDbEntity
  8
0
100
AcDbCircle
 10
-4053.861813122901
 20
508.4264177074292
 30
0.0
 40
20.00377655377027
  0
ARC
  5
200
330
195
100
AcDbEntity
  8
0
100
AcDbCircle
 10
-4091.868988575057
 20
700.4626726235946
 30
0.0
 40
20.00377655376609
100
AcDbArc
 50
212.2309526354503
 51
327.7690473645496
  0
CIRCLE
  5
201
102
{ACAD_REACTORS
330
204
330
205
102
}
330
195
100
AcDbEntity
  8
0
100
AcDbCircle
 10
-4992.397122507639
 20
2089.796585292839
 30
0.0
 40
24.62395855420982
  0
ARC
  5
202
102
{ACAD_REACTORS
330
204
102
}
330
195
100
AcDbEntity
  8
0
100
AcDbCircle
 10
-5305.893211550177
 20
1639.961138173537
 30
0.0
 40
597.5874547885669
100
AcDbArc
 50
20.58403729477322
 51
179.805541578853
  0
ARC
  5
203
102
{ACAD_REACTORS
330
204
330
1A0
102
}
330
195
100
AcDbEntity
  8
0
100
AcDbCircle
 10
-5310.017756619004
 20
1644.331234210949
 30
0.0
 40
492.8898355634428
100
AcDbArc
 50
24.67028999251647
 51
180.1183514772557
  0
HATCH
  5
204
330
195
100
AcDbEntity
  8
0
 62
    70
100
AcDbHatch
 10
0.0
 20
0.0
 30
0.0
210
0.0
220
0.0
230
1.0
  2
SOLID
 70
     1
 71
     1
 91
       12
 92
        7
 72
     1
 73
     1
 93
        4
 10
-4862.401124553313
 20
1850.679824465223
 42
0.0
 10
-4746.689848391315
 20
1850.679824465223
 42
0.8321255136302351
 10
-5903.472810180969
 20
1643.02535437687
 42
0.0
 10
-5802.905862257206
 20
1643.02535437687
 42
-0.8054755908513653
 97
        4
330
20D
330
203
330
1A9
330
202
 92
       22
 72
     1
 73
     1
 93
        2
 10
-5085.317720825409
 20
2151.588783174164
 42
-1.0
 10
-5134.565637933828
 20
2151.588783174164
 42
-1.0
 97
        1
330
214
 92
       22
 72
     1
 73
     1
 93
        2
 10
-5263.260666603946
 20
2183.18178660221
 42
-1.0
 10
-5214.012749495527
 20
2183.18178660221
 42
-1.0
 97
        1
330
215
 92
       22
 72
     1
 73
     1
 93
        2
 10
-4967.773163953428
 20
2089.796585292839
 42
-1.0
 10
-5017.021081061848
 20
2089.796585292839
 42
-1.0
 97
        1
330
201
 92
       22
 72
     1
 73
     1
 93
        2
 10
-5395.672519206775
 20
2183.18178660221
 42
-1.0
 10
-5346.424602098355
 20
2183.18178660221
 42
-1.0
 97
        1
330
213
 92
       22
 72
     1
 73
     1
 93
        2
 10
-4868.812726745
 20
2001.98661988254
 42
-1.0
 10
-4918.06064385342
 20
2001.98661988254
 42
-1.0
 97
        1
330
217
 92
       22
 72
     1
 73
     1
 93
        2
 10
-5524.367547876892
 20
2151.588783174164
 42
-1.0
 10
-5475.119630768473
 20
2151.588783174164
 42
-1.0
 97
        1
330
212
 92
       22
 72
     1
 73
     1
 93
        2
 10
-4793.547042107599
 20
1892.80491685916
 42
-1.0
 10
-4842.794959216019
 20
1892.80491685916
 42
-1.0
 97
        1
330
216
 92
       22
 72
     1
 73
     1
 93
        2
 10
-5641.447501757287
 20
2089.796585292839
 42
-1.0
 10
-5592.199584648868
 20
2089.796585292839
 42
-1.0
 97
        1
330
210
 92
       22
 72
     1
 73
     1
 93
        2
 10
-5741.337144948893
 20
2001.98661988254
 42
-1.0
 10
-5691.160021857299
 20
2001.98661988254
 42
-1.0
 97
        1
330
211
 92
       22
 72
     1
 73
     1
 93
        2
 10
-5766.425706494692
 20
1892.80491685916
 42
-1.0
 10
-5816.602829586287
 20
1892.80491685916
 42
-1.0
 97
        1
330
206
 92
       22
 72
     1
 73
     1
 93
        2
 10
-5813.350608645171
 20
1768.755918104936
 42
-1.0
 10
-5863.52773173677
 20
1768.755918104936
 42
-1.0
 97
        1
330
20E
 75
     0
 76
     1
 47
4.964459576902267
 98
       12
 10
-5172.739516826077
 20
2136.940604679192
 10
-5172.739516826077
 20
2136.940604679192
 10
-5172.739516826077
 20
2136.940604679192
 10
-5172.739516826077
 20
2136.940604679192
 10
-5172.739516826077
 20
2136.940604679192
 10
-5172.739516826077
 20
2136.940604679192
 10
-5172.739516826077
 20
2136.940604679192
 10
-5172.739516826077
 20
2136.940604679192
 10
-5172.739516826077
 20
2136.940604679192
 10
-5172.739516826077
 20
2136.940604679192
 10
-5172.739516826077
 20
2136.940604679192
 10
-5172.739516826077
 20
2136.940604679192
  0
HATCH
  5
205
330
195
100
AcDbEntity
  8
0
 62
    50
100
AcDbHatch
 10
0.0
 20
0.0
 30
0.0
210
0.0
220
0.0
230
1.0
  2
SOLID
 70
     1
 71
     1
 91
       11
 92
        7
 72
     1
 73
     1
 93
        2
 10
-4793.547042107599
 20
1892.80491685916
 42
1.0
 10
-4842.794959216019
 20
1892.80491685916
 42
1.0
 97
        1
330
216
 92
        7
 72
     1
 73
     1
 93
        2
 10
-4868.812726745
 20
2001.98661988254
 42
1.0
 10
-4918.06064385342
 20
2001.98661988254
 42
1.0
 97
        1
330
217
 92
        7
 72
     1
 73
     1
 93
        2
 10
-4967.773163953428
 20
2089.796585292839
 42
1.0
 10
-5017.021081061848
 20
2089.796585292839
 42
1.0
 97
        1
330
201
 92
        7
 72
     1
 73
     1
 93
        2
 10
-5085.317720825409
 20
2151.588783174164
 42
1.0
 10
-5134.565637933828
 20
2151.588783174164
 42
1.0
 97
        1
330
214
 92
        7
 72
     1
 73
     1
 93
        2
 10
-5214.012749495527
 20
2183.18178660221
 42
1.0
 10
-5263.260666603946
 20
2183.18178660221
 42
1.0
 97
        1
330
215
 92
        7
 72
     1
 73
     1
 93
        2
 10
-5346.424602098355
 20
2183.18178660221
 42
1.0
 10
-5395.672519206775
 20
2183.18178660221
 42
1.0
 97
        1
330
213
 92
        7
 72
     1
 73
     1
 93
        2
 10
-5475.119630768473
 20
2151.588783174164
 42
1.0
 10
-5524.367547876892
 20
2151.588783174164
 42
1.0
 97
        1
330
212
 92
        7
 72
     1
 73
     1
 93
        2
 10
-5592.199584648868
 20
2089.796585292839
 42
1.0
 10
-5641.447501757287
 20
2089.796585292839
 42
1.0
 97
        1
330
210
 92
        7
 72
     1
 73
     1
 93
        2
 10
-5691.160021857299
 20
2001.98661988254
 42
1.0
 10
-5741.337144948893
 20
2001.98661988254
 42
1.0
 97
        1
330
211
 92
        7
 72
     1
 73
     1
 93
        2
 10
-5766.425706494692
 20
1892.80491685916
 42
1.0
 10
-5816.602829586287
 20
1892.80491685916
 42
1.0
 97
        1
330
206
 92
        7
 72
     1
 73
     1
 93
        2
 10
-5813.350608645171
 20
1768.755918104936
 42
1.0
 10
-5863.52773173677
 20
1768.755918104936
 42
1.0
 97
        1
330
20E
 75
     0
 76
     1
 47
5.023106726455871
 98
       11
 10
-4817.47572730024
 20
1884.626255390343
 10
-4887.872695039223
 20
1995.134611631954
 10
-4998.496230094832
 20
2085.550609959529
 10
-5104.091576162224
 20
2155.874028821977
 10
-5234.8285004172
 20
2186.012731856339
 10
-5375.622224813
 20
2180.989614683952
 10
-5496.302560009375
 20
2145.827905252728
 10
-5611.954495135368
 20
2085.550609959529
 10
-5717.549841202759
 20
2005.180845976741
 10
-5787.946808941742
 20
1894.67248973513
 10
-5848.286976539959
 20
1764.071775579483
  0
CIRCLE
  5
206
102
{ACAD_REACTORS
330
204
330
205
102
}
330
195
100
AcDbEntity
  8
0
100
AcDbCircle
 10
-5791.51426804049
 20
1892.80491685916
 30
0.0
 40
25.08856154579734
  0
ARC
  5
207
102
{ACAD_REACTORS
330
1AC
102
}
330
195
100
AcDbEntity
  8
0
100
AcDbCircle
 10
-5920.689395807404
 20
1466.573292056513
 30
0.0
 40
38.67231804611583
100
AcDbArc
 50
90.0
 51
200.2522467423302
  0
ARC
  5
208
330
195
100
AcDbEntity
  8
0
100
AcDbCircle
 10
-5920.689395807414
 20
1485.696965815586
 30
0.0
 40
38.67231804610492
100
AcDbArc
 50
90.0
 51
194.3150032685395
  0
ARC
  5
209
330
195
100
AcDbEntity
  8
0
100
AcDbCircle
 10
-5920.689395807404
 20
1308.909226176198
 30
0.0
 40
38.67231804611583
100
AcDbArc
 50
90.0
 51
270.0
  0
HATCH
  5
20A
330
195
100
AcDbEntity
  8
0
 62
    10
100
AcDbHatch
 10
0.0
 20
0.0
 30
0.0
210
0.0
220
0.0
230
1.0
  2
SOLID
 70
     1
 71
     1
 91
        2
 92
        7
 72
     1
 73
     1
 93
        2
 10
-5920.689395807404
 20
1478.472466839932
 42
1.0
 10
-5920.689395807404
 20
1401.1278307477
 42
0.0
 97
        2
330
20C
330
1A3
 92
        7
 72
     1
 73
     1
 93
        2
 10
-5920.689395807404
 20
1163.144335079301
 42
1.0
 10
-5920.689395807404
 20
1085.799698987069
 42
0.0
 97
        2
330
20B
330
1A3
 75
     0
 76
     1
 47
2.054966041547646
 98
        2
 10
-5930.464308808398
 20
1438.784849870921
 10
-5934.578531130352
 20
1120.265103819328
  0
ARC
  5
20B
102
{ACAD_REACTORS
330
20A
102
}
330
195
100
AcDbEntity
  8
0
100
AcDbCircle
 10
-5920.689395807404
 20
1124.472017033185
 30
0.0
 40
38.67231804611583
100
AcDbArc
 50
90.0
 51
270.0
  0
ARC
  5
20C
102
{ACAD_REACTORS
330
20A
330
1AC
102
}
330
195
100
AcDbEntity
  8
0
100
AcDbCircle
 10
-5920.689395807404
 20
1439.800148793816
 30
0.0
 40
38.67231804611583
100
AcDbArc
 50
90.0
 51
270.0
  0
LWPOLYLINE
  5
20D
102
{ACAD_REACTORS
330
204
330
1AB
330
1AE
330
1A0
102
}
330
195
100
AcDbEntity
  8
0
100
AcDbPolyline
 90
        8
 70
     1
 43
0.0
 10
-5900.867300215971
 20
1533.02535437687
 10
-5800.86730021597
 20
1533.02535437687
 42
0.4142135623730951
 10
-5795.86730021597
 20
1538.02535437687
 10
-5795.86730021597
 20
1638.02535437687
 42
0.4142135623730951
 10
-5800.86730021597
 20
1643.02535437687
 10
-5900.867300215971
 20
1643.02535437687
 42
0.4142135623730951
 10
-5905.86730021597
 20
1638.02535437687
 10
-5905.86730021597
 20
1538.02535437687
 42
0.4142135623730951
  0
CIRCLE
  5
20E
102
{ACAD_REACTORS
330
204
330
205
102
}
330
195
100
AcDbEntity
  8
0
100
AcDbCircle
 10
-5838.439170190969
 20
1768.755918104936
 30
0.0
 40
25.08856154579916
  0
LINE
  5
20F
102
{ACAD_REACTORS
330
1AE
102
}
330
195
100
AcDbEntity
  8
0
100
AcDbLine
 10
-5905.815427328125
 20
1635.711562192263
 30
0.0
 11
-5920.689395807404
 21
1635.711562192263
 31
0.0
  0
CIRCLE
  5
210
102
{ACAD_REACTORS
330
204
330
205
102
}
330
195
100
AcDbEntity
  8
0
100
AcDbCircle
 10
-5616.823543203078
 20
2089.796585292839
 30
0.0
 40
24.62395855420982
  0
CIRCLE
  5
211
102
{ACAD_REACTORS
330
204
330
205
102
}
330
195
100
AcDbEntity
  8
0
100
AcDbCircle
 10
-5716.248583403096
 20
2001.98661988254
 30
0.0
 40
25.08856154579734
  0
CIRCLE
  5
212
102
{ACAD_REACTORS
330
204
330
205
102
}
330
195
100
AcDbEntity
  8
0
100
AcDbCircle
 10
-5499.743589322683
 20
2151.588783174164
 30
0.0
 40
24.62395855420982
  0
CIRCLE
  5
213
102
{ACAD_REACTORS
330
204
330
205
102
}
330
195
100
AcDbEntity
  8
0
100
AcDbCircle
 10
-5371.048560652565
 20
2183.18178660221
 30
0.0
 40
24.62395855420982
  0
CIRCLE
  5
214
102
{ACAD_REACTORS
330
204
330
205
102
}
330
195
100
AcDbEntity
  8
0
100
AcDbCircle
 10
-5109.94167937962
 20
2151.588783174164
 30
0.0
 40
24.62395855420982
  0
CIRCLE
  5
215
102
{ACAD_REACTORS
330
204
330
205
102
}
330
195
100
AcDbEntity
  8
0
100
AcDbCircle
 10
-5238.636708049736
 20
2183.18178660221
 30
0.0
 40
24.62395855420982
  0
CIRCLE
  5
216
102
{ACAD_REACTORS
330
204
330
205
102
}
330
195
100
AcDbEntity
  8
0
100
AcDbCircle
 10
-4818.171000661809
 20
1892.80491685916
 30
0.0
 40
24.62395855420982
  0
CIRCLE
  5
217
102
{ACAD_REACTORS
330
204
330
205
102
}
330
195
100
AcDbEntity
  8
0
100
AcDbCircle
 10
-4893.43668529921
 20
2001.98661988254
 30
0.0
 40
24.62395855420982
  0
LINE
  5
218
330
195
100
AcDbEntity
  8
0
100
AcDbLine
 10
-2092.824918301885
 20
1066.53178355754
 30
0.0
 11
-2084.156615128587
 21
1052.529139969905
 31
0.0
  0
HATCH
  5
219
330
195
100
AcDbEntity
  8
0
 62
   150
100
AcDbHatch
 10
0.0
 20
0.0
 30
0.0
210
0.0
220
0.0
230
1.0
  2
SOLID
 70
     1
 71
     0
 91
        2
 92
        7
 72
     0
 73
     1
 93
        4
 10
-1996.806790843802
 20
1538.620910226462
 10
-2926.315608042203
 20
1538.620910226462
 10
-2926.3156080422
 20
1519.283926224488
 10
-1996.806790843798
 20
1519.283926224488
 97
        0
 92
        7
 72
     0
 73
     1
 93
        4
 10
-1996.806790843806
 20
1021.189890035668
 10
-2926.315608042211
 20
1021.189890035668
 10
-2926.315608042203
 20
1001.852906033687
 10
-1996.806790843802
 20
1001.85290603368
 97
        0
 75
     0
 76
     1
 47
2.231880503813954
 98
        2
 10
-2369.766358362709
 20
1529.814114433138
 10
-2472.539977033806
 20
1005.322151870183
  0
LINE
  5
21A
330
195
100
AcDbEntity
  8
0
100
AcDbLine
 10
-2926.315608042203
 20
1001.852906033687
 30
0.0
 11
-2926.315608042207
 21
1021.189890035668
 31
0.0
  0
LINE
  5
21B
330
195
100
AcDbEntity
  8
0
100
AcDbLine
 10
-2080.822652369624
 20
1033.858948519722
 30
0.0
 11
-2080.822652369624
 21
1021.189890035668
 31
0.0
  0
LINE
  5
21C
330
195
100
AcDbEntity
  8
0
100
AcDbLine
 10
-2084.156615128587
 20
1052.529139969905
 30
0.0
 11
-2080.822652369624
 21
1033.858948519722
 31
0.0
  0
LINE
  5
21D
330
195
100
AcDbEntity
  8
0
100
AcDbLine
 10
-1996.806790843802
 20
1001.85290603368
 30
0.0
 11
-1996.806790843806
 21
1021.189890035668
 31
0.0
  0
LINE
  5
21E
330
195
100
AcDbEntity
  8
0
100
AcDbLine
 10
-2926.315608042203
 20
1538.620910226462
 30
0.0
 11
-2926.315608042203
 21
1519.283926224488
 31
0.0
  0
LINE
  5
21F
330
195
100
AcDbEntity
  8
0
100
AcDbLine
 10
-2083.489822576793
 20
1490.611846497413
 30
0.0
 11
-2090.824540646513
 21
1476.609202909785
 31
0.0
  0
LINE
  5
220
330
195
100
AcDbEntity
  8
0
100
AcDbLine
 10
-2180.841535138464
 20
1361.920884001512
 30
0.0
 11
-2182.508516517944
 21
1269.903511854179
 31
0.0
  0
LINE
  5
221
330
195
100
AcDbEntity
  8
0
100
AcDbLine
 10
-2160.837758584694
 20
1118.541602597339
 30
0.0
 11
-2131.498886305835
 21
1092.536693077439
 31
0.0
  0
LINE
  5
222
330
195
100
AcDbEntity
  8
0
100
AcDbLine
 10
-2180.841535138464
 20
1178.552932258644
 30
0.0
 11
-2175.507194724127
 21
1146.546889772616
 31
0.0
  0
LINE
  5
223
330
195
100
AcDbEntity
  8
0
100
AcDbLine
 10
-2175.507194724127
 20
1146.546889772616
 30
0.0
 11
-2160.837758584694
 21
1118.541602597339
 31
0.0
  0
LINE
  5
224
330
195
100
AcDbEntity
  8
0
100
AcDbLine
 10
-2182.508516517944
 20
1269.903511854179
 30
0.0
 11
-2180.841535138464
 21
1178.552932258644
 31
0.0
  0
LINE
  5
225
330
195
100
AcDbEntity
  8
0
100
AcDbLine
 10
-2104.827184234149
 20
1076.533671834426
 30
0.0
 11
-2092.824918301885
 21
1066.53178355754
 31
0.0
  0
LINE
  5
226
330
195
100
AcDbEntity
  8
0
100
AcDbLine
 10
-2131.498886305835
 20
1092.536693077439
 30
0.0
 11
-2104.827184234149
 21
1076.533671834426
 31
0.0
  0
LINE
  5
227
330
195
100
AcDbEntity
  8
0
100
AcDbLine
 10
-2156.170210722153
 20
1427.266554077148
 30
0.0
 11
-2173.506817068748
 21
1399.928059453668
 31
0.0
  0
LINE
  5
228
330
195
100
AcDbEntity
  8
0
100
AcDbLine
 10
-2173.506817068748
 20
1399.928059453668
 30
0.0
 11
-2180.841535138464
 21
1361.920884001512
 31
0.0
  0
LINE
  5
229
330
195
100
AcDbEntity
  8
0
100
AcDbLine
 10
-2131.498886305835
 20
1447.937123182717
 30
0.0
 11
-2156.170210722153
 21
1427.266554077148
 31
0.0
  0
LINE
  5
22A
330
195
100
AcDbEntity
  8
0
100
AcDbLine
 10
-2104.827184234149
 20
1463.273351873933
 30
0.0
 11
-2131.498886305835
 21
1447.937123182717
 31
0.0
  0
LINE
  5
22B
330
195
100
AcDbEntity
  8
0
100
AcDbLine
 10
-2090.824540646513
 20
1476.609202909785
 30
0.0
 11
-2104.827184234149
 21
1463.273351873933
 31
0.0
  0
LINE
  5
22C
330
195
100
AcDbEntity
  8
0
100
AcDbLine
 10
-2080.822652369624
 20
1506.614867740434
 30
0.0
 11
-2083.489822576793
 21
1490.611846497413
 31
0.0
  0
LINE
  5
22D
330
195
100
AcDbEntity
  8
0
100
AcDbLine
 10
-2080.822652369624
 20
1519.283926224488
 30
0.0
 11
-2080.822652369624
 21
1506.614867740434
 31
0.0
  0
LINE
  5
22E
330
195
100
AcDbEntity
  8
0
100
AcDbLine
 10
-1996.806790843802
 20
1538.620910226462
 30
0.0
 11
-1996.806790843798
 21
1519.283926224488
 31
0.0
  0
LWPOLYLINE
  5
22F
330
195
100
AcDbEntity
  8
0
 62
     7
100
AcDbPolyline
 90
       40
 70
     1
 43
0.0
 10
-883.5137276689328
 20
0.0
 10
-883.9386981969127
 20
0.0
 10
0.0
 20
0.0
 10
0.0
 20
2541.323757316124
 10
-883.9386981969127
 20
2541.323757316124
 10
-1116.82254752956
 20
2751.684168665866
 10
-1388.378714908323
 20
2909.348234546181
 10
-1687.132996077762
 20
3006.241514925459
 10
-1999.061363614557
 20
3039.389216107847
 10
-3735.490940937918
 20
3039.389216107847
 10
-3989.623316669531
 20
3281.622417056038
 10
-4281.153098863319
 20
3477.958800982465
 10
-4601.155906431722
 20
3623.298721551385
 10
-4940.707358287171
 20
3712.967502955013
 10
-5290.458102814122
 20
3744.84029255346
 10
-5640.633817869053
 20
3717.642178762784
 10
-5981.460181308441
 20
3632.648073166929
 10
-6303.587841516739
 20
3491.557857877807
 10
-6597.242476350423
 20
3299.046208703192
 10
-6854.774616305873
 20
3059.787801450853
 10
-7139.079899524015
 20
2748.284404442034
 10
-7322.667167611064
 20
2505.201262437884
 10
-7458.232766036457
 20
2232.370183475184
 10
-7541.951960048376
 20
1939.140519169479
 10
-7570.000014895009
 20
1635.711562192263
 10
-7570.000014895009
 20
906.0371656518327
 10
-7530.477755792934
 20
547.3620400373183
 10
-7414.46080165459
 20
205.6857355419706
 10
-7226.623828287745
 20
-102.417897243009
 10
-6976.741157835928
 20
-362.0748898383535
 10
-5893.916252544706
 20
-1265.987202850294
 10
-5603.661381934856
 20
-1455.94902885703
 10
-5277.708986974744
 20
-1574.090835635273
 10
-4933.482859311523
 20
-1614.038065265325
 10
-3933.952177504245
 20
-1614.038065265325
 10
-3546.804026515113
 20
-1563.041601907818
 10
-3185.579077732722
 20
-1413.876946587086
 10
-1250.688263843034
 20
-297.4793695855041
 10
-1250.263293315056
 20
-297.4793695855041
 10
-883.9386981969127
 20
0.0
  0
ENDBLK
  5
197
330
195
100
AcDbEntity
  8
0
100
AcDbBlockEnd
  0
ENDSEC
  0
SECTION
  2
ENTITIES
  0
INSERT
  5
230
330
1F
100
AcDbEntity
  8
0
100
AcDbBlockReference
  2
ADKO
 10
7569.999987312062
 20
1614.038008016294
 30
0.0
  0
MTEXT
  5
235
330
1F
100
AcDbEntity
  8
0
100
AcDbMText
 10
3559.461832531993
 20
4413.070334704694
 30
0.0
 40
250.0
 41
38379.11
 71
     1
 72
     5
  1
{\Fisocp.shx;Hoogte:315cm\PVrije Valhoogte:90cm}
1001
ACAD
1000
MTEXTBEGIN
1070
    73
1070
     1
1070
    44
1040
1.0
1070
    74
1070
     0
1000
MTEXTEND
  0
ENDSEC
  0
SECTION
  2
OBJECTS
  0
DICTIONARY
  5
C
330
0
100
AcDbDictionary
  3
ACAD_GROUP
350
D
  3
ACAD_LAYOUT
350
1A
  3
ACAD_MLINESTYLE
350
17
  3
ACAD_PLOTSETTINGS
350
19
  3
ACAD_PLOTSTYLENAME
350
E
  3
ACDBHEADERROUNDTRIPXREC
350
238
  3
ACDBVARIABLEDICTIONARY
350
231
  0
DICTIONARY
  5
233
330
1F
100
AcDbDictionary
280
     1
  3
ACAD_LAYOUTSELFREF
360
259
  3
ACAD_SORTENTS
360
234
  0
DICTIONARY
  5
25A
330
50
100
AcDbDictionary
280
     1
  3
ACAD_LAYOUTSELFREF
360
25B
  0
DICTIONARY
  5
D
102
{ACAD_REACTORS
330
C
102
}
330
C
100
AcDbDictionary
  0
DICTIONARY
  5
1A
102
{ACAD_REACTORS
330
C
102
}
330
C
100
AcDbDictionary
  0
DICTIONARY
  5
17
102
{ACAD_REACTORS
330
C
102
}
330
C
100
AcDbDictionary
  3
STANDARD
350
18
  0
DICTIONARY
  5
19
102
{ACAD_REACTORS
330
C
102
}
330
C
100
AcDbDictionary
  0
ACDBDICTIONARYWDFLT
  5
E
102
{ACAD_REACTORS
330
C
102
}
330
C
100
AcDbDictionary
281
     1
  3
Normal
350
F
100
AcDbDictionaryWithDefault
340
F
  0
DICTIONARY
  5
238
102
{ACAD_REACTORS
330
C
102
}
330
C
100
AcDbDictionary
  3
CEPSNTYPE
350
242
  3
DIMSTYLEDATA
350
246
  3
FINGERPRINTGUID
350
243
  3
HYPERLINKBASE
350
23B
  3
INSUNITS
350
241
  3
LAYOUTDICT
350
23D
  3
LWETCUNION
350
240
  3
PLOTSETDICT
350
23E
  3
PLOTSTYLNAMDICT
350
23F
  3
PSVPSCALE
350
245
  3
PUCSBASE
350
249
  3
PUCSORGBACK
350
24F
  3
PUCSORGBOTTOM
350
24B
  3
PUCSORGFRONT
350
24E
  3
PUCSORGLEFT
350
24C
  3
PUCSORGRIGHT
350
24D
  3
PUCSORGTOP
350
24A
  3
PUCSORTHOREF
350
247
  3
PUCSORTHOVIEW
350
248
  3
STYLESHEET
350
23C
  3
TSTACKALIGN
350
239
  3
TSTACKSIZE
350
23A
  3
UCSBASE
350
252
  3
UCSORGBACK
350
258
  3
UCSORGBOTTOM
350
254
  3
UCSORGFRONT
350
257
  3
UCSORGLEFT
350
255
  3
UCSORGRIGHT
350
256
  3
UCSORGTOP
350
253
  3
UCSORTHOREF
350
250
  3
UCSORTHOVIEW
350
251
  3
VERSIONGUID
350
244
  0
DICTIONARY
  5
231
102
{ACAD_REACTORS
330
C
102
}
330
C
100
AcDbDictionary
  3
SORTENTS
350
232
  0
XRECORD
  5
259
102
{ACAD_REACTORS
330
233
102
}
330
233
100
AcDbXrecord
340
1F
  0
SORTENTSTABLE
  5
234
102
{ACAD_REACTORS
330
233
102
}
330
233
100
AcDbSortentsTable
330
1F
331
230
  5
230
  0
XRECORD
  5
25B
102
{ACAD_REACTORS
330
25A
102
}
330
25A
100
AcDbXrecord
340
50
  0
MLINESTYLE
  5
18
102
{ACAD_REACTORS
330
17
102
}
330
17
100
AcDbMlineStyle
  2
STANDARD
 70
     0
  3

 62
   256
 51
90.0
 52
90.0
 71
     2
 49
0.5
 62
   256
  6
BYLAYER
 49
-0.5
 62
   256
  6
BYLAYER
  0
ACDBPLACEHOLDER
  5
F
102
{ACAD_REACTORS
330
E
102
}
330
E
100
AcDbPlaceHolder
280
     0
  0
XRECORD
  5
242
102
{ACAD_REACTORS
330
238
102
}
330
238
100
AcDbXrecord
 90
        0
  0
XRECORD
  5
246
102
{ACAD_REACTORS
330
238
102
}
330
238
100
AcDbXrecord
1000
DSTYLE
1002
{
1070
   278
 70
    44
1002
}
  0
XRECORD
  5
243
102
{ACAD_REACTORS
330
238
102
}
330
238
100
AcDbXrecord
  1
{FDEAD578-A652-11D2-9A35-0060089B3A3F}
  0
XRECORD
  5
23B
102
{ACAD_REACTORS
330
238
102
}
330
238
100
AcDbXrecord
  1

  0
XRECORD
  5
241
102
{ACAD_REACTORS
330
238
102
}
330
238
100
AcDbXrecord
 90
        4
  0
XRECORD
  5
23D
102
{ACAD_REACTORS
330
238
102
}
330
238
100
AcDbXrecord
340
1A
  0
XRECORD
  5
240
102
{ACAD_REACTORS
330
238
102
}
330
238
100
AcDbXrecord
 90
    10781
  0
XRECORD
  5
23E
102
{ACAD_REACTORS
330
238
102
}
330
238
100
AcDbXrecord
340
19
  0
XRECORD
  5
23F
102
{ACAD_REACTORS
330
238
102
}
330
238
100
AcDbXrecord
340
E
  0
XRECORD
  5
245
102
{ACAD_REACTORS
330
238
102
}
330
238
100
AcDbXrecord
 40
0.0
  0
XRECORD
  5
249
102
{ACAD_REACTORS
330
238
102
}
330
238
100
AcDbXrecord
340
0
  0
XRECORD
  5
24F
102
{ACAD_REACTORS
330
238
102
}
330
238
100
AcDbXrecord
 10
0.0
 20
0.0
 30
0.0
  0
XRECORD
  5
24B
102
{ACAD_REACTORS
330
238
102
}
330
238
100
AcDbXrecord
 10
0.0
 20
0.0
 30
0.0
  0
XRECORD
  5
24E
102
{ACAD_REACTORS
330
238
102
}
330
238
100
AcDbXrecord
 10
0.0
 20
0.0
 30
0.0
  0
XRECORD
  5
24C
102
{ACAD_REACTORS
330
238
102
}
330
238
100
AcDbXrecord
 10
0.0
 20
0.0
 30
0.0
  0
XRECORD
  5
24D
102
{ACAD_REACTORS
330
238
102
}
330
238
100
AcDbXrecord
 10
0.0
 20
0.0
 30
0.0
  0
XRECORD
  5
24A
102
{ACAD_REACTORS
330
238
102
}
330
238
100
AcDbXrecord
 10
0.0
 20
0.0
 30
0.0
  0
XRECORD
  5
247
102
{ACAD_REACTORS
330
238
102
}
330
238
100
AcDbXrecord
340
0
  0
XRECORD
  5
248
102
{ACAD_REACTORS
330
238
102
}
330
238
100
AcDbXrecord
 70
     0
  0
XRECORD
  5
23C
102
{ACAD_REACTORS
330
238
102
}
330
238
100
AcDbXrecord
  1

  0
XRECORD
  5
239
102
{ACAD_REACTORS
330
238
102
}
330
238
100
AcDbXrecord
 90
        1
  0
XRECORD
  5
23A
102
{ACAD_REACTORS
330
238
102
}
330
238
100
AcDbXrecord
 90
       70
  0
XRECORD
  5
252
102
{ACAD_REACTORS
330
238
102
}
330
238
100
AcDbXrecord
340
0
  0
XRECORD
  5
258
102
{ACAD_REACTORS
330
238
102
}
330
238
100
AcDbXrecord
 10
0.0
 20
0.0
 30
0.0
  0
XRECORD
  5
254
102
{ACAD_REACTORS
330
238
102
}
330
238
100
AcDbXrecord
 10
0.0
 20
0.0
 30
0.0
  0
XRECORD
  5
257
102
{ACAD_REACTORS
330
238
102
}
330
238
100
AcDbXrecord
 10
0.0
 20
0.0
 30
0.0
  0
XRECORD
  5
255
102
{ACAD_REACTORS
330
238
102
}
330
238
100
AcDbXrecord
 10
0.0
 20
0.0
 30
0.0
  0
XRECORD
  5
256
102
{ACAD_REACTORS
330
238
102
}
330
238
100
AcDbXrecord
 10
0.0
 20
0.0
 30
0.0
  0
XRECORD
  5
253
102
{ACAD_REACTORS
330
238
102
}
330
238
100
AcDbXrecord
 10
0.0
 20
0.0
 30
0.0
  0
XRECORD
  5
250
102
{ACAD_REACTORS
330
238
102
}
330
238
100
AcDbXrecord
340
0
  0
XRECORD
  5
251
102
{ACAD_REACTORS
330
238
102
}
330
238
100
AcDbXrecord
 70
     0
  0
XRECORD
  5
244
102
{ACAD_REACTORS
330
238
102
}
330
238
100
AcDbXrecord
  1
{EE6D4581-9068-4C7C-8F0F-B1CC6D9F1680}
  0
DICTIONARYVAR
  5
232
102
{ACAD_REACTORS
330
231
102
}
330
231
100
DictionaryVariables
280
     0
  1
127
  0
ENDSEC
  0
EOF
