  0
SECTION
  2
HEADER
  9
$ACADVER
  1
AC1014
  9
$ACADMAINTVER
 70
     9
  9
$DWGCODEPAGE
  3
ANSI_1252
  9
$INSBASE
 10
0.0
 20
0.0
 30
0.0
  9
$EXTMIN
 10
-0.5138924939237768
 20
-0.3269425835369475
 30
-0.0000000349181948
  9
$EXTMAX
 10
8420.514038151111
 20
5357.199505540917
 30
0.0000000814935746
  9
$LIMMIN
 10
0.0
 20
0.0
  9
$LIMMAX
 10
420.0
 20
297.0
  9
$ORTHOMODE
 70
     0
  9
$REGENMODE
 70
     1
  9
$FILLMODE
 70
     1
  9
$QTEXTMODE
 70
     0
  9
$MIRRTEXT
 70
     1
  9
$DRAGMODE
 70
     2
  9
$LTSCALE
 40
1.0
  9
$OSMODE
 70
   511
  9
$ATTMODE
 70
     1
  9
$TEXTSIZE
 40
2.5
  9
$TRACEWID
 40
1.0
  9
$TEXTSTYLE
  7
STANDARD
  9
$CLAYER
  8
0
  9
$CELTYPE
  6
BYLAYER
  9
$CECOLOR
 62
   256
  9
$CELTSCALE
 40
1.0
  9
$DELOBJ
 70
     1
  9
$DISPSILH
 70
     0
  9
$DIMSCALE
 40
1.0
  9
$DIMASZ
 40
2.5
  9
$DIMEXO
 40
0.625
  9
$DIMDLI
 40
3.75
  9
$DIMRND
 40
0.0
  9
$DIMDLE
 40
0.0
  9
$DIMEXE
 40
1.25
  9
$DIMTP
 40
0.0
  9
$DIMTM
 40
0.0
  9
$DIMTXT
 40
2.5
  9
$DIMCEN
 40
2.5
  9
$DIMTSZ
 40
0.0
  9
$DIMTOL
 70
     0
  9
$DIMLIM
 70
     0
  9
$DIMTIH
 70
     0
  9
$DIMTOH
 70
     0
  9
$DIMSE1
 70
     0
  9
$DIMSE2
 70
     0
  9
$DIMTAD
 70
     1
  9
$DIMZIN
 70
     8
  9
$DIMBLK
  1

  9
$DIMASO
 70
     1
  9
$DIMSHO
 70
     1
  9
$DIMPOST
  1

  9
$DIMAPOST
  1

  9
$DIMALT
 70
     0
  9
$DIMALTD
 70
     3
  9
$DIMALTF
 40
0.03937007874016
  9
$DIMLFAC
 40
1.0
  9
$DIMTOFL
 70
     1
  9
$DIMTVP
 40
0.0
  9
$DIMTIX
 70
     0
  9
$DIMSOXD
 70
     0
  9
$DIMSAH
 70
     0
  9
$DIMBLK1
  1

  9
$DIMBLK2
  1

  9
$DIMSTYLE
  2
ISO-25
  9
$DIMCLRD
 70
     0
  9
$DIMCLRE
 70
     0
  9
$DIMCLRT
 70
     0
  9
$DIMTFAC
 40
1.0
  9
$DIMGAP
 40
0.625
  9
$DIMJUST
 70
     0
  9
$DIMSD1
 70
     0
  9
$DIMSD2
 70
     0
  9
$DIMTOLJ
 70
     0
  9
$DIMTZIN
 70
     8
  9
$DIMALTZ
 70
     0
  9
$DIMALTTZ
 70
     0
  9
$DIMFIT
 70
     3
  9
$DIMUPT
 70
     0
  9
$DIMUNIT
 70
     2
  9
$DIMDEC
 70
     2
  9
$DIMTDEC
 70
     2
  9
$DIMALTU
 70
     2
  9
$DIMALTTD
 70
     3
  9
$DIMTXSTY
  7
STANDARD
  9
$DIMAUNIT
 70
     0
  9
$LUNITS
 70
     2
  9
$LUPREC
 70
     4
  9
$SKETCHINC
 40
1.0
  9
$FILLETRAD
 40
10.0
  9
$AUNITS
 70
     0
  9
$AUPREC
 70
     0
  9
$MENU
  1
.
  9
$ELEVATION
 40
0.0
  9
$PELEVATION
 40
0.0
  9
$THICKNESS
 40
0.0
  9
$LIMCHECK
 70
     0
  9
$BLIPMODE
 70
     0
  9
$CHAMFERA
 40
10.0
  9
$CHAMFERB
 40
10.0
  9
$CHAMFERC
 40
20.0
  9
$CHAMFERD
 40
0.0
  9
$SKPOLY
 70
     0
  9
$TDCREATE
 40
2453124.489448599
  9
$TDUPDATE
 40
2453186.694048194
  9
$TDINDWG
 40
0.0027956713
  9
$TDUSRTIMER
 40
0.0027956713
  9
$USRTIMER
 70
     1
  9
$ANGBASE
 50
0.0
  9
$ANGDIR
 70
     0
  9
$PDMODE
 70
     0
  9
$PDSIZE
 40
0.0
  9
$PLINEWID
 40
0.0
  9
$COORDS
 70
     2
  9
$SPLFRAME
 70
     0
  9
$SPLINETYPE
 70
     6
  9
$SPLINESEGS
 70
     8
  9
$ATTDIA
 70
     0
  9
$ATTREQ
 70
     1
  9
$HANDLING
 70
-16383
  9
$HANDSEED
  5
2E2
  9
$SURFTAB1
 70
     6
  9
$SURFTAB2
 70
     6
  9
$SURFTYPE
 70
     6
  9
$SURFU
 70
     6
  9
$SURFV
 70
     6
  9
$UCSNAME
  2

  9
$UCSORG
 10
0.0
 20
0.0
 30
0.0
  9
$UCSXDIR
 10
1.0
 20
0.0
 30
0.0
  9
$UCSYDIR
 10
0.0
 20
1.0
 30
0.0
  9
$PUCSNAME
  2

  9
$PUCSORG
 10
0.0
 20
0.0
 30
0.0
  9
$PUCSXDIR
 10
1.0
 20
0.0
 30
0.0
  9
$PUCSYDIR
 10
0.0
 20
1.0
 30
0.0
  9
$USERI1
 70
     0
  9
$USERI2
 70
     0
  9
$USERI3
 70
     0
  9
$USERI4
 70
     0
  9
$USERI5
 70
     0
  9
$USERR1
 40
0.0
  9
$USERR2
 40
0.0
  9
$USERR3
 40
0.0
  9
$USERR4
 40
0.0
  9
$USERR5
 40
0.0
  9
$WORLDVIEW
 70
     1
  9
$SHADEDGE
 70
     3
  9
$SHADEDIF
 70
    70
  9
$TILEMODE
 70
     1
  9
$MAXACTVP
 70
    64
  9
$PINSBASE
 10
0.0
 20
0.0
 30
0.0
  9
$PLIMCHECK
 70
     0
  9
$PEXTMIN
 10
0.0
 20
0.0
 30
0.0
  9
$PEXTMAX
 10
0.0
 20
0.0
 30
0.0
  9
$PLIMMIN
 10
0.0
 20
0.0
  9
$PLIMMAX
 10
12.0
 20
9.0
  9
$UNITMODE
 70
     0
  9
$VISRETAIN
 70
     1
  9
$PLINEGEN
 70
     0
  9
$PSLTSCALE
 70
     1
  9
$TREEDEPTH
 70
  3020
  9
$PICKSTYLE
 70
     0
  9
$CMLSTYLE
  2
STANDARD
  9
$CMLJUST
 70
     0
  9
$CMLSCALE
 40
20.0
  9
$PROXYGRAPHICS
 70
     1
  9
$MEASUREMENT
 70
     1
  0
ENDSEC
  0
SECTION
  2
CLASSES
  0
CLASS
  1
ACDBDICTIONARYWDFLT
  2
AcDbDictionaryWithDefault
  3
AutoCAD 2000
 90
        0
280
     0
281
     0
  0
CLASS
  1
ACDBPLACEHOLDER
  2
AcDbPlaceHolder
  3
AutoCAD 2000
 90
        0
280
     0
281
     0
  0
CLASS
  1
LAYOUT
  2
AcDbLayout
  3
AutoCAD 2000
 90
        0
280
     0
281
     0
  0
CLASS
  1
DICTIONARYVAR
  2
AcDbDictionaryVar
  3
AutoCAD 2000
 90
        0
280
     0
281
     0
  0
CLASS
  1
SORTENTSTABLE
  2
AcDbSortentsTable
  3
AutoCAD 2000
 90
        0
280
     0
281
     0
  0
CLASS
  1
LONG_TRANSACTION
  2
AcDbLongTransaction
  3
AutoCAD 2000
 90
        0
280
     0
281
     0
  0
CLASS
  1
LWPOLYLINE
  2
AcDbPolyline
  3
AutoCAD 2000
 90
        0
280
     0
281
     1
  0
CLASS
  1
HATCH
  2
AcDbHatch
  3
AutoCAD 2000
 90
        0
280
     0
281
     1
  0
CLASS
  1
XRECORD
  2
AcDbXrecord
  3
AutoCAD 2000
 90
        0
280
     0
281
     0
  0
ENDSEC
  0
SECTION
  2
TABLES
  0
TABLE
  2
VPORT
  5
8
330
0
100
AcDbSymbolTable
 70
     2
  0
VPORT
  5
2BA
330
8
100
AcDbSymbolTableRecord
100
AcDbViewportTableRecord
  2
*ACTIVE
 70
     0
 10
0.0
 20
0.0
 11
1.0
 21
1.0
 12
4210.000072828594
 22
2678.43628147869
 13
0.0
 23
0.0
 14
10.0
 24
10.0
 15
10.0
 25
10.0
 16
0.0
 26
0.0
 36
1.0
 17
0.0
 27
0.0
 37
0.0
 40
5421.18022770613
 41
1.720238095238095
 42
50.0
 43
0.0
 44
0.0
 50
0.0
 51
0.0
 71
     0
 72
   100
 73
     1
 74
     3
 75
     0
 76
     0
 77
     0
 78
     0
  0
ENDTAB
  0
TABLE
  2
LTYPE
  5
5
330
0
100
AcDbSymbolTable
 70
     1
  0
LTYPE
  5
14
330
5
100
AcDbSymbolTableRecord
100
AcDbLinetypeTableRecord
  2
BYBLOCK
 70
     0
  3

 72
    65
 73
     0
 40
0.0
  0
LTYPE
  5
15
330
5
100
AcDbSymbolTableRecord
100
AcDbLinetypeTableRecord
  2
BYLAYER
 70
     0
  3

 72
    65
 73
     0
 40
0.0
  0
LTYPE
  5
16
330
5
100
AcDbSymbolTableRecord
100
AcDbLinetypeTableRecord
  2
CONTINUOUS
 70
     0
  3
Solid line
 72
    65
 73
     0
 40
0.0
  0
ENDTAB
  0
TABLE
  2
LAYER
  5
2
330
0
100
AcDbSymbolTable
 70
     1
  0
LAYER
  5
10
330
2
100
AcDbSymbolTableRecord
100
AcDbLayerTableRecord
  2
0
 70
     0
 62
     7
  6
CONTINUOUS
  0
ENDTAB
  0
TABLE
  2
STYLE
  5
3
330
0
100
AcDbSymbolTable
 70
     1
  0
STYLE
  5
11
330
3
100
AcDbSymbolTableRecord
100
AcDbTextStyleTableRecord
  2
STANDARD
 70
     0
 40
0.0
 41
1.0
 50
0.0
 71
     0
 42
2.5
  3
txt
  4

  0
ENDTAB
  0
TABLE
  2
VIEW
  5
6
330
0
100
AcDbSymbolTable
 70
     0
  0
ENDTAB
  0
TABLE
  2
UCS
  5
7
330
0
100
AcDbSymbolTable
 70
     0
  0
ENDTAB
  0
TABLE
  2
APPID
  5
9
330
0
100
AcDbSymbolTable
 70
     2
  0
APPID
  5
12
330
9
100
AcDbSymbolTableRecord
100
AcDbRegAppTableRecord
  2
ACAD
 70
     0
  0
APPID
  5
2E1
330
9
100
AcDbSymbolTableRecord
100
AcDbRegAppTableRecord
  2
CONTENTBLOCKICON
 70
     0
  0
ENDTAB
  0
TABLE
  2
DIMSTYLE
  5
A
330
0
100
AcDbSymbolTable
 70
     1
  0
DIMSTYLE
105
27
330
A
100
AcDbSymbolTableRecord
100
AcDbDimStyleTableRecord
  2
ISO-25
 70
     0
  3

  4

  5

  6

  7

 40
1.0
 41
2.5
 42
0.625
 43
3.75
 44
1.25
 45
0.0
 46
0.0
 47
0.0
 48
0.0
140
2.5
141
2.5
142
0.0
143
0.03937007874016
144
1.0
145
0.0
146
1.0
147
0.625
 71
     0
 72
     0
 73
     0
 74
     0
 75
     0
 76
     0
 77
     1
 78
     8
170
     0
171
     3
172
     1
173
     0
174
     0
175
     0
176
     0
177
     0
178
     0
270
     2
271
     2
272
     2
273
     2
274
     3
340
11
275
     0
280
     0
281
     0
282
     0
283
     0
284
     8
285
     0
286
     0
287
     3
288
     0
  0
ENDTAB
  0
TABLE
  2
BLOCK_RECORD
  5
1
330
0
100
AcDbSymbolTable
 70
     2
  0
BLOCK_RECORD
  5
1F
102
{ACAD_XDICTIONARY
360
1EA
102
}
330
1
100
AcDbSymbolTableRecord
100
AcDbBlockTableRecord
  2
*MODEL_SPACE
  0
BLOCK_RECORD
  5
50
102
{ACAD_XDICTIONARY
360
2DD
102
}
330
1
100
AcDbSymbolTableRecord
100
AcDbBlockTableRecord
  2
*PAPER_SPACE
  0
BLOCK_RECORD
  5
1F1
330
1
100
AcDbSymbolTableRecord
100
AcDbBlockTableRecord
  2
ADKN
1001
ACAD
1000
DesignCenter Data
1002
{
1070
     1
1070
     4
1002
}
1001
CONTENTBLOCKICON
1071
        0
1004
2800000020000000200000000100080000000000000400000000000000000000000000000000000000000000000080000080000000808000800000008000800080800000C0C0C000C0DCC000F0CAA6000020400000206000002080000020A0000020C0000020E00000400000004020000040400000406000004080000040A0
1004
000040C0000040E00000600000006020000060400000606000006080000060A0000060C0000060E00000800000008020000080400000806000008080000080A0000080C0000080E00000A0000000A0200000A0400000A0600000A0800000A0A00000A0C00000A0E00000C0000000C0200000C0400000C0600000C0800000C0
1004
A00000C0C00000C0E00000E0000000E0200000E0400000E0600000E0800000E0A00000E0C00000E0E00040000000400020004000400040006000400080004000A0004000C0004000E00040200000402020004020400040206000402080004020A0004020C0004020E000404000004040200040404000404060004040800040
1004
40A0004040C0004040E00040600000406020004060400040606000406080004060A0004060C0004060E00040800000408020004080400040806000408080004080A0004080C0004080E00040A0000040A0200040A0400040A0600040A0800040A0A00040A0C00040A0E00040C0000040C0200040C0400040C0600040C08000
1004
40C0A00040C0C00040C0E00040E0000040E0200040E0400040E0600040E0800040E0A00040E0C00040E0E00080000000800020008000400080006000800080008000A0008000C0008000E00080200000802020008020400080206000802080008020A0008020C0008020E00080400000804020008040400080406000804080
1004
008040A0008040C0008040E00080600000806020008060400080606000806080008060A0008060C0008060E00080800000808020008080400080806000808080008080A0008080C0008080E00080A0000080A0200080A0400080A0600080A0800080A0A00080A0C00080A0E00080C0000080C0200080C0400080C0600080C0
1004
800080C0A00080C0C00080C0E00080E0000080E0200080E0400080E0600080E0800080E0A00080E0C00080E0E000C0000000C0002000C0004000C0006000C0008000C000A000C000C000C000E000C0200000C0202000C0204000C0206000C0208000C020A000C020C000C020E000C0400000C0402000C0404000C0406000C0
1004
408000C040A000C040C000C040E000C0600000C0602000C0604000C0606000C0608000C060A000C060C000C060E000C0800000C0802000C0804000C0806000C0808000C080A000C080C000C080E000C0A00000C0A02000C0A04000C0A06000C0A08000C0A0A000C0A0C000C0A0E000C0C00000C0C02000C0C04000C0C06000
1004
C0C08000C0C0A000F0FBFF00A4A0A000808080000000FF0000FF000000FFFF00FF000000FF00FF00FFFF0000FFFFFF00FFFFFFFFFFFFFFFFFFFFFFFFFFFFFFFFFFFFFFFFFFFFFFFFFFFFFFFFFFFFFFFFFFFFFFFFFFFFFFFFFFFFFFFFFFFFFFFFFFFFFFFFFFFFFFFFFFFFFFFFFFFFFFFFFFFFFFFFFFFFFFFFFFFFFFFFFFFFFF
1004
FFFFFFFFFFFFFFFFFFFFFFFFFFFFFFFFFFFFFFFFFFFFFFFFFFFFFFFFFFFFFFFFFFFFFFFFFFFFFFFFFFFFFFFFFFFFFFFFFFFFFFFFFFFFFFFFFFFFFFFFFFFFFFFFFFFFFFFFFFFFFFFFFFFFFFFFFFFFFFFFFFFFFFFFFFFFFFFFFFFFFFFFFFFFFFFFFFFFFFFFFFFFFFFFFFFFFFFFFFFFFFFFFFFFFFFFFFFFFFFFFFFFFFFFFFFFFF
1004
FFFFFFFFFFFFFFFFFFFFFFFFFFFFFFFFFFFFFFFFFFFFFFFFFFFFFFFFFF000000000000000000FFFFFFFFFFFFFFFFFFFFFFFFFFFFFFFFFFFFFFFFFF0000FFFFFFFFFFFFFFFFFF0000FFFFFFFFFFFFFFFFFFFFFFFFFFFFFFFFFF0000FFFFFFFFFFFFFFFFFFFFFFFFFF00FFFFFFFFFFFFFFFFFFFFFFFFFFFF0000FFFFFFFFFFFF
1004
FFFFFFFFFFFFFFFFFFFF0000FFFFFFFFFFFFFFFFFFFF0000FFFFFFFFFFFFFFFFFFFFFFFFFFFFFFFFFFFFFFFF00FFFFFFFFFFFFFFFFFF00FFFFFFFFFFFFFFFFFF00000000FFFFFFFFFFFFFFFFFF0000000000FFFFFF00FFFFFFFFFFFFFFFFFFFF00000000FFFFFFFFFFFFFFFFFFFFFFFFFF00FFFFFF00FFFFFFFFFFFFFFFFFF
1004
FF2121212121FFFFFFFFFFFFFFFFFFFFFFFF00FFFF00FFFFFFFF3C3C3C3CFBFBFBFB210021212727E0E0E0E0FFFFFFFFFFFF00FFFF00FFFFFFFFF9F9F9F9F9FFFF0000210021FFFFFFFFFBFBFFFFFFFFFFFF00FFFF00FFFFFFFF3C3C3C3C3CFFFF00210021212727E0E0E0E0FFFFFFFFFFFF00FFFFFF00FFFFFFFFFFFFFFFB
1004
FFFFFBFB212121FFFFFFFFFFFFFFFFFFFFFFFF00FFFFFF00FFFFFFFFFFFFFFFBFBFBFB00FBFFFFFFFFFFFFFFFFFFFFFFFFFFFF00FFFFFF00FFFFFFFFFFFFFFFFFFFFFFFFFFFFFFFFFFFFFFFFFFFFFFFF00000000FFFFFFFF00FFFFFFFFFFFFFFFFFFFFFFFFFFFFFFFFFFFFFFFFFF0000FFFFFFFFFFFFFFFFFF0000FFFFFFFF
1004
FFFFFFFFFFFFFFFFFFFFFFFF000000FFFFFFFFFFFFFFFFFFFFFFFFFF0000FFFFFFFFFFFFFFFF000000000000FFFFFFFFFFFFFFFFFFFFFFFFFFFFFFFFFFFF0000000000000000FFFFFFFFFFFFFFFFFFFFFFFFFFFFFFFFFFFFFFFFFFFFFFFFFFFFFFFFFFFFFFFFFFFFFFFFFFFFFFFFFFFFFFFFFFFFFFFFFFFFFFFFFFFFFFFFFF
1004
FFFFFFFFFFFFFFFFFFFFFFFFFFFFFFFFFFFFFFFFFFFFFFFFFFFFFFFFFFFFFFFFFFFFFFFFFFFFFFFFFFFFFFFFFFFFFFFFFFFFFFFFFFFFFFFFFFFFFFFFFFFFFFFFFFFFFFFFFFFFFFFFFFFFFFFFFFFFFFFFFFFFFFFFFFFFFFFFFFFFFFFFFFFFFFFFFFFFFFFFFFFFFFFFFFFFFFFFFFFFFFFFFFFFFFFFFFFFFFFFFFFFFFFFFFFFFF
1004
FFFFFFFFFFFFFFFFFFFFFFFFFFFFFFFFFFFFFFFFFFFFFFFFFFFFFFFFFFFFFFFFFFFFFFFFFFFFFFFFFFFFFFFFFFFFFFFFFFFFFFFFFFFFFFFF
  0
ENDTAB
  0
ENDSEC
  0
SECTION
  2
BLOCKS
  0
BLOCK
  5
20
330
1F
100
AcDbEntity
  8
0
100
AcDbBlockBegin
  2
*MODEL_SPACE
 70
     0
 10
0.0
 20
0.0
 30
0.0
  3
*MODEL_SPACE
  1

  0
ENDBLK
  5
21
330
1F
100
AcDbEntity
  8
0
100
AcDbBlockEnd
  0
BLOCK
  5
52
330
50
100
AcDbEntity
 67
     1
  8
0
100
AcDbBlockBegin
  2
*PAPER_SPACE
 70
     0
 10
0.0
 20
0.0
 30
0.0
  3
*PAPER_SPACE
  1

  0
ENDBLK
  5
53
330
50
100
AcDbEntity
 67
     1
  8
0
100
AcDbBlockEnd
  0
BLOCK
  5
1F2
330
1F1
100
AcDbEntity
  8
0
100
AcDbBlockBegin
  2
ADKN
 70
     0
 10
0.0
 20
0.0
 30
0.0
  3
ADKN
  1

  0
HATCH
  5
1F4
330
1F1
100
AcDbEntity
  8
0
 62
    50
100
AcDbHatch
 10
0.0
 20
0.0
 30
0.0
210
0.0
220
0.0
230
1.0
  2
SOLID
 70
     1
 71
     1
 91
        1
 92
        7
 72
     0
 73
     1
 93
        4
 10
-5016.472280025685
 20
942.2148669422279
 10
-5016.472280025686
 20
962.1927955805514
 10
-5795.629322330739
 20
962.1927955805515
 10
-5795.629322330738
 20
942.2148669422277
 97
        4
330
2A7
330
293
330
2A8
330
202
 75
     0
 76
     1
 47
5.023106726455871
 98
        1
 10
-5470.922792854364
 20
951.2452213661235
  0
HATCH
  5
1F5
330
1F1
100
AcDbEntity
  8
0
 62
    10
100
AcDbHatch
 10
0.0
 20
0.0
 30
0.0
210
0.0
220
0.0
230
1.0
  2
SOLID
 70
     1
 71
     0
 91
        1
 92
        7
 72
     1
 73
     1
 93
        4
 10
-5922.294333783322
 20
1278.689181995559
 42
0.0
 10
-6948.137739211545
 20
1278.689181995559
 42
1.0
 10
-6948.137739211545
 20
1262.689181995559
 42
0.0
 10
-5922.294333783322
 20
1262.689181995559
 42
0.0
 97
        0
 75
     0
 76
     1
 47
2.692802199520468
 98
        1
 10
-6340.264394446823
 20
1277.324342656189
  0
HATCH
  5
1F6
330
1F1
100
AcDbEntity
  8
0
 62
    70
100
AcDbHatch
 10
0.0
 20
0.0
 30
0.0
210
0.0
220
0.0
230
1.0
  2
SOLID
 70
     1
 71
     0
 91
        4
 92
        7
 72
     0
 73
     1
 93
        4
 10
-5905.629322330739
 20
1615.889204746083
 10
-6071.431894083347
 20
1615.889204746083
 10
-6071.431894083347
 20
1595.91127610777
 10
-5905.629322330739
 20
1595.91127610777
 97
        0
 92
        7
 72
     0
 73
     1
 93
        4
 10
-5905.629322330735
 20
1575.93334746945
 10
-6920.261559716211
 20
1575.933347469443
 10
-6920.261559716215
 20
1555.955418831123
 10
-5905.629322330739
 20
1555.955418831115
 97
        0
 92
        7
 72
     0
 73
     1
 93
        4
 10
-5905.629322330736
 20
985.8875481515861
 10
-6920.261559716213
 20
985.8875481515788
 10
-6920.261559716213
 20
965.4450165216731
 10
-5905.629322330736
 20
965.4450165216731
 97
        0
 92
        7
 72
     0
 73
     1
 93
        4
 10
-5905.629322330739
 20
945.4670878833494
 10
-6071.431894083347
 20
945.467087883353
 10
-6071.431894083347
 20
925.4891592450331
 10
-5905.629322330739
 20
925.4891592450293
 97
        0
 75
     0
 76
     1
 47
5.023106726455871
 98
        4
 10
-6015.79813054736
 20
1607.071131527271
 10
-6089.409669047507
 20
1564.064297867378
 10
-6039.126090507891
 20
976.3608072280986
 10
-6024.041101378907
 20
936.1759806244881
  0
HATCH
  5
1F7
330
1F1
100
AcDbEntity
  8
0
 62
    30
100
AcDbHatch
 10
0.0
 20
0.0
 30
0.0
210
0.0
220
0.0
230
1.0
  2
SOLID
 70
     1
 71
     1
 91
        2
 92
        1
 93
        8
 72
     1
 10
-5900.629322330739
 20
1533.942231233937
 11
-5800.629322330738
 21
1533.942231233937
 72
     2
 10
-5800.629322330738
 20
1538.942231233937
 40
5.0
 50
270.0
 51
360.0
 73
     1
 72
     1
 10
-5795.629322330738
 20
1538.942231233937
 11
-5795.629322330738
 21
1638.942231233937
 72
     2
 10
-5800.629322330738
 20
1638.942231233937
 40
5.0
 50
0.0
 51
90.0
 73
     1
 72
     1
 10
-5800.629322330738
 20
1643.942231233937
 11
-5900.629322330739
 21
1643.942231233937
 72
     2
 10
-5900.629322330739
 20
1638.942231233937
 40
5.0
 50
90.0
 51
180.0
 73
     1
 72
     1
 10
-5905.629322330739
 20
1638.942231233937
 11
-5905.629322330739
 21
1538.942231233937
 72
     2
 10
-5900.629322330739
 20
1538.942231233937
 40
5.0
 50
180.0
 51
270.0
 73
     1
 97
        1
330
292
 92
        1
 93
        8
 72
     1
 10
-5900.629322330739
 20
897.668434252977
 11
-5800.629322330738
 21
897.668434252977
 72
     2
 10
-5800.629322330738
 20
902.6684342529771
 40
5.0
 50
270.0
 51
360.0
 73
     1
 72
     1
 10
-5795.629322330738
 20
902.6684342529771
 11
-5795.629322330738
 21
1002.668434252977
 72
     2
 10
-5800.629322330738
 20
1002.668434252977
 40
5.0
 50
0.0
 51
90.0
 73
     1
 72
     1
 10
-5800.629322330738
 20
1007.668434252977
 11
-5900.629322330739
 21
1007.668434252977
 72
     2
 10
-5900.629322330739
 20
1002.668434252977
 40
5.0
 50
90.0
 51
180.0
 73
     1
 72
     1
 10
-5905.629322330739
 20
1002.668434252977
 11
-5905.629322330739
 21
902.6684342529771
 72
     2
 10
-5900.629322330739
 20
902.6684342529771
 40
5.0
 50
180.0
 51
270.0
 73
     1
 97
        1
330
293
 75
     0
 76
     1
 98
        1
 10
5974.709110421396
 20
-31254.31215631859
  0
HATCH
  5
1F8
330
1F1
100
AcDbEntity
  8
0
 62
    30
100
AcDbHatch
 10
0.0
 20
0.0
 30
0.0
210
0.0
220
0.0
230
1.0
  2
SOLID
 70
     1
 71
     0
 91
        2
 92
        7
 72
     0
 73
     1
 93
        4
 10
-5905.629322330739
 20
1595.91127610777
 10
-6920.261559716215
 20
1595.91127610777
 10
-6920.261559716213
 20
1575.93334746945
 10
-5905.629322330736
 20
1575.93334746945
 97
        0
 92
        7
 72
     0
 73
     1
 93
        4
 10
-5905.629322330736
 20
965.4450165216694
 10
-6920.261559716215
 20
965.4450165216731
 10
-6920.261559716215
 20
945.467087883353
 10
-5905.629322330739
 20
945.4670878833457
 97
        0
 75
     0
 76
     1
 47
5.023106726455871
 98
        2
 10
-6240.259982501878
 20
1584.156766556952
 10
-6255.344971630892
 20
956.2683385385243
  0
HATCH
  5
1F9
330
1F1
100
AcDbEntity
  8
0
 62
    50
100
AcDbHatch
 10
0.0
 20
0.0
 30
0.0
210
0.0
220
0.0
230
1.0
  2
SOLID
 70
     1
 71
     1
 91
       11
 92
        7
 72
     1
 73
     1
 93
        2
 10
-4793.309064222366
 20
1893.721793716235
 42
1.0
 10
-4842.556981330787
 20
1893.721793716235
 42
1.0
 97
        1
330
282
 92
        7
 72
     1
 73
     1
 93
        2
 10
-4868.574748859765
 20
2002.903496739614
 42
1.0
 10
-4917.822665968184
 20
2002.903496739614
 42
1.0
 97
        1
330
281
 92
        7
 72
     1
 73
     1
 93
        2
 10
-4967.535186068193
 20
2090.713462149913
 42
1.0
 10
-5016.783103176613
 20
2090.713462149913
 42
1.0
 97
        1
330
280
 92
        7
 72
     1
 73
     1
 93
        2
 10
-5085.079742940177
 20
2152.505660031231
 42
1.0
 10
-5134.327660048597
 20
2152.505660031231
 42
1.0
 97
        1
330
27F
 92
        7
 72
     1
 73
     1
 93
        2
 10
-5213.774771610295
 20
2184.098663459277
 42
1.0
 10
-5263.022688718715
 20
2184.098663459277
 42
1.0
 97
        1
330
27E
 92
        7
 72
     1
 73
     1
 93
        2
 10
-5346.186624213122
 20
2184.098663459277
 42
1.0
 10
-5395.434541321542
 20
2184.098663459277
 42
1.0
 97
        1
330
27D
 92
        7
 72
     1
 73
     1
 93
        2
 10
-5474.881652883239
 20
2152.505660031231
 42
1.0
 10
-5524.129569991659
 20
2152.505660031231
 42
1.0
 97
        1
330
27C
 92
        7
 72
     1
 73
     1
 93
        2
 10
-5591.961606763635
 20
2090.713462149913
 42
1.0
 10
-5641.209523872054
 20
2090.713462149913
 42
1.0
 97
        1
330
27B
 92
        7
 72
     1
 73
     1
 93
        2
 10
-5690.922043972065
 20
2002.903496739614
 42
1.0
 10
-5741.099167063659
 20
2002.903496739614
 42
1.0
 97
        1
330
27A
 92
        7
 72
     1
 73
     1
 93
        2
 10
-5766.187728609461
 20
1893.721793716235
 42
1.0
 10
-5816.364851701055
 20
1893.721793716235
 42
1.0
 97
        1
330
279
 92
        7
 72
     1
 73
     1
 93
        2
 10
-5813.112630759935
 20
1769.672794962003
 42
1.0
 10
-5863.289753851534
 20
1769.672794962003
 42
1.0
 97
        1
330
278
 75
     0
 76
     1
 47
5.023106726455871
 98
       11
 10
-4817.237749415007
 20
1885.54313224741
 10
-4887.634717153991
 20
1996.051488489021
 10
-4998.2582522096
 20
2086.467486816596
 10
-5103.853598276992
 20
2156.790905679045
 10
-5234.590522531967
 20
2186.929608713406
 10
-5375.384246927768
 20
2181.90649154102
 10
-5496.064582124144
 20
2146.744782109796
 10
-5611.716517250136
 20
2086.467486816596
 10
-5717.311863317527
 20
2006.097722833808
 10
-5787.708831056511
 20
1895.589366592197
 10
-5848.048998654728
 20
1764.98865243655
  0
HATCH
  5
1FA
330
1F1
100
AcDbEntity
  8
0
 62
    70
100
AcDbHatch
 10
0.0
 20
0.0
 30
0.0
210
0.0
220
0.0
230
1.0
  2
SOLID
 70
     1
 71
     1
 91
       12
 92
        7
 72
     1
 73
     1
 93
        4
 10
-4862.163146668084
 20
1851.596701322297
 42
0.0
 10
-4746.45187050608
 20
1851.596701322297
 42
0.832125513630242
 10
-5903.234832295735
 20
1643.942231233937
 42
0.0
 10
-5802.667884371975
 20
1643.942231233937
 42
-0.8054755908513637
 97
        4
330
292
330
276
330
202
330
277
 92
       22
 72
     1
 73
     1
 93
        2
 10
-5085.079742940177
 20
2152.505660031231
 42
-1.0
 10
-5134.327660048597
 20
2152.505660031231
 42
-1.0
 97
        1
330
27F
 92
       22
 72
     1
 73
     1
 93
        2
 10
-5263.022688718715
 20
2184.098663459277
 42
-1.0
 10
-5213.774771610295
 20
2184.098663459277
 42
-1.0
 97
        1
330
27E
 92
       22
 72
     1
 73
     1
 93
        2
 10
-4967.535186068193
 20
2090.713462149913
 42
-1.0
 10
-5016.783103176613
 20
2090.713462149913
 42
-1.0
 97
        1
330
280
 92
       22
 72
     1
 73
     1
 93
        2
 10
-5395.434541321542
 20
2184.098663459277
 42
-1.0
 10
-5346.186624213122
 20
2184.098663459277
 42
-1.0
 97
        1
330
27D
 92
       22
 72
     1
 73
     1
 93
        2
 10
-4868.574748859765
 20
2002.903496739614
 42
-1.0
 10
-4917.822665968184
 20
2002.903496739614
 42
-1.0
 97
        1
330
281
 92
       22
 72
     1
 73
     1
 93
        2
 10
-5524.129569991659
 20
2152.505660031231
 42
-1.0
 10
-5474.881652883239
 20
2152.505660031231
 42
-1.0
 97
        1
330
27C
 92
       22
 72
     1
 73
     1
 93
        2
 10
-4793.309064222366
 20
1893.721793716235
 42
-1.0
 10
-4842.556981330787
 20
1893.721793716235
 42
-1.0
 97
        1
330
282
 92
       22
 72
     1
 73
     1
 93
        2
 10
-5641.209523872054
 20
2090.713462149913
 42
-1.0
 10
-5591.961606763635
 20
2090.713462149913
 42
-1.0
 97
        1
330
27B
 92
       22
 72
     1
 73
     1
 93
        2
 10
-5741.099167063659
 20
2002.903496739614
 42
-1.0
 10
-5690.922043972065
 20
2002.903496739614
 42
-1.0
 97
        1
330
27A
 92
       22
 72
     1
 73
     1
 93
        2
 10
-5766.187728609461
 20
1893.721793716235
 42
-1.0
 10
-5816.364851701055
 20
1893.721793716235
 42
-1.0
 97
        1
330
279
 92
       22
 72
     1
 73
     1
 93
        2
 10
-5813.112630759935
 20
1769.672794962003
 42
-1.0
 10
-5863.289753851534
 20
1769.672794962003
 42
-1.0
 97
        1
330
278
 75
     0
 76
     1
 47
4.964459576902267
 98
       12
 10
-5172.501538940846
 20
2137.857481536259
 10
-5172.501538940846
 20
2137.857481536259
 10
-5172.501538940846
 20
2137.857481536259
 10
-5172.501538940846
 20
2137.857481536259
 10
-5172.501538940846
 20
2137.857481536259
 10
-5172.501538940846
 20
2137.857481536259
 10
-5172.501538940846
 20
2137.857481536259
 10
-5172.501538940846
 20
2137.857481536259
 10
-5172.501538940846
 20
2137.857481536259
 10
-5172.501538940846
 20
2137.857481536259
 10
-5172.501538940846
 20
2137.857481536259
 10
-5172.501538940846
 20
2137.857481536259
  0
HATCH
  5
1FB
330
1F1
100
AcDbEntity
  8
0
 62
   250
100
AcDbHatch
 10
0.0
 20
0.0
 30
0.0
210
0.0
220
0.0
230
1.0
  2
SOLID
 70
     1
 71
     1
 91
       26
 92
        7
 72
     1
 73
     1
 93
       10
 10
-5802.667884371975
 20
1643.942231233937
 42
0.0
 10
-5795.629322330738
 20
1643.942231233937
 42
0.0
 10
-5795.629322330738
 20
1533.942231233937
 42
0.0
 10
-5802.316405144999
 20
1533.942231233937
 42
0.0
 10
-5802.316405144999
 20
1007.668434252977
 42
0.0
 10
-5795.629322330738
 20
1007.668434252977
 42
0.0
 10
-5795.629322330738
 20
962.1927955805512
 42
0.0
 10
-5016.472280025684
 20
962.1927955805514
 42
0.0
 10
-5016.472280025684
 20
1851.596701322297
 42
0.0
 10
-4862.163146668084
 20
1851.596701322297
 42
0.8054755908513596
 97
        6
330
202
330
276
330
292
330
295
330
293
330
2A7
 92
        7
 72
     0
 73
     1
 93
        4
 10
-5902.316405144997
 20
1007.668434252977
 10
-5802.316405144999
 20
1007.668434252977
 10
-5802.316405144999
 20
1533.942231233937
 10
-5902.316405145
 20
1533.942231233937
 97
        4
330
292
330
294
330
293
330
295
 92
        7
 72
     0
 73
     1
 93
        8
 10
-5902.316405144999
 20
1260.932519172194
 10
-5922.294333783321
 20
1260.932519172194
 10
-5922.294333783321
 20
1262.689181995559
 10
-5950.457993178646
 20
1262.68918199556
 10
-5950.457993178645
 20
985.8875481515823
 10
-5905.629322330739
 20
985.8875481515823
 10
-5905.629322330739
 20
1007.668434252977
 10
-5902.316405144999
 20
1007.668434252977
 97
        6
330
296
330
298
330
29A
330
28F
330
293
330
294
 92
        7
 72
     0
 73
     1
 93
        4
 10
-5950.457993178644
 20
1262.689181995559
 10
-6070.425541845718
 20
1262.689181995559
 10
-6070.425541845716
 20
985.8875481515823
 10
-5950.457993178646
 20
985.8875481515823
 97
        4
330
298
330
29B
330
28F
330
29A
 92
        7
 72
     0
 73
     1
 93
        4
 10
-6070.425541845718
 20
1262.689181995559
 10
-6187.712600736624
 20
1262.689181995559
 10
-6187.712600736617
 20
985.8875481515823
 10
-6070.425541845716
 20
985.8875481515823
 97
        4
330
298
330
29C
330
28F
330
29B
 92
        7
 72
     0
 73
     1
 93
        4
 10
-6300.46948286875
 20
985.8875481515823
 10
-6187.71260073662
 20
985.8875481515823
 10
-6187.712600736621
 20
1262.689181995559
 10
-6300.46948286875
 20
1262.689181995559
 97
        4
330
298
330
29D
330
28F
330
29C
 92
        7
 72
     0
 73
     1
 93
        4
 10
-6406.91794485318
 20
985.8875481515825
 10
-6300.469482868749
 20
985.8875481515823
 10
-6300.469482868749
 20
1262.68918199556
 10
-6406.917944853181
 20
1262.68918199556
 97
        4
330
298
330
29E
330
28F
330
29D
 92
        7
 72
     0
 73
     1
 93
        4
 10
-6406.917944853183
 20
1262.689181995559
 10
-6505.379230855201
 20
1262.689181995559
 10
-6505.379230855201
 20
985.8875481515823
 10
-6406.91794485318
 20
985.8875481515823
 97
        4
330
298
330
29F
330
28F
330
29E
 92
        7
 72
     0
 73
     1
 93
        4
 10
-6505.379230855202
 20
1262.689181995559
 10
-6594.300547576627
 20
1262.689181995559
 10
-6594.300547576628
 20
985.8875481515825
 10
-6505.379230855201
 20
985.8875481515827
 97
        4
330
298
330
2A0
330
28F
330
29F
 92
        7
 72
     0
 73
     1
 93
        4
 10
-6594.300547576627
 20
1262.689181995559
 10
-6672.279552733745
 20
1262.689181995559
 10
-6672.279552733745
 20
985.8875481515823
 10
-6594.300547576628
 20
985.8875481515823
 97
        4
330
298
330
2A1
330
28F
330
2A0
 92
        7
 72
     0
 73
     1
 93
        4
 10
-6738.086470832818
 20
985.8875481515825
 10
-6672.279552733745
 20
985.8875481515823
 10
-6672.279552733745
 20
1262.689181995559
 10
-6738.086470832818
 20
1262.689181995559
 97
        4
330
298
330
2A2
330
28F
330
2A1
 92
        7
 72
     0
 73
     1
 93
        4
 10
-6738.086470832818
 20
1262.68918199556
 10
-6790.683487464305
 20
1262.689181995559
 10
-6790.683487464304
 20
985.8875481515823
 10
-6738.086470832818
 20
985.8875481515823
 97
        4
330
298
330
2A3
330
28F
330
2A2
 92
        7
 72
     0
 73
     1
 93
        4
 10
-6829.24111625596
 20
985.8875481515825
 10
-6790.683487464305
 20
985.8875481515823
 10
-6790.683487464305
 20
1262.68918199556
 10
-6829.241116255961
 20
1262.68918199556
 97
        4
330
298
330
2A4
330
28F
330
2A3
 92
        7
 72
     0
 73
     1
 93
        4
 10
-6829.241116255961
 20
1262.68918199556
 10
-6853.151280368543
 20
1262.68918199556
 10
-6853.151280368542
 20
985.8875481515823
 10
-6829.241116255959
 20
985.8875481515823
 97
        4
330
298
330
2A5
330
28F
330
2A4
 92
        7
 72
     0
 73
     1
 93
        4
 10
-6829.241116255959
 20
1555.955418831123
 10
-6853.151280368542
 20
1555.955418831123
 10
-6853.151280368542
 20
1278.689181995559
 10
-6829.24111625596
 20
1278.689181995559
 97
        4
330
291
330
2AB
330
297
330
2AC
 92
        7
 72
     0
 73
     1
 93
        4
 10
-6829.24111625596
 20
1278.689181995559
 10
-6790.683487464305
 20
1278.689181995559
 10
-6790.683487464305
 20
1555.955418831123
 10
-6829.241116255959
 20
1555.955418831122
 97
        4
330
291
330
2AC
330
297
330
2AD
 92
        7
 72
     0
 73
     1
 93
        4
 10
-6738.086470832818
 20
1555.955418831123
 10
-6790.683487464305
 20
1555.955418831123
 10
-6790.683487464305
 20
1278.689181995559
 10
-6738.086470832818
 20
1278.68918199556
 97
        4
330
291
330
2AD
330
297
330
2AE
 92
        7
 72
     0
 73
     1
 93
        4
 10
-6672.279552733745
 20
1555.955418831123
 10
-6738.086470832816
 20
1555.955418831123
 10
-6738.086470832818
 20
1278.689181995559
 10
-6672.279552733745
 20
1278.689181995559
 97
        4
330
291
330
2AE
330
297
330
2AF
 92
        7
 72
     0
 73
     1
 93
        4
 10
-6594.300547576628
 20
1555.955418831123
 10
-6672.279552733745
 20
1555.955418831123
 10
-6672.279552733747
 20
1278.689181995559
 10
-6594.300547576628
 20
1278.689181995559
 97
        4
330
291
330
2AF
330
297
330
2B0
 92
        7
 72
     0
 73
     1
 93
        4
 10
-6594.300547576627
 20
1278.689181995559
 10
-6505.379230855201
 20
1278.689181995559
 10
-6505.379230855201
 20
1555.955418831123
 10
-6594.300547576628
 20
1555.955418831122
 97
        4
330
291
330
2B0
330
297
330
2B2
 92
        7
 72
     0
 73
     1
 93
        4
 10
-6505.379230855203
 20
1278.689181995559
 10
-6406.917944853183
 20
1278.689181995559
 10
-6406.91794485318
 20
1555.955418831123
 10
-6505.379230855201
 20
1555.955418831122
 97
        4
330
291
330
2B2
330
297
330
2B1
 92
        7
 72
     0
 73
     1
 93
        4
 10
-6406.917944853183
 20
1278.689181995559
 10
-6300.46948286875
 20
1278.68918199556
 10
-6300.46948286875
 20
1555.955418831123
 10
-6406.91794485318
 20
1555.955418831123
 97
        4
330
291
330
2B1
330
297
330
2B3
 92
        7
 72
     0
 73
     1
 93
        4
 10
-6300.469482868749
 20
1278.689181995559
 10
-6187.712600736621
 20
1278.689181995559
 10
-6187.71260073662
 20
1555.955418831123
 10
-6300.469482868749
 20
1555.955418831122
 97
        4
330
291
330
2B3
330
297
330
2B4
 92
        7
 72
     0
 73
     1
 93
        4
 10
-6070.425541845715
 20
1555.955418831123
 10
-6187.71260073662
 20
1555.955418831123
 10
-6187.712600736622
 20
1278.689181995559
 10
-6070.425541845718
 20
1278.68918199556
 97
        4
330
291
330
2B4
330
297
330
2B5
 92
        7
 72
     0
 73
     1
 93
        4
 10
-5950.457993178646
 20
1555.955418831123
 10
-6070.425541845715
 20
1555.955418831123
 10
-6070.425541845718
 20
1278.689181995559
 10
-5950.457993178645
 20
1278.689181995559
 97
        4
330
291
330
2B5
330
297
330
2B6
 92
        7
 72
     1
 73
     1
 93
        8
 10
-5902.316405144999
 20
1534.235454037401
 42
-0.3166446299928046
 10
-5905.629322330739
 20
1538.942231233937
 42
0.0
 10
-5905.629322330739
 20
1555.955418831122
 42
0.0
 10
-5950.457993178645
 20
1555.955418831122
 42
0.0
 10
-5950.457993178645
 20
1278.689181995559
 42
0.0
 10
-5922.294333783322
 20
1278.689181995559
 42
0.0
 10
-5922.294333783322
 20
1280.910447810514
 42
0.0
 10
-5902.316405144999
 20
1280.910447810514
 42
0.0
 97
        6
330
292
330
291
330
2B6
330
297
330
296
330
294
 75
     0
 76
     1
 47
7.032349222695158
 98
       26
 10
-5418.515516341949
 20
1718.632520117338
 10
-5862.015674309915
 20
1226.368034202481
 10
-5918.333248501114
 20
1177.141596688547
 10
-5988.730005157902
 20
1149.012251298692
 10
-6094.325351225294
 20
1127.915159174626
 10
-6256.238060401688
 20
1127.915159174626
 10
-6389.992193564651
 20
1120.882795133271
 10
-6446.309767755849
 20
1113.850431091916
 10
-6537.82550919326
 20
1113.850431091916
 10
-6622.301870480029
 20
1106.818177826113
 10
-6706.77802068463
 20
1106.818177826113
 10
-6763.09559487583
 20
1099.785813784758
 10
-6812.373366752023
 20
1099.785813784758
 10
-6833.492351532616
 20
1106.818177826113
 10
-6840.532153847622
 20
1331.853273271692
 10
-6812.373366752023
 20
1352.950365395758
 10
-6763.09559487583
 20
1352.950365395758
 10
-6699.738429451821
 20
1359.982729437113
 10
-6629.341461712837
 20
1359.982729437113
 10
-6551.904902741046
 20
1367.015093478468
 10
-6460.388950221468
 20
1359.982729437113
 10
-6354.793815236271
 20
1345.918001354402
 10
-6270.317453949473
 20
1374.047457519824
 10
-6108.404744773078
 20
1381.079710785627
 10
-6002.809398705688
 20
1381.079710785627
 10
-5918.333248501114
 20
1388.112074826982
  0
HATCH
  5
1FC
330
1F1
100
AcDbEntity
  8
0
 62
    84
100
AcDbHatch
 10
0.0
 20
0.0
 30
0.0
210
0.0
220
0.0
230
1.0
  2
SOLID
 70
     1
 71
     1
 91
        1
 92
        1
 93
        4
 72
     1
 10
-5016.472280025684
 20
690.7108686519932
 11
-3855.586447355372
 21
690.7108686519932
 72
     1
 10
-3855.586447355372
 20
690.7108686519932
 11
-3855.586447355372
 21
1851.596701322297
 72
     1
 10
-3855.586447355372
 20
1851.596701322297
 11
-5016.472280025684
 21
1851.596701322297
 72
     1
 10
-5016.472280025684
 20
1851.596701322297
 11
-5016.472280025684
 21
690.7108686519932
 97
        1
330
202
 75
     0
 76
     1
 98
        1
 10
1996.376681035197
 20
-12901.0651823731
  0
HATCH
  5
1FD
330
1F1
100
AcDbEntity
  8
0
 62
    50
100
AcDbHatch
 10
0.0
 20
0.0
 30
0.0
210
0.0
220
0.0
230
1.0
  2
SOLID
 70
     1
 71
     1
 91
        1
 92
        7
 72
     1
 73
     1
 93
        4
 10
-4263.663489052221
 20
1851.596701322297
 42
0.0
 10
-4168.312154145943
 20
1851.596701322297
 42
0.5203612086937239
 10
-4703.939049435642
 20
1851.596701322297
 42
0.0
 10
-4608.395238328827
 20
1851.596701322297
 42
-0.3984526112186046
 97
        3
330
202
330
247
330
246
 75
     0
 76
     1
 47
5.50999374987631
 98
        1
 10
-4430.379121391741
 20
1949.687776810635
  0
HATCH
  5
1FE
330
1F1
100
AcDbEntity
  8
0
 62
   150
100
AcDbHatch
 10
0.0
 20
0.0
 30
0.0
210
0.0
220
0.0
230
1.0
  2
SOLID
 70
     1
 71
     0
 91
        2
 92
        7
 72
     0
 73
     1
 93
        4
 10
-1996.568812958569
 20
1539.537787083529
 10
-2926.077630156969
 20
1539.537787083529
 10
-2926.077630156965
 20
1520.200803081555
 10
-1996.568812958564
 20
1520.200803081555
 97
        0
 92
        7
 72
     0
 73
     1
 93
        4
 10
-1996.568812958573
 20
1022.106766892739
 10
-2926.077630156976
 20
1022.106766892739
 10
-2926.077630156969
 20
1002.769782890758
 10
-1996.568812958567
 20
1002.769782890754
 97
        0
 75
     0
 76
     1
 47
2.231880503813954
 98
        2
 10
-2369.528380477475
 20
1530.730991290212
 10
-2472.301999148573
 20
1006.239028727257
  0
HATCH
  5
1FF
330
1F1
100
AcDbEntity
  8
0
 62
    30
100
AcDbHatch
 10
0.0
 20
0.0
 30
0.0
210
0.0
220
0.0
230
1.0
  2
SOLID
 70
     1
 71
     0
 91
        2
 92
        7
 72
     0
 73
     1
 93
        4
 10
-2926.077630156973
 20
1539.537787083529
 10
-3855.586447355372
 20
1539.537787083529
 10
-3855.586447355372
 20
1520.200803081555
 10
-2926.077630156969
 20
1520.200803081555
 97
        0
 92
        7
 72
     1
 73
     1
 93
        5
 10
-2926.077630156976
 20
1022.106766892739
 42
0.0
 10
-3851.973231344282
 20
1022.106766892739
 42
-0.003631856113254
 10
-3855.586447355372
 20
1019.43959668557
 42
0.0
 10
-3855.586447355372
 20
1002.769782890766
 42
0.0
 10
-2926.077630156969
 20
1002.769782890758
 42
0.0
 97
        0
 75
     0
 76
     1
 47
3.387716884985549
 98
        2
 10
-3640.980522565829
 20
1528.849798885145
 10
-3549.41674595832
 20
1010.529107439215
  0
HATCH
  5
200
330
1F1
100
AcDbEntity
  8
0
 62
    50
100
AcDbHatch
 10
0.0
 20
0.0
 30
0.0
210
0.0
220
0.0
230
1.0
  2
SOLID
 70
     1
 71
     0
 91
        3
 92
        7
 72
     1
 73
     1
 93
       22
 10
-2182.270538632708
 20
1270.820388711323
 42
0.0
 10
-2180.603557253232
 20
1362.837760858583
 42
0.0
 10
-2173.268839183515
 20
1400.844936310735
 42
0.0
 10
-2155.932232836922
 20
1428.183430934219
 42
0.0
 10
-2131.260908420604
 20
1448.85400003978
 42
0.0
 10
-2104.589206348911
 20
1464.190228731004
 42
0.0
 10
-2090.586562761281
 20
1477.526079766849
 42
0.0
 10
-2083.251844691555
 20
1491.528723354487
 42
0.0
 10
-2080.584674484392
 20
1507.531744597501
 42
0.0
 10
-2080.584674484392
 20
1520.200803081555
 42
0.0
 10
-3855.586447355372
 20
1520.200803081548
 42
0.0
 10
-3855.586447355372
 20
1519.534010529758
 42
-0.5047677450341376
 10
-3851.973231344282
 20
1022.106766892739
 42
0.0
 10
-2080.584674484392
 20
1022.106766892739
 42
0.0
 10
-2080.584674484392
 20
1034.775825376793
 42
0.0
 10
-2083.918637243353
 20
1053.446016826976
 42
0.0
 10
-2092.586940416654
 20
1067.448660414607
 42
0.0
 10
-2104.58920634892
 20
1077.450548691496
 42
0.0
 10
-2131.260908420604
 20
1093.45356993451
 42
0.0
 10
-2160.599780699463
 20
1119.458479454402
 42
0.0
 10
-2175.269216838894
 20
1147.463766629684
 42
0.0
 10
-2180.603557253233
 20
1179.469809115715
 42
0.0
 97
        0
 92
       22
 72
     1
 73
     1
 93
        2
 10
-3855.586447355372
 20
1473.177784095769
 42
0.0
 10
-3855.586447355372
 20
1065.795823119562
 42
0.4582969605586812
 97
        0
 92
        7
 72
     1
 73
     1
 93
        5
 10
-3855.586447355372
 20
1519.534010529758
 42
0.0
 10
-3855.586447355372
 20
1473.177784095769
 42
-0.4582969605586812
 10
-3855.586447355372
 20
1065.795823119562
 42
0.0
 10
-3855.586447355372
 20
1022.106766892739
 42
0.0
 10
-3851.973231344282
 20
1022.106766892739
 42
0.5047677450341411
 97
        0
 75
     0
 76
     1
 47
4.472321723810398
 98
        3
 10
-2532.876229274386
 20
1246.191631714377
 10
-3816.972853464302
 20
1304.331776024861
 10
-3772.23077862942
 20
1366.944288624668
  0
HATCH
  5
201
330
1F1
100
AcDbEntity
  8
0
 62
   250
100
AcDbHatch
 10
0.0
 20
0.0
 30
0.0
210
0.0
220
0.0
230
1.0
  2
SOLID
 70
     1
 71
     1
 91
        1
 92
        7
 72
     1
 73
     1
 93
        2
 10
-4263.663489052221
 20
1851.596701322297
 42
0.3984526112186046
 10
-4608.395238328827
 20
1851.596701322297
 42
0.0
 97
        2
330
202
330
247
 75
     0
 76
     1
 47
3.366206442624165
 98
        1
 10
-4409.829952841965
 20
1878.737707761131
  0
LWPOLYLINE
  5
202
102
{ACAD_REACTORS
330
1FD
330
201
330
1FC
330
1FA
330
1F4
330
1FB
102
}
330
1F1
100
AcDbEntity
  8
0
100
AcDbPolyline
 90
        4
 70
     1
 43
0.0
 10
-5016.472280025684
 20
690.7108686519932
 10
-3855.586447355372
 20
690.7108686519932
 10
-3855.586447355372
 20
1851.596701322297
 10
-5016.472280025684
 20
1851.596701322297
  0
LWPOLYLINE
  5
203
330
1F1
100
AcDbEntity
  8
0
100
AcDbPolyline
 90
        4
 70
     1
 43
0.0
 10
-4727.751105099637
 20
1562.875526396259
 10
-4144.446737274234
 20
1562.875526396259
 10
-4144.446737274234
 20
979.4320435780354
 10
-4727.751105099637
 20
979.4320435780354
  0
LINE
  5
204
330
1F1
100
AcDbEntity
  8
0
100
AcDbLine
 10
-5016.472280025681
 20
1851.596701322305
 30
0.0
 11
-3855.586447355372
 21
690.7108686519932
 31
0.0
  0
LINE
  5
205
330
1F1
100
AcDbEntity
  8
0
100
AcDbLine
 10
-3855.586447355372
 20
1851.596701322305
 30
0.0
 11
-5016.472280025681
 21
690.7108686519932
 31
0.0
  0
LINE
  5
206
330
1F1
100
AcDbEntity
  8
0
100
AcDbLine
 10
-4791.767576864798
 20
690.7108686519968
 30
0.0
 11
-4822.804725215489
 21
528.3056649780519
 31
0.0
  0
LINE
  5
207
330
1F1
100
AcDbEntity
  8
0
100
AcDbLine
 10
-4943.791891880328
 20
-104.7726456361669
 30
0.0
 11
-4923.788115326557
 21
-110.1069860505049
 31
0.0
  0
LINE
  5
208
330
1F1
100
AcDbEntity
  8
0
100
AcDbLine
 10
-4923.788115326557
 20
-110.1069860505049
 30
0.0
 11
-4882.451612266983
 21
107.0761977504625
 31
0.0
  0
CIRCLE
  5
209
102
{ACAD_REACTORS
330
272
102
}
330
1F1
100
AcDbEntity
  8
0
100
AcDbCircle
 10
-4889.114902633361
 20
125.9375772839557
 30
0.0
 40
20.00377655377027
  0
CIRCLE
  5
20A
102
{ACAD_REACTORS
330
272
102
}
330
1F1
100
AcDbEntity
  8
0
100
AcDbCircle
 10
-4852.441312284785
 20
317.9738322001249
 30
0.0
 40
20.00377655377027
  0
CIRCLE
  5
20B
102
{ACAD_REACTORS
330
272
102
}
330
1F1
100
AcDbEntity
  8
0
100
AcDbCircle
 10
-4816.434514488008
 20
509.3432945644999
 30
0.0
 40
20.00377655377027
  0
CIRCLE
  5
20C
102
{ACAD_REACTORS
330
272
102
}
330
1F1
100
AcDbEntity
  8
0
100
AcDbCircle
 10
-4535.714850183469
 20
509.3432945644999
 30
0.0
 40
20.00377655377027
  0
CIRCLE
  5
20D
102
{ACAD_REACTORS
330
272
102
}
330
1F1
100
AcDbEntity
  8
0
100
AcDbCircle
 10
-4555.051834185445
 20
317.9738322001249
 30
0.0
 40
20.00377655377027
  0
CIRCLE
  5
20E
102
{ACAD_REACTORS
330
272
102
}
330
1F1
100
AcDbEntity
  8
0
100
AcDbCircle
 10
-4574.677160912515
 20
125.9375772839557
 30
0.0
 40
20.00377655377027
  0
CIRCLE
  5
20F
102
{ACAD_REACTORS
330
272
102
}
330
1F1
100
AcDbEntity
  8
0
100
AcDbCircle
 10
-4435.029174862838
 20
509.3432945644999
 30
0.0
 40
20.00377655377027
  0
ARC
  5
210
330
1F1
100
AcDbEntity
  8
0
100
AcDbCircle
 10
-4435.461688950485
 20
701.3795494806654
 30
0.0
 40
20.00377655377027
100
AcDbArc
 50
212.2309526355222
 51
327.7690473644777
  0
CIRCLE
  5
211
102
{ACAD_REACTORS
330
272
102
}
330
1F1
100
AcDbEntity
  8
0
100
AcDbCircle
 10
-4331.009536783245
 20
509.3432945644999
 30
0.0
 40
20.00377655377027
  0
CIRCLE
  5
212
102
{ACAD_REACTORS
330
272
102
}
330
1F1
100
AcDbEntity
  8
0
100
AcDbCircle
 10
-4311.672552781269
 20
317.9738322001249
 30
0.0
 40
20.00377655377027
  0
CIRCLE
  5
213
102
{ACAD_REACTORS
330
272
102
}
330
1F1
100
AcDbEntity
  8
0
100
AcDbCircle
 10
-4292.335568779296
 20
125.9375772839557
 30
0.0
 40
20.00377655377027
  0
CIRCLE
  5
214
102
{ACAD_REACTORS
330
272
102
}
330
1F1
100
AcDbEntity
  8
0
100
AcDbCircle
 10
-4053.623835237669
 20
509.3432945644999
 30
0.0
 40
20.00377655377027
  0
CIRCLE
  5
215
102
{ACAD_REACTORS
330
272
102
}
330
1F1
100
AcDbEntity
  8
0
100
AcDbCircle
 10
-4016.283452337304
 20
317.9738322001249
 30
0.0
 40
20.00377655377027
  0
CIRCLE
  5
216
102
{ACAD_REACTORS
330
272
102
}
330
1F1
100
AcDbEntity
  8
0
100
AcDbCircle
 10
-3978.943069436938
 20
125.9375772839557
 30
0.0
 40
20.00377655377027
  0
LINE
  5
217
330
1F1
100
AcDbEntity
  8
0
100
AcDbLine
 10
-4608.395238328821
 20
-106.1062307397478
 30
0.0
 11
-4586.394389374482
 21
109.7246924825631
 31
0.0
  0
LINE
  5
218
330
1F1
100
AcDbEntity
  8
0
100
AcDbLine
 10
-4582.893378307069
 20
144.1761311777991
 30
0.0
 11
-4566.871760728872
 21
301.8356658569136
 31
0.0
  0
LINE
  5
219
330
1F1
100
AcDbEntity
  8
0
100
AcDbLine
 10
-4563.383681024914
 20
336.159854433059
 30
0.0
 11
-4547.432078645428
 21
493.1304097631036
 31
0.0
  0
LINE
  5
21A
330
1F1
100
AcDbEntity
  8
0
100
AcDbLine
 10
-4527.498632788918
 20
491.1047406706602
 30
0.0
 11
-4543.437397644239
 21
334.2605120411353
 31
0.0
  0
LINE
  5
21B
330
1F1
100
AcDbEntity
  8
0
100
AcDbLine
 10
-4546.951152396514
 20
299.6836700639505
 30
0.0
 11
-4562.959932450559
 21
142.1504620853556
 31
0.0
  0
LINE
  5
21C
330
1F1
100
AcDbEntity
  8
0
100
AcDbLine
 10
-4566.460943517968
 20
107.6990233901124
 30
0.0
 11
-4588.391461775057
 21
-108.7734009469168
 31
0.0
  0
LINE
  5
21D
330
1F1
100
AcDbEntity
  8
0
100
AcDbLine
 10
-4588.391461775057
 20
-108.7734009469168
 30
0.0
 11
-4608.395238328821
 21
-106.1062307397478
 31
0.0
  0
LINE
  5
21E
330
1F1
100
AcDbEntity
  8
0
100
AcDbLine
 10
-4300.249927756716
 20
107.5660232291229
 30
0.0
 11
-4278.33292519166
 21
-108.1066083951263
 31
0.0
  0
LINE
  5
21F
330
1F1
100
AcDbEntity
  8
0
100
AcDbLine
 10
-4278.33292519166
 20
-108.1066083951263
 30
0.0
 11
-4258.32914863789
 21
-106.1062307397478
 31
0.0
  0
LINE
  5
220
330
1F1
100
AcDbEntity
  8
0
100
AcDbLine
 10
-4258.32914863789
 20
-106.1062307397478
 30
0.0
 11
-4280.350049305837
 21
109.9220098770711
 31
0.0
  0
LINE
  5
221
330
1F1
100
AcDbEntity
  8
0
100
AcDbLine
 10
-4303.783864739745
 20
142.3414669451049
 30
0.0
 11
-4319.773234570204
 21
299.6836700639505
 31
0.0
  0
LINE
  5
222
330
1F1
100
AcDbEntity
  8
0
100
AcDbLine
 10
-4299.852626237838
 20
301.8356658569209
 30
0.0
 11
-4283.816851477584
 21
144.0368184820508
 31
0.0
  0
LINE
  5
223
330
1F1
100
AcDbEntity
  8
0
100
AcDbLine
 10
-4323.286989322479
 20
334.2605120411353
 30
0.0
 11
-4339.225754177803
 21
491.1047406706675
 31
0.0
  0
LINE
  5
224
330
1F1
100
AcDbEntity
  8
0
100
AcDbLine
 10
-4319.292308321286
 20
493.1304097631036
 30
0.0
 11
-4303.340705941796
 21
336.159854433059
 31
0.0
  0
LINE
  5
225
330
1F1
100
AcDbEntity
  8
0
100
AcDbLine
 10
-4444.398070047443
 20
527.0174247958093
 30
0.0
 11
-4444.750876290114
 21
683.6633965409819
 31
0.0
  0
LINE
  5
226
330
1F1
100
AcDbEntity
  8
0
100
AcDbLine
 10
-4426.490584081746
 20
683.5002219248817
 30
0.0
 11
-4425.786004251296
 21
527.083499564982
 31
0.0
  0
LINE
  5
227
330
1F1
100
AcDbEntity
  8
0
100
AcDbLine
 10
-4098.166853710021
 20
684.1768485069878
 30
0.0
 11
-4066.874503228066
 21
524.328983545045
 31
0.0
  0
LINE
  5
228
330
1F1
100
AcDbEntity
  8
0
100
AcDbLine
 10
-4060.245628515064
 20
490.467306373026
 30
0.0
 11
-4029.429382819567
 21
333.0514841449294
 31
0.0
  0
LINE
  5
229
330
1F1
100
AcDbEntity
  8
0
100
AcDbLine
 10
-4022.773562565775
 20
299.052163520133
 30
0.0
 11
-3991.872199461273
 21
141.2015437811314
 31
0.0
  0
LINE
  5
22A
330
1F1
100
AcDbEntity
  8
0
100
AcDbLine
 10
-3985.162128180198
 20
106.9250975729628
 30
0.0
 11
-3942.936271640157
 21
-110.1069860505049
 31
0.0
  0
LINE
  5
22B
330
1F1
100
AcDbEntity
  8
0
100
AcDbLine
 10
-3942.936271640157
 20
-110.1069860505049
 30
0.0
 11
-3922.917045865366
 21
-106.1850909425738
 31
0.0
  0
LINE
  5
22C
330
1F1
100
AcDbEntity
  8
0
100
AcDbLine
 10
-3922.917045865366
 20
-106.1850909425738
 30
0.0
 11
-3965.490951391139
 21
111.1324566665825
 31
0.0
  0
LINE
  5
22D
330
1F1
100
AcDbEntity
  8
0
100
AcDbLine
 10
-3972.0717866399
 20
144.7241828617661
 30
0.0
 11
-4003.070242223535
 21
302.9551053931536
 31
0.0
  0
LINE
  5
22E
330
1F1
100
AcDbEntity
  8
0
100
AcDbLine
 10
-4009.714017284767
 20
336.868106451966
 30
0.0
 11
-4040.538841067189
 21
494.2127293413614
 31
0.0
  0
LINE
  5
22F
330
1F1
100
AcDbEntity
  8
0
100
AcDbLine
 10
-4047.215338318872
 20
528.2927600887596
 30
0.0
 11
-4078.275632568055
 21
686.8393367039934
 31
0.0
  0
ARC
  5
230
330
1F1
100
AcDbEntity
  8
0
100
AcDbCircle
 10
-4779.760924139433
 20
701.3795494806654
 30
0.0
 40
20.00377655376609
100
AcDbArc
 50
212.2309526355222
 51
327.7690473644777
  0
ARC
  5
231
330
1F1
100
AcDbEntity
  8
0
100
AcDbCircle
 10
-4091.631010689826
 20
701.3795494806654
 30
0.0
 40
20.00377655376609
100
AcDbArc
 50
212.2309526355222
 51
327.7690473644777
  0
LINE
  5
232
330
1F1
100
AcDbEntity
  8
0
100
AcDbLine
 10
-4871.791123966165
 20
115.9356890070739
 30
0.0
 11
-4592.000939579711
 21
115.9356890070739
 31
0.0
  0
LINE
  5
233
330
1F1
100
AcDbEntity
  8
0
100
AcDbLine
 10
-4871.791123966165
 20
135.9394655608375
 30
0.0
 11
-4592.000939579711
 21
135.9394655608375
 31
0.0
  0
LINE
  5
234
330
1F1
100
AcDbEntity
  8
0
100
AcDbLine
 10
-4557.353382245319
 20
115.9356890070739
 30
0.0
 11
-4306.33821236693
 21
115.9356890070739
 31
0.0
  0
LINE
  5
235
330
1F1
100
AcDbEntity
  8
0
100
AcDbLine
 10
-4557.353382245319
 20
135.9394655608375
 30
0.0
 11
-4309.659347446491
 21
135.9394655608375
 31
0.0
  0
LINE
  5
236
330
1F1
100
AcDbEntity
  8
0
100
AcDbLine
 10
-4275.011790112099
 20
115.9356890070739
 30
0.0
 11
-3996.266848104134
 21
115.9356890070739
 31
0.0
  0
LINE
  5
237
330
1F1
100
AcDbEntity
  8
0
100
AcDbLine
 10
-3996.266848104134
 20
135.9394655608375
 30
0.0
 11
-4275.011790112099
 21
135.9394655608375
 31
0.0
  0
LINE
  5
238
330
1F1
100
AcDbEntity
  8
0
100
AcDbLine
 10
-4835.117533617597
 20
307.9719439232394
 30
0.0
 11
-4572.375612852638
 21
307.9719439232394
 31
0.0
  0
LINE
  5
239
330
1F1
100
AcDbEntity
  8
0
100
AcDbLine
 10
-4537.728055518253
 20
307.9719439232394
 30
0.0
 11
-4328.996331448461
 21
307.9719439232394
 31
0.0
  0
LINE
  5
23A
330
1F1
100
AcDbEntity
  8
0
100
AcDbLine
 10
-4294.348774114079
 20
307.9719439232394
 30
0.0
 11
-4033.607231004492
 21
307.9719439232394
 31
0.0
  0
LINE
  5
23B
330
1F1
100
AcDbEntity
  8
0
100
AcDbLine
 10
-4033.607231004492
 20
327.9757204770175
 30
0.0
 11
-4294.348774114079
 21
327.9757204770175
 31
0.0
  0
LINE
  5
23C
330
1F1
100
AcDbEntity
  8
0
100
AcDbLine
 10
-4328.996331448461
 20
327.9757204770175
 30
0.0
 11
-4537.728055518253
 21
327.9757204770175
 31
0.0
  0
LINE
  5
23D
330
1F1
100
AcDbEntity
  8
0
100
AcDbLine
 10
-4572.375612852638
 20
327.9757204770175
 30
0.0
 11
-4835.117533617597
 21
327.9757204770175
 31
0.0
  0
LINE
  5
23E
330
1F1
100
AcDbEntity
  8
0
100
AcDbLine
 10
-4799.110735820812
 20
499.3414062876218
 30
0.0
 11
-4553.038628850665
 21
499.3414062876218
 31
0.0
  0
LINE
  5
23F
330
1F1
100
AcDbEntity
  8
0
100
AcDbLine
 10
-4553.038628850665
 20
519.3451828413854
 30
0.0
 11
-4799.110735820812
 21
519.3451828413854
 31
0.0
  0
LINE
  5
240
330
1F1
100
AcDbEntity
  8
0
100
AcDbLine
 10
-4518.391071516273
 20
499.3414062876218
 30
0.0
 11
-4452.352953530034
 21
499.3414062876218
 31
0.0
  0
LINE
  5
241
330
1F1
100
AcDbEntity
  8
0
100
AcDbLine
 10
-4518.391071516273
 20
519.3451828413854
 30
0.0
 11
-4452.352953530034
 21
519.3451828413854
 31
0.0
  0
LINE
  5
242
330
1F1
100
AcDbEntity
  8
0
100
AcDbLine
 10
-4417.705396195642
 20
499.3414062876218
 30
0.0
 11
-4348.333315450441
 21
499.3414062876218
 31
0.0
  0
LINE
  5
243
330
1F1
100
AcDbEntity
  8
0
100
AcDbLine
 10
-4417.705396195642
 20
519.3451828413854
 30
0.0
 11
-4348.333315450441
 21
519.3451828413854
 31
0.0
  0
LINE
  5
244
330
1F1
100
AcDbEntity
  8
0
100
AcDbLine
 10
-4313.685758116053
 20
499.3414062876218
 30
0.0
 11
-4070.947613904865
 21
499.3414062876218
 31
0.0
  0
LINE
  5
245
330
1F1
100
AcDbEntity
  8
0
100
AcDbLine
 10
-4070.947613904865
 20
519.3451828413854
 30
0.0
 11
-4313.685758116053
 21
519.3451828413854
 31
0.0
  0
ARC
  5
246
102
{ACAD_REACTORS
330
1FD
102
}
330
1F1
100
AcDbEntity
  8
0
100
AcDbCircle
 10
-4436.125601790792
 20
1663.942388136223
 30
0.0
 40
327.0140425069816
100
AcDbArc
 50
35.01856011997922
 51
144.9814398800207
  0
ARC
  5
247
102
{ACAD_REACTORS
330
1FD
330
201
102
}
330
1F1
100
AcDbEntity
  8
0
100
AcDbCircle
 10
-4436.029363690525
 20
1669.642446894955
 30
0.0
 40
250.6338872619529
100
AcDbArc
 50
46.5501226234675
 51
133.4498773765324
  0
LINE
  5
248
330
1F1
100
AcDbEntity
  8
0
100
AcDbLine
 10
-4677.164731678838
 20
1884.936328911913
 30
0.0
 11
-4711.081291304834
 21
1884.936328911913
 31
0.0
  0
LINE
  5
249
330
1F1
100
AcDbEntity
  8
0
100
AcDbLine
 10
-4711.081291304834
 20
1884.936328911913
 30
0.0
 11
-4711.081291304834
 21
1859.598211943812
 31
0.0
  0
LINE
  5
24A
330
1F1
100
AcDbEntity
  8
0
100
AcDbLine
 10
-4711.081291304834
 20
1859.598211943812
 30
0.0
 11
-4698.15037658686
 21
1859.598211943812
 31
0.0
  0
LINE
  5
24B
330
1F1
100
AcDbEntity
  8
0
100
AcDbLine
 10
-4195.086471902746
 20
1884.936328911913
 30
0.0
 11
-4160.977436076222
 21
1884.936328911913
 31
0.0
  0
LINE
  5
24C
330
1F1
100
AcDbEntity
  8
0
100
AcDbLine
 10
-4160.977436076222
 20
1884.936328911913
 30
0.0
 11
-4160.977436076222
 21
1859.598211943812
 31
0.0
  0
LINE
  5
24D
330
1F1
100
AcDbEntity
  8
0
100
AcDbLine
 10
-4160.977436076222
 20
1859.598211943812
 30
0.0
 11
-4174.100826994721
 21
1859.598211943812
 31
0.0
  0
ARC
  5
24E
330
1F1
100
AcDbEntity
  8
0
100
AcDbCircle
 10
-4031.136946663298
 20
1269.486803607666
 30
0.0
 40
268.9014565588423
100
AcDbArc
 50
310.7563149162313
 51
49.24368508376861
  0
ARC
  5
24F
330
1F1
100
AcDbEntity
  8
0
100
AcDbCircle
 10
-4037.372948700531
 20
1269.486803607662
 30
0.0
 40
309.1438787374797
100
AcDbArc
 50
306.0174788173781
 51
53.98252118262187
  0
LINE
  5
250
330
1F1
100
AcDbEntity
  8
0
100
AcDbLine
 10
-3855.586447355372
 20
1539.537787083529
 30
0.0
 11
-1996.568812958567
 21
1539.537787083529
 31
0.0
  0
LINE
  5
251
330
1F1
100
AcDbEntity
  8
0
100
AcDbLine
 10
-1996.568812958567
 20
1539.537787083529
 30
0.0
 11
-1996.568812958564
 21
1520.200803081555
 31
0.0
  0
LINE
  5
252
330
1F1
100
AcDbEntity
  8
0
100
AcDbLine
 10
-1996.568812958564
 20
1520.200803081555
 30
0.0
 11
-3855.586447355372
 21
1520.200803081555
 31
0.0
  0
LINE
  5
253
330
1F1
100
AcDbEntity
  8
0
100
AcDbLine
 10
-3855.586447355372
 20
1002.769782890766
 30
0.0
 11
-1996.568812958567
 21
1002.769782890751
 31
0.0
  0
LINE
  5
254
330
1F1
100
AcDbEntity
  8
0
100
AcDbLine
 10
-1996.568812958567
 20
1002.769782890751
 30
0.0
 11
-1996.568812958573
 21
1022.106766892739
 31
0.0
  0
LINE
  5
255
330
1F1
100
AcDbEntity
  8
0
100
AcDbLine
 10
-1996.568812958573
 20
1022.106766892739
 30
0.0
 11
-3855.586447355372
 21
1022.106766892739
 31
0.0
  0
LINE
  5
256
330
1F1
100
AcDbEntity
  8
0
100
AcDbLine
 10
-2080.584674484392
 20
1520.200803081555
 30
0.0
 11
-2080.584674484392
 21
1507.531744597501
 31
0.0
  0
LINE
  5
257
330
1F1
100
AcDbEntity
  8
0
100
AcDbLine
 10
-2080.584674484392
 20
1507.531744597501
 30
0.0
 11
-2083.251844691559
 21
1491.528723354484
 31
0.0
  0
LINE
  5
258
330
1F1
100
AcDbEntity
  8
0
100
AcDbLine
 10
-2083.251844691559
 20
1491.528723354484
 30
0.0
 11
-2090.586562761279
 21
1477.526079766852
 31
0.0
  0
LINE
  5
259
330
1F1
100
AcDbEntity
  8
0
100
AcDbLine
 10
-2090.586562761279
 20
1477.526079766852
 30
0.0
 11
-2104.589206348914
 21
1464.190228731004
 31
0.0
  0
LINE
  5
25A
330
1F1
100
AcDbEntity
  8
0
100
AcDbLine
 10
-2104.589206348914
 20
1464.190228731004
 30
0.0
 11
-2131.260908420602
 21
1448.854000039784
 31
0.0
  0
LINE
  5
25B
330
1F1
100
AcDbEntity
  8
0
100
AcDbLine
 10
-2131.260908420602
 20
1448.854000039784
 30
0.0
 11
-2155.932232836919
 21
1428.183430934223
 31
0.0
  0
LINE
  5
25C
330
1F1
100
AcDbEntity
  8
0
100
AcDbLine
 10
-2155.932232836919
 20
1428.183430934223
 30
0.0
 11
-2173.268839183515
 21
1400.844936310739
 31
0.0
  0
LINE
  5
25D
330
1F1
100
AcDbEntity
  8
0
100
AcDbLine
 10
-2173.268839183515
 20
1400.844936310739
 30
0.0
 11
-2180.603557253232
 21
1362.837760858583
 31
0.0
  0
LINE
  5
25E
330
1F1
100
AcDbEntity
  8
0
100
AcDbLine
 10
-2180.603557253232
 20
1362.837760858583
 30
0.0
 11
-2182.270538632711
 21
1270.82038871125
 31
0.0
  0
LINE
  5
25F
330
1F1
100
AcDbEntity
  8
0
100
AcDbLine
 10
-2182.270538632711
 20
1270.82038871125
 30
0.0
 11
-2180.603557253232
 21
1179.469809115715
 31
0.0
  0
LINE
  5
260
330
1F1
100
AcDbEntity
  8
0
100
AcDbLine
 10
-2180.603557253232
 20
1179.469809115715
 30
0.0
 11
-2175.269216838894
 21
1147.463766629687
 31
0.0
  0
LINE
  5
261
330
1F1
100
AcDbEntity
  8
0
100
AcDbLine
 10
-2175.269216838894
 20
1147.463766629687
 30
0.0
 11
-2160.599780699461
 21
1119.45847945441
 31
0.0
  0
LINE
  5
262
330
1F1
100
AcDbEntity
  8
0
100
AcDbLine
 10
-2160.599780699461
 20
1119.45847945441
 30
0.0
 11
-2131.260908420602
 21
1093.45356993451
 31
0.0
  0
LINE
  5
263
330
1F1
100
AcDbEntity
  8
0
100
AcDbLine
 10
-2131.260908420602
 20
1093.45356993451
 30
0.0
 11
-2104.589206348914
 21
1077.450548691496
 31
0.0
  0
LINE
  5
264
330
1F1
100
AcDbEntity
  8
0
100
AcDbLine
 10
-2104.589206348914
 20
1077.450548691496
 30
0.0
 11
-2092.58694041665
 21
1067.448660414611
 31
0.0
  0
LINE
  5
265
330
1F1
100
AcDbEntity
  8
0
100
AcDbLine
 10
-2092.58694041665
 20
1067.448660414611
 30
0.0
 11
-2083.918637243353
 21
1053.446016826976
 31
0.0
  0
LINE
  5
266
330
1F1
100
AcDbEntity
  8
0
100
AcDbLine
 10
-2083.918637243353
 20
1053.446016826976
 30
0.0
 11
-2080.584674484392
 21
1034.775825376793
 31
0.0
  0
LINE
  5
267
330
1F1
100
AcDbEntity
  8
0
100
AcDbLine
 10
-2080.584674484392
 20
1034.775825376793
 30
0.0
 11
-2080.584674484392
 21
1022.106766892739
 31
0.0
  0
LINE
  5
268
330
1F1
100
AcDbEntity
  8
0
100
AcDbLine
 10
-4902.535820470979
 20
111.1041676688655
 30
0.0
 11
-4943.791891880328
 21
-104.7726456361669
 31
0.0
  0
LINE
  5
269
330
1F1
100
AcDbEntity
  8
0
100
AcDbLine
 10
-4875.988719435862
 20
141.0324237912536
 30
0.0
 11
-4845.910110125124
 21
299.0663079105033
 31
0.0
  0
LINE
  5
26A
330
1F1
100
AcDbEntity
  8
0
100
AcDbLine
 10
-4865.839778285898
 20
303.120139553841
 30
0.0
 11
-4896.120193000339
 21
144.6746256984588
 31
0.0
  0
LINE
  5
26B
330
1F1
100
AcDbEntity
  8
0
100
AcDbLine
 10
-4839.421030512299
 20
333.1601200605037
 30
0.0
 11
-4809.456204994132
 21
490.5961808394313
 31
0.0
  0
LINE
  5
26C
330
1F1
100
AcDbEntity
  8
0
100
AcDbLine
 10
-4829.348195519191
 20
494.0662556289644
 30
0.0
 11
-4859.418253650061
 21
336.721455132083
 31
0.0
  0
LINE
  5
26D
330
1F1
100
AcDbEntity
  8
0
100
AcDbLine
 10
-4803.057313613544
 20
524.2161414062247
 30
0.0
 11
-4772.557518739291
 21
684.4629466698206
 31
0.0
  0
HATCH
  5
26E
330
1F1
100
AcDbEntity
  8
0
 62
    50
100
AcDbHatch
 10
0.0
 20
0.0
 30
0.0
210
0.0
220
0.0
230
1.0
  2
SOLID
 70
     1
 71
     0
 91
       15
 92
        7
 72
     1
 73
     1
 93
        5
 10
-4943.791891880328
 20
-104.7726456361669
 42
0.0
 10
-4923.788115326557
 20
-110.1069860505049
 42
0.0
 10
-4882.451612266983
 20
107.0761977504625
 42
-0.0851023481420786
 10
-4889.114902633361
 20
105.9338007301885
 42
-0.1859621584946757
 10
-4902.535820470979
 20
111.1041676688655
 42
0.0
 97
        0
 92
        7
 72
     1
 73
     1
 93
        6
 10
-4896.120193000339
 20
144.6746256984588
 42
-0.0896850285161526
 10
-4889.114902633361
 20
145.9413538377229
 42
-0.1808726405839401
 10
-4875.988719435862
 20
141.0324237912536
 42
0.0
 10
-4845.910110125124
 20
299.0663079105033
 42
-0.0833413142280533
 10
-4852.441312284785
 20
297.970055646354
 42
-0.1855709679467075
 10
-4865.839778285898
 20
303.120139553841
 42
0.0
 97
        0
 92
        7
 72
     1
 73
     1
 93
        6
 10
-4859.418253650061
 20
336.721455132083
 42
-0.0893038586945105
 10
-4852.441312284785
 20
337.9776087538957
 42
-0.1790673735504051
 10
-4839.421030512299
 20
333.1601200605037
 42
0.0
 10
-4809.456204994132
 20
490.5961808394313
 42
-0.0893222485011883
 10
-4816.434514488008
 20
489.339518010729
 42
-0.1772621847634118
 10
-4829.348195519191
 20
494.0662556289644
 42
0.0
 97
        0
 92
        7
 72
     1
 73
     1
 93
        5
 10
-4822.804725215489
 20
528.3056649780519
 42
-0.0812013531982661
 10
-4816.434514488008
 20
529.3470711182708
 42
-0.1852009961545732
 10
-4803.057313613544
 20
524.2161414062247
 42
0.0
 10
-4772.915212997706
 20
682.5836106805691
 42
-0.2685811292006837
 10
-4792.65193396589
 20
686.0833753816587
 42
0.0
 97
        0
 92
        7
 72
     1
 73
     1
 93
        5
 10
-4586.394389374482
 20
109.7246924825631
 42
0.0
 10
-4608.395238328821
 20
-106.1062307397478
 42
0.0
 10
-4588.391461775057
 20
-108.7734009469168
 42
0.0
 10
-4566.460943517968
 20
107.6990233901124
 42
-0.10621125263883
 10
-4574.677160912515
 20
105.9338007301885
 42
-0.1577406454984231
 97
        0
 92
        7
 72
     1
 73
     1
 93
        6
 10
-4566.871760728872
 20
301.8356658569136
 42
0.0
 10
-4582.893378307069
 20
144.1761311777991
 42
-0.1062112526389573
 10
-4574.677160912515
 20
145.9413538377229
 42
-0.1577406454982801
 10
-4562.959932450559
 20
142.1504620853556
 42
0.0
 10
-4546.951152396514
 20
299.6836700639505
 42
-0.1046122499629626
 10
-4555.051834185445
 20
297.970055646354
 42
-0.1593677876891822
 97
        0
 92
        7
 72
     1
 73
     1
 93
        6
 10
-4547.432078645428
 20
493.1304097631036
 42
0.0
 10
-4563.383681024914
 20
336.159854433059
 42
-0.1078166695744589
 10
-4555.051834185445
 20
337.9776087538957
 42
-0.1561202689644205
 10
-4543.437397644239
 20
334.2605120411353
 42
0.0
 10
-4527.498632788918
 20
491.1047406706602
 42
-0.106211252638881
 10
-4535.714850183469
 20
489.339518010729
 42
-0.1577406454983651
 97
        0
 92
        7
 72
     1
 73
     1
 93
        5
 10
-4444.750876290114
 20
683.6633965409746
 42
0.0
 10
-4444.398070047443
 20
527.0174247958093
 42
-0.1224641477092257
 10
-4435.029174862838
 20
529.3470711182708
 42
-0.1206628716633466
 10
-4425.786004251296
 20
527.083499564982
 42
0.0
 10
-4426.490584081746
 20
683.5002219248817
 42
-0.2415336677682219
 97
        0
 92
        7
 72
     1
 73
     1
 93
        6
 10
-4319.292308321286
 20
493.1304097631036
 42
-0.1577406454983381
 10
-4331.009536783245
 20
489.339518010729
 42
-0.1062112526390083
 10
-4339.225754177803
 20
491.1047406706602
 42
0.0
 10
-4323.286989322479
 20
334.2605120411353
 42
-0.1561202689644513
 10
-4311.672552781269
 20
337.9776087538957
 42
-0.1078166695745329
 10
-4303.340705941796
 20
336.159854433059
 42
0.0
 97
        0
 92
        7
 72
     1
 73
     1
 93
        6
 10
-4311.672552781269
 20
297.970055646354
 42
-0.104612249963011
 10
-4319.773234570204
 20
299.6836700639505
 42
0.0
 10
-4303.783864739745
 20
142.3414669451049
 42
-0.1535182735215436
 10
-4292.335568779296
 20
145.9413538377229
 42
-0.1104223275205014
 10
-4283.816851477584
 20
144.0368184820508
 42
0.0
 10
-4299.852626237838
 20
301.8356658569209
 42
-0.1593677876892712
 97
        0
 92
        7
 72
     1
 73
     1
 93
        5
 10
-4292.335568779296
 20
105.9338007301885
 42
-0.102044031375449
 10
-4300.249927756716
 20
107.5660232291229
 42
0.0
 10
-4278.33292519166
 20
-108.1066083951263
 42
0.0
 10
-4258.32914863789
 20
-106.1062307397478
 42
0.0
 10
-4280.350049305837
 20
109.9220098770711
 42
-0.1620092734141219
 97
        0
 92
        7
 72
     1
 73
     1
 93
        5
 10
-3978.943069436938
 20
105.9338007301885
 42
-0.079198403321382
 10
-3985.162128180198
 20
106.9250975729628
 42
0.0
 10
-3942.936271640157
 20
-110.1069860504976
 42
0.0
 10
-3922.91704586537
 20
-106.1850909425738
 42
0.0
 10
-3965.490951391139
 20
111.1324566665825
 42
-0.1865067590877368
 97
        0
 92
        7
 72
     1
 73
     1
 93
        6
 10
-4003.070242223535
 20
302.9551053931536
 42
-0.1823652781536637
 10
-4016.283452337304
 20
297.970055646354
 42
-0.0827944421143663
 10
-4022.773562565775
 20
299.052163520133
 42
0.0
 10
-3991.872199461273
 20
141.2015437811387
 42
-0.1775230658767542
 10
-3978.943069436938
 20
145.9413538377229
 42
-0.0878853185701973
 10
-3972.0717866399
 20
144.7241828617661
 42
0.0
 97
        0
 92
        7
 72
     1
 73
     1
 93
        6
 10
-4040.538841067189
 20
494.2127293413614
 42
-0.1801690726475175
 10
-4053.623835237669
 20
489.339518010729
 42
-0.0845485779383144
 10
-4060.245628515064
 20
490.4673063730333
 42
0.0
 10
-4029.429382819567
 20
333.0514841449294
 42
-0.181210605973591
 10
-4016.283452337304
 20
337.9776087538957
 42
-0.0838505500870652
 10
-4009.714017284767
 20
336.868106451966
 42
0.0
 97
        0
 92
        7
 72
     1
 73
     1
 93
        5
 10
-4078.216974251446
 20
686.5399166401003
 42
-0.2684352454930941
 10
-4097.81000928546
 20
682.3540126218031
 42
0.0
 10
-4066.874503228066
 20
524.328983545045
 42
-0.1830103166745941
 10
-4053.623835237669
 20
529.3470711182708
 42
-0.0817096404766589
 10
-4047.215338318872
 20
528.2927600887596
 42
0.0
 97
        0
 75
     0
 76
     1
 47
3.667923569414485
 98
       15
 10
-4912.827540428907
 20
-14.8485216990266
 10
-4872.480416018914
 20
219.9974107742709
 10
-4835.801153514336
 20
399.8013029434623
 10
-4799.121955354805
 20
594.2830459876822
 10
-4579.046509017402
 20
51.20192666591538
 10
-4560.706877765105
 20
227.3362964027
 10
-4546.035172763271
 20
381.4539296360271
 10
-4432.329587689184
 20
568.5967870518179
 10
-4318.623938270021
 20
410.8097110042836
 10
-4300.284307017724
 20
216.3278883418788
 10
-4281.944675765427
 20
14.50718005104499
 10
-3966.503275606234
 20
29.18511054425835
 10
-3995.84662126484
 20
201.6500374668357
 10
-4032.525883769433
 20
403.4707457576696
 10
-4069.20514627401
 20
594.2830459876822
  0
LINE
  5
26F
330
1F1
100
AcDbEntity
  8
0
100
AcDbLine
 10
-2926.077630156969
 20
1539.537787083529
 30
0.0
 11
-2926.077630156969
 21
1520.200803081555
 31
0.0
  0
LINE
  5
270
330
1F1
100
AcDbEntity
  8
0
100
AcDbLine
 10
-2926.077630156969
 20
1002.769782890758
 30
0.0
 11
-2926.077630156973
 21
1022.106766892739
 31
0.0
  0
HATCH
  5
271
330
1F1
100
AcDbEntity
  8
0
 62
   250
100
AcDbHatch
 10
0.0
 20
0.0
 30
0.0
210
0.0
220
0.0
230
1.0
  2
SOLID
 70
     1
 71
     0
 91
       23
 92
        7
 72
     1
 73
     1
 93
        2
 10
-4889.114902633361
 20
105.9338007301885
 42
1.0
 10
-4889.114902633361
 20
145.9413538377302
 42
1.0
 97
        0
 92
        7
 72
     1
 73
     1
 93
        2
 10
-4852.441312284785
 20
337.9776087538957
 42
1.0
 10
-4852.441312284785
 20
297.970055646354
 42
1.0
 97
        0
 92
        7
 72
     1
 73
     1
 93
        2
 10
-4816.434514488008
 20
489.339518010729
 42
1.0
 10
-4816.434514488008
 20
529.3470711182708
 42
1.0
 97
        0
 92
        7
 72
     1
 73
     1
 93
        4
 10
-4799.110735820812
 20
519.3451828413854
 42
-0.2679491924310617
 10
-4799.110735820812
 20
499.3414062876218
 42
0.0
 10
-4553.038628850665
 20
499.3414062876218
 42
-0.2679491924310617
 10
-4553.038628850665
 20
519.3451828413854
 42
0.0
 97
        0
 92
        7
 72
     1
 73
     1
 93
        4
 10
-4835.117533617597
 20
327.9757204770175
 42
-0.2679491924311883
 10
-4835.117533617597
 20
307.9719439232394
 42
0.0
 10
-4572.375612852638
 20
307.9719439232394
 42
-0.2679491924311883
 10
-4572.375612852638
 20
327.9757204770175
 42
0.0
 97
        0
 92
        7
 72
     1
 73
     1
 93
        4
 10
-4871.791123966168
 20
135.9394655608375
 42
-0.2679491924310617
 10
-4871.791123966168
 20
115.9356890070739
 42
0.0
 10
-4592.000939579711
 20
115.9356890070739
 42
-0.2679491924310617
 10
-4592.000939579711
 20
135.9394655608375
 42
0.0
 97
        0
 92
        7
 72
     1
 73
     1
 93
        2
 10
-4574.677160912515
 20
145.9413538377229
 42
1.0
 10
-4574.677160912515
 20
105.9338007301885
 42
1.0
 97
        0
 92
        7
 72
     1
 73
     1
 93
        2
 10
-4555.051834185445
 20
337.9776087538957
 42
1.0
 10
-4555.051834185445
 20
297.970055646354
 42
1.0
 97
        0
 92
        7
 72
     1
 73
     1
 93
        2
 10
-4535.714850183469
 20
489.339518010729
 42
1.0
 10
-4535.714850183469
 20
529.3470711182708
 42
1.0
 97
        0
 92
        7
 72
     1
 73
     1
 93
        4
 10
-4518.391071516273
 20
519.3451828413854
 42
-0.2679491924310617
 10
-4518.391071516273
 20
499.3414062876218
 42
0.0
 10
-4452.352953530034
 20
499.3414062876218
 42
-0.2679491924310617
 10
-4452.352953530034
 20
519.3451828413854
 42
0.0
 97
        0
 92
        7
 72
     1
 73
     1
 93
        2
 10
-4435.029174862838
 20
489.339518010729
 42
1.0
 10
-4435.029174862838
 20
529.3470711182708
 42
1.0
 97
        0
 92
        7
 72
     1
 73
     1
 93
        4
 10
-4417.705396195645
 20
519.3451828413854
 42
-0.2679491924310617
 10
-4417.705396195645
 20
499.3414062876218
 42
0.0
 10
-4348.333315450438
 20
499.3414062876218
 42
-0.2679491924310617
 10
-4348.333315450438
 20
519.3451828413854
 42
0.0
 97
        0
 92
        7
 72
     1
 73
     1
 93
        2
 10
-4331.009536783245
 20
529.3470711182708
 42
1.0
 10
-4331.009536783245
 20
489.339518010729
 42
1.0
 97
        0
 92
        7
 72
     1
 73
     1
 93
        4
 10
-4313.685758116053
 20
519.3451828413854
 42
-0.2679491924310617
 10
-4313.685758116053
 20
499.3414062876218
 42
0.0
 10
-4070.947613904865
 20
499.3414062876218
 42
-0.2679491924310617
 10
-4070.947613904865
 20
519.3451828413854
 42
0.0
 97
        0
 92
        7
 72
     1
 73
     1
 93
        4
 10
-4537.728055518253
 20
327.9757204770175
 42
-0.2679491924311883
 10
-4537.728055518253
 20
307.9719439232394
 42
0.0
 10
-4328.996331448461
 20
307.9719439232394
 42
-0.2679491924311883
 10
-4328.996331448461
 20
327.9757204770175
 42
0.0
 97
        0
 92
        7
 72
     1
 73
     1
 93
        4
 10
-4294.348774114079
 20
327.9757204770175
 42
-0.2679491924311883
 10
-4294.348774114079
 20
307.9719439232394
 42
0.0
 10
-4033.607231004492
 20
307.9719439232394
 42
-0.2679491924311883
 10
-4033.607231004492
 20
327.9757204770175
 42
0.0
 97
        0
 92
        7
 72
     1
 73
     1
 93
        2
 10
-4311.672552781269
 20
337.9776087538957
 42
1.0
 10
-4311.672552781269
 20
297.970055646354
 42
1.0
 97
        0
 92
        7
 72
     1
 73
     1
 93
        2
 10
-4053.623835237669
 20
529.3470711182708
 42
1.0
 10
-4053.623835237669
 20
489.339518010729
 42
1.0
 97
        0
 92
        7
 72
     1
 73
     1
 93
        2
 10
-4016.283452337304
 20
297.970055646354
 42
1.0
 10
-4016.283452337304
 20
337.9776087538957
 42
1.0
 97
        0
 92
        7
 72
     1
 73
     1
 93
        2
 10
-3978.943069436938
 20
145.9413538377229
 42
1.0
 10
-3978.943069436938
 20
105.9338007301885
 42
1.0
 97
        0
 92
        7
 72
     1
 73
     1
 93
        4
 10
-4275.011790112099
 20
135.9394655608375
 42
-0.2679491924310617
 10
-4275.011790112099
 20
115.9356890070739
 42
0.0
 10
-3996.266848104134
 20
115.9356890070739
 42
-0.2679491924310617
 10
-3996.266848104134
 20
135.9394655608375
 42
0.0
 97
        0
 92
        7
 72
     1
 73
     1
 93
        2
 10
-4292.335568779296
 20
145.9413538377229
 42
1.0
 10
-4292.335568779296
 20
105.9338007301885
 42
1.0
 97
        0
 92
        7
 72
     1
 73
     1
 93
        4
 10
-4557.353382245319
 20
135.9394655608375
 42
-0.2679491924310617
 10
-4557.353382245319
 20
115.9356890070739
 42
0.0
 10
-4309.659347446488
 20
115.9356890070739
 42
-0.2679491924310617
 10
-4309.659347446488
 20
135.9394655608375
 42
0.0
 97
        0
 75
     0
 76
     1
 47
2.764541729509131
 98
       23
 10
-4892.144320289694
 20
122.8572553383164
 10
-4850.676212260435
 20
319.344466549981
 10
-4817.501702988074
 20
501.9945808724842
 10
-4740.094533726698
 20
510.2968390059795
 10
-4706.920024454337
 20
316.5770471721516
 10
-4712.449109333063
 20
133.9269691317786
 10
-4571.45749252752
 20
128.3920940939824
 10
-4549.341153012615
 20
322.1118859278176
 10
-4538.282983255164
 20
510.2968390059795
 10
-4477.463068629962
 20
507.5294196281502
 10
-4435.994941559913
 20
510.2968390059795
 10
-4377.939559853677
 20
513.0642946659463
 10
-4325.413263026172
 20
510.2968390059795
 10
-4278.416051077392
 20
513.0642946659463
 10
-4471.933983751236
 20
319.344466549981
 10
-4201.008881816016
 20
319.344466549981
 10
-4306.061475471028
 20
319.344466549981
 10
-4046.19454329326
 20
513.0642946659463
 10
-4015.78458598066
 20
316.5770471721516
 10
-3977.081010870368
 20
131.1595134718118
 10
-4024.078222819148
 20
125.6246747161458
 10
-4289.474220834849
 20
128.3920940939824
 10
-4350.294135460045
 20
122.8572553383164
  0
HATCH
  5
272
330
1F1
100
AcDbEntity
  8
0
 62
   250
100
AcDbHatch
 10
0.0
 20
0.0
 30
0.0
210
0.0
220
0.0
230
1.0
  2
SOLID
 70
     1
 71
     1
 91
       13
 92
        7
 72
     1
 73
     1
 93
        2
 10
-4796.430737934238
 20
509.3432945645
 42
1.0
 10
-4836.438291041778
 20
509.3432945644999
 42
1.0
 97
        1
330
20B
 92
        7
 72
     1
 73
     1
 93
        2
 10
-4872.445088838555
 20
317.9738322001249
 42
1.0
 10
-4832.437535731014
 20
317.9738322001249
 42
1.0
 97
        1
330
20A
 92
        7
 72
     1
 73
     1
 93
        2
 10
-4869.111126079591
 20
125.9375772839558
 42
1.0
 10
-4909.11867918713
 20
125.9375772839557
 42
1.0
 97
        1
330
209
 92
        7
 72
     1
 73
     1
 93
        2
 10
-4554.673384358745
 20
125.9375772839557
 42
1.0
 10
-4594.680937466286
 20
125.9375772839557
 42
1.0
 97
        1
330
20E
 92
        7
 72
     1
 73
     1
 93
        2
 10
-4575.055610739215
 20
317.9738322001249
 42
1.0
 10
-4535.048057631675
 20
317.9738322001249
 42
1.0
 97
        1
330
20D
 92
        7
 72
     1
 73
     1
 93
        2
 10
-4515.711073629699
 20
509.3432945644999
 42
1.0
 10
-4555.718626737239
 20
509.3432945644999
 42
1.0
 97
        1
330
20C
 92
        7
 72
     1
 73
     1
 93
        2
 10
-4415.025398309068
 20
509.3432945645
 42
1.0
 10
-4455.032951416608
 20
509.3432945644999
 42
1.0
 97
        1
330
20F
 92
        7
 72
     1
 73
     1
 93
        2
 10
-4311.005760229476
 20
509.3432945644999
 42
1.0
 10
-4351.013313337015
 20
509.3432945644999
 42
1.0
 97
        1
330
211
 92
        7
 72
     1
 73
     1
 93
        2
 10
-4291.668776227498
 20
317.9738322001249
 42
1.0
 10
-4331.676329335038
 20
317.9738322001249
 42
1.0
 97
        1
330
212
 92
        7
 72
     1
 73
     1
 93
        2
 10
-4272.331792225525
 20
125.9375772839557
 42
1.0
 10
-4312.339345333065
 20
125.9375772839557
 42
1.0
 97
        1
330
213
 92
        7
 72
     1
 73
     1
 93
        2
 10
-4033.620058683899
 20
509.3432945644999
 42
1.0
 10
-4073.627611791439
 20
509.3432945644999
 42
1.0
 97
        1
330
214
 92
        7
 72
     1
 73
     1
 93
        2
 10
-3996.279675783533
 20
317.9738322001249
 42
1.0
 10
-4036.287228891074
 20
317.9738322001249
 42
1.0
 97
        1
330
215
 92
        7
 72
     1
 73
     1
 93
        2
 10
-3958.939292883167
 20
125.9375772839558
 42
1.0
 10
-3998.946845990708
 20
125.9375772839557
 42
1.0
 97
        1
330
216
 75
     0
 76
     1
 47
2.676158162350435
 98
       13
 10
-4816.907001860879
 20
505.7247828214131
 10
-4849.200341256359
 20
326.4567071394158
 10
-4887.365195174584
 20
123.6780296570977
 10
-4570.30327766092
 20
126.6168820937346
 10
-4561.495996356408
 20
326.4567071394158
 10
-4529.202656960928
 20
508.6636352580426
 10
-4432.32261973369
 20
505.7247828214131
 10
-4326.635320242732
 20
508.6636352580426
 10
-4309.02075763371
 20
317.6402586758886
 10
-4294.341961806456
 20
123.6780296570977
 10
-4047.738237606497
 20
502.7859666668992
 10
-4015.444898211018
 20
314.7014062392518
 10
-3983.151558815536
 20
132.4945144027551
  0
HATCH
  5
273
330
1F1
100
AcDbEntity
  8
0
 62
   250
100
AcDbHatch
 10
0.0
 20
0.0
 30
0.0
210
0.0
220
0.0
230
1.0
  2
SOLID
 70
     1
 71
     0
 91
        4
 92
        7
 72
     1
 73
     1
 93
        4
 10
-4799.110735820812
 20
519.3451828413854
 42
-0.2679491924310617
 10
-4799.110735820812
 20
499.3414062876218
 42
0.0
 10
-4553.038628850665
 20
499.3414062876218
 42
-0.2679491924310617
 10
-4553.038628850665
 20
519.3451828413854
 42
0.0
 97
        0
 92
        7
 72
     1
 73
     1
 93
        4
 10
-4518.391071516273
 20
519.3451828413854
 42
-0.2679491924310617
 10
-4518.391071516273
 20
499.3414062876218
 42
0.0
 10
-4452.352953530034
 20
499.3414062876218
 42
-0.2679491924310617
 10
-4452.352953530034
 20
519.3451828413854
 42
0.0
 97
        0
 92
        7
 72
     1
 73
     1
 93
        4
 10
-4417.705396195645
 20
519.3451828413854
 42
-0.2679491924310617
 10
-4417.705396195645
 20
499.3414062876218
 42
0.0
 10
-4348.333315450438
 20
499.3414062876218
 42
-0.2679491924310617
 10
-4348.333315450438
 20
519.3451828413854
 42
0.0
 97
        0
 92
        7
 72
     1
 73
     1
 93
        4
 10
-4313.685758116053
 20
519.3451828413854
 42
-0.2679491924310617
 10
-4313.685758116053
 20
499.3414062876218
 42
0.0
 10
-4070.947613904865
 20
499.3414062876218
 42
-0.2679491924310617
 10
-4070.947613904865
 20
519.3451828413854
 42
0.0
 97
        0
 75
     0
 76
     1
 47
3.005531458579665
 98
        4
 10
-4642.38184256636
 20
508.758041357305
 10
-4483.088671294807
 20
508.758041357305
 10
-4374.889548306337
 20
505.7493821047646
 10
-4233.629551505664
 20
511.7667368919756
  0
HATCH
  5
274
330
1F1
100
AcDbEntity
  8
0
 62
   250
100
AcDbHatch
 10
0.0
 20
0.0
 30
0.0
210
0.0
220
0.0
230
1.0
  2
SOLID
 70
     1
 71
     0
 91
        3
 92
        7
 72
     1
 73
     1
 93
        4
 10
-4835.117533617597
 20
327.9757204770175
 42
-0.2679491924311883
 10
-4835.117533617597
 20
307.9719439232394
 42
0.0
 10
-4572.375612852638
 20
307.9719439232394
 42
-0.2679491924311883
 10
-4572.375612852638
 20
327.9757204770175
 42
0.0
 97
        0
 92
        7
 72
     1
 73
     1
 93
        4
 10
-4537.728055518253
 20
327.9757204770175
 42
-0.2679491924311883
 10
-4537.728055518253
 20
307.9719439232394
 42
0.0
 10
-4328.996331448461
 20
307.9719439232394
 42
-0.2679491924311883
 10
-4328.996331448461
 20
327.9757204770175
 42
0.0
 97
        0
 92
        7
 72
     1
 73
     1
 93
        4
 10
-4294.348774114079
 20
327.9757204770175
 42
-0.2679491924311883
 10
-4294.348774114079
 20
307.9719439232394
 42
0.0
 10
-4033.607231004492
 20
307.9719439232394
 42
-0.2679491924311883
 10
-4033.607231004492
 20
327.9757204770175
 42
0.0
 97
        0
 75
     0
 76
     1
 47
3.005531458579665
 98
        3
 10
-4684.459294093607
 20
322.2206960322255
 10
-4422.978045296678
 20
313.1947182746116
 10
-4110.40276725746
 20
316.203377527152
  0
HATCH
  5
275
330
1F1
100
AcDbEntity
  8
0
 62
   250
100
AcDbHatch
 10
0.0
 20
0.0
 30
0.0
210
0.0
220
0.0
230
1.0
  2
SOLID
 70
     1
 71
     0
 91
        3
 92
        7
 72
     1
 73
     1
 93
        4
 10
-4871.791123966168
 20
135.9394655608375
 42
-0.2679491924310617
 10
-4871.791123966168
 20
115.9356890070739
 42
0.0
 10
-4592.000939579711
 20
115.9356890070739
 42
-0.2679491924310617
 10
-4592.000939579711
 20
135.9394655608375
 42
0.0
 97
        0
 92
        7
 72
     1
 73
     1
 93
        4
 10
-4557.353382245319
 20
135.9394655608375
 42
-0.2679491924310617
 10
-4557.353382245319
 20
115.9356890070739
 42
0.0
 10
-4309.659347446488
 20
115.9356890070739
 42
-0.2679491924310617
 10
-4309.659347446488
 20
135.9394655608375
 42
0.0
 97
        0
 92
        7
 72
     1
 73
     1
 93
        4
 10
-4275.011790112099
 20
135.9394655608375
 42
-0.2679491924310617
 10
-4275.011790112099
 20
115.9356890070739
 42
0.0
 10
-3996.266848104134
 20
115.9356890070739
 42
-0.2679491924310617
 10
-3996.266848104134
 20
135.9394655608375
 42
0.0
 97
        0
 75
     0
 76
     1
 47
3.005531458579665
 98
        3
 10
-4705.498000816436
 20
129.6660322020725
 10
-4489.099735798698
 20
126.6573729495321
 10
-4158.491264247806
 20
123.6487136969917
  0
ARC
  5
276
102
{ACAD_REACTORS
330
1FA
330
1FB
102
}
330
1F1
100
AcDbEntity
  8
0
100
AcDbCircle
 10
-5309.779778733771
 20
1645.248111068016
 30
0.0
 40
492.8898355634428
100
AcDbArc
 50
24.67028999234082
 51
180.1183514774642
  0
ARC
  5
277
102
{ACAD_REACTORS
330
1FA
102
}
330
1F1
100
AcDbEntity
  8
0
100
AcDbCircle
 10
-5305.655233664944
 20
1640.878015030612
 30
0.0
 40
597.5874547885669
100
AcDbArc
 50
20.58403729462074
 51
179.805541578853
  0
CIRCLE
  5
278
102
{ACAD_REACTORS
330
1FA
330
1F9
102
}
330
1F1
100
AcDbEntity
  8
0
100
AcDbCircle
 10
-5838.201192305735
 20
1769.672794962003
 30
0.0
 40
25.08856154579916
  0
CIRCLE
  5
279
102
{ACAD_REACTORS
330
1FA
330
1F9
102
}
330
1F1
100
AcDbEntity
  8
0
100
AcDbCircle
 10
-5791.276290155258
 20
1893.721793716235
 30
0.0
 40
25.08856154579734
  0
CIRCLE
  5
27A
102
{ACAD_REACTORS
330
1FA
330
1F9
102
}
330
1F1
100
AcDbEntity
  8
0
100
AcDbCircle
 10
-5716.010605517862
 20
2002.903496739614
 30
0.0
 40
25.08856154579734
  0
CIRCLE
  5
27B
102
{ACAD_REACTORS
330
1FA
330
1F9
102
}
330
1F1
100
AcDbEntity
  8
0
100
AcDbCircle
 10
-5616.585565317844
 20
2090.713462149913
 30
0.0
 40
24.62395855420982
  0
CIRCLE
  5
27C
102
{ACAD_REACTORS
330
1FA
330
1F9
102
}
330
1F1
100
AcDbEntity
  8
0
100
AcDbCircle
 10
-5499.505611437449
 20
2152.505660031231
 30
0.0
 40
24.62395855420982
  0
CIRCLE
  5
27D
102
{ACAD_REACTORS
330
1FA
330
1F9
102
}
330
1F1
100
AcDbEntity
  8
0
100
AcDbCircle
 10
-5370.810582767331
 20
2184.098663459277
 30
0.0
 40
24.62395855420982
  0
CIRCLE
  5
27E
102
{ACAD_REACTORS
330
1FA
330
1F9
102
}
330
1F1
100
AcDbEntity
  8
0
100
AcDbCircle
 10
-5238.398730164504
 20
2184.098663459277
 30
0.0
 40
24.62395855420982
  0
CIRCLE
  5
27F
102
{ACAD_REACTORS
330
1FA
330
1F9
102
}
330
1F1
100
AcDbEntity
  8
0
100
AcDbCircle
 10
-5109.703701494387
 20
2152.505660031231
 30
0.0
 40
24.62395855420982
  0
CIRCLE
  5
280
102
{ACAD_REACTORS
330
1FA
330
1F9
102
}
330
1F1
100
AcDbEntity
  8
0
100
AcDbCircle
 10
-4992.159144622402
 20
2090.713462149913
 30
0.0
 40
24.62395855420982
  0
CIRCLE
  5
281
102
{ACAD_REACTORS
330
1FA
330
1F9
102
}
330
1F1
100
AcDbEntity
  8
0
100
AcDbCircle
 10
-4893.198707413974
 20
2002.903496739614
 30
0.0
 40
24.62395855420982
  0
CIRCLE
  5
282
102
{ACAD_REACTORS
330
1FA
330
1F9
102
}
330
1F1
100
AcDbEntity
  8
0
100
AcDbCircle
 10
-4817.933022776577
 20
1893.721793716235
 30
0.0
 40
24.62395855420982
  0
LINE
  5
283
330
1F1
100
AcDbEntity
  8
0
100
AcDbLine
 10
-5905.56862608612
 20
1615.88920474609
 30
0.0
 11
-6071.431894083347
 21
1615.88920474609
 31
0.0
  0
LINE
  5
284
330
1F1
100
AcDbEntity
  8
0
100
AcDbLine
 10
-6071.431894083347
 20
1615.88920474609
 30
0.0
 11
-6071.431894083347
 21
1595.91127610777
 31
0.0
  0
LINE
  5
285
330
1F1
100
AcDbEntity
  8
0
100
AcDbLine
 10
-5905.629322330739
 20
1595.91127610777
 30
0.0
 11
-6920.261559716213
 21
1595.91127610777
 31
0.0
  0
LINE
  5
286
330
1F1
100
AcDbEntity
  8
0
100
AcDbLine
 10
-6920.261559716213
 20
1595.91127610777
 30
0.0
 11
-6920.261559716213
 21
1575.93334746945
 31
0.0
  0
LINE
  5
287
330
1F1
100
AcDbEntity
  8
0
100
AcDbLine
 10
-6920.261559716213
 20
1575.93334746945
 30
0.0
 11
-5905.629322330739
 21
1575.93334746945
 31
0.0
  0
LINE
  5
288
330
1F1
100
AcDbEntity
  8
0
100
AcDbLine
 10
-5905.56862608612
 20
925.4891592450293
 30
0.0
 11
-6071.431894083347
 21
925.4891592450293
 31
0.0
  0
LINE
  5
289
330
1F1
100
AcDbEntity
  8
0
100
AcDbLine
 10
-6071.431894083347
 20
925.4891592450293
 30
0.0
 11
-6071.431894083347
 21
945.4670878833494
 31
0.0
  0
LINE
  5
28A
330
1F1
100
AcDbEntity
  8
0
100
AcDbLine
 10
-6071.431894083347
 20
945.4670878833494
 30
0.0
 11
-5905.629322330739
 21
945.4670878833494
 31
0.0
  0
LINE
  5
28B
330
1F1
100
AcDbEntity
  8
0
100
AcDbLine
 10
-5905.629322330739
 20
945.4670878833494
 30
0.0
 11
-6920.261559716215
 21
945.4670878833494
 31
0.0
  0
LINE
  5
28C
330
1F1
100
AcDbEntity
  8
0
100
AcDbLine
 10
-6920.261559716215
 20
945.4670878833494
 30
0.0
 11
-6920.261559716215
 21
965.4450165216731
 31
0.0
  0
LINE
  5
28D
330
1F1
100
AcDbEntity
  8
0
100
AcDbLine
 10
-6920.261559716215
 20
965.4450165216731
 30
0.0
 11
-5905.629322330739
 21
965.4450165216731
 31
0.0
  0
LINE
  5
28E
330
1F1
100
AcDbEntity
  8
0
100
AcDbLine
 10
-6920.261559716213
 20
965.4450165216731
 30
0.0
 11
-6920.261559716213
 21
985.8875481515823
 31
0.0
  0
LINE
  5
28F
102
{ACAD_REACTORS
330
1FB
102
}
330
1F1
100
AcDbEntity
  8
0
100
AcDbLine
 10
-6920.261559716213
 20
985.8875481515823
 30
0.0
 11
-5905.629322330739
 21
985.8875481515823
 31
0.0
  0
LINE
  5
290
330
1F1
100
AcDbEntity
  8
0
100
AcDbLine
 10
-6920.261559716213
 20
1575.93334746945
 30
0.0
 11
-6920.261559716213
 21
1555.955418831123
 31
0.0
  0
LINE
  5
291
102
{ACAD_REACTORS
330
1FB
102
}
330
1F1
100
AcDbEntity
  8
0
100
AcDbLine
 10
-6920.261559716213
 20
1555.955418831123
 30
0.0
 11
-5905.629322330739
 21
1555.955418831123
 31
0.0
  0
LWPOLYLINE
  5
292
102
{ACAD_REACTORS
330
1FA
330
1F7
330
1FB
102
}
330
1F1
100
AcDbEntity
  8
0
100
AcDbPolyline
 90
        8
 70
     1
 43
0.0
 10
-5900.629322330739
 20
1533.942231233937
 10
-5800.629322330738
 20
1533.942231233937
 42
0.4142135623730951
 10
-5795.629322330738
 20
1538.942231233937
 10
-5795.629322330738
 20
1638.942231233937
 42
0.4142135623730951
 10
-5800.629322330738
 20
1643.942231233937
 10
-5900.629322330739
 20
1643.942231233937
 42
0.4142135623730951
 10
-5905.629322330739
 20
1638.942231233937
 10
-5905.629322330739
 20
1538.942231233937
 42
0.4142135623730951
  0
LWPOLYLINE
  5
293
102
{ACAD_REACTORS
330
1F7
330
1F4
330
1FB
102
}
330
1F1
100
AcDbEntity
  8
0
100
AcDbPolyline
 90
        8
 70
     1
 43
0.0
 10
-5900.629322330739
 20
897.668434252977
 10
-5800.629322330738
 20
897.668434252977
 42
0.4142135623730951
 10
-5795.629322330738
 20
902.6684342529771
 10
-5795.629322330738
 20
1002.668434252977
 42
0.4142135623730951
 10
-5800.629322330738
 20
1007.668434252977
 10
-5900.629322330739
 20
1007.668434252977
 42
0.4142135623730951
 10
-5905.629322330739
 20
1002.668434252977
 10
-5905.629322330739
 20
902.6684342529771
 42
0.4142135623730951
  0
LINE
  5
294
102
{ACAD_REACTORS
330
1FB
102
}
330
1F1
100
AcDbEntity
  8
0
100
AcDbLine
 10
-5902.316405144999
 20
1534.2354540374
 30
0.0
 11
-5902.316405144999
 21
1007.37521144951
 31
0.0
  0
LINE
  5
295
102
{ACAD_REACTORS
330
1FB
102
}
330
1F1
100
AcDbEntity
  8
0
100
AcDbLine
 10
-5802.316405144999
 20
1534.2354540374
 30
0.0
 11
-5802.316405144999
 21
1007.37521144951
 31
0.0
  0
LWPOLYLINE
  5
296
102
{ACAD_REACTORS
330
1FB
102
}
330
1F1
100
AcDbEntity
  8
0
100
AcDbPolyline
 90
        4
 70
     1
 43
0.0
 10
-5902.316405144999
 20
1260.932519172194
 10
-5922.294333783322
 20
1260.932519172194
 10
-5922.294333783322
 20
1280.910447810514
 10
-5902.316405144999
 20
1280.910447810514
  0
LINE
  5
297
102
{ACAD_REACTORS
330
1FB
102
}
330
1F1
100
AcDbEntity
  8
0
100
AcDbLine
 10
-5922.294333783322
 20
1278.689181995559
 30
0.0
 11
-6948.137739211545
 21
1278.689181995559
 31
0.0
  0
LINE
  5
298
102
{ACAD_REACTORS
330
1FB
102
}
330
1F1
100
AcDbEntity
  8
0
100
AcDbLine
 10
-5922.294333783322
 20
1262.689181995559
 30
0.0
 11
-6948.137739211545
 21
1262.689181995559
 31
0.0
  0
ARC
  5
299
330
1F1
100
AcDbEntity
  8
0
100
AcDbCircle
 10
-6948.137739211545
 20
1270.689181995559
 30
0.0
 40
8.0
100
AcDbArc
 50
90.0
 51
270.0
  0
LINE
  5
29A
102
{ACAD_REACTORS
330
1FB
102
}
330
1F1
100
AcDbEntity
  8
0
100
AcDbLine
 10
-5950.457993178645
 20
985.8875481515788
 30
0.0
 11
-5950.457993178645
 21
1262.689181995563
 31
0.0
  0
LINE
  5
29B
102
{ACAD_REACTORS
330
1FB
102
}
330
1F1
100
AcDbEntity
  8
0
100
AcDbLine
 10
-6070.425541845716
 20
985.8875481515788
 30
0.0
 11
-6070.425541845718
 21
1262.689181995563
 31
0.0
  0
LINE
  5
29C
102
{ACAD_REACTORS
330
1FB
102
}
330
1F1
100
AcDbEntity
  8
0
100
AcDbLine
 10
-6187.712600736618
 20
985.8875481515788
 30
0.0
 11
-6187.712600736622
 21
1262.689181995563
 31
0.0
  0
LINE
  5
29D
102
{ACAD_REACTORS
330
1FB
102
}
330
1F1
100
AcDbEntity
  8
0
100
AcDbLine
 10
-6300.469482868749
 20
985.8875481515788
 30
0.0
 11
-6300.469482868749
 21
1262.689181995563
 31
0.0
  0
LINE
  5
29E
102
{ACAD_REACTORS
330
1FB
102
}
330
1F1
100
AcDbEntity
  8
0
100
AcDbLine
 10
-6406.91794485318
 20
985.8875481515788
 30
0.0
 11
-6406.917944853181
 21
1262.689181995563
 31
0.0
  0
LINE
  5
29F
102
{ACAD_REACTORS
330
1FB
102
}
330
1F1
100
AcDbEntity
  8
0
100
AcDbLine
 10
-6505.379230855201
 20
985.8875481515788
 30
0.0
 11
-6505.379230855202
 21
1262.689181995563
 31
0.0
  0
LINE
  5
2A0
102
{ACAD_REACTORS
330
1FB
102
}
330
1F1
100
AcDbEntity
  8
0
100
AcDbLine
 10
-6594.300547576628
 20
985.8875481515788
 30
0.0
 11
-6594.300547576628
 21
1262.689181995563
 31
0.0
  0
LINE
  5
2A1
102
{ACAD_REACTORS
330
1FB
102
}
330
1F1
100
AcDbEntity
  8
0
100
AcDbLine
 10
-6672.279552733745
 20
985.8875481515788
 30
0.0
 11
-6672.279552733745
 21
1262.689181995563
 31
0.0
  0
LINE
  5
2A2
102
{ACAD_REACTORS
330
1FB
102
}
330
1F1
100
AcDbEntity
  8
0
100
AcDbLine
 10
-6738.086470832818
 20
985.8875481515788
 30
0.0
 11
-6738.086470832818
 21
1262.689181995563
 31
0.0
  0
LINE
  5
2A3
102
{ACAD_REACTORS
330
1FB
102
}
330
1F1
100
AcDbEntity
  8
0
100
AcDbLine
 10
-6790.683487464305
 20
985.8875481515788
 30
0.0
 11
-6790.683487464305
 21
1262.689181995563
 31
0.0
  0
LINE
  5
2A4
102
{ACAD_REACTORS
330
1FB
102
}
330
1F1
100
AcDbEntity
  8
0
100
AcDbLine
 10
-6829.24111625596
 20
985.8875481515788
 30
0.0
 11
-6829.24111625596
 21
1262.689181995563
 31
0.0
  0
LINE
  5
2A5
102
{ACAD_REACTORS
330
1FB
102
}
330
1F1
100
AcDbEntity
  8
0
100
AcDbLine
 10
-6853.151280368542
 20
985.8875481515788
 30
0.0
 11
-6853.151280368542
 21
1262.689181995563
 31
0.0
  0
LINE
  5
2A6
330
1F1
100
AcDbEntity
  8
0
100
AcDbLine
 10
-6862.036902230757
 20
985.8875481515788
 30
0.0
 11
-6862.036902230759
 21
1262.689181995563
 31
0.0
  0
LINE
  5
2A7
102
{ACAD_REACTORS
330
1F4
330
1FB
102
}
330
1F1
100
AcDbEntity
  8
0
100
AcDbLine
 10
-5795.629322330738
 20
962.1927955805514
 30
0.0
 11
-5016.318500185025
 21
962.1927955805514
 31
0.0
  0
LINE
  5
2A8
102
{ACAD_REACTORS
330
1F4
102
}
330
1F1
100
AcDbEntity
  8
0
100
AcDbLine
 10
-5016.318500185025
 20
942.2148669422277
 30
0.0
 11
-5795.922320071148
 21
942.2148669422277
 31
0.0
  0
LWPOLYLINE
  5
2A9
330
1F1
100
AcDbEntity
  8
0
 62
     7
100
AcDbPolyline
 90
       27
 70
     1
 43
0.0
 10
-1686.508859467596
 20
3005.981355579985
 10
-1250.246650365648
 20
2836.865866641637
 10
-887.3917139347396
 20
2541.378363991119
 10
0.0
 20
2541.378363991119
 10
0.0
 20
0.0
 10
-887.3917139347396
 20
0.0
 10
-1252.569665323592
 20
-296.8813116252858
 10
-3183.924301358524
 20
-1414.716109388107
 10
-3545.850031806252
 20
-1565.247478662902
 10
-3934.258132774548
 20
-1616.35380773768
 10
-4934.083770673795
 20
-1616.35380773768
 10
-5297.867913087879
 20
-1571.751920545146
 10
-5639.815714897288
 20
-1439.804670933903
 10
-7626.458106931294
 20
-379.1160411365199
 10
-7954.003216001447
 20
-142.168515426194
 10
-8206.282640434203
 20
173.296915862651
 10
-8365.641466549185
 20
544.5147061421594
 10
-8420.000016565083
 20
945.4670878833494
 10
-8420.000016565083
 20
1596.375879099359
 10
-8356.814009708998
 20
2027.062852302238
 10
-8172.831225039805
 20
2421.510792161192
 10
-7883.84816427153
 20
2746.732886273399
 10
-7513.094976983609
 20
2974.852955143535
 10
-6132.759488973078
 20
3569.544784377285
 10
-5719.727429450573
 20
3698.704416038992
 10
-5289.50505923928
 20
3740.518685281989
 10
-4859.747292019574
 20
3693.129180139927
  0
LINE
  5
2AA
330
1F1
100
AcDbEntity
  8
0
100
AcDbLine
 10
-6862.036902230759
 20
1278.689181995559
 30
0.0
 11
-6862.036902230757
 21
1555.955418831115
 31
0.0
  0
LINE
  5
2AB
102
{ACAD_REACTORS
330
1FB
102
}
330
1F1
100
AcDbEntity
  8
0
100
AcDbLine
 10
-6853.151280368542
 20
1278.689181995559
 30
0.0
 11
-6853.151280368542
 21
1555.955418831115
 31
0.0
  0
LINE
  5
2AC
102
{ACAD_REACTORS
330
1FB
102
}
330
1F1
100
AcDbEntity
  8
0
100
AcDbLine
 10
-6829.24111625596
 20
1278.689181995559
 30
0.0
 11
-6829.24111625596
 21
1555.955418831115
 31
0.0
  0
LINE
  5
2AD
102
{ACAD_REACTORS
330
1FB
102
}
330
1F1
100
AcDbEntity
  8
0
100
AcDbLine
 10
-6790.683487464305
 20
1278.689181995559
 30
0.0
 11
-6790.683487464305
 21
1555.955418831115
 31
0.0
  0
LINE
  5
2AE
102
{ACAD_REACTORS
330
1FB
102
}
330
1F1
100
AcDbEntity
  8
0
100
AcDbLine
 10
-6738.086470832818
 20
1278.689181995559
 30
0.0
 11
-6738.086470832818
 21
1555.955418831115
 31
0.0
  0
LINE
  5
2AF
102
{ACAD_REACTORS
330
1FB
102
}
330
1F1
100
AcDbEntity
  8
0
100
AcDbLine
 10
-6672.279552733745
 20
1278.689181995559
 30
0.0
 11
-6672.279552733745
 21
1555.955418831115
 31
0.0
  0
LINE
  5
2B0
102
{ACAD_REACTORS
330
1FB
102
}
330
1F1
100
AcDbEntity
  8
0
100
AcDbLine
 10
-6594.300547576628
 20
1278.689181995559
 30
0.0
 11
-6594.300547576628
 21
1555.955418831115
 31
0.0
  0
LINE
  5
2B1
102
{ACAD_REACTORS
330
1FB
102
}
330
1F1
100
AcDbEntity
  8
0
100
AcDbLine
 10
-6406.917944853181
 20
1278.689181995559
 30
0.0
 11
-6406.91794485318
 21
1555.955418831115
 31
0.0
  0
LINE
  5
2B2
102
{ACAD_REACTORS
330
1FB
102
}
330
1F1
100
AcDbEntity
  8
0
100
AcDbLine
 10
-6505.379230855202
 20
1278.689181995559
 30
0.0
 11
-6505.379230855201
 21
1555.955418831115
 31
0.0
  0
LINE
  5
2B3
102
{ACAD_REACTORS
330
1FB
102
}
330
1F1
100
AcDbEntity
  8
0
100
AcDbLine
 10
-6300.469482868749
 20
1278.689181995559
 30
0.0
 11
-6300.469482868749
 21
1555.955418831115
 31
0.0
  0
LINE
  5
2B4
102
{ACAD_REACTORS
330
1FB
102
}
330
1F1
100
AcDbEntity
  8
0
100
AcDbLine
 10
-6187.712600736622
 20
1278.689181995559
 30
0.0
 11
-6187.712600736618
 21
1555.955418831115
 31
0.0
  0
LINE
  5
2B5
102
{ACAD_REACTORS
330
1FB
102
}
330
1F1
100
AcDbEntity
  8
0
100
AcDbLine
 10
-6070.425541845718
 20
1278.689181995559
 30
0.0
 11
-6070.425541845716
 21
1555.955418831115
 31
0.0
  0
LINE
  5
2B6
102
{ACAD_REACTORS
330
1FB
102
}
330
1F1
100
AcDbEntity
  8
0
100
AcDbLine
 10
-5950.457993178645
 20
1278.689181995559
 30
0.0
 11
-5950.457993178645
 21
1555.955418831115
 31
0.0
  0
ENDBLK
  5
1F3
330
1F1
100
AcDbEntity
  8
0
100
AcDbBlockEnd
  0
ENDSEC
  0
SECTION
  2
ENTITIES
  0
INSERT
  5
2B7
330
1F
100
AcDbEntity
  8
0
100
AcDbBlockReference
  2
ADKN
 10
8420.000067237438
 20
1616.353827784107
 30
0.0
  0
MTEXT
  5
2B8
330
1F
100
AcDbEntity
  8
0
100
AcDbMText
 10
3506.856381543155
 20
4748.937324067577
 30
0.0
 40
250.0
 41
10002.21
 71
     1
 72
     5
  1
{\Fisocp.shx;Hoogte: 315cm\PVrije Valhoogte: 90cm}
1001
ACAD
1000
MTEXTBEGIN
1070
    73
1070
     1
1070
    44
1040
1.0
1070
    74
1070
     0
1000
MTEXTEND
  0
ENDSEC
  0
SECTION
  2
OBJECTS
  0
DICTIONARY
  5
C
330
0
100
AcDbDictionary
  3
ACAD_GROUP
350
D
  3
ACAD_LAYOUT
350
1A
  3
ACAD_MLINESTYLE
350
17
  3
ACAD_PLOTSETTINGS
350
19
  3
ACAD_PLOTSTYLENAME
350
E
  3
ACDBHEADERROUNDTRIPXREC
350
2BB
  3
ACDBVARIABLEDICTIONARY
350
1E8
  0
DICTIONARY
  5
1EA
330
1F
100
AcDbDictionary
280
     1
  3
ACAD_LAYOUTSELFREF
360
2DC
  3
ACAD_SORTENTS
360
1EB
  0
DICTIONARY
  5
2DD
330
50
100
AcDbDictionary
280
     1
  3
ACAD_LAYOUTSELFREF
360
2DE
  0
DICTIONARY
  5
D
102
{ACAD_REACTORS
330
C
102
}
330
C
100
AcDbDictionary
  0
DICTIONARY
  5
1A
102
{ACAD_REACTORS
330
C
102
}
330
C
100
AcDbDictionary
  0
DICTIONARY
  5
17
102
{ACAD_REACTORS
330
C
102
}
330
C
100
AcDbDictionary
  3
STANDARD
350
18
  0
DICTIONARY
  5
19
102
{ACAD_REACTORS
330
C
102
}
330
C
100
AcDbDictionary
  0
ACDBDICTIONARYWDFLT
  5
E
102
{ACAD_REACTORS
330
C
102
}
330
C
100
AcDbDictionary
281
     1
  3
Normal
350
F
100
AcDbDictionaryWithDefault
340
F
  0
DICTIONARY
  5
2BB
102
{ACAD_REACTORS
330
C
102
}
330
C
100
AcDbDictionary
  3
CEPSNTYPE
350
2C5
  3
DIMSTYLEDATA
350
2C9
  3
FINGERPRINTGUID
350
2C6
  3
HYPERLINKBASE
350
2BE
  3
INSUNITS
350
2C4
  3
LAYOUTDICT
350
2C0
  3
LWETCUNION
350
2C3
  3
PLOTSETDICT
350
2C1
  3
PLOTSTYLNAMDICT
350
2C2
  3
PSVPSCALE
350
2C8
  3
PUCSBASE
350
2CC
  3
PUCSORGBACK
350
2D2
  3
PUCSORGBOTTOM
350
2CE
  3
PUCSORGFRONT
350
2D1
  3
PUCSORGLEFT
350
2CF
  3
PUCSORGRIGHT
350
2D0
  3
PUCSORGTOP
350
2CD
  3
PUCSORTHOREF
350
2CA
  3
PUCSORTHOVIEW
350
2CB
  3
STYLESHEET
350
2BF
  3
TSTACKALIGN
350
2BC
  3
TSTACKSIZE
350
2BD
  3
UCSBASE
350
2D5
  3
UCSORGBACK
350
2DB
  3
UCSORGBOTTOM
350
2D7
  3
UCSORGFRONT
350
2DA
  3
UCSORGLEFT
350
2D8
  3
UCSORGRIGHT
350
2D9
  3
UCSORGTOP
350
2D6
  3
UCSORTHOREF
350
2D3
  3
UCSORTHOVIEW
350
2D4
  3
VERSIONGUID
350
2C7
  0
DICTIONARY
  5
1E8
102
{ACAD_REACTORS
330
C
102
}
330
C
100
AcDbDictionary
  3
SORTENTS
350
1E9
  0
XRECORD
  5
2DC
102
{ACAD_REACTORS
330
1EA
102
}
330
1EA
100
AcDbXrecord
340
1F
  0
SORTENTSTABLE
  5
1EB
102
{ACAD_REACTORS
330
1EA
102
}
330
1EA
100
AcDbSortentsTable
330
1F
331
161
  5
162
331
1D4
  5
1D5
331
1B6
  5
1B7
331
17A
  5
17B
331
198
  5
199
331
155
  5
156
331
137
  5
138
331
180
  5
181
331
162
  5
163
331
1D5
  5
1D6
331
1B7
  5
1B8
331
17B
  5
17C
331
199
  5
19A
331
156
  5
157
331
138
  5
139
331
181
  5
182
331
163
  5
164
331
1D6
  5
1D7
331
1B8
  5
1B9
331
17C
  5
17D
331
19A
  5
19B
331
157
  5
158
331
139
  5
13A
331
1A0
  5
1A1
331
164
  5
165
331
182
  5
183
331
1D7
  5
1D8
331
1B9
  5
1BA
331
17D
  5
17E
331
19B
  5
19C
331
158
  5
159
331
13A
  5
13B
331
183
  5
184
331
165
  5
166
331
1A1
  5
1A2
331
1BA
  5
1BB
331
17E
  5
17F
331
19C
  5
19D
331
159
  5
15A
331
13B
  5
13C
331
1A2
  5
1A3
331
166
  5
167
331
184
  5
185
331
1C0
  5
1C1
331
1BB
  5
1BC
331
17F
  5
180
331
19D
  5
19E
331
15A
  5
15B
331
13C
  5
13D
331
1C1
  5
1C2
331
185
  5
186
331
167
  5
168
331
1A3
  5
1A4
331
1BC
  5
1BD
331
19E
  5
19F
331
15B
  5
15C
331
13D
  5
13E
331
1C2
  5
1C3
331
186
  5
187
331
168
  5
169
331
1A4
  5
1A5
331
1D8
  5
1D9
331
1BD
  5
1BE
331
19F
  5
1A0
331
15C
  5
15D
331
13E
  5
13F
331
1D9
  5
1DA
331
1C3
  5
1C4
331
187
  5
188
331
169
  5
16A
331
1A5
  5
1A6
331
1BE
  5
1BF
331
15D
  5
15E
331
13F
  5
140
331
1C4
  5
1C5
331
188
  5
189
331
16A
  5
16B
331
1A6
  5
1A7
331
1DA
  5
1DB
331
1BF
  5
1C0
331
15E
  5
15F
331
140
  5
141
331
1DB
  5
1DC
331
1C5
  5
1C6
331
189
  5
18A
331
16B
  5
16C
331
1A7
  5
1A8
331
128
  5
129
331
15F
  5
160
331
141
  5
142
331
1C6
  5
1C7
331
18A
  5
18B
331
16C
  5
16D
331
1A8
  5
1A9
331
1DC
  5
1DD
331
129
  5
12A
331
142
  5
143
331
124
  5
125
331
1DD
  5
1DE
331
1C7
  5
1C8
331
18B
  5
18C
331
16D
  5
16E
331
1A9
  5
1AA
331
148
  5
149
331
12A
  5
12B
331
143
  5
144
331
125
  5
126
331
1C8
  5
1C9
331
18C
  5
18D
331
16E
  5
16F
331
1AA
  5
1AB
331
1DE
  5
1DF
331
149
  5
14A
331
12B
  5
12C
331
144
  5
145
331
126
  5
127
331
1DF
  5
1E0
331
1C9
  5
1CA
331
18D
  5
18E
331
16F
  5
170
331
1AB
  5
1AC
331
14A
  5
14B
331
12C
  5
12D
331
145
  5
146
331
127
  5
128
331
1CA
  5
1CB
331
18E
  5
18F
331
170
  5
171
331
1AC
  5
1AD
331
1E0
  5
1E1
331
14B
  5
14C
331
12D
  5
12E
331
146
  5
147
331
1E1
  5
1E2
331
1CB
  5
1CC
331
18F
  5
190
331
171
  5
172
331
1AD
  5
1AE
331
14C
  5
14D
331
12E
  5
12F
331
147
  5
148
331
1CC
  5
1CD
331
1AE
  5
1AF
331
172
  5
173
331
190
  5
191
331
1E2
  5
1E3
331
14D
  5
14E
331
12F
  5
130
331
1E3
  5
1E4
331
1CD
  5
1CE
331
191
  5
192
331
173
  5
174
331
1AF
  5
1B0
331
14E
  5
14F
331
130
  5
131
331
1E4
  5
1E5
331
1CE
  5
1CF
331
1B0
  5
1B1
331
174
  5
175
331
192
  5
193
331
131
  5
132
331
14F
  5
150
331
1E5
  5
1E6
331
1B1
  5
1B2
331
175
  5
176
331
193
  5
194
331
1CF
  5
1D0
331
150
  5
151
331
132
  5
133
331
1E6
  5
124
331
1D0
  5
1D1
331
1B2
  5
1B3
331
176
  5
177
331
194
  5
195
331
133
  5
134
331
151
  5
152
331
1B3
  5
1B4
331
177
  5
178
331
195
  5
196
331
1D1
  5
1D2
331
152
  5
153
331
134
  5
135
331
1D2
  5
1D3
331
1B4
  5
1B5
331
178
  5
179
331
196
  5
197
331
153
  5
154
331
135
  5
136
331
160
  5
161
331
1D3
  5
1D4
331
1B5
  5
1B6
331
179
  5
17A
331
197
  5
198
331
154
  5
155
331
136
  5
137
  0
XRECORD
  5
2DE
102
{ACAD_REACTORS
330
2DD
102
}
330
2DD
100
AcDbXrecord
340
50
  0
MLINESTYLE
  5
18
102
{ACAD_REACTORS
330
17
102
}
330
17
100
AcDbMlineStyle
  2
STANDARD
 70
     0
  3

 62
   256
 51
90.0
 52
90.0
 71
     2
 49
0.5
 62
   256
  6
BYLAYER
 49
-0.5
 62
   256
  6
BYLAYER
  0
ACDBPLACEHOLDER
  5
F
102
{ACAD_REACTORS
330
E
102
}
330
E
100
AcDbPlaceHolder
280
     0
  0
XRECORD
  5
2C5
102
{ACAD_REACTORS
330
2BB
102
}
330
2BB
100
AcDbXrecord
 90
        0
  0
XRECORD
  5
2C9
102
{ACAD_REACTORS
330
2BB
102
}
330
2BB
100
AcDbXrecord
1000
DSTYLE
1002
{
1070
   278
 70
    44
1002
}
  0
XRECORD
  5
2C6
102
{ACAD_REACTORS
330
2BB
102
}
330
2BB
100
AcDbXrecord
  1
{FDEAD578-A652-11D2-9A35-0060089B3A3F}
  0
XRECORD
  5
2BE
102
{ACAD_REACTORS
330
2BB
102
}
330
2BB
100
AcDbXrecord
  1

  0
XRECORD
  5
2C4
102
{ACAD_REACTORS
330
2BB
102
}
330
2BB
100
AcDbXrecord
 90
        4
  0
XRECORD
  5
2C0
102
{ACAD_REACTORS
330
2BB
102
}
330
2BB
100
AcDbXrecord
340
1A
  0
XRECORD
  5
2C3
102
{ACAD_REACTORS
330
2BB
102
}
330
2BB
100
AcDbXrecord
 90
    10781
  0
XRECORD
  5
2C1
102
{ACAD_REACTORS
330
2BB
102
}
330
2BB
100
AcDbXrecord
340
19
  0
XRECORD
  5
2C2
102
{ACAD_REACTORS
330
2BB
102
}
330
2BB
100
AcDbXrecord
340
E
  0
XRECORD
  5
2C8
102
{ACAD_REACTORS
330
2BB
102
}
330
2BB
100
AcDbXrecord
 40
0.0
  0
XRECORD
  5
2CC
102
{ACAD_REACTORS
330
2BB
102
}
330
2BB
100
AcDbXrecord
340
0
  0
XRECORD
  5
2D2
102
{ACAD_REACTORS
330
2BB
102
}
330
2BB
100
AcDbXrecord
 10
0.0
 20
0.0
 30
0.0
  0
XRECORD
  5
2CE
102
{ACAD_REACTORS
330
2BB
102
}
330
2BB
100
AcDbXrecord
 10
0.0
 20
0.0
 30
0.0
  0
XRECORD
  5
2D1
102
{ACAD_REACTORS
330
2BB
102
}
330
2BB
100
AcDbXrecord
 10
0.0
 20
0.0
 30
0.0
  0
XRECORD
  5
2CF
102
{ACAD_REACTORS
330
2BB
102
}
330
2BB
100
AcDbXrecord
 10
0.0
 20
0.0
 30
0.0
  0
XRECORD
  5
2D0
102
{ACAD_REACTORS
330
2BB
102
}
330
2BB
100
AcDbXrecord
 10
0.0
 20
0.0
 30
0.0
  0
XRECORD
  5
2CD
102
{ACAD_REACTORS
330
2BB
102
}
330
2BB
100
AcDbXrecord
 10
0.0
 20
0.0
 30
0.0
  0
XRECORD
  5
2CA
102
{ACAD_REACTORS
330
2BB
102
}
330
2BB
100
AcDbXrecord
340
0
  0
XRECORD
  5
2CB
102
{ACAD_REACTORS
330
2BB
102
}
330
2BB
100
AcDbXrecord
 70
     0
  0
XRECORD
  5
2BF
102
{ACAD_REACTORS
330
2BB
102
}
330
2BB
100
AcDbXrecord
  1

  0
XRECORD
  5
2BC
102
{ACAD_REACTORS
330
2BB
102
}
330
2BB
100
AcDbXrecord
 90
        1
  0
XRECORD
  5
2BD
102
{ACAD_REACTORS
330
2BB
102
}
330
2BB
100
AcDbXrecord
 90
       70
  0
XRECORD
  5
2D5
102
{ACAD_REACTORS
330
2BB
102
}
330
2BB
100
AcDbXrecord
340
0
  0
XRECORD
  5
2DB
102
{ACAD_REACTORS
330
2BB
102
}
330
2BB
100
AcDbXrecord
 10
0.0
 20
0.0
 30
0.0
  0
XRECORD
  5
2D7
102
{ACAD_REACTORS
330
2BB
102
}
330
2BB
100
AcDbXrecord
 10
0.0
 20
0.0
 30
0.0
  0
XRECORD
  5
2DA
102
{ACAD_REACTORS
330
2BB
102
}
330
2BB
100
AcDbXrecord
 10
0.0
 20
0.0
 30
0.0
  0
XRECORD
  5
2D8
102
{ACAD_REACTORS
330
2BB
102
}
330
2BB
100
AcDbXrecord
 10
0.0
 20
0.0
 30
0.0
  0
XRECORD
  5
2D9
102
{ACAD_REACTORS
330
2BB
102
}
330
2BB
100
AcDbXrecord
 10
0.0
 20
0.0
 30
0.0
  0
XRECORD
  5
2D6
102
{ACAD_REACTORS
330
2BB
102
}
330
2BB
100
AcDbXrecord
 10
0.0
 20
0.0
 30
0.0
  0
XRECORD
  5
2D3
102
{ACAD_REACTORS
330
2BB
102
}
330
2BB
100
AcDbXrecord
340
0
  0
XRECORD
  5
2D4
102
{ACAD_REACTORS
330
2BB
102
}
330
2BB
100
AcDbXrecord
 70
     1
  0
XRECORD
  5
2C7
102
{ACAD_REACTORS
330
2BB
102
}
330
2BB
100
AcDbXrecord
  1
{16C8BF1A-9B65-4DCB-932D-3D4A06D32DE2}
  0
DICTIONARYVAR
  5
1E9
102
{ACAD_REACTORS
330
1E8
102
}
330
1E8
100
DictionaryVariables
280
     0
  1
127
  0
ENDSEC
  0
EOF
