  0
SECTION
  2
HEADER
  9
$ACADVER
  1
AC1014
  9
$ACADMAINTVER
 70
     9
  9
$DWGCODEPAGE
  3
ANSI_1252
  9
$INSBASE
 10
0.0
 20
0.0
 30
0.0
  9
$EXTMIN
 10
-0.4467851323424839
 20
-0.3320641641421389
 30
-0.0000000349181948
  9
$EXTMAX
 10
7320.909574297266
 20
5440.941402113158
 30
0.0000000814935746
  9
$LIMMIN
 10
0.0
 20
0.0
  9
$LIMMAX
 10
420.0
 20
297.0
  9
$ORTHOMODE
 70
     0
  9
$REGENMODE
 70
     1
  9
$FILLMODE
 70
     1
  9
$QTEXTMODE
 70
     0
  9
$MIRRTEXT
 70
     1
  9
$DRAGMODE
 70
     2
  9
$LTSCALE
 40
1.0
  9
$OSMODE
 70
   511
  9
$ATTMODE
 70
     1
  9
$TEXTSIZE
 40
2.5
  9
$TRACEWID
 40
1.0
  9
$TEXTSTYLE
  7
STANDARD
  9
$CLAYER
  8
0
  9
$CELTYPE
  6
BYLAYER
  9
$CECOLOR
 62
   256
  9
$CELTSCALE
 40
1.0
  9
$DELOBJ
 70
     1
  9
$DISPSILH
 70
     0
  9
$DIMSCALE
 40
1.0
  9
$DIMASZ
 40
2.5
  9
$DIMEXO
 40
0.625
  9
$DIMDLI
 40
3.75
  9
$DIMRND
 40
0.0
  9
$DIMDLE
 40
0.0
  9
$DIMEXE
 40
1.25
  9
$DIMTP
 40
0.0
  9
$DIMTM
 40
0.0
  9
$DIMTXT
 40
2.5
  9
$DIMCEN
 40
2.5
  9
$DIMTSZ
 40
0.0
  9
$DIMTOL
 70
     0
  9
$DIMLIM
 70
     0
  9
$DIMTIH
 70
     0
  9
$DIMTOH
 70
     0
  9
$DIMSE1
 70
     0
  9
$DIMSE2
 70
     0
  9
$DIMTAD
 70
     1
  9
$DIMZIN
 70
     8
  9
$DIMBLK
  1

  9
$DIMASO
 70
     1
  9
$DIMSHO
 70
     1
  9
$DIMPOST
  1

  9
$DIMAPOST
  1

  9
$DIMALT
 70
     0
  9
$DIMALTD
 70
     3
  9
$DIMALTF
 40
0.03937007874016
  9
$DIMLFAC
 40
1.0
  9
$DIMTOFL
 70
     1
  9
$DIMTVP
 40
0.0
  9
$DIMTIX
 70
     0
  9
$DIMSOXD
 70
     0
  9
$DIMSAH
 70
     0
  9
$DIMBLK1
  1

  9
$DIMBLK2
  1

  9
$DIMSTYLE
  2
ISO-25
  9
$DIMCLRD
 70
     0
  9
$DIMCLRE
 70
     0
  9
$DIMCLRT
 70
     0
  9
$DIMTFAC
 40
1.0
  9
$DIMGAP
 40
0.625
  9
$DIMJUST
 70
     0
  9
$DIMSD1
 70
     0
  9
$DIMSD2
 70
     0
  9
$DIMTOLJ
 70
     0
  9
$DIMTZIN
 70
     8
  9
$DIMALTZ
 70
     0
  9
$DIMALTTZ
 70
     0
  9
$DIMFIT
 70
     3
  9
$DIMUPT
 70
     0
  9
$DIMUNIT
 70
     2
  9
$DIMDEC
 70
     2
  9
$DIMTDEC
 70
     2
  9
$DIMALTU
 70
     2
  9
$DIMALTTD
 70
     3
  9
$DIMTXSTY
  7
STANDARD
  9
$DIMAUNIT
 70
     0
  9
$LUNITS
 70
     2
  9
$LUPREC
 70
     4
  9
$SKETCHINC
 40
1.0
  9
$FILLETRAD
 40
10.0
  9
$AUNITS
 70
     0
  9
$AUPREC
 70
     0
  9
$MENU
  1
.
  9
$ELEVATION
 40
0.0
  9
$PELEVATION
 40
0.0
  9
$THICKNESS
 40
0.0
  9
$LIMCHECK
 70
     0
  9
$BLIPMODE
 70
     0
  9
$CHAMFERA
 40
10.0
  9
$CHAMFERB
 40
10.0
  9
$CHAMFERC
 40
20.0
  9
$CHAMFERD
 40
0.0
  9
$SKPOLY
 70
     0
  9
$TDCREATE
 40
2453124.469540104
  9
$TDUPDATE
 40
2453186.692990798
  9
$TDINDWG
 40
0.0018021181
  9
$TDUSRTIMER
 40
0.0018019329
  9
$USRTIMER
 70
     1
  9
$ANGBASE
 50
0.0
  9
$ANGDIR
 70
     0
  9
$PDMODE
 70
     0
  9
$PDSIZE
 40
0.0
  9
$PLINEWID
 40
0.0
  9
$COORDS
 70
     2
  9
$SPLFRAME
 70
     0
  9
$SPLINETYPE
 70
     6
  9
$SPLINESEGS
 70
     8
  9
$ATTDIA
 70
     0
  9
$ATTREQ
 70
     1
  9
$HANDLING
 70
-16383
  9
$HANDSEED
  5
2C8
  9
$SURFTAB1
 70
     6
  9
$SURFTAB2
 70
     6
  9
$SURFTYPE
 70
     6
  9
$SURFU
 70
     6
  9
$SURFV
 70
     6
  9
$UCSNAME
  2

  9
$UCSORG
 10
0.0
 20
0.0
 30
0.0
  9
$UCSXDIR
 10
1.0
 20
0.0
 30
0.0
  9
$UCSYDIR
 10
0.0
 20
1.0
 30
0.0
  9
$PUCSNAME
  2

  9
$PUCSORG
 10
0.0
 20
0.0
 30
0.0
  9
$PUCSXDIR
 10
1.0
 20
0.0
 30
0.0
  9
$PUCSYDIR
 10
0.0
 20
1.0
 30
0.0
  9
$USERI1
 70
     0
  9
$USERI2
 70
     0
  9
$USERI3
 70
     0
  9
$USERI4
 70
     0
  9
$USERI5
 70
     0
  9
$USERR1
 40
0.0
  9
$USERR2
 40
0.0
  9
$USERR3
 40
0.0
  9
$USERR4
 40
0.0
  9
$USERR5
 40
0.0
  9
$WORLDVIEW
 70
     1
  9
$SHADEDGE
 70
     3
  9
$SHADEDIF
 70
    70
  9
$TILEMODE
 70
     1
  9
$MAXACTVP
 70
    64
  9
$PINSBASE
 10
0.0
 20
0.0
 30
0.0
  9
$PLIMCHECK
 70
     0
  9
$PEXTMIN
 10
0.0
 20
0.0
 30
0.0
  9
$PEXTMAX
 10
0.0
 20
0.0
 30
0.0
  9
$PLIMMIN
 10
0.0
 20
0.0
  9
$PLIMMAX
 10
12.0
 20
9.0
  9
$UNITMODE
 70
     0
  9
$VISRETAIN
 70
     1
  9
$PLINEGEN
 70
     0
  9
$PSLTSCALE
 70
     1
  9
$TREEDEPTH
 70
  3020
  9
$PICKSTYLE
 70
     0
  9
$CMLSTYLE
  2
STANDARD
  9
$CMLJUST
 70
     0
  9
$CMLSCALE
 40
20.0
  9
$PROXYGRAPHICS
 70
     1
  9
$MEASUREMENT
 70
     1
  0
ENDSEC
  0
SECTION
  2
CLASSES
  0
CLASS
  1
ACDBDICTIONARYWDFLT
  2
AcDbDictionaryWithDefault
  3
AutoCAD 2000
 90
        0
280
     0
281
     0
  0
CLASS
  1
ACDBPLACEHOLDER
  2
AcDbPlaceHolder
  3
AutoCAD 2000
 90
        0
280
     0
281
     0
  0
CLASS
  1
LAYOUT
  2
AcDbLayout
  3
AutoCAD 2000
 90
        0
280
     0
281
     0
  0
CLASS
  1
LONG_TRANSACTION
  2
AcDbLongTransaction
  3
AutoCAD 2000
 90
        0
280
     0
281
     0
  0
CLASS
  1
LWPOLYLINE
  2
AcDbPolyline
  3
AutoCAD 2000
 90
        0
280
     0
281
     1
  0
CLASS
  1
HATCH
  2
AcDbHatch
  3
AutoCAD 2000
 90
        0
280
     0
281
     1
  0
CLASS
  1
XRECORD
  2
AcDbXrecord
  3
AutoCAD 2000
 90
        0
280
     0
281
     0
  0
ENDSEC
  0
SECTION
  2
TABLES
  0
TABLE
  2
VPORT
  5
8
330
0
100
AcDbSymbolTable
 70
     2
  0
VPORT
  5
29F
330
8
100
AcDbSymbolTableRecord
100
AcDbViewportTableRecord
  2
*ACTIVE
 70
     0
 10
0.0
 20
0.0
 11
1.0
 21
1.0
 12
3660.231394582462
 22
2720.304668974508
 13
0.0
 23
0.0
 14
10.0
 24
10.0
 15
10.0
 25
10.0
 16
0.0
 26
0.0
 36
1.0
 17
0.0
 27
0.0
 37
0.0
 40
5505.92225993604
 41
1.720238095238095
 42
50.0
 43
0.0
 44
0.0
 50
0.0
 51
0.0
 71
     0
 72
   100
 73
     1
 74
     3
 75
     0
 76
     0
 77
     0
 78
     0
  0
ENDTAB
  0
TABLE
  2
LTYPE
  5
5
330
0
100
AcDbSymbolTable
 70
     1
  0
LTYPE
  5
14
330
5
100
AcDbSymbolTableRecord
100
AcDbLinetypeTableRecord
  2
BYBLOCK
 70
     0
  3

 72
    65
 73
     0
 40
0.0
  0
LTYPE
  5
15
330
5
100
AcDbSymbolTableRecord
100
AcDbLinetypeTableRecord
  2
BYLAYER
 70
     0
  3

 72
    65
 73
     0
 40
0.0
  0
LTYPE
  5
16
330
5
100
AcDbSymbolTableRecord
100
AcDbLinetypeTableRecord
  2
CONTINUOUS
 70
     0
  3
Solid line
 72
    65
 73
     0
 40
0.0
  0
ENDTAB
  0
TABLE
  2
LAYER
  5
2
330
0
100
AcDbSymbolTable
 70
     1
  0
LAYER
  5
10
330
2
100
AcDbSymbolTableRecord
100
AcDbLayerTableRecord
  2
0
 70
     0
 62
     7
  6
CONTINUOUS
  0
ENDTAB
  0
TABLE
  2
STYLE
  5
3
330
0
100
AcDbSymbolTable
 70
     1
  0
STYLE
  5
11
330
3
100
AcDbSymbolTableRecord
100
AcDbTextStyleTableRecord
  2
STANDARD
 70
     0
 40
0.0
 41
1.0
 50
0.0
 71
     0
 42
2.5
  3
txt
  4

  0
ENDTAB
  0
TABLE
  2
VIEW
  5
6
330
0
100
AcDbSymbolTable
 70
     0
  0
ENDTAB
  0
TABLE
  2
UCS
  5
7
330
0
100
AcDbSymbolTable
 70
     0
  0
ENDTAB
  0
TABLE
  2
APPID
  5
9
330
0
100
AcDbSymbolTable
 70
     2
  0
APPID
  5
12
330
9
100
AcDbSymbolTableRecord
100
AcDbRegAppTableRecord
  2
ACAD
 70
     0
  0
APPID
  5
2C7
330
9
100
AcDbSymbolTableRecord
100
AcDbRegAppTableRecord
  2
CONTENTBLOCKICON
 70
     0
  0
ENDTAB
  0
TABLE
  2
DIMSTYLE
  5
A
330
0
100
AcDbSymbolTable
 70
     1
  0
DIMSTYLE
105
27
330
A
100
AcDbSymbolTableRecord
100
AcDbDimStyleTableRecord
  2
ISO-25
 70
     0
  3

  4

  5

  6

  7

 40
1.0
 41
2.5
 42
0.625
 43
3.75
 44
1.25
 45
0.0
 46
0.0
 47
0.0
 48
0.0
140
2.5
141
2.5
142
0.0
143
0.03937007874016
144
1.0
145
0.0
146
1.0
147
0.625
 71
     0
 72
     0
 73
     0
 74
     0
 75
     0
 76
     0
 77
     1
 78
     8
170
     0
171
     3
172
     1
173
     0
174
     0
175
     0
176
     0
177
     0
178
     0
270
     2
271
     2
272
     2
273
     2
274
     3
340
11
275
     0
280
     0
281
     0
282
     0
283
     0
284
     8
285
     0
286
     0
287
     3
288
     0
  0
ENDTAB
  0
TABLE
  2
BLOCK_RECORD
  5
1
330
0
100
AcDbSymbolTable
 70
     2
  0
BLOCK_RECORD
  5
1F
102
{ACAD_XDICTIONARY
360
2C1
102
}
330
1
100
AcDbSymbolTableRecord
100
AcDbBlockTableRecord
  2
*MODEL_SPACE
  0
BLOCK_RECORD
  5
50
102
{ACAD_XDICTIONARY
360
2C3
102
}
330
1
100
AcDbSymbolTableRecord
100
AcDbBlockTableRecord
  2
*PAPER_SPACE
  0
BLOCK_RECORD
  5
1DD
330
1
100
AcDbSymbolTableRecord
100
AcDbBlockTableRecord
  2
ADKM
1001
ACAD
1000
DesignCenter Data
1002
{
1070
     1
1070
     4
1002
}
1001
CONTENTBLOCKICON
1071
        0
1004
2800000020000000200000000100080000000000000400000000000000000000000000000000000000000000000080000080000000808000800000008000800080800000C0C0C000C0DCC000F0CAA6000020400000206000002080000020A0000020C0000020E00000400000004020000040400000406000004080000040A0
1004
000040C0000040E00000600000006020000060400000606000006080000060A0000060C0000060E00000800000008020000080400000806000008080000080A0000080C0000080E00000A0000000A0200000A0400000A0600000A0800000A0A00000A0C00000A0E00000C0000000C0200000C0400000C0600000C0800000C0
1004
A00000C0C00000C0E00000E0000000E0200000E0400000E0600000E0800000E0A00000E0C00000E0E00040000000400020004000400040006000400080004000A0004000C0004000E00040200000402020004020400040206000402080004020A0004020C0004020E000404000004040200040404000404060004040800040
1004
40A0004040C0004040E00040600000406020004060400040606000406080004060A0004060C0004060E00040800000408020004080400040806000408080004080A0004080C0004080E00040A0000040A0200040A0400040A0600040A0800040A0A00040A0C00040A0E00040C0000040C0200040C0400040C0600040C08000
1004
40C0A00040C0C00040C0E00040E0000040E0200040E0400040E0600040E0800040E0A00040E0C00040E0E00080000000800020008000400080006000800080008000A0008000C0008000E00080200000802020008020400080206000802080008020A0008020C0008020E00080400000804020008040400080406000804080
1004
008040A0008040C0008040E00080600000806020008060400080606000806080008060A0008060C0008060E00080800000808020008080400080806000808080008080A0008080C0008080E00080A0000080A0200080A0400080A0600080A0800080A0A00080A0C00080A0E00080C0000080C0200080C0400080C0600080C0
1004
800080C0A00080C0C00080C0E00080E0000080E0200080E0400080E0600080E0800080E0A00080E0C00080E0E000C0000000C0002000C0004000C0006000C0008000C000A000C000C000C000E000C0200000C0202000C0204000C0206000C0208000C020A000C020C000C020E000C0400000C0402000C0404000C0406000C0
1004
408000C040A000C040C000C040E000C0600000C0602000C0604000C0606000C0608000C060A000C060C000C060E000C0800000C0802000C0804000C0806000C0808000C080A000C080C000C080E000C0A00000C0A02000C0A04000C0A06000C0A08000C0A0A000C0A0C000C0A0E000C0C00000C0C02000C0C04000C0C06000
1004
C0C08000C0C0A000F0FBFF00A4A0A000808080000000FF0000FF000000FFFF00FF000000FF00FF00FFFF0000FFFFFF00FFFFFFFFFFFFFFFFFFFFFFFFFFFFFFFFFFFFFFFFFFFFFFFFFFFFFFFFFFFFFFFFFFFFFFFFFFFFFFFFFFFFFFFFFFFFFFFFFFFFFFFFFFFFFFFFFFFFFFFFFFFFFFFFFFFFFFFFFFFFFFFFFFFFFFFFFFFFFF
1004
FFFFFFFFFFFFFFFFFFFFFFFFFFFFFFFFFFFFFFFFFFFFFFFFFFFFFFFFFFFFFFFFFFFFFFFFFFFFFFFFFFFFFFFFFFFFFFFFFFFFFFFFFFFFFFFFFFFFFFFFFFFFFFFFFFFFFFFFFFFFFFFFFFFFFFFFFFFFFFFFFFFFFFFFFFFFFFFFFFFFFFFF00000000FFFFFFFFFFFFFFFFFFFFFFFFFFFFFFFFFFFFFFFFFFFFFFFFFFFF0000FFFFFF
1004
FF00FFFFFFFFFFFFFFFFFFFFFFFFFFFFFFFFFFFFFFFFFFFFFFFF00FFFFFFFFFFFFFF0000FFFFFFFFFFFFFFFFFFFFFFFFFFFFFFFFFFFFFFFFFF00FFFFFFFFFFFFFFFFFFFF0000FFFFFFFFFFFFFFFFFFFFFFFFFFFFFFFFFF0000FFFFFFFFFFFFFFFFFFFFFFFFFF0000FFFFFFFFFFFFFFFFFFFFFFFFFFFF00FFFFFFFFFFFFFFFF
1004
FFFFFFFFFFFFFFFFFF0000FFFFFFFFFFFFFFFFFFFFFF00FFFFFFFFFFFFFFFF0000FFFFFFFFFFFFFFFFFFFF0000FFFFFFFFFFFFFFFFFF00FFFFFFFFFFFFFFFF0000FFFFFFFFFFFFFFFFFFFFFFFF00FFFFFFFFFFFFFF00FFFFFFFFFFFFFFFFFF0000FFFFFFFFFFFFFFFFFFFFFFFF0000000000FFFFFF00FFFFFFFFFFFFFFFFFF
1004
0000FFFFFFFFFFFFFFFFFFFFFFFFFFFFFFFF00FFFF00FFFFFFFFFF00FFFF212100002121FFFFFFFFFFFFFFFFFFFFFFFFFFFF00FFFF00FFFFFFFFFF000000000000000000272700E0E0E000FFFFFFFFFFFFFF00FFFF00FFFFFFFFFF000000000000210000FFFFFFFFFF0000FFFFFFFFFFFFFF00FFFF00FFFFFFFFFF00000000
1004
0021000000272700E0E00000FFFFFFFFFFFFFF00FFFF00FFFFFFFFFF000000000000000021FFFFFFFFFFFFFFFFFFFFFFFFFFFF00FFFFFF00FFFFFFFFFFFFFF210000000021FFFFFFFFFFFFFFFFFFFFFFFFFFFF00FFFFFF00FFFFFFFFFFFFFFFFFFFFFFFFFFFFFFFFFFFFFFFFFFFFFFFFFFFFFF00FFFFFF00FFFFFFFFFFFFFF
1004
FFFFFFFFFFFFFFFFFFFFFFFFFFFFFFFF0000000000FFFFFF0000FFFFFFFFFFFFFFFFFFFFFFFFFFFFFFFFFFFFFFFFFF00FFFFFFFFFFFFFFFFFF0000FFFFFFFFFFFFFFFFFFFFFFFFFFFFFFFF00000000FFFFFFFFFFFFFFFFFFFFFFFF00000000FFFFFFFFFFFFFFFF00000000FFFFFFFFFFFFFFFFFFFFFFFFFFFFFFFFFFFFFFFF
1004
0000000000000000FFFFFFFFFFFFFFFFFFFFFFFFFFFFFFFFFFFFFFFFFFFFFFFFFFFFFFFFFFFFFFFFFFFFFFFFFFFFFFFFFFFFFFFFFFFFFFFFFFFFFFFFFFFFFFFFFFFFFFFFFFFFFFFFFFFFFFFFFFFFFFFFFFFFFFFFFFFFFFFFFFFFFFFFFFFFFFFFFFFFFFFFFFFFFFFFFFFFFFFFFFFFFFFFFFFFFFFFFFFFFFFFFFFFFFFFFFFFFF
1004
FFFFFFFFFFFFFFFFFFFFFFFFFFFFFFFFFFFFFFFFFFFFFFFFFFFFFFFFFFFFFFFFFFFFFFFFFFFFFFFFFFFFFFFFFFFFFFFFFFFFFFFFFFFFFFFF
  0
ENDTAB
  0
ENDSEC
  0
SECTION
  2
BLOCKS
  0
BLOCK
  5
20
330
1F
100
AcDbEntity
  8
0
100
AcDbBlockBegin
  2
*MODEL_SPACE
 70
     0
 10
0.0
 20
0.0
 30
0.0
  3
*MODEL_SPACE
  1

  0
ENDBLK
  5
21
330
1F
100
AcDbEntity
  8
0
100
AcDbBlockEnd
  0
BLOCK
  5
52
330
50
100
AcDbEntity
 67
     1
  8
0
100
AcDbBlockBegin
  2
*PAPER_SPACE
 70
     0
 10
0.0
 20
0.0
 30
0.0
  3
*PAPER_SPACE
  1

  0
ENDBLK
  5
53
330
50
100
AcDbEntity
 67
     1
  8
0
100
AcDbBlockEnd
  0
BLOCK
  5
1DE
330
1DD
100
AcDbEntity
  8
0
100
AcDbBlockBegin
  2
ADKM
 70
     0
 10
0.0
 20
0.0
 30
0.0
  3
ADKM
  1

  0
LWPOLYLINE
  5
1E0
330
1DD
100
AcDbEntity
  8
0
 62
     7
100
AcDbPolyline
 90
       32
 70
     1
 43
0.0
 10
-6810.593505433743
 20
-359.4993990300281
 10
-7025.737933424688
 20
-125.3852472807411
 10
-7186.749247275973
 20
148.9817329313646
 10
-7286.224627959959
 20
451.1092844971408
 10
-7319.999989773591
 20
767.5797979289818
 10
-7319.999989773591
 20
1769.273747607245
 10
-7289.463361284552
 20
2069.55059441611
 10
-7199.704180574352
 20
2357.797860305052
 10
-7054.423857156812
 20
2621.985964354145
 10
-6858.711829113437
 20
2851.93603040038
 10
-6621.358944039556
 20
3037.93185846997
 10
-6351.156049530501
 20
3173.033305724499
 10
-6060.132726506194
 20
3250.762905514775
 10
-4731.789387233077
 20
3465.907333505718
 10
-4414.393521422781
 20
3489.50381915634
 10
-4096.997655612487
 20
3458.041838288846
 10
-1723.931481062916
 20
3014.798049008579
 10
-1411.162377144899
 20
2919.949430216873
 10
-1126.616520769781
 20
2759.863468744041
 10
-883.2488452359394
 20
2541.942983617731
 10
0.0
 20
2541.942983617731
 10
0.0
 20
0.0
 10
-883.2488452359394
 20
0.0
 10
-1046.573540033365
 20
-156.8472281482354
 10
-1232.106691913728
 20
-286.8592373212559
 10
-3669.484856765967
 20
-1739.662471496662
 10
-3954.493389330313
 20
-1871.062509237366
 10
-4260.78502659914
 20
-1940.463937621541
 10
-4574.479482895613
 20
-1944.628023324592
 10
-4882.159148732124
 20
-1883.09209015729
 10
-5170.406414621066
 20
-1759.094871444229
 10
-5426.729023453287
 20
-1577.263129077691
  0
LINE
  5
1E1
330
1DD
100
AcDbEntity
  8
0
100
AcDbLine
 10
-1997.141427773765
 20
1021.924473714459
 30
0.0
 11
-3856.159062170565
 21
1021.924473714459
 31
0.0
  0
LINE
  5
1E2
330
1DD
100
AcDbEntity
  8
0
100
AcDbLine
 10
-3856.159062170565
 20
1002.587489712483
 30
0.0
 11
-1997.14142777376
 21
1002.58748971247
 31
0.0
  0
LINE
  5
1E3
330
1DD
100
AcDbEntity
  8
0
100
AcDbLine
 10
-1997.141427773756
 20
1520.018509903273
 30
0.0
 11
-3856.159062170565
 21
1520.018509903269
 31
0.0
  0
LINE
  5
1E4
330
1DD
100
AcDbEntity
  8
0
100
AcDbLine
 10
-3856.159062170565
 20
1539.355493905248
 30
0.0
 11
-1997.14142777376
 21
1539.355493905248
 31
0.0
  0
HATCH
  5
1E5
330
1DD
100
AcDbEntity
  8
0
 62
    50
100
AcDbHatch
 10
0.0
 20
0.0
 30
0.0
210
0.0
220
0.0
230
1.0
  2
SOLID
 70
     1
 71
     0
 91
        3
 92
        7
 72
     1
 73
     1
 93
       22
 10
-2182.8431534479
 20
1270.63809553304
 42
0.0
 10
-2181.176172068424
 20
1362.655467680304
 42
0.0
 10
-2173.841453998707
 20
1400.662643132454
 42
0.0
 10
-2156.504847652115
 20
1428.001137755936
 42
0.0
 10
-2131.833523235796
 20
1448.671706861501
 42
0.0
 10
-2105.161821164103
 20
1464.007935552725
 42
0.0
 10
-2091.159177576473
 20
1477.343786588568
 42
0.0
 10
-2083.824459506748
 20
1491.346430176206
 42
0.0
 10
-2081.157289299584
 20
1507.34945141922
 42
0.0
 10
-2081.157289299584
 20
1520.018509903275
 42
0.0
 10
-3856.159062170564
 20
1520.018509903267
 42
0.0
 10
-3856.159062170564
 20
1519.351717351473
 42
-0.5047677450341376
 10
-3852.545846159474
 20
1021.924473714459
 42
0.0
 10
-2081.157289299584
 20
1021.924473714459
 42
0.0
 10
-2081.157289299584
 20
1034.593532198512
 42
0.0
 10
-2084.491252058545
 20
1053.263723648695
 42
0.0
 10
-2093.159555231846
 20
1067.266367236326
 42
0.0
 10
-2105.161821164112
 20
1077.268255513214
 42
0.0
 10
-2131.833523235796
 20
1093.271276756229
 42
0.0
 10
-2161.172395514655
 20
1119.276186276123
 42
0.0
 10
-2175.841831654086
 20
1147.281473451403
 42
0.0
 10
-2181.176172068426
 20
1179.287515937436
 42
0.0
 97
        0
 92
       22
 72
     1
 73
     1
 93
        2
 10
-3856.159062170565
 20
1472.995490917486
 42
0.0
 10
-3856.159062170565
 20
1065.613529941283
 42
0.4582969605586812
 97
        0
 92
        7
 72
     1
 73
     1
 93
        5
 10
-3856.159062170565
 20
1519.351717351475
 42
0.0
 10
-3856.159062170565
 20
1472.995490917486
 42
-0.4582969605586812
 10
-3856.159062170565
 20
1065.613529941283
 42
0.0
 10
-3856.159062170565
 20
1021.924473714459
 42
0.0
 10
-3852.545846159474
 20
1021.924473714459
 42
0.5047677450341411
 97
        0
 75
     0
 76
     1
 47
4.472321723810398
 98
        3
 10
-2533.44884408958
 20
1246.009338536096
 10
-3817.545468279496
 20
1304.14948284658
 10
-3772.803393444613
 20
1366.761995446388
  0
HATCH
  5
1E6
330
1DD
100
AcDbEntity
  8
0
 62
    30
100
AcDbHatch
 10
0.0
 20
0.0
 30
0.0
210
0.0
220
0.0
230
1.0
  2
SOLID
 70
     1
 71
     0
 91
        2
 92
        7
 72
     0
 73
     1
 93
        4
 10
-2926.650244972165
 20
1539.355493905248
 10
-3856.159062170564
 20
1539.355493905248
 10
-3856.159062170565
 20
1520.018509903269
 10
-2926.650244972161
 20
1520.018509903271
 97
        0
 92
        7
 72
     1
 73
     1
 93
        5
 10
-2926.650244972168
 20
1021.924473714458
 42
0.0
 10
-3852.545846159474
 20
1021.924473714459
 42
-0.003631856113254
 10
-3856.159062170565
 20
1019.257303507287
 42
0.0
 10
-3856.159062170565
 20
1002.587489712483
 42
0.0
 10
-2926.650244972161
 20
1002.587489712477
 42
0.0
 97
        0
 75
     0
 76
     1
 47
3.387716884985549
 98
        2
 10
-3641.553137381022
 20
1528.667505706864
 10
-3549.989360773514
 20
1010.346814260934
  0
HATCH
  5
1E7
330
1DD
100
AcDbEntity
  8
0
 62
    50
100
AcDbHatch
 10
0.0
 20
0.0
 30
0.0
210
0.0
220
0.0
230
1.0
  2
SOLID
 70
     1
 71
     0
 91
       15
 92
        7
 72
     1
 73
     1
 93
        5
 10
-5812.528409129033
 20
1778.734019998668
 42
0.0
 10
-5817.86274954337
 20
1758.730243444897
 42
0.0
 10
-5600.679565742403
 20
1717.393740385321
 42
-0.0851023481420786
 10
-5601.821962762681
 20
1724.057030751702
 42
-0.1859621584946757
 10
-5596.651595824003
 20
1737.477948589319
 42
0.0
 97
        0
 92
        7
 72
     1
 73
     1
 93
        6
 10
-5563.081137794406
 20
1731.062321118681
 42
-0.0896850285161526
 10
-5561.814409655142
 20
1724.057030751702
 42
-0.1808726405839401
 10
-5566.723339701615
 20
1710.930847554202
 42
0.0
 10
-5408.689455582365
 20
1680.852238243462
 42
-0.0833413142280533
 10
-5409.785707846511
 20
1687.383440403127
 42
-0.1855709679467075
 10
-5404.635623939024
 20
1700.781906404237
 42
0.0
 97
        0
 92
        7
 72
     1
 73
     1
 93
        6
 10
-5371.034308360786
 20
1694.360381768403
 42
-0.0893038586945105
 10
-5369.77815473897
 20
1687.383440403127
 42
-0.1790673735504051
 10
-5374.595643432365
 20
1674.363158630638
 42
0.0
 10
-5217.159582653438
 20
1644.39833311247
 42
-0.0893222485011883
 10
-5218.416245482136
 20
1651.376642606346
 42
-0.1772621847634118
 10
-5213.6895078639
 20
1664.290323637533
 42
0.0
 97
        0
 92
        7
 72
     1
 73
     1
 93
        5
 10
-5179.450098514813
 20
1657.746853333828
 42
-0.0812013531982661
 10
-5178.408692374595
 20
1651.376642606346
 42
-0.1852009961545732
 10
-5183.539622086641
 20
1637.999441731883
 42
0.0
 10
-5025.172152812296
 20
1607.857341116047
 42
-0.2685811292006837
 10
-5021.672388111206
 20
1627.59406208423
 42
0.0
 97
        0
 92
        7
 72
     1
 73
     1
 93
        5
 10
-5598.031071010306
 20
1421.33651749282
 42
0.0
 10
-5813.861994232613
 20
1443.337366447162
 42
0.0
 10
-5816.529164439782
 20
1423.333589893396
 42
0.0
 10
-5600.056740102757
 20
1401.403071636308
 42
-0.10621125263883
 10
-5601.821962762681
 20
1409.619289030855
 42
-0.1577406454984231
 97
        0
 92
        7
 72
     1
 73
     1
 93
        6
 10
-5405.920097635952
 20
1401.813888847211
 42
0.0
 10
-5563.57963231507
 20
1417.835506425412
 42
-0.1062112526389573
 10
-5561.814409655142
 20
1409.619289030855
 42
-0.1577406454982801
 10
-5565.60530140751
 20
1397.9020605689
 42
0.0
 10
-5408.072093428915
 20
1381.893280514856
 42
-0.1046122499629626
 10
-5409.785707846511
 20
1389.993962303786
 42
-0.1593677876891822
 97
        0
 92
        7
 72
     1
 73
     1
 93
        6
 10
-5214.625353729761
 20
1382.37420676377
 42
0.0
 10
-5371.595909059806
 20
1398.325809143256
 42
-0.1078166695744589
 10
-5369.77815473897
 20
1389.993962303786
 42
-0.1561202689644205
 10
-5373.49525145173
 20
1378.37952576258
 42
0.0
 10
-5216.651022822208
 20
1362.440760907258
 42
-0.106211252638881
 10
-5218.416245482136
 20
1370.656978301809
 42
-0.1577406454983651
 97
        0
 92
        7
 72
     1
 73
     1
 93
        5
 10
-5024.09236695189
 20
1279.693004408453
 42
0.0
 10
-5180.73833869706
 20
1279.340198165784
 42
-0.1224641477092257
 10
-5178.408692374595
 20
1269.971302981181
 42
-0.1206628716633466
 10
-5180.672263927883
 20
1260.728132369637
 42
0.0
 10
-5024.255541567987
 20
1261.432712200087
 42
-0.2415336677682219
 97
        0
 92
        7
 72
     1
 73
     1
 93
        6
 10
-5214.625353729761
 20
1154.234436439626
 42
-0.1577406454983381
 10
-5218.416245482136
 20
1165.951664901585
 42
-0.1062112526390083
 10
-5216.651022822205
 20
1174.167882296145
 42
0.0
 10
-5373.495251451734
 20
1158.229117440818
 42
-0.1561202689644513
 10
-5369.77815473897
 20
1146.61468089961
 42
-0.1078166695745329
 10
-5371.595909059806
 20
1138.282834060135
 42
0.0
 97
        0
 92
        7
 72
     1
 73
     1
 93
        6
 10
-5409.785707846511
 20
1146.61468089961
 42
-0.104612249963011
 10
-5408.072093428915
 20
1154.715362688544
 42
0.0
 10
-5565.414296547764
 20
1138.725992858086
 42
-0.1535182735215436
 10
-5561.814409655142
 20
1127.277696897634
 42
-0.1104223275205014
 10
-5563.718945010818
 20
1118.758979595922
 42
0.0
 10
-5405.920097635948
 20
1134.79475435618
 42
-0.1593677876892712
 97
        0
 92
        7
 72
     1
 73
     1
 93
        5
 10
-5601.821962762681
 20
1127.277696897634
 42
-0.102044031375449
 10
-5600.189740263743
 20
1135.192055875057
 42
0.0
 10
-5815.862371887991
 20
1113.27505331
 42
0.0
 10
-5813.861994232613
 20
1093.271276756228
 42
0.0
 10
-5597.833753615798
 20
1115.292177424176
 42
-0.1620092734141219
 97
        0
 92
        7
 72
     1
 73
     1
 93
        5
 10
-5601.821962762681
 20
813.8851975552789
 42
-0.079198403321382
 10
-5600.830665919906
 20
820.1042562985385
 42
0.0
 10
-5817.862749543366
 20
777.8783997584978
 42
0.0
 10
-5813.94085443544
 20
757.8591739837084
 42
0.0
 10
-5596.623306826287
 20
800.4330795094793
 42
-0.1865067590877368
 97
        0
 92
        7
 72
     1
 73
     1
 93
        6
 10
-5404.800658099715
 20
838.0123703418757
 42
-0.1823652781536637
 10
-5409.785707846511
 20
851.2255804556444
 42
-0.0827944421143663
 10
-5408.703599972732
 20
857.7156906841137
 42
0.0
 10
-5566.55421971173
 20
826.8143275796138
 42
-0.1775230658767542
 10
-5561.814409655142
 20
813.8851975552789
 42
-0.0878853185701973
 10
-5563.031580631099
 20
807.013914758243
 42
0.0
 97
        0
 92
        7
 72
     1
 73
     1
 93
        6
 10
-5213.543034151504
 20
875.4809691855315
 42
-0.1801690726475175
 10
-5218.416245482136
 20
888.5659633560099
 42
-0.0845485779383144
 10
-5217.288457119836
 20
895.187756633406
 42
0.0
 10
-5374.704279347936
 20
864.3715109379099
 42
-0.181210605973591
 10
-5369.77815473897
 20
851.2255804556444
 42
-0.0838505500870652
 10
-5370.887657040903
 20
844.6561454031051
 42
0.0
 97
        0
 92
        7
 72
     1
 73
     1
 93
        5
 10
-5021.215846852765
 20
913.1591023697874
 42
-0.2684352454930941
 10
-5025.401750871066
 20
932.7521374037987
 42
0.0
 10
-5183.426779947824
 20
901.8166313464044
 42
-0.1830103166745941
 10
-5178.408692374595
 20
888.5659633560099
 42
-0.0817096404766589
 10
-5179.463003404109
 20
882.1574664372146
 42
0.0
 97
        0
 75
     0
 76
     1
 47
3.667923569414485
 98
       15
 10
-5722.604285191891
 20
1747.769668547247
 10
-5487.758352718595
 20
1707.422544137254
 10
-5307.954460549403
 20
1670.743281632676
 10
-5113.472717505183
 20
1634.064083473145
 10
-5656.55383682695
 20
1413.988637135742
 10
-5480.419467090165
 20
1395.649005883446
 10
-5326.301833856838
 20
1380.977300881611
 10
-5139.158976441048
 20
1267.271715807524
 10
-5296.946052488582
 20
1153.56606638836
 10
-5491.427875150987
 20
1135.226435136064
 10
-5693.24858344182
 20
1116.886803883768
 10
-5678.570652948607
 20
801.4454037245741
 10
-5506.10572602603
 20
830.7887493831804
 10
-5304.285017735196
 20
867.4680118877731
 10
-5113.472717505183
 20
904.1472743923513
  0
LINE
  5
1E8
330
1DD
100
AcDbEntity
  8
0
100
AcDbLine
 10
-5813.94085443544
 20
757.8591739837065
 30
0.0
 11
-5596.623306826283
 21
800.4330795094793
 31
0.0
  0
LINE
  5
1E9
330
1DD
100
AcDbEntity
  8
0
100
AcDbLine
 10
-5817.86274954337
 20
777.8783997584978
 30
0.0
 11
-5813.94085443544
 21
757.8591739837065
 31
0.0
  0
LINE
  5
1EA
330
1DD
100
AcDbEntity
  8
0
100
AcDbLine
 10
-3856.159062170565
 20
1851.41440814402
 30
0.0
 11
-5017.044894840871
 21
690.5285754737124
 31
0.0
  0
LINE
  5
1EB
330
1DD
100
AcDbEntity
  8
0
100
AcDbLine
 10
-5017.044894840871
 20
1851.41440814402
 30
0.0
 11
-3856.159062170565
 21
690.5285754737124
 31
0.0
  0
LWPOLYLINE
  5
1EC
102
{ACAD_REACTORS
330
254
330
256
330
1ED
102
}
330
1DD
100
AcDbEntity
  8
0
100
AcDbPolyline
 90
        4
 70
     1
 43
0.0
 10
-5017.044894840876
 20
690.5285754737124
 10
-3856.159062170565
 20
690.5285754737124
 10
-3856.159062170565
 20
1851.414408144017
 10
-5017.044894840876
 20
1851.414408144017
  0
HATCH
  5
1ED
330
1DD
100
AcDbEntity
  8
0
 62
    84
100
AcDbHatch
 10
0.0
 20
0.0
 30
0.0
210
0.0
220
0.0
230
1.0
  2
SOLID
 70
     1
 71
     1
 91
        1
 92
        1
 93
        4
 72
     1
 10
-5017.044894840876
 20
690.5285754737124
 11
-3856.159062170565
 21
690.5285754737124
 72
     1
 10
-3856.159062170565
 20
690.5285754737124
 11
-3856.159062170565
 21
1851.414408144017
 72
     1
 10
-3856.159062170565
 20
1851.414408144017
 11
-5017.044894840876
 21
1851.414408144017
 72
     1
 10
-5017.044894840876
 20
1851.414408144017
 11
-5017.044894840876
 21
690.5285754737124
 97
        1
330
1EC
 75
     0
 76
     1
 98
        1
 10
1995.804066220005
 20
-12901.24747555138
  0
POLYLINE
  5
1EE
330
1DD
100
AcDbEntity
  8
0
 62
     7
100
AcDb2dPolyline
 66
     1
 10
0.0
 20
0.0
 30
0.0
  0
VERTEX
  5
1EF
330
1EE
100
AcDbEntity
  8
0
 62
     7
100
AcDbVertex
100
AcDb2dVertex
 10
-7121.049228405621
 20
20.35775232602645
 30
0.0
  0
VERTEX
  5
1F0
330
1EE
100
AcDbEntity
  8
0
 62
     7
100
AcDbVertex
100
AcDb2dVertex
 10
-7120.586552216393
 20
20.35775232602645
 30
0.0
  0
SEQEND
  5
1F1
330
1EE
100
AcDbEntity
  8
0
 62
     7
  0
POLYLINE
  5
1F2
330
1DD
100
AcDbEntity
  8
0
 62
     7
100
AcDb2dPolyline
 66
     1
 10
0.0
 20
0.0
 30
0.0
  0
VERTEX
  5
1F3
330
1F2
100
AcDbEntity
  8
0
 62
     7
100
AcDbVertex
100
AcDb2dVertex
 10
-5097.766252912295
 20
-1797.034318960912
 30
0.0
  0
VERTEX
  5
1F4
330
1F2
100
AcDbEntity
  8
0
 62
     7
100
AcDbVertex
100
AcDb2dVertex
 10
-5097.303576723067
 20
-1797.034318960912
 30
0.0
  0
SEQEND
  5
1F5
330
1F2
100
AcDbEntity
  8
0
 62
     7
  0
POLYLINE
  5
1F6
330
1DD
100
AcDbEntity
  8
0
 62
     7
100
AcDb2dPolyline
 66
     1
 10
0.0
 20
0.0
 30
0.0
  0
VERTEX
  5
1F7
330
1F6
100
AcDbEntity
  8
0
 62
     7
100
AcDbVertex
100
AcDb2dVertex
 10
-4436.601978505717
 20
-1951.105489973782
 30
0.0
  0
VERTEX
  5
1F8
330
1F6
100
AcDbEntity
  8
0
 62
     7
100
AcDbVertex
100
AcDb2dVertex
 10
-4436.139302316489
 20
-1951.105489973782
 30
0.0
  0
SEQEND
  5
1F9
330
1F6
100
AcDbEntity
  8
0
 62
     7
  0
HATCH
  5
1FA
330
1DD
100
AcDbEntity
  8
0
 62
   150
100
AcDbHatch
 10
0.0
 20
0.0
 30
0.0
210
0.0
220
0.0
230
1.0
  2
SOLID
 70
     1
 71
     0
 91
        1
 92
        7
 72
     1
 73
     1
 93
        4
 10
-4415.598013124263
 20
690.5285754737124
 42
0.0
 10
-4457.605943887169
 20
690.5285754737124
 42
0.0
 10
-4457.605943887172
 20
-424.3485711229332
 42
1.0
 10
-4415.598013124263
 20
-424.3485711229332
 42
0.0
 97
        0
 75
     0
 76
     1
 47
3.819930990568736
 98
        1
 10
-4434.998041392138
 20
90.45374733437347
  0
LINE
  5
1FB
330
1DD
100
AcDbEntity
  8
0
100
AcDbLine
 10
-4415.598013124263
 20
-424.3485711229332
 30
0.0
 11
-4415.598013124263
 21
690.5285754737124
 31
0.0
  0
LINE
  5
1FC
330
1DD
100
AcDbEntity
  8
0
100
AcDbLine
 10
-4457.605943887172
 20
690.5285754737124
 30
0.0
 11
-4457.605943887172
 21
-424.3485711229332
 31
0.0
  0
ARC
  5
1FD
330
1DD
100
AcDbEntity
  8
0
100
AcDbCircle
 10
-4436.601978505716
 20
-424.3485711229332
 30
0.0
 40
21.00396538145651
100
AcDbArc
 50
180.0
 51
0.0
  0
CIRCLE
  5
1FE
330
1DD
100
AcDbEntity
  8
0
100
AcDbCircle
 10
-4436.935374781614
 20
203.1032201135713
 30
0.0
 40
18.00339889839032
  0
POLYLINE
  5
1FF
330
1DD
100
AcDbEntity
  8
0
 62
     7
100
AcDb2dPolyline
 66
     1
 10
0.0
 20
0.0
 30
0.0
  0
VERTEX
  5
200
330
1FF
100
AcDbEntity
  8
0
 62
     7
100
AcDbVertex
100
AcDb2dVertex
 10
-7319.999989773591
 20
1268.658110862727
 30
0.0
  0
VERTEX
  5
201
330
1FF
100
AcDbEntity
  8
0
 62
     7
100
AcDbVertex
100
AcDb2dVertex
 10
-7319.537313584364
 20
1268.658110862727
 30
0.0
  0
SEQEND
  5
202
330
1FF
100
AcDbEntity
  8
0
 62
     7
  0
POLYLINE
  5
203
330
1DD
100
AcDbEntity
  8
0
 62
     7
100
AcDb2dPolyline
 66
     1
 10
0.0
 20
0.0
 30
0.0
  0
VERTEX
  5
204
330
203
100
AcDbEntity
  8
0
 62
     7
100
AcDbVertex
100
AcDb2dVertex
 10
-6921.635790848424
 20
2788.08671628694
 30
0.0
  0
VERTEX
  5
205
330
203
100
AcDbEntity
  8
0
 62
     7
100
AcDbVertex
100
AcDb2dVertex
 10
-6921.173114659197
 20
2788.08671628694
 30
0.0
  0
SEQEND
  5
206
330
203
100
AcDbEntity
  8
0
 62
     7
  0
HATCH
  5
207
330
1DD
100
AcDbEntity
  8
0
 62
   250
100
AcDbHatch
 10
0.0
 20
0.0
 30
0.0
210
0.0
220
0.0
230
1.0
  2
SOLID
 70
     1
 71
     0
 91
        3
 92
        7
 72
     1
 73
     1
 93
        4
 10
-5571.816297932027
 20
1706.733252084508
 42
-0.2679491924310617
 10
-5591.820074485791
 20
1706.733252084508
 42
0.0
 10
-5591.820074485791
 20
1426.94306769805
 42
-0.2679491924310617
 10
-5571.816297932027
 20
1426.94306769805
 42
0.0
 97
        0
 92
        7
 72
     1
 73
     1
 93
        4
 10
-5571.816297932027
 20
1392.295510363661
 42
-0.2679491924310617
 10
-5591.820074485791
 20
1392.295510363661
 42
0.0
 10
-5591.820074485791
 20
1144.601475564828
 42
-0.2679491924310617
 10
-5571.816297932027
 20
1144.601475564828
 42
0.0
 97
        0
 92
        7
 72
     1
 73
     1
 93
        4
 10
-5571.816297932027
 20
1109.953918230439
 42
-0.2679491924310617
 10
-5591.820074485791
 20
1109.953918230439
 42
0.0
 10
-5591.820074485791
 20
831.2089762224731
 42
-0.2679491924310617
 10
-5571.816297932027
 20
831.2089762224731
 42
0.0
 97
        0
 75
     0
 76
     1
 47
3.005531458579665
 98
        3
 10
-5578.089731290793
 20
1540.440128934777
 10
-5581.098390543333
 20
1324.041863917038
 10
-5584.107049795874
 20
993.4333923661469
  0
HATCH
  5
208
330
1DD
100
AcDbEntity
  8
0
 62
   250
100
AcDbHatch
 10
0.0
 20
0.0
 30
0.0
210
0.0
220
0.0
230
1.0
  2
SOLID
 70
     1
 71
     0
 91
        3
 92
        7
 72
     1
 73
     1
 93
        4
 10
-5379.780043015852
 20
1670.059661735937
 42
-0.2679491924311883
 10
-5399.783819569626
 20
1670.059661735937
 42
0.0
 10
-5399.783819569626
 20
1407.317740970976
 42
-0.2679491924311883
 10
-5379.780043015852
 20
1407.317740970976
 42
0.0
 97
        0
 92
        7
 72
     1
 73
     1
 93
        4
 10
-5379.780043015852
 20
1372.670183636595
 42
-0.2679491924311883
 10
-5399.783819569626
 20
1372.670183636595
 42
0.0
 10
-5399.783819569626
 20
1163.938459566801
 42
-0.2679491924311883
 10
-5379.780043015852
 20
1163.938459566801
 42
0.0
 97
        0
 92
        7
 72
     1
 73
     1
 93
        4
 10
-5379.780043015852
 20
1129.29090223242
 42
-0.2679491924311883
 10
-5399.783819569626
 20
1129.29090223242
 42
0.0
 10
-5399.783819569626
 20
868.549359122835
 42
-0.2679491924311883
 10
-5379.780043015852
 20
868.549359122835
 42
0.0
 97
        0
 75
     0
 76
     1
 47
3.005531458579665
 98
        3
 10
-5385.53506746064
 20
1519.401422211947
 10
-5394.561045218253
 20
1257.920173415019
 10
-5391.552385965713
 20
945.3448953758016
  0
HATCH
  5
209
330
1DD
100
AcDbEntity
  8
0
 62
   250
100
AcDbHatch
 10
0.0
 20
0.0
 30
0.0
210
0.0
220
0.0
230
1.0
  2
SOLID
 70
     1
 71
     0
 91
        4
 92
        7
 72
     1
 73
     1
 93
        4
 10
-5188.41058065148
 20
1634.052863939152
 42
-0.2679491924310617
 10
-5208.414357205247
 20
1634.052863939152
 42
0.0
 10
-5208.414357205247
 20
1387.980756969003
 42
-0.2679491924310617
 10
-5188.41058065148
 20
1387.980756969003
 42
0.0
 97
        0
 92
        7
 72
     1
 73
     1
 93
        4
 10
-5188.41058065148
 20
1353.333199634615
 42
-0.2679491924310617
 10
-5208.414357205247
 20
1353.333199634615
 42
0.0
 10
-5208.414357205247
 20
1287.295081648375
 42
-0.2679491924310617
 10
-5188.41058065148
 20
1287.295081648375
 42
0.0
 97
        0
 92
        7
 72
     1
 73
     1
 93
        4
 10
-5188.41058065148
 20
1252.647524313986
 42
-0.2679491924310617
 10
-5208.414357205247
 20
1252.647524313986
 42
0.0
 10
-5208.414357205247
 20
1183.27544356878
 42
-0.2679491924310617
 10
-5188.41058065148
 20
1183.27544356878
 42
0.0
 97
        0
 92
        7
 72
     1
 73
     1
 93
        4
 10
-5188.41058065148
 20
1148.627886234391
 42
-0.2679491924310617
 10
-5208.414357205247
 20
1148.627886234391
 42
0.0
 10
-5208.414357205247
 20
905.8897420232042
 42
-0.2679491924310617
 10
-5188.41058065148
 20
905.8897420232042
 42
0.0
 97
        0
 75
     0
 76
     1
 47
3.005531458579665
 98
        4
 10
-5198.99772213556
 20
1477.323970684701
 10
-5198.99772213556
 20
1318.030799413147
 10
-5202.006381388101
 20
1209.831676424677
 10
-5195.98902660089
 20
1068.571679624005
  0
HATCH
  5
20A
330
1DD
100
AcDbEntity
  8
0
 62
   250
100
AcDbHatch
 10
0.0
 20
0.0
 30
0.0
210
0.0
220
0.0
230
1.0
  2
SOLID
 70
     1
 71
     1
 91
       13
 92
        7
 72
     1
 73
     1
 93
        2
 10
-5178.408692374596
 20
1651.376642606346
 42
1.0
 10
-5218.416245482135
 20
1651.376642606346
 42
1.0
 97
        1
330
24F
 92
        7
 72
     1
 73
     1
 93
        2
 10
-5409.785707846511
 20
1687.383440403127
 42
1.0
 10
-5369.77815473897
 20
1687.383440403127
 42
1.0
 97
        1
330
245
 92
        7
 72
     1
 73
     1
 93
        2
 10
-5561.81440965514
 20
1724.057030751702
 42
1.0
 10
-5601.82196276268
 20
1724.057030751702
 42
1.0
 97
        1
330
24B
 92
        7
 72
     1
 73
     1
 93
        2
 10
-5561.81440965514
 20
1409.619289030855
 42
1.0
 10
-5601.82196276268
 20
1409.619289030855
 42
1.0
 97
        1
330
22D
 92
        7
 72
     1
 73
     1
 93
        2
 10
-5409.78570784651
 20
1389.993962303786
 42
1.0
 10
-5369.77815473897
 20
1389.993962303786
 42
1.0
 97
        1
330
216
 92
        7
 72
     1
 73
     1
 93
        2
 10
-5178.408692374596
 20
1370.656978301809
 42
1.0
 10
-5218.416245482135
 20
1370.656978301809
 42
1.0
 97
        1
330
243
 92
        7
 72
     1
 73
     1
 93
        2
 10
-5178.408692374596
 20
1269.971302981181
 42
1.0
 10
-5218.416245482135
 20
1269.971302981181
 42
1.0
 97
        1
330
242
 92
        7
 72
     1
 73
     1
 93
        2
 10
-5178.408692374596
 20
1165.951664901585
 42
1.0
 10
-5218.416245482135
 20
1165.951664901585
 42
1.0
 97
        1
330
23A
 92
        7
 72
     1
 73
     1
 93
        2
 10
-5369.77815473897
 20
1146.61468089961
 42
1.0
 10
-5409.78570784651
 20
1146.61468089961
 42
1.0
 97
        1
330
215
 92
        7
 72
     1
 73
     1
 93
        2
 10
-5561.81440965514
 20
1127.277696897634
 42
1.0
 10
-5601.82196276268
 20
1127.277696897634
 42
1.0
 97
        1
330
228
 92
        7
 72
     1
 73
     1
 93
        2
 10
-5178.408692374596
 20
888.5659633560099
 42
1.0
 10
-5218.416245482135
 20
888.5659633560099
 42
1.0
 97
        1
330
237
 92
        7
 72
     1
 73
     1
 93
        2
 10
-5369.77815473897
 20
851.2255804556444
 42
1.0
 10
-5409.78570784651
 20
851.2255804556444
 42
1.0
 97
        1
330
214
 92
        7
 72
     1
 73
     1
 93
        2
 10
-5561.81440965514
 20
813.8851975552787
 42
1.0
 10
-5601.821962762681
 20
813.8851975552789
 42
1.0
 97
        1
330
225
 75
     0
 76
     1
 47
2.676158162350435
 98
       13
 10
-5202.030980671452
 20
1651.849129979218
 10
-5381.29905635345
 20
1684.142469374699
 10
-5584.077733835767
 20
1722.307323292923
 10
-5581.13888139913
 20
1405.24540577926
 10
-5381.29905635345
 20
1396.438124474749
 10
-5199.092128234823
 20
1364.144785079268
 10
-5202.030980671452
 20
1267.26474785203
 10
-5199.092128234823
 20
1161.577448361073
 10
-5390.115504816977
 20
1143.962885752051
 10
-5584.077733835767
 20
1129.284089924796
 10
-5204.969796825967
 20
882.6803657248383
 10
-5393.054357253614
 20
850.3870263293574
 10
-5575.26124909011
 20
818.0936869338765
  0
LINE
  5
20B
330
1DD
100
AcDbEntity
  8
0
100
AcDbLine
 10
-5183.539622086641
 20
1637.999441731883
 30
0.0
 11
-5023.292816823044
 21
1607.499646857633
 31
0.0
  0
LINE
  5
20C
330
1DD
100
AcDbEntity
  8
0
100
AcDbLine
 10
-5188.41058065148
 20
1387.980756969005
 30
0.0
 11
-5188.41058065148
 21
1634.052863939152
 31
0.0
  0
LINE
  5
20D
330
1DD
100
AcDbEntity
  8
0
100
AcDbLine
 10
-5208.414357205247
 20
1634.052863939152
 30
0.0
 11
-5208.414357205247
 21
1387.980756969005
 31
0.0
  0
LINE
  5
20E
330
1DD
100
AcDbEntity
  8
0
100
AcDbLine
 10
-5379.780043015852
 20
1407.317740970976
 30
0.0
 11
-5379.780043015852
 21
1670.059661735937
 31
0.0
  0
LINE
  5
20F
330
1DD
100
AcDbEntity
  8
0
100
AcDbLine
 10
-5399.783819569626
 20
1670.059661735937
 30
0.0
 11
-5399.783819569626
 21
1407.317740970976
 31
0.0
  0
LINE
  5
210
330
1DD
100
AcDbEntity
  8
0
100
AcDbLine
 10
-5571.816297932027
 20
1706.733252084506
 30
0.0
 11
-5571.816297932027
 21
1426.943067698052
 31
0.0
  0
LINE
  5
211
330
1DD
100
AcDbEntity
  8
0
100
AcDbLine
 10
-5591.820074485791
 20
1706.733252084506
 30
0.0
 11
-5591.820074485791
 21
1426.943067698052
 31
0.0
  0
ARC
  5
212
330
1DD
100
AcDbEntity
  8
0
100
AcDbCircle
 10
-5006.3762140122
 20
1614.703052257771
 30
0.0
 40
20.00377655376609
100
AcDbArc
 50
122.2309526355234
 51
237.7690473644765
  0
HATCH
  5
213
330
1DD
100
AcDbEntity
  8
0
 62
   250
100
AcDbHatch
 10
0.0
 20
0.0
 30
0.0
210
0.0
220
0.0
230
1.0
  2
SOLID
 70
     1
 71
     0
 91
       23
 92
        7
 72
     1
 73
     1
 93
        2
 10
-5601.821962762681
 20
1724.057030751702
 42
1.0
 10
-5561.814409655139
 20
1724.057030751702
 42
1.0
 97
        0
 92
        7
 72
     1
 73
     1
 93
        2
 10
-5369.77815473897
 20
1687.383440403127
 42
1.0
 10
-5409.785707846511
 20
1687.383440403127
 42
1.0
 97
        0
 92
        7
 72
     1
 73
     1
 93
        2
 10
-5218.416245482136
 20
1651.376642606346
 42
1.0
 10
-5178.408692374595
 20
1651.376642606346
 42
1.0
 97
        0
 92
        7
 72
     1
 73
     1
 93
        4
 10
-5188.41058065148
 20
1634.052863939152
 42
-0.2679491924310617
 10
-5208.414357205247
 20
1634.052863939152
 42
0.0
 10
-5208.414357205247
 20
1387.980756969003
 42
-0.2679491924310617
 10
-5188.41058065148
 20
1387.980756969003
 42
0.0
 97
        0
 92
        7
 72
     1
 73
     1
 93
        4
 10
-5379.780043015852
 20
1670.059661735937
 42
-0.2679491924311883
 10
-5399.783819569626
 20
1670.059661735937
 42
0.0
 10
-5399.783819569626
 20
1407.317740970976
 42
-0.2679491924311883
 10
-5379.780043015852
 20
1407.317740970976
 42
0.0
 97
        0
 92
        7
 72
     1
 73
     1
 93
        4
 10
-5571.816297932027
 20
1706.733252084508
 42
-0.2679491924310617
 10
-5591.820074485791
 20
1706.733252084508
 42
0.0
 10
-5591.820074485791
 20
1426.94306769805
 42
-0.2679491924310617
 10
-5571.816297932027
 20
1426.94306769805
 42
0.0
 97
        0
 92
        7
 72
     1
 73
     1
 93
        2
 10
-5561.814409655142
 20
1409.619289030855
 42
1.0
 10
-5601.821962762681
 20
1409.619289030855
 42
1.0
 97
        0
 92
        7
 72
     1
 73
     1
 93
        2
 10
-5369.77815473897
 20
1389.993962303786
 42
1.0
 10
-5409.785707846511
 20
1389.993962303786
 42
1.0
 97
        0
 92
        7
 72
     1
 73
     1
 93
        2
 10
-5218.416245482136
 20
1370.656978301809
 42
1.0
 10
-5178.408692374595
 20
1370.656978301809
 42
1.0
 97
        0
 92
        7
 72
     1
 73
     1
 93
        4
 10
-5188.41058065148
 20
1353.333199634615
 42
-0.2679491924310617
 10
-5208.414357205247
 20
1353.333199634615
 42
0.0
 10
-5208.414357205247
 20
1287.295081648375
 42
-0.2679491924310617
 10
-5188.41058065148
 20
1287.295081648375
 42
0.0
 97
        0
 92
        7
 72
     1
 73
     1
 93
        2
 10
-5218.416245482136
 20
1269.971302981181
 42
1.0
 10
-5178.408692374595
 20
1269.971302981181
 42
1.0
 97
        0
 92
        7
 72
     1
 73
     1
 93
        4
 10
-5188.41058065148
 20
1252.647524313986
 42
-0.2679491924310617
 10
-5208.414357205247
 20
1252.647524313986
 42
0.0
 10
-5208.414357205247
 20
1183.27544356878
 42
-0.2679491924310617
 10
-5188.41058065148
 20
1183.27544356878
 42
0.0
 97
        0
 92
        7
 72
     1
 73
     1
 93
        2
 10
-5178.408692374595
 20
1165.951664901585
 42
1.0
 10
-5218.416245482136
 20
1165.951664901585
 42
1.0
 97
        0
 92
        7
 72
     1
 73
     1
 93
        4
 10
-5188.41058065148
 20
1148.627886234391
 42
-0.2679491924310617
 10
-5208.414357205247
 20
1148.627886234391
 42
0.0
 10
-5208.414357205247
 20
905.8897420232042
 42
-0.2679491924310617
 10
-5188.41058065148
 20
905.8897420232042
 42
0.0
 97
        0
 92
        7
 72
     1
 73
     1
 93
        4
 10
-5379.780043015852
 20
1372.670183636595
 42
-0.2679491924311883
 10
-5399.783819569626
 20
1372.670183636595
 42
0.0
 10
-5399.783819569626
 20
1163.938459566801
 42
-0.2679491924311883
 10
-5379.780043015852
 20
1163.938459566801
 42
0.0
 97
        0
 92
        7
 72
     1
 73
     1
 93
        4
 10
-5379.780043015852
 20
1129.29090223242
 42
-0.2679491924311883
 10
-5399.783819569626
 20
1129.29090223242
 42
0.0
 10
-5399.783819569626
 20
868.549359122835
 42
-0.2679491924311883
 10
-5379.780043015852
 20
868.549359122835
 42
0.0
 97
        0
 92
        7
 72
     1
 73
     1
 93
        2
 10
-5369.77815473897
 20
1146.61468089961
 42
1.0
 10
-5409.785707846511
 20
1146.61468089961
 42
1.0
 97
        0
 92
        7
 72
     1
 73
     1
 93
        2
 10
-5178.408692374595
 20
888.5659633560099
 42
1.0
 10
-5218.416245482136
 20
888.5659633560099
 42
1.0
 97
        0
 92
        7
 72
     1
 73
     1
 93
        2
 10
-5409.785707846511
 20
851.2255804556444
 42
1.0
 10
-5369.77815473897
 20
851.2255804556444
 42
1.0
 97
        0
 92
        7
 72
     1
 73
     1
 93
        2
 10
-5561.814409655142
 20
813.8851975552789
 42
1.0
 10
-5601.821962762681
 20
813.8851975552789
 42
1.0
 97
        0
 92
        7
 72
     1
 73
     1
 93
        4
 10
-5571.816297932027
 20
1109.953918230439
 42
-0.2679491924310617
 10
-5591.820074485791
 20
1109.953918230439
 42
0.0
 10
-5591.820074485791
 20
831.2089762224731
 42
-0.2679491924310617
 10
-5571.816297932027
 20
831.2089762224731
 42
0.0
 97
        0
 92
        7
 72
     1
 73
     1
 93
        2
 10
-5561.814409655142
 20
1127.277696897634
 42
1.0
 10
-5601.821962762681
 20
1127.277696897634
 42
1.0
 97
        0
 92
        7
 72
     1
 73
     1
 93
        4
 10
-5571.816297932027
 20
1392.295510363661
 42
-0.2679491924310617
 10
-5591.820074485791
 20
1392.295510363661
 42
0.0
 10
-5591.820074485791
 20
1144.601475564828
 42
-0.2679491924310617
 10
-5571.816297932027
 20
1144.601475564828
 42
0.0
 97
        0
 75
     0
 76
     1
 47
2.764541729509131
 98
       23
 10
-5584.898508154549
 20
1727.086448408033
 10
-5388.411296942884
 20
1685.618340378776
 10
-5205.761182620381
 20
1652.443831106415
 10
-5197.458924486886
 20
1575.036661845039
 10
-5391.178716320713
 20
1541.862152572677
 10
-5573.828794361087
 20
1547.391237451404
 10
-5579.363669398883
 20
1406.399620645861
 10
-5385.643877565048
 20
1384.283281130956
 10
-5197.458924486886
 20
1373.225111373503
 10
-5200.226343864716
 20
1312.405196748303
 10
-5197.458924486886
 20
1270.937069678253
 10
-5194.691468826919
 20
1212.881687972018
 10
-5197.458924486886
 20
1160.355391144512
 10
-5194.691468826919
 20
1113.358179195733
 10
-5388.411296942884
 20
1306.876111869576
 10
-5388.411296942884
 20
1035.951009934356
 10
-5388.411296942884
 20
1141.003603589368
 10
-5194.691468826919
 20
881.1366714116012
 10
-5391.178716320713
 20
850.7267140990006
 10
-5576.596250021053
 20
812.0231389887084
 10
-5582.131088776719
 20
859.0203509374878
 10
-5579.363669398883
 20
1124.416348953189
 10
-5584.898508154549
 20
1185.236263578386
  0
CIRCLE
  5
214
102
{ACAD_REACTORS
330
20A
102
}
330
1DD
100
AcDbEntity
  8
0
100
AcDbCircle
 10
-5389.78193129274
 20
851.2255804556444
 30
0.0
 40
20.00377655377027
  0
CIRCLE
  5
215
102
{ACAD_REACTORS
330
20A
102
}
330
1DD
100
AcDbEntity
  8
0
100
AcDbCircle
 10
-5389.78193129274
 20
1146.61468089961
 30
0.0
 40
20.00377655377027
  0
CIRCLE
  5
216
102
{ACAD_REACTORS
330
20A
102
}
330
1DD
100
AcDbEntity
  8
0
100
AcDbCircle
 10
-5389.78193129274
 20
1389.993962303786
 30
0.0
 40
20.00377655377027
  0
LINE
  5
217
330
1DD
100
AcDbEntity
  8
0
100
AcDbLine
 10
-5379.780043015852
 20
1163.938459566801
 30
0.0
 11
-5379.780043015852
 21
1372.670183636593
 31
0.0
  0
LINE
  5
218
330
1DD
100
AcDbEntity
  8
0
100
AcDbLine
 10
-5399.783819569626
 20
1372.670183636593
 30
0.0
 11
-5399.783819569626
 21
1163.938459566801
 31
0.0
  0
LINE
  5
219
330
1DD
100
AcDbEntity
  8
0
100
AcDbLine
 10
-5571.816297932027
 20
1392.295510363661
 30
0.0
 11
-5571.816297932027
 21
1144.60147556483
 31
0.0
  0
LINE
  5
21A
330
1DD
100
AcDbEntity
  8
0
100
AcDbLine
 10
-5591.820074485791
 20
1392.295510363661
 30
0.0
 11
-5591.820074485791
 21
1141.280340485272
 31
0.0
  0
LINE
  5
21B
330
1DD
100
AcDbEntity
  8
0
100
AcDbLine
 10
-5600.830665919906
 20
820.1042562985385
 30
0.0
 11
-5817.86274954337
 21
777.8783997584978
 31
0.0
  0
LINE
  5
21C
330
1DD
100
AcDbEntity
  8
0
100
AcDbLine
 10
-5813.861994232613
 20
1093.271276756229
 30
0.0
 11
-5597.833753615795
 21
1115.292177424176
 31
0.0
  0
LINE
  5
21D
330
1DD
100
AcDbEntity
  8
0
100
AcDbLine
 10
-5600.189740263746
 20
1135.192055875057
 30
0.0
 11
-5815.862371887991
 21
1113.27505331
 31
0.0
  0
LINE
  5
21E
330
1DD
100
AcDbEntity
  8
0
100
AcDbLine
 10
-5815.862371887991
 20
1113.27505331
 30
0.0
 11
-5813.861994232613
 21
1093.271276756229
 31
0.0
  0
LINE
  5
21F
330
1DD
100
AcDbEntity
  8
0
100
AcDbLine
 10
-5379.780043015852
 20
868.549359122835
 30
0.0
 11
-5379.780043015852
 21
1129.29090223242
 31
0.0
  0
LINE
  5
220
330
1DD
100
AcDbEntity
  8
0
100
AcDbLine
 10
-5399.783819569626
 20
1129.29090223242
 30
0.0
 11
-5399.783819569626
 21
868.549359122835
 31
0.0
  0
LINE
  5
221
330
1DD
100
AcDbEntity
  8
0
100
AcDbLine
 10
-5571.816297932027
 20
831.2089762224731
 30
0.0
 11
-5571.816297932027
 21
1109.953918230439
 31
0.0
  0
LINE
  5
222
330
1DD
100
AcDbEntity
  8
0
100
AcDbLine
 10
-5591.820074485791
 20
1109.953918230439
 30
0.0
 11
-5591.820074485791
 21
831.2089762224731
 31
0.0
  0
LINE
  5
223
330
1DD
100
AcDbEntity
  8
0
100
AcDbLine
 10
-5563.031580631099
 20
807.013914758243
 30
0.0
 11
-5404.800658099715
 21
838.0123703418757
 31
0.0
  0
LINE
  5
224
330
1DD
100
AcDbEntity
  8
0
100
AcDbLine
 10
-5408.703599972736
 20
857.7156906841137
 30
0.0
 11
-5566.554219711734
 21
826.8143275796138
 31
0.0
  0
CIRCLE
  5
225
102
{ACAD_REACTORS
330
20A
102
}
330
1DD
100
AcDbEntity
  8
0
100
AcDbCircle
 10
-5581.818186208909
 20
813.8851975552789
 30
0.0
 40
20.00377655377027
  0
LINE
  5
226
330
1DD
100
AcDbEntity
  8
0
100
AcDbLine
 10
-5405.920097635948
 20
1134.79475435618
 30
0.0
 11
-5563.718945010818
 21
1118.758979595922
 31
0.0
  0
LINE
  5
227
330
1DD
100
AcDbEntity
  8
0
100
AcDbLine
 10
-5565.414296547764
 20
1138.725992858086
 30
0.0
 11
-5408.072093428915
 21
1154.715362688544
 31
0.0
  0
CIRCLE
  5
228
102
{ACAD_REACTORS
330
20A
102
}
330
1DD
100
AcDbEntity
  8
0
100
AcDbCircle
 10
-5581.818186208909
 20
1127.277696897634
 30
0.0
 40
20.00377655377027
  0
LINE
  5
229
330
1DD
100
AcDbEntity
  8
0
100
AcDbLine
 10
-5600.056740102757
 20
1401.403071636308
 30
0.0
 11
-5816.529164439782
 21
1423.333589893396
 31
0.0
  0
LINE
  5
22A
330
1DD
100
AcDbEntity
  8
0
100
AcDbLine
 10
-5813.861994232613
 20
1443.337366447162
 30
0.0
 11
-5598.031071010306
 21
1421.33651749282
 31
0.0
  0
LINE
  5
22B
330
1DD
100
AcDbEntity
  8
0
100
AcDbLine
 10
-5816.529164439782
 20
1423.333589893396
 30
0.0
 11
-5813.861994232613
 21
1443.337366447162
 31
0.0
  0
LINE
  5
22C
330
1DD
100
AcDbEntity
  8
0
100
AcDbLine
 10
-5563.57963231507
 20
1417.835506425412
 30
0.0
 11
-5405.920097635952
 21
1401.813888847211
 31
0.0
  0
CIRCLE
  5
22D
102
{ACAD_REACTORS
330
20A
102
}
330
1DD
100
AcDbEntity
  8
0
100
AcDbCircle
 10
-5581.818186208909
 20
1409.619289030855
 30
0.0
 40
20.00377655377027
  0
LINE
  5
22E
330
1DD
100
AcDbEntity
  8
0
100
AcDbLine
 10
-5408.072093428918
 20
1381.893280514856
 30
0.0
 11
-5565.60530140751
 21
1397.9020605689
 31
0.0
  0
LINE
  5
22F
330
1DD
100
AcDbEntity
  8
0
100
AcDbLine
 10
-5188.41058065148
 20
1252.647524313984
 30
0.0
 11
-5188.41058065148
 21
1183.275443568782
 31
0.0
  0
LINE
  5
230
330
1DD
100
AcDbEntity
  8
0
100
AcDbLine
 10
-5208.414357205247
 20
1252.647524313984
 30
0.0
 11
-5208.414357205247
 21
1183.275443568782
 31
0.0
  0
LINE
  5
231
330
1DD
100
AcDbEntity
  8
0
100
AcDbLine
 10
-5179.463003404105
 20
882.1574664372146
 30
0.0
 11
-5020.916426788875
 21
913.2177606863971
 31
0.0
  0
LINE
  5
232
330
1DD
100
AcDbEntity
  8
0
100
AcDbLine
 10
-5023.578914985877
 20
933.1089818283635
 30
0.0
 11
-5183.426779947824
 21
901.8166313464044
 31
0.0
  0
LINE
  5
233
330
1DD
100
AcDbEntity
  8
0
100
AcDbLine
 10
-5188.41058065148
 20
905.889742023206
 30
0.0
 11
-5188.41058065148
 21
1148.627886234391
 31
0.0
  0
LINE
  5
234
330
1DD
100
AcDbEntity
  8
0
100
AcDbLine
 10
-5208.414357205247
 20
1148.627886234391
 30
0.0
 11
-5208.414357205247
 21
905.889742023206
 31
0.0
  0
LINE
  5
235
330
1DD
100
AcDbEntity
  8
0
100
AcDbLine
 10
-5370.887657040899
 20
844.6561454031051
 30
0.0
 11
-5213.543034151507
 21
875.4809691855315
 31
0.0
  0
LINE
  5
236
330
1DD
100
AcDbEntity
  8
0
100
AcDbLine
 10
-5217.288457119839
 20
895.187756633406
 30
0.0
 11
-5374.704279347936
 21
864.3715109379099
 31
0.0
  0
CIRCLE
  5
237
102
{ACAD_REACTORS
330
20A
102
}
330
1DD
100
AcDbEntity
  8
0
100
AcDbCircle
 10
-5198.412468928365
 20
888.5659633560099
 30
0.0
 40
20.00377655377027
  0
LINE
  5
238
330
1DD
100
AcDbEntity
  8
0
100
AcDbLine
 10
-5214.625353729761
 20
1154.234436439626
 30
0.0
 11
-5371.595909059809
 21
1138.282834060135
 31
0.0
  0
LINE
  5
239
330
1DD
100
AcDbEntity
  8
0
100
AcDbLine
 10
-5373.495251451734
 20
1158.229117440818
 30
0.0
 11
-5216.651022822201
 21
1174.167882296145
 31
0.0
  0
CIRCLE
  5
23A
102
{ACAD_REACTORS
330
20A
102
}
330
1DD
100
AcDbEntity
  8
0
100
AcDbCircle
 10
-5198.412468928365
 20
1165.951664901585
 30
0.0
 40
20.00377655377027
  0
ARC
  5
23B
330
1DD
100
AcDbEntity
  8
0
100
AcDbCircle
 10
-5006.3762140122
 20
926.5731388081658
 30
0.0
 40
20.00377655376609
100
AcDbArc
 50
122.2309526355234
 51
237.7690473644765
  0
LINE
  5
23C
330
1DD
100
AcDbEntity
  8
0
100
AcDbLine
 10
-5024.255541567987
 20
1261.432712200087
 30
0.0
 11
-5180.672263927883
 21
1260.728132369637
 31
0.0
  0
LINE
  5
23D
330
1DD
100
AcDbEntity
  8
0
100
AcDbLine
 10
-5180.73833869706
 20
1279.340198165784
 30
0.0
 11
-5024.092366951887
 21
1279.693004408453
 31
0.0
  0
LINE
  5
23E
330
1DD
100
AcDbEntity
  8
0
100
AcDbLine
 10
-5216.651022822205
 20
1362.440760907258
 30
0.0
 11
-5373.495251451734
 21
1378.37952576258
 31
0.0
  0
LINE
  5
23F
330
1DD
100
AcDbEntity
  8
0
100
AcDbLine
 10
-5371.595909059806
 20
1398.325809143256
 30
0.0
 11
-5214.625353729761
 21
1382.37420676377
 31
0.0
  0
LINE
  5
240
330
1DD
100
AcDbEntity
  8
0
100
AcDbLine
 10
-5188.41058065148
 20
1353.333199634615
 30
0.0
 11
-5188.41058065148
 21
1287.295081648375
 31
0.0
  0
LINE
  5
241
330
1DD
100
AcDbEntity
  8
0
100
AcDbLine
 10
-5208.414357205247
 20
1353.333199634615
 30
0.0
 11
-5208.414357205247
 21
1287.295081648375
 31
0.0
  0
CIRCLE
  5
242
102
{ACAD_REACTORS
330
20A
102
}
330
1DD
100
AcDbEntity
  8
0
100
AcDbCircle
 10
-5198.412468928365
 20
1269.971302981181
 30
0.0
 40
20.00377655377027
  0
CIRCLE
  5
243
102
{ACAD_REACTORS
330
20A
102
}
330
1DD
100
AcDbEntity
  8
0
100
AcDbCircle
 10
-5198.412468928365
 20
1370.656978301809
 30
0.0
 40
20.00377655377027
  0
ARC
  5
244
330
1DD
100
AcDbEntity
  8
0
100
AcDbCircle
 10
-5006.3762140122
 20
1270.403817068827
 30
0.0
 40
20.00377655377027
100
AcDbArc
 50
122.2309526355234
 51
237.7690473644765
  0
CIRCLE
  5
245
102
{ACAD_REACTORS
330
20A
102
}
330
1DD
100
AcDbEntity
  8
0
100
AcDbCircle
 10
-5389.78193129274
 20
1687.383440403127
 30
0.0
 40
20.00377655377027
  0
LINE
  5
246
330
1DD
100
AcDbEntity
  8
0
100
AcDbLine
 10
-5596.651595824003
 20
1737.477948589319
 30
0.0
 11
-5812.528409129033
 21
1778.734019998668
 31
0.0
  0
LINE
  5
247
330
1DD
100
AcDbEntity
  8
0
100
AcDbLine
 10
-5817.86274954337
 20
1758.730243444897
 30
0.0
 11
-5600.679565742403
 21
1717.393740385321
 31
0.0
  0
LINE
  5
248
330
1DD
100
AcDbEntity
  8
0
100
AcDbLine
 10
-5812.528409129033
 20
1778.734019998668
 30
0.0
 11
-5817.86274954337
 21
1758.730243444897
 31
0.0
  0
LINE
  5
249
330
1DD
100
AcDbEntity
  8
0
100
AcDbLine
 10
-5404.635623939024
 20
1700.781906404237
 30
0.0
 11
-5563.081137794406
 21
1731.062321118681
 31
0.0
  0
LINE
  5
24A
330
1DD
100
AcDbEntity
  8
0
100
AcDbLine
 10
-5566.723339701615
 20
1710.930847554202
 30
0.0
 11
-5408.689455582361
 21
1680.852238243462
 31
0.0
  0
CIRCLE
  5
24B
102
{ACAD_REACTORS
330
20A
102
}
330
1DD
100
AcDbEntity
  8
0
100
AcDbCircle
 10
-5581.818186208909
 20
1724.057030751702
 30
0.0
 40
20.00377655377027
  0
LINE
  5
24C
330
1DD
100
AcDbEntity
  8
0
100
AcDbLine
 10
-5017.044894840871
 20
1626.709704983139
 30
0.0
 11
-5179.450098514813
 21
1657.746853333828
 31
0.0
  0
LINE
  5
24D
330
1DD
100
AcDbEntity
  8
0
100
AcDbLine
 10
-5213.6895078639
 20
1664.290323637533
 30
0.0
 11
-5371.034308360786
 21
1694.360381768403
 31
0.0
  0
LINE
  5
24E
330
1DD
100
AcDbEntity
  8
0
100
AcDbLine
 10
-5374.595643432365
 20
1674.363158630638
 30
0.0
 11
-5217.159582653438
 21
1644.39833311247
 31
0.0
  0
CIRCLE
  5
24F
102
{ACAD_REACTORS
330
20A
102
}
330
1DD
100
AcDbEntity
  8
0
100
AcDbCircle
 10
-5198.412468928365
 20
1651.376642606346
 30
0.0
 40
20.00377655377027
  0
LWPOLYLINE
  5
250
330
1DD
100
AcDbEntity
  8
0
100
AcDbPolyline
 90
        4
 70
     1
 43
0.0
 10
-4728.323719914829
 20
1562.693233217975
 10
-4145.019352089428
 20
1562.693233217975
 10
-4145.019352089428
 20
979.2497503997546
 10
-4728.323719914829
 20
979.2497503997546
  0
ARC
  5
251
330
1DD
100
AcDbEntity
  8
0
100
AcDbCircle
 10
-4037.945563515725
 20
1269.304510429381
 30
0.0
 40
309.1438787374797
100
AcDbArc
 50
306.0174788173628
 51
53.98252118263719
  0
ARC
  5
252
330
1DD
100
AcDbEntity
  8
0
100
AcDbCircle
 10
-4031.709561478492
 20
1269.304510429385
 30
0.0
 40
268.9014565588423
100
AcDbArc
 50
310.7563149162313
 51
49.24368508376861
  0
ARC
  5
253
102
{ACAD_REACTORS
330
254
102
}
330
1DD
100
AcDbEntity
  8
0
100
AcDbCircle
 10
-4436.698216605984
 20
1663.760094957937
 30
0.0
 40
327.0140425069816
100
AcDbArc
 50
35.01856012009238
 51
144.9814398799076
  0
HATCH
  5
254
330
1DD
100
AcDbEntity
  8
0
 62
    50
100
AcDbHatch
 10
0.0
 20
0.0
 30
0.0
210
0.0
220
0.0
230
1.0
  2
SOLID
 70
     1
 71
     1
 91
        1
 92
        7
 72
     1
 73
     1
 93
        4
 10
-4264.236103867412
 20
1851.414408144017
 42
0.0
 10
-4168.884768961138
 20
1851.414408144017
 42
0.5203612086937114
 10
-4704.511664250831
 20
1851.414408144017
 42
0.0
 10
-4608.967853144019
 20
1851.414408144017
 42
-0.3984526112186042
 97
        3
330
1EC
330
255
330
253
 75
     0
 76
     1
 47
5.50999374987631
 98
        1
 10
-4430.951736206933
 20
1949.505483632354
  0
ARC
  5
255
102
{ACAD_REACTORS
330
254
330
256
102
}
330
1DD
100
AcDbEntity
  8
0
100
AcDbCircle
 10
-4436.601978505716
 20
1669.460153716674
 30
0.0
 40
250.6338872619529
100
AcDbArc
 50
46.55012262354119
 51
133.4498773764588
  0
HATCH
  5
256
330
1DD
100
AcDbEntity
  8
0
 62
   250
100
AcDbHatch
 10
0.0
 20
0.0
 30
0.0
210
0.0
220
0.0
230
1.0
  2
SOLID
 70
     1
 71
     1
 91
        1
 92
        7
 72
     1
 73
     1
 93
        2
 10
-4264.236103867412
 20
1851.414408144017
 42
0.3984526112186028
 10
-4608.967853144018
 20
1851.414408144017
 42
0.0
 97
        2
330
1EC
330
255
 75
     0
 76
     1
 47
3.366206442624165
 98
        1
 10
-4410.402567657157
 20
1878.55541458285
  0
LINE
  5
257
330
1DD
100
AcDbEntity
  8
0
100
AcDbLine
 10
-4711.653906120026
 20
1859.415918765531
 30
0.0
 11
-4698.722991402052
 21
1859.415918765531
 31
0.0
  0
LINE
  5
258
330
1DD
100
AcDbEntity
  8
0
100
AcDbLine
 10
-4711.653906120026
 20
1884.754035733634
 30
0.0
 11
-4711.653906120026
 21
1859.415918765531
 31
0.0
  0
LINE
  5
259
330
1DD
100
AcDbEntity
  8
0
100
AcDbLine
 10
-4677.73734649403
 20
1884.754035733634
 30
0.0
 11
-4711.653906120026
 21
1884.754035733634
 31
0.0
  0
LINE
  5
25A
330
1DD
100
AcDbEntity
  8
0
100
AcDbLine
 10
-4161.550050891413
 20
1859.415918765531
 30
0.0
 11
-4174.673441809915
 21
1859.415918765531
 31
0.0
  0
LINE
  5
25B
330
1DD
100
AcDbEntity
  8
0
100
AcDbLine
 10
-4161.550050891413
 20
1884.754035733634
 30
0.0
 11
-4161.550050891413
 21
1859.415918765531
 31
0.0
  0
LINE
  5
25C
330
1DD
100
AcDbEntity
  8
0
100
AcDbLine
 10
-4195.65908671794
 20
1884.754035733634
 30
0.0
 11
-4161.550050891413
 21
1884.754035733634
 31
0.0
  0
POLYLINE
  5
25D
330
1DD
100
AcDbEntity
  8
0
 62
     7
100
AcDb2dPolyline
 66
     1
 10
0.0
 20
0.0
 30
0.0
  0
VERTEX
  5
25E
330
25D
100
AcDbEntity
  8
0
 62
     7
100
AcDbVertex
100
AcDb2dVertex
 10
-4731.789387233077
 20
3465.907333505718
 30
0.0
  0
VERTEX
  5
25F
330
25D
100
AcDbEntity
  8
0
 62
     7
100
AcDbVertex
100
AcDb2dVertex
 10
-4731.326711043849
 20
3465.907333505718
 30
0.0
  0
SEQEND
  5
260
330
25D
100
AcDbEntity
  8
0
 62
     7
  0
POLYLINE
  5
261
330
1DD
100
AcDbEntity
  8
0
 62
     7
100
AcDb2dPolyline
 66
     1
 10
0.0
 20
0.0
 30
0.0
  0
VERTEX
  5
262
330
261
100
AcDbEntity
  8
0
 62
     7
100
AcDbVertex
100
AcDb2dVertex
 10
-4414.393521422781
 20
3489.50381915634
 30
0.0
  0
VERTEX
  5
263
330
261
100
AcDbEntity
  8
0
 62
     7
100
AcDbVertex
100
AcDb2dVertex
 10
-4413.930845233554
 20
3489.50381915634
 30
0.0
  0
SEQEND
  5
264
330
261
100
AcDbEntity
  8
0
 62
     7
  0
POLYLINE
  5
265
330
1DD
100
AcDbEntity
  8
0
 62
     7
100
AcDb2dPolyline
 66
     1
 10
0.0
 20
0.0
 30
0.0
  0
VERTEX
  5
266
330
265
100
AcDbEntity
  8
0
 62
     7
100
AcDbVertex
100
AcDb2dVertex
 10
-991.9777497044815
 20
-109.6542568469958
 30
0.0
  0
VERTEX
  5
267
330
265
100
AcDbEntity
  8
0
 62
     7
100
AcDbVertex
100
AcDb2dVertex
 10
-991.5150735152529
 20
-109.6542568469958
 30
0.0
  0
SEQEND
  5
268
330
265
100
AcDbEntity
  8
0
 62
     7
  0
POLYLINE
  5
269
330
1DD
100
AcDbEntity
  8
0
 62
     7
100
AcDb2dPolyline
 66
     1
 10
0.0
 20
0.0
 30
0.0
  0
VERTEX
  5
26A
330
269
100
AcDbEntity
  8
0
 62
     7
100
AcDbVertex
100
AcDb2dVertex
 10
0.0
 20
0.0
 30
0.0
  0
VERTEX
  5
26B
330
269
100
AcDbEntity
  8
0
 62
     7
100
AcDbVertex
100
AcDb2dVertex
 10
0.4626761892268405
 20
0.0
 30
0.0
  0
SEQEND
  5
26C
330
269
100
AcDbEntity
  8
0
 62
     7
  0
HATCH
  5
26D
330
1DD
100
AcDbEntity
  8
0
 62
   150
100
AcDbHatch
 10
0.0
 20
0.0
 30
0.0
210
0.0
220
0.0
230
1.0
  2
SOLID
 70
     1
 71
     0
 91
        2
 92
        7
 72
     0
 73
     1
 93
        4
 10
-1997.141427773762
 20
1539.35549390525
 10
-2926.650244972161
 20
1539.35549390525
 10
-2926.650244972159
 20
1520.018509903271
 10
-1997.141427773756
 20
1520.018509903273
 97
        0
 92
        7
 72
     0
 73
     1
 93
        4
 10
-1997.141427773765
 20
1021.924473714458
 10
-2926.650244972168
 20
1021.924473714458
 10
-2926.650244972162
 20
1002.587489712475
 10
-1997.14142777376
 20
1002.587489712474
 97
        0
 75
     0
 76
     1
 47
2.231880503813954
 98
        2
 10
-2370.100995292669
 20
1530.548698111932
 10
-2472.874613963766
 20
1006.056735548976
  0
LINE
  5
26E
330
1DD
100
AcDbEntity
  8
0
100
AcDbLine
 10
-2926.650244972162
 20
1002.587489712477
 30
0.0
 11
-2926.650244972167
 21
1021.924473714459
 31
0.0
  0
LINE
  5
26F
330
1DD
100
AcDbEntity
  8
0
100
AcDbLine
 10
-2926.650244972162
 20
1539.355493905248
 30
0.0
 11
-2926.650244972161
 21
1520.018509903271
 31
0.0
  0
LINE
  5
270
330
1DD
100
AcDbEntity
  8
0
100
AcDbLine
 10
-2182.843153447904
 20
1270.638095532971
 30
0.0
 11
-2181.176172068424
 21
1179.287515937434
 31
0.0
  0
LINE
  5
271
330
1DD
100
AcDbEntity
  8
0
100
AcDbLine
 10
-2093.159555231843
 20
1067.266367236332
 30
0.0
 11
-2084.491252058545
 21
1053.263723648697
 31
0.0
  0
LINE
  5
272
330
1DD
100
AcDbEntity
  8
0
100
AcDbLine
 10
-2131.833523235795
 20
1093.271276756229
 30
0.0
 11
-2105.161821164107
 21
1077.268255513216
 31
0.0
  0
LINE
  5
273
330
1DD
100
AcDbEntity
  8
0
100
AcDbLine
 10
-2105.161821164107
 20
1077.268255513216
 30
0.0
 11
-2093.159555231843
 21
1067.266367236332
 31
0.0
  0
LINE
  5
274
330
1DD
100
AcDbEntity
  8
0
100
AcDbLine
 10
-2161.172395514654
 20
1119.276186276127
 30
0.0
 11
-2131.833523235795
 21
1093.271276756229
 31
0.0
  0
LINE
  5
275
330
1DD
100
AcDbEntity
  8
0
100
AcDbLine
 10
-2175.841831654086
 20
1147.281473451404
 30
0.0
 11
-2161.172395514654
 21
1119.276186276127
 31
0.0
  0
LINE
  5
276
330
1DD
100
AcDbEntity
  8
0
100
AcDbLine
 10
-2181.176172068424
 20
1179.287515937434
 30
0.0
 11
-2175.841831654086
 21
1147.281473451404
 31
0.0
  0
LINE
  5
277
330
1DD
100
AcDbEntity
  8
0
100
AcDbLine
 10
-2081.157289299584
 20
1034.593532198512
 30
0.0
 11
-2081.157289299584
 21
1021.924473714459
 31
0.0
  0
LINE
  5
278
330
1DD
100
AcDbEntity
  8
0
100
AcDbLine
 10
-2084.491252058545
 20
1053.263723648697
 30
0.0
 11
-2081.157289299584
 21
1034.593532198512
 31
0.0
  0
LINE
  5
279
330
1DD
100
AcDbEntity
  8
0
100
AcDbLine
 10
-1997.14142777376
 20
1002.58748971247
 30
0.0
 11
-1997.141427773765
 21
1021.924473714459
 31
0.0
  0
LINE
  5
27A
330
1DD
100
AcDbEntity
  8
0
100
AcDbLine
 10
-2156.504847652111
 20
1428.001137755942
 30
0.0
 11
-2173.841453998707
 21
1400.662643132458
 31
0.0
  0
LINE
  5
27B
330
1DD
100
AcDbEntity
  8
0
100
AcDbLine
 10
-2181.176172068424
 20
1362.655467680302
 30
0.0
 11
-2182.843153447904
 21
1270.638095532971
 31
0.0
  0
LINE
  5
27C
330
1DD
100
AcDbEntity
  8
0
100
AcDbLine
 10
-2173.841453998707
 20
1400.662643132458
 30
0.0
 11
-2181.176172068424
 21
1362.655467680302
 31
0.0
  0
LINE
  5
27D
330
1DD
100
AcDbEntity
  8
0
100
AcDbLine
 10
-2083.824459506752
 20
1491.346430176205
 30
0.0
 11
-2091.159177576471
 21
1477.343786588571
 31
0.0
  0
LINE
  5
27E
330
1DD
100
AcDbEntity
  8
0
100
AcDbLine
 10
-2131.833523235795
 20
1448.671706861503
 30
0.0
 11
-2156.504847652111
 21
1428.001137755942
 31
0.0
  0
LINE
  5
27F
330
1DD
100
AcDbEntity
  8
0
100
AcDbLine
 10
-2105.161821164107
 20
1464.007935552723
 30
0.0
 11
-2131.833523235795
 21
1448.671706861503
 31
0.0
  0
LINE
  5
280
330
1DD
100
AcDbEntity
  8
0
100
AcDbLine
 10
-2091.159177576471
 20
1477.343786588571
 30
0.0
 11
-2105.161821164107
 21
1464.007935552723
 31
0.0
  0
LINE
  5
281
330
1DD
100
AcDbEntity
  8
0
100
AcDbLine
 10
-2081.157289299584
 20
1520.018509903273
 30
0.0
 11
-2081.157289299584
 21
1507.34945141922
 31
0.0
  0
LINE
  5
282
330
1DD
100
AcDbEntity
  8
0
100
AcDbLine
 10
-2081.157289299584
 20
1507.34945141922
 30
0.0
 11
-2083.824459506752
 21
1491.346430176205
 31
0.0
  0
LINE
  5
283
330
1DD
100
AcDbEntity
  8
0
100
AcDbLine
 10
-1997.14142777376
 20
1539.355493905248
 30
0.0
 11
-1997.141427773756
 21
1520.018509903273
 31
0.0
  0
POLYLINE
  5
284
330
1DD
100
AcDbEntity
  8
0
 62
     7
100
AcDb2dPolyline
 66
     1
 10
0.0
 20
0.0
 30
0.0
  0
VERTEX
  5
285
330
284
100
AcDbEntity
  8
0
 62
     7
100
AcDbVertex
100
AcDb2dVertex
 10
0.0
 20
1529.607481587227
 30
0.0
  0
VERTEX
  5
286
330
284
100
AcDbEntity
  8
0
 62
     7
100
AcDbVertex
100
AcDb2dVertex
 10
0.4626761892268405
 20
1529.607481587227
 30
0.0
  0
SEQEND
  5
287
330
284
100
AcDbEntity
  8
0
 62
     7
  0
POLYLINE
  5
288
330
1DD
100
AcDbEntity
  8
0
 62
     7
100
AcDb2dPolyline
 66
     1
 10
0.0
 20
0.0
 30
0.0
  0
VERTEX
  5
289
330
288
100
AcDbEntity
  8
0
 62
     7
100
AcDbVertex
100
AcDb2dVertex
 10
-833.2798167993333
 20
2541.942983617731
 30
0.0
  0
VERTEX
  5
28A
330
288
100
AcDbEntity
  8
0
 62
     7
100
AcDbVertex
100
AcDb2dVertex
 10
-571.8677698856063
 20
2541.942983617731
 30
0.0
  0
SEQEND
  5
28B
330
288
100
AcDbEntity
  8
0
 62
     7
  0
POLYLINE
  5
28C
330
1DD
100
AcDbEntity
  8
0
 62
     7
100
AcDb2dPolyline
 66
     1
 10
0.0
 20
0.0
 30
0.0
  0
VERTEX
  5
28D
330
28C
100
AcDbEntity
  8
0
 62
     7
100
AcDbVertex
100
AcDb2dVertex
 10
-1093.303835145378
 20
2735.341630714967
 30
0.0
  0
VERTEX
  5
28E
330
28C
100
AcDbEntity
  8
0
 62
     7
100
AcDbVertex
100
AcDb2dVertex
 10
-1092.841158956149
 20
2735.341630714967
 30
0.0
  0
SEQEND
  5
28F
330
28C
100
AcDbEntity
  8
0
 62
     7
  0
POLYLINE
  5
290
330
1DD
100
AcDbEntity
  8
0
 62
     7
100
AcDb2dPolyline
 66
     1
 10
0.0
 20
0.0
 30
0.0
  0
VERTEX
  5
291
330
290
100
AcDbEntity
  8
0
 62
     7
100
AcDbVertex
100
AcDb2dVertex
 10
-883.2488452359394
 20
2541.942983617731
 30
0.0
  0
VERTEX
  5
292
330
290
100
AcDbEntity
  8
0
 62
     7
100
AcDbVertex
100
AcDb2dVertex
 10
-882.7861690467125
 20
2541.942983617731
 30
0.0
  0
SEQEND
  5
293
330
290
100
AcDbEntity
  8
0
 62
     7
  0
POLYLINE
  5
294
330
1DD
100
AcDbEntity
  8
0
 62
     7
100
AcDb2dPolyline
 66
     1
 10
0.0
 20
0.0
 30
0.0
  0
VERTEX
  5
295
330
294
100
AcDbEntity
  8
0
 62
     7
100
AcDbVertex
100
AcDb2dVertex
 10
0.0
 20
2541.942983617731
 30
0.0
  0
VERTEX
  5
296
330
294
100
AcDbEntity
  8
0
 62
     7
100
AcDbVertex
100
AcDb2dVertex
 10
0.4626761892268405
 20
2541.942983617731
 30
0.0
  0
SEQEND
  5
297
330
294
100
AcDbEntity
  8
0
 62
     7
  0
POLYLINE
  5
298
330
1DD
100
AcDbEntity
  8
0
 62
     7
100
AcDb2dPolyline
 66
     1
 10
0.0
 20
0.0
 30
0.0
  0
VERTEX
  5
299
330
298
100
AcDbEntity
  8
0
 62
     7
100
AcDbVertex
100
AcDb2dVertex
 10
0.0
 20
2541.942983617731
 30
0.0
  0
VERTEX
  5
29A
330
298
100
AcDbEntity
  8
0
 62
     7
100
AcDbVertex
100
AcDb2dVertex
 10
0.4626761892268405
 20
2541.942983617731
 30
0.0
  0
SEQEND
  5
29B
330
298
100
AcDbEntity
  8
0
 62
     7
  0
ENDBLK
  5
1DF
330
1DD
100
AcDbEntity
  8
0
100
AcDbBlockEnd
  0
ENDSEC
  0
SECTION
  2
ENTITIES
  0
INSERT
  5
29C
330
1F
100
AcDbEntity
  8
0
100
AcDbBlockReference
  2
ADKM
 10
7320.000044796501
 20
1951.105479047644
 30
0.0
  0
MTEXT
  5
29D
330
1F
100
AcDbEntity
  8
0
100
AcDbMText
 10
2873.250118981406
 20
4620.392056642275
 30
0.0
 40
250.0
 41
20317.12
 71
     1
 72
     5
  1
{\Fisocp.shx;Hoogte: 315 cm\PVrije Valhoogte: 90cm}
1001
ACAD
1000
MTEXTBEGIN
1070
    73
1070
     1
1070
    44
1040
1.0
1070
    74
1070
     0
1000
MTEXTEND
  0
ENDSEC
  0
SECTION
  2
OBJECTS
  0
DICTIONARY
  5
C
330
0
100
AcDbDictionary
  3
ACAD_GROUP
350
D
  3
ACAD_LAYOUT
350
1A
  3
ACAD_MLINESTYLE
350
17
  3
ACAD_PLOTSETTINGS
350
19
  3
ACAD_PLOTSTYLENAME
350
E
  3
ACDBHEADERROUNDTRIPXREC
350
2A0
  0
DICTIONARY
  5
2C1
330
1F
100
AcDbDictionary
280
     1
  3
ACAD_LAYOUTSELFREF
360
2C2
  0
DICTIONARY
  5
2C3
330
50
100
AcDbDictionary
280
     1
  3
ACAD_LAYOUTSELFREF
360
2C4
  0
DICTIONARY
  5
D
102
{ACAD_REACTORS
330
C
102
}
330
C
100
AcDbDictionary
  0
DICTIONARY
  5
1A
102
{ACAD_REACTORS
330
C
102
}
330
C
100
AcDbDictionary
  0
DICTIONARY
  5
17
102
{ACAD_REACTORS
330
C
102
}
330
C
100
AcDbDictionary
  3
STANDARD
350
18
  0
DICTIONARY
  5
19
102
{ACAD_REACTORS
330
C
102
}
330
C
100
AcDbDictionary
  0
ACDBDICTIONARYWDFLT
  5
E
102
{ACAD_REACTORS
330
C
102
}
330
C
100
AcDbDictionary
281
     1
  3
Normal
350
F
100
AcDbDictionaryWithDefault
340
F
  0
DICTIONARY
  5
2A0
102
{ACAD_REACTORS
330
C
102
}
330
C
100
AcDbDictionary
  3
CEPSNTYPE
350
2AA
  3
DIMSTYLEDATA
350
2AE
  3
FINGERPRINTGUID
350
2AB
  3
HYPERLINKBASE
350
2A3
  3
INSUNITS
350
2A9
  3
LAYOUTDICT
350
2A5
  3
LWETCUNION
350
2A8
  3
PLOTSETDICT
350
2A6
  3
PLOTSTYLNAMDICT
350
2A7
  3
PSVPSCALE
350
2AD
  3
PUCSBASE
350
2B1
  3
PUCSORGBACK
350
2B7
  3
PUCSORGBOTTOM
350
2B3
  3
PUCSORGFRONT
350
2B6
  3
PUCSORGLEFT
350
2B4
  3
PUCSORGRIGHT
350
2B5
  3
PUCSORGTOP
350
2B2
  3
PUCSORTHOREF
350
2AF
  3
PUCSORTHOVIEW
350
2B0
  3
STYLESHEET
350
2A4
  3
TSTACKALIGN
350
2A1
  3
TSTACKSIZE
350
2A2
  3
UCSBASE
350
2BA
  3
UCSORGBACK
350
2C0
  3
UCSORGBOTTOM
350
2BC
  3
UCSORGFRONT
350
2BF
  3
UCSORGLEFT
350
2BD
  3
UCSORGRIGHT
350
2BE
  3
UCSORGTOP
350
2BB
  3
UCSORTHOREF
350
2B8
  3
UCSORTHOVIEW
350
2B9
  3
VERSIONGUID
350
2AC
  0
XRECORD
  5
2C2
102
{ACAD_REACTORS
330
2C1
102
}
330
2C1
100
AcDbXrecord
340
1F
  0
XRECORD
  5
2C4
102
{ACAD_REACTORS
330
2C3
102
}
330
2C3
100
AcDbXrecord
340
50
  0
MLINESTYLE
  5
18
102
{ACAD_REACTORS
330
17
102
}
330
17
100
AcDbMlineStyle
  2
STANDARD
 70
     0
  3

 62
   256
 51
90.0
 52
90.0
 71
     2
 49
0.5
 62
   256
  6
BYLAYER
 49
-0.5
 62
   256
  6
BYLAYER
  0
ACDBPLACEHOLDER
  5
F
102
{ACAD_REACTORS
330
E
102
}
330
E
100
AcDbPlaceHolder
280
     0
  0
XRECORD
  5
2AA
102
{ACAD_REACTORS
330
2A0
102
}
330
2A0
100
AcDbXrecord
 90
        0
  0
XRECORD
  5
2AE
102
{ACAD_REACTORS
330
2A0
102
}
330
2A0
100
AcDbXrecord
1000
DSTYLE
1002
{
1070
   278
 70
    44
1002
}
  0
XRECORD
  5
2AB
102
{ACAD_REACTORS
330
2A0
102
}
330
2A0
100
AcDbXrecord
  1
{FDEAD578-A652-11D2-9A35-0060089B3A3F}
  0
XRECORD
  5
2A3
102
{ACAD_REACTORS
330
2A0
102
}
330
2A0
100
AcDbXrecord
  1

  0
XRECORD
  5
2A9
102
{ACAD_REACTORS
330
2A0
102
}
330
2A0
100
AcDbXrecord
 90
        4
  0
XRECORD
  5
2A5
102
{ACAD_REACTORS
330
2A0
102
}
330
2A0
100
AcDbXrecord
340
1A
  0
XRECORD
  5
2A8
102
{ACAD_REACTORS
330
2A0
102
}
330
2A0
100
AcDbXrecord
 90
    10781
  0
XRECORD
  5
2A6
102
{ACAD_REACTORS
330
2A0
102
}
330
2A0
100
AcDbXrecord
340
19
  0
XRECORD
  5
2A7
102
{ACAD_REACTORS
330
2A0
102
}
330
2A0
100
AcDbXrecord
340
E
  0
XRECORD
  5
2AD
102
{ACAD_REACTORS
330
2A0
102
}
330
2A0
100
AcDbXrecord
 40
0.0
  0
XRECORD
  5
2B1
102
{ACAD_REACTORS
330
2A0
102
}
330
2A0
100
AcDbXrecord
340
0
  0
XRECORD
  5
2B7
102
{ACAD_REACTORS
330
2A0
102
}
330
2A0
100
AcDbXrecord
 10
0.0
 20
0.0
 30
0.0
  0
XRECORD
  5
2B3
102
{ACAD_REACTORS
330
2A0
102
}
330
2A0
100
AcDbXrecord
 10
0.0
 20
0.0
 30
0.0
  0
XRECORD
  5
2B6
102
{ACAD_REACTORS
330
2A0
102
}
330
2A0
100
AcDbXrecord
 10
0.0
 20
0.0
 30
0.0
  0
XRECORD
  5
2B4
102
{ACAD_REACTORS
330
2A0
102
}
330
2A0
100
AcDbXrecord
 10
0.0
 20
0.0
 30
0.0
  0
XRECORD
  5
2B5
102
{ACAD_REACTORS
330
2A0
102
}
330
2A0
100
AcDbXrecord
 10
0.0
 20
0.0
 30
0.0
  0
XRECORD
  5
2B2
102
{ACAD_REACTORS
330
2A0
102
}
330
2A0
100
AcDbXrecord
 10
0.0
 20
0.0
 30
0.0
  0
XRECORD
  5
2AF
102
{ACAD_REACTORS
330
2A0
102
}
330
2A0
100
AcDbXrecord
340
0
  0
XRECORD
  5
2B0
102
{ACAD_REACTORS
330
2A0
102
}
330
2A0
100
AcDbXrecord
 70
     0
  0
XRECORD
  5
2A4
102
{ACAD_REACTORS
330
2A0
102
}
330
2A0
100
AcDbXrecord
  1

  0
XRECORD
  5
2A1
102
{ACAD_REACTORS
330
2A0
102
}
330
2A0
100
AcDbXrecord
 90
        1
  0
XRECORD
  5
2A2
102
{ACAD_REACTORS
330
2A0
102
}
330
2A0
100
AcDbXrecord
 90
       70
  0
XRECORD
  5
2BA
102
{ACAD_REACTORS
330
2A0
102
}
330
2A0
100
AcDbXrecord
340
0
  0
XRECORD
  5
2C0
102
{ACAD_REACTORS
330
2A0
102
}
330
2A0
100
AcDbXrecord
 10
0.0
 20
0.0
 30
0.0
  0
XRECORD
  5
2BC
102
{ACAD_REACTORS
330
2A0
102
}
330
2A0
100
AcDbXrecord
 10
0.0
 20
0.0
 30
0.0
  0
XRECORD
  5
2BF
102
{ACAD_REACTORS
330
2A0
102
}
330
2A0
100
AcDbXrecord
 10
0.0
 20
0.0
 30
0.0
  0
XRECORD
  5
2BD
102
{ACAD_REACTORS
330
2A0
102
}
330
2A0
100
AcDbXrecord
 10
0.0
 20
0.0
 30
0.0
  0
XRECORD
  5
2BE
102
{ACAD_REACTORS
330
2A0
102
}
330
2A0
100
AcDbXrecord
 10
0.0
 20
0.0
 30
0.0
  0
XRECORD
  5
2BB
102
{ACAD_REACTORS
330
2A0
102
}
330
2A0
100
AcDbXrecord
 10
0.0
 20
0.0
 30
0.0
  0
XRECORD
  5
2B8
102
{ACAD_REACTORS
330
2A0
102
}
330
2A0
100
AcDbXrecord
340
0
  0
XRECORD
  5
2B9
102
{ACAD_REACTORS
330
2A0
102
}
330
2A0
100
AcDbXrecord
 70
     0
  0
XRECORD
  5
2AC
102
{ACAD_REACTORS
330
2A0
102
}
330
2A0
100
AcDbXrecord
  1
{755D41EC-2568-49F6-9C43-F65DD65AD9A5}
  0
ENDSEC
  0
EOF
