  0
SECTION
  2
HEADER
  9
$ACADVER
  1
AC1014
  9
$ACADMAINTVER
 70
     9
  9
$DWGCODEPAGE
  3
ANSI_1252
  9
$INSBASE
 10
0.0
 20
0.0
 30
0.0
  9
$EXTMIN
 10
-0.2237122000024101
 20
-0.2485950938516908
 30
-0.0000000000018206
  9
$EXTMAX
 10
7330.835173916374
 20
8146.527411222647
 30
0.0000000000044425
  9
$LIMMIN
 10
0.0
 20
0.0
  9
$LIMMAX
 10
420.0
 20
297.0
  9
$ORTHOMODE
 70
     0
  9
$REGENMODE
 70
     1
  9
$FILLMODE
 70
     1
  9
$QTEXTMODE
 70
     0
  9
$MIRRTEXT
 70
     1
  9
$DRAGMODE
 70
     2
  9
$LTSCALE
 40
1.0
  9
$OSMODE
 70
   511
  9
$ATTMODE
 70
     1
  9
$TEXTSIZE
 40
2.5
  9
$TRACEWID
 40
1.0
  9
$TEXTSTYLE
  7
STANDARD
  9
$CLAYER
  8
0
  9
$CELTYPE
  6
BYLAYER
  9
$CECOLOR
 62
   256
  9
$CELTSCALE
 40
1.0
  9
$DELOBJ
 70
     1
  9
$DISPSILH
 70
     0
  9
$DIMSCALE
 40
1.0
  9
$DIMASZ
 40
2.5
  9
$DIMEXO
 40
0.625
  9
$DIMDLI
 40
3.75
  9
$DIMRND
 40
0.0
  9
$DIMDLE
 40
0.0
  9
$DIMEXE
 40
1.25
  9
$DIMTP
 40
0.0
  9
$DIMTM
 40
0.0
  9
$DIMTXT
 40
2.5
  9
$DIMCEN
 40
2.5
  9
$DIMTSZ
 40
0.0
  9
$DIMTOL
 70
     0
  9
$DIMLIM
 70
     0
  9
$DIMTIH
 70
     0
  9
$DIMTOH
 70
     0
  9
$DIMSE1
 70
     0
  9
$DIMSE2
 70
     0
  9
$DIMTAD
 70
     1
  9
$DIMZIN
 70
     8
  9
$DIMBLK
  1

  9
$DIMASO
 70
     1
  9
$DIMSHO
 70
     1
  9
$DIMPOST
  1

  9
$DIMAPOST
  1

  9
$DIMALT
 70
     0
  9
$DIMALTD
 70
     3
  9
$DIMALTF
 40
0.03937007874016
  9
$DIMLFAC
 40
1.0
  9
$DIMTOFL
 70
     1
  9
$DIMTVP
 40
0.0
  9
$DIMTIX
 70
     0
  9
$DIMSOXD
 70
     0
  9
$DIMSAH
 70
     0
  9
$DIMBLK1
  1

  9
$DIMBLK2
  1

  9
$DIMSTYLE
  2
ISO-25
  9
$DIMCLRD
 70
     0
  9
$DIMCLRE
 70
     0
  9
$DIMCLRT
 70
     0
  9
$DIMTFAC
 40
1.0
  9
$DIMGAP
 40
0.625
  9
$DIMJUST
 70
     0
  9
$DIMSD1
 70
     0
  9
$DIMSD2
 70
     0
  9
$DIMTOLJ
 70
     0
  9
$DIMTZIN
 70
     8
  9
$DIMALTZ
 70
     0
  9
$DIMALTTZ
 70
     0
  9
$DIMFIT
 70
     3
  9
$DIMUPT
 70
     0
  9
$DIMUNIT
 70
     2
  9
$DIMDEC
 70
     2
  9
$DIMTDEC
 70
     2
  9
$DIMALTU
 70
     2
  9
$DIMALTTD
 70
     3
  9
$DIMTXSTY
  7
STANDARD
  9
$DIMAUNIT
 70
     0
  9
$LUNITS
 70
     2
  9
$LUPREC
 70
     4
  9
$SKETCHINC
 40
1.0
  9
$FILLETRAD
 40
10.0
  9
$AUNITS
 70
     0
  9
$AUPREC
 70
     0
  9
$MENU
  1
.
  9
$ELEVATION
 40
0.0
  9
$PELEVATION
 40
0.0
  9
$THICKNESS
 40
0.0
  9
$LIMCHECK
 70
     0
  9
$BLIPMODE
 70
     0
  9
$CHAMFERA
 40
10.0
  9
$CHAMFERB
 40
10.0
  9
$CHAMFERC
 40
20.0
  9
$CHAMFERD
 40
0.0
  9
$SKPOLY
 70
     0
  9
$TDCREATE
 40
2453124.465227673
  9
$TDUPDATE
 40
2453186.691256493
  9
$TDINDWG
 40
0.0009248495
  9
$TDUSRTIMER
 40
0.0009248495
  9
$USRTIMER
 70
     1
  9
$ANGBASE
 50
0.0
  9
$ANGDIR
 70
     0
  9
$PDMODE
 70
     0
  9
$PDSIZE
 40
0.0
  9
$PLINEWID
 40
0.0
  9
$COORDS
 70
     2
  9
$SPLFRAME
 70
     0
  9
$SPLINETYPE
 70
     6
  9
$SPLINESEGS
 70
     8
  9
$ATTDIA
 70
     0
  9
$ATTREQ
 70
     1
  9
$HANDLING
 70
-16383
  9
$HANDSEED
  5
2DC
  9
$SURFTAB1
 70
     6
  9
$SURFTAB2
 70
     6
  9
$SURFTYPE
 70
     6
  9
$SURFU
 70
     6
  9
$SURFV
 70
     6
  9
$UCSNAME
  2

  9
$UCSORG
 10
0.0
 20
0.0
 30
0.0
  9
$UCSXDIR
 10
1.0
 20
0.0
 30
0.0
  9
$UCSYDIR
 10
0.0
 20
1.0
 30
0.0
  9
$PUCSNAME
  2

  9
$PUCSORG
 10
0.0
 20
0.0
 30
0.0
  9
$PUCSXDIR
 10
1.0
 20
0.0
 30
0.0
  9
$PUCSYDIR
 10
0.0
 20
1.0
 30
0.0
  9
$USERI1
 70
     0
  9
$USERI2
 70
     0
  9
$USERI3
 70
     0
  9
$USERI4
 70
     0
  9
$USERI5
 70
     0
  9
$USERR1
 40
0.0
  9
$USERR2
 40
0.0
  9
$USERR3
 40
0.0
  9
$USERR4
 40
0.0
  9
$USERR5
 40
0.0
  9
$WORLDVIEW
 70
     1
  9
$SHADEDGE
 70
     3
  9
$SHADEDIF
 70
    70
  9
$TILEMODE
 70
     1
  9
$MAXACTVP
 70
    64
  9
$PINSBASE
 10
0.0
 20
0.0
 30
0.0
  9
$PLIMCHECK
 70
     0
  9
$PEXTMIN
 10
0.0
 20
0.0
 30
0.0
  9
$PEXTMAX
 10
0.0
 20
0.0
 30
0.0
  9
$PLIMMIN
 10
0.0
 20
0.0
  9
$PLIMMAX
 10
12.0
 20
9.0
  9
$UNITMODE
 70
     0
  9
$VISRETAIN
 70
     1
  9
$PLINEGEN
 70
     0
  9
$PSLTSCALE
 70
     1
  9
$TREEDEPTH
 70
  3020
  9
$PICKSTYLE
 70
     0
  9
$CMLSTYLE
  2
STANDARD
  9
$CMLJUST
 70
     0
  9
$CMLSCALE
 40
20.0
  9
$PROXYGRAPHICS
 70
     1
  9
$MEASUREMENT
 70
     1
  0
ENDSEC
  0
SECTION
  2
CLASSES
  0
CLASS
  1
ACDBDICTIONARYWDFLT
  2
AcDbDictionaryWithDefault
  3
AutoCAD 2000
 90
        0
280
     0
281
     0
  0
CLASS
  1
ACDBPLACEHOLDER
  2
AcDbPlaceHolder
  3
AutoCAD 2000
 90
        0
280
     0
281
     0
  0
CLASS
  1
LAYOUT
  2
AcDbLayout
  3
AutoCAD 2000
 90
        0
280
     0
281
     0
  0
CLASS
  1
LONG_TRANSACTION
  2
AcDbLongTransaction
  3
AutoCAD 2000
 90
        0
280
     0
281
     0
  0
CLASS
  1
LWPOLYLINE
  2
AcDbPolyline
  3
AutoCAD 2000
 90
        0
280
     0
281
     1
  0
CLASS
  1
HATCH
  2
AcDbHatch
  3
AutoCAD 2000
 90
        0
280
     0
281
     1
  0
CLASS
  1
XRECORD
  2
AcDbXrecord
  3
AutoCAD 2000
 90
        0
280
     0
281
     0
  0
ENDSEC
  0
SECTION
  2
TABLES
  0
TABLE
  2
VPORT
  5
8
330
0
100
AcDbSymbolTable
 70
     2
  0
VPORT
  5
2B3
330
8
100
AcDbSymbolTableRecord
100
AcDbViewportTableRecord
  2
*ACTIVE
 70
     0
 10
0.0
 20
0.0
 11
1.0
 21
1.0
 12
3665.305730858185
 22
4073.139408064398
 13
0.0
 23
0.0
 14
10.0
 24
10.0
 15
10.0
 25
10.0
 16
0.0
 26
0.0
 36
1.0
 17
0.0
 27
0.0
 37
0.0
 40
8243.56938460937
 41
1.720238095238095
 42
50.0
 43
0.0
 44
0.0
 50
0.0
 51
0.0
 71
     0
 72
   100
 73
     1
 74
     3
 75
     0
 76
     0
 77
     0
 78
     0
  0
ENDTAB
  0
TABLE
  2
LTYPE
  5
5
330
0
100
AcDbSymbolTable
 70
     1
  0
LTYPE
  5
14
330
5
100
AcDbSymbolTableRecord
100
AcDbLinetypeTableRecord
  2
BYBLOCK
 70
     0
  3

 72
    65
 73
     0
 40
0.0
  0
LTYPE
  5
15
330
5
100
AcDbSymbolTableRecord
100
AcDbLinetypeTableRecord
  2
BYLAYER
 70
     0
  3

 72
    65
 73
     0
 40
0.0
  0
LTYPE
  5
16
330
5
100
AcDbSymbolTableRecord
100
AcDbLinetypeTableRecord
  2
CONTINUOUS
 70
     0
  3
Solid line
 72
    65
 73
     0
 40
0.0
  0
ENDTAB
  0
TABLE
  2
LAYER
  5
2
330
0
100
AcDbSymbolTable
 70
     2
  0
LAYER
  5
10
330
2
100
AcDbSymbolTableRecord
100
AcDbLayerTableRecord
  2
0
 70
     0
 62
     7
  6
CONTINUOUS
  0
LAYER
  5
5D
330
2
100
AcDbSymbolTableRecord
100
AcDbLayerTableRecord
  2
LAYER1
 70
     0
 62
     3
  6
CONTINUOUS
  0
ENDTAB
  0
TABLE
  2
STYLE
  5
3
330
0
100
AcDbSymbolTable
 70
     1
  0
STYLE
  5
11
330
3
100
AcDbSymbolTableRecord
100
AcDbTextStyleTableRecord
  2
STANDARD
 70
     0
 40
0.0
 41
1.0
 50
0.0
 71
     0
 42
2.5
  3
txt
  4

  0
ENDTAB
  0
TABLE
  2
VIEW
  5
6
330
0
100
AcDbSymbolTable
 70
     0
  0
ENDTAB
  0
TABLE
  2
UCS
  5
7
330
0
100
AcDbSymbolTable
 70
     0
  0
ENDTAB
  0
TABLE
  2
APPID
  5
9
330
0
100
AcDbSymbolTable
 70
     2
  0
APPID
  5
12
330
9
100
AcDbSymbolTableRecord
100
AcDbRegAppTableRecord
  2
ACAD
 70
     0
  0
APPID
  5
2DB
330
9
100
AcDbSymbolTableRecord
100
AcDbRegAppTableRecord
  2
CONTENTBLOCKICON
 70
     0
  0
ENDTAB
  0
TABLE
  2
DIMSTYLE
  5
A
330
0
100
AcDbSymbolTable
 70
     1
  0
DIMSTYLE
105
27
330
A
100
AcDbSymbolTableRecord
100
AcDbDimStyleTableRecord
  2
ISO-25
 70
     0
  3

  4

  5

  6

  7

 40
1.0
 41
2.5
 42
0.625
 43
3.75
 44
1.25
 45
0.0
 46
0.0
 47
0.0
 48
0.0
140
2.5
141
2.5
142
0.0
143
0.03937007874016
144
1.0
145
0.0
146
1.0
147
0.625
 71
     0
 72
     0
 73
     0
 74
     0
 75
     0
 76
     0
 77
     1
 78
     8
170
     0
171
     3
172
     1
173
     0
174
     0
175
     0
176
     0
177
     0
178
     0
270
     2
271
     2
272
     2
273
     2
274
     3
340
11
275
     0
280
     0
281
     0
282
     0
283
     0
284
     8
285
     0
286
     0
287
     3
288
     0
  0
ENDTAB
  0
TABLE
  2
BLOCK_RECORD
  5
1
330
0
100
AcDbSymbolTable
 70
     2
  0
BLOCK_RECORD
  5
1F
102
{ACAD_XDICTIONARY
360
2D5
102
}
330
1
100
AcDbSymbolTableRecord
100
AcDbBlockTableRecord
  2
*MODEL_SPACE
  0
BLOCK_RECORD
  5
50
102
{ACAD_XDICTIONARY
360
2D7
102
}
330
1
100
AcDbSymbolTableRecord
100
AcDbBlockTableRecord
  2
*PAPER_SPACE
  0
BLOCK_RECORD
  5
1EB
330
1
100
AcDbSymbolTableRecord
100
AcDbBlockTableRecord
  2
ADKL
1001
ACAD
1000
DesignCenter Data
1002
{
1070
     1
1070
     4
1002
}
1001
CONTENTBLOCKICON
1071
        0
1004
2800000020000000200000000100080000000000000400000000000000000000000000000000000000000000000080000080000000808000800000008000800080800000C0C0C000C0DCC000F0CAA6000020400000206000002080000020A0000020C0000020E00000400000004020000040400000406000004080000040A0
1004
000040C0000040E00000600000006020000060400000606000006080000060A0000060C0000060E00000800000008020000080400000806000008080000080A0000080C0000080E00000A0000000A0200000A0400000A0600000A0800000A0A00000A0C00000A0E00000C0000000C0200000C0400000C0600000C0800000C0
1004
A00000C0C00000C0E00000E0000000E0200000E0400000E0600000E0800000E0A00000E0C00000E0E00040000000400020004000400040006000400080004000A0004000C0004000E00040200000402020004020400040206000402080004020A0004020C0004020E000404000004040200040404000404060004040800040
1004
40A0004040C0004040E00040600000406020004060400040606000406080004060A0004060C0004060E00040800000408020004080400040806000408080004080A0004080C0004080E00040A0000040A0200040A0400040A0600040A0800040A0A00040A0C00040A0E00040C0000040C0200040C0400040C0600040C08000
1004
40C0A00040C0C00040C0E00040E0000040E0200040E0400040E0600040E0800040E0A00040E0C00040E0E00080000000800020008000400080006000800080008000A0008000C0008000E00080200000802020008020400080206000802080008020A0008020C0008020E00080400000804020008040400080406000804080
1004
008040A0008040C0008040E00080600000806020008060400080606000806080008060A0008060C0008060E00080800000808020008080400080806000808080008080A0008080C0008080E00080A0000080A0200080A0400080A0600080A0800080A0A00080A0C00080A0E00080C0000080C0200080C0400080C0600080C0
1004
800080C0A00080C0C00080C0E00080E0000080E0200080E0400080E0600080E0800080E0A00080E0C00080E0E000C0000000C0002000C0004000C0006000C0008000C000A000C000C000C000E000C0200000C0202000C0204000C0206000C0208000C020A000C020C000C020E000C0400000C0402000C0404000C0406000C0
1004
408000C040A000C040C000C040E000C0600000C0602000C0604000C0606000C0608000C060A000C060C000C060E000C0800000C0802000C0804000C0806000C0808000C080A000C080C000C080E000C0A00000C0A02000C0A04000C0A06000C0A08000C0A0A000C0A0C000C0A0E000C0C00000C0C02000C0C04000C0C06000
1004
C0C08000C0C0A000F0FBFF00A4A0A000808080000000FF0000FF000000FFFF00FF000000FF00FF00FFFF0000FFFFFF00FFFFFFFFFFFFFFFFFFFFFFFFFFFFFFFFFFFFFFFFFFFFFFFFFFFFFFFFFFFFFFFFFFFFFFFFFFFFFFFFFFFFFFFF000000FFFFFFFFFFFFFFFFFFFFFFFFFFFFFFFFFFFFFFFFFFFFFFFFFFFFFF0000FFFFFF
1004
00FFFFFFFFFFFFFFFFFFFFFFFFFFFFFFFFFFFFFFFFFFFFFFFFFF00FFFFFFFFFFFF0000FFFFFFFFFFFFFFFFFFFFFFFFFFFFFFFFFFFFFFFFFFFF00FFFFFFFFFFFFFFFFFF00FFFFFFFFFFFFFFFFFFFFFFFFFFFFFFFFFFFFFFFFFF00FFFFFFFFFFFFFFFFFF00FFFFFFFFFFFFFFFFFFFFFFFFFFFFFFFFFFFFFFFF00FFFFFFFFFFFF
1004
FFFFFFFF00FFFFFFFFFFFFFFFFFFFFFFFFFFFFFFFFFFFFFFFF00FFFFFFFFFF00FFFFFFFFFF00FFFFFFFFFFFFFFFFFFFFFFFFFFFFFFFFFFFF00FFFFFFFFFFFFE0FFFFFFFFFF00FFFFFFFFFFFFFFFFFFFFFFFFFFFFFFFFFFFF00FFFFFFFFFFFFE0FFFFFFFFFF00FFFFFFFFFFFFFFFFFFFFFFFFFFFFFFFFFFFF00FFFFFFFFFFFF
1004
E0FFFFFFFFFFFF00FFFFFFFFFFFFFFFFFFFFFFFFFFFFFFFF00FFFFFFFFFF0000E00000FFFFFFFF00FFFFFFFFFFFFFFFFFFFFFFFFFFFFFFFF00FFFFFFFFFF0000000000FFFFFFFF00FFFFFFFFFFFFFFFFFFFFFFFFFFFFFFFF00FFFFFFFFFF0000000000FFFFFFFF00FFFFFFFFFFFFFFFFFFFFFFFFFFFFFFFF00FFFFFFFFFF00
1004
00000000FFFFFFFF00FFFFFFFFFFFFFFFFFFFFFFFFFFFFFFFF00FFFFFFFFFF0000000000FFFFFFFF00FFFFFFFFFFFFFFFFFFFFFFFFFFFFFFFF00FFFFFFFFFFFF000000FFFFFFFFFF00000000FFFFFFFFFFFFFFFFFFFFFFFF00FFFFFFFFFFFFFF000000FFFFFFFFFFFFFFFFFF00FFFFFFFFFFFFFFFFFFFF0000FFFFFFFFFFFF
1004
FF000000FFFFFFFFFFFFFFFFFFFF00000000FFFFFFFFFFFF00FFFFFFFFFFFFFFFF000000FFFFFFFFFFFFFFFFFFFFFFFFFF00FFFFFFFFFFFF00FFFFFFFF0000000000000000FFFFFFFFFFFFFFFFFFFFFFFF00FFFFFFFFFFFF00FFFFFFFF0000000000000000272700E0E000FFFFFFFFFFFF00FFFFFFFFFFFF00FFFFFFFFFF00
1004
000000000000FFFFFFFFFF00FFFFFFFFFFFF00FFFFFFFFFFFF00FFFFFFFF0000000000000000272700E0E000FFFFFFFFFFFF00FFFFFFFFFFFF00FFFFFFFF0000FF0000000000FFFFFFFFFFFFFFFFFFFFFFFF00FFFFFFFFFFFF00FFFFFFFFFFFFFFFFFFFFFFFFFFFFFFFFFFFFFFFFFFFFFFFF00FFFFFFFFFFFF00FFFFFFFFFF
1004
FFFFFFFFFFFFFFFFFFFFFFFFFFFFFFFF00000000FFFFFFFFFFFFFF00FFFFFFFFFFFFFFFFFFFFFFFFFFFFFFFFFFFFFF00FFFFFFFFFFFFFFFFFFFFFFFF00FFFFFFFFFFFFFFFFFFFFFFFFFFFFFF000000FFFFFFFFFFFFFFFFFFFFFFFFFFFF00000000FFFFFFFFFFFFFF00000000FFFFFFFFFFFFFFFFFFFFFFFFFFFFFFFFFFFFFF
1004
FFFF00000000000000FFFFFFFFFFFFFFFFFFFFFFFFFFFFFFFFFFFFFFFFFFFFFFFFFFFFFFFFFFFFFFFFFFFFFFFFFFFFFFFFFFFFFFFFFFFFFF
  0
ENDTAB
  0
ENDSEC
  0
SECTION
  2
BLOCKS
  0
BLOCK
  5
20
330
1F
100
AcDbEntity
  8
0
100
AcDbBlockBegin
  2
*MODEL_SPACE
 70
     0
 10
0.0
 20
0.0
 30
0.0
  3
*MODEL_SPACE
  1

  0
ENDBLK
  5
21
330
1F
100
AcDbEntity
  8
0
100
AcDbBlockEnd
  0
BLOCK
  5
52
330
50
100
AcDbEntity
 67
     1
  8
0
100
AcDbBlockBegin
  2
*PAPER_SPACE
 70
     0
 10
0.0
 20
0.0
 30
0.0
  3
*PAPER_SPACE
  1

  0
ENDBLK
  5
53
330
50
100
AcDbEntity
 67
     1
  8
0
100
AcDbBlockEnd
  0
BLOCK
  5
1EC
330
1EB
100
AcDbEntity
  8
0
100
AcDbBlockBegin
  2
ADKL
 70
     0
 10
0.0
 20
0.0
 30
0.0
  3
ADKL
  1

  0
LWPOLYLINE
  5
1EE
330
1EB
100
AcDbEntity
  8
0
 62
     7
100
AcDbPolyline
 90
       36
 70
     0
 43
0.0
 10
-887.817819794569
 20
2544.221727386499
 10
-888.4292645740424
 20
2544.221727386499
 10
-1266.913583067733
 20
2846.886893225557
 10
-1722.439943774999
 20
3013.19987324217
 10
-4099.125801585944
 20
3462.61178615471
 10
-4742.977154370847
 20
3470.560568287856
 10
-6072.258104944808
 20
3253.497671574998
 10
-6568.139821097284
 20
3078.624464645763
 10
-6973.52770988778
 20
2743.552725494646
 10
-7238.894744178994
 20
2288.637809566851
 10
-7330.61146109992
 20
1770.744081353354
 10
-7330.61146109992
 20
768.586087797361
 10
-7239.506188958467
 20
253.1381387017536
 10
-6977.196378564617
 20
-199.9424428876227
 10
-6574.865713671485
 20
-535.6256268182114
 10
-6574.865713671485
 20
-1792.144648634908
 10
-6441.570751746406
 20
-2411.538210240898
 10
-5811.171184109904
 20
-3806.855196997923
 10
-5530.518030331871
 20
-4223.860536598404
 10
-5128.187365438738
 20
-4524.691368099044
 10
-4649.426103111502
 20
-4675.718228628837
 10
-4147.429939164298
 20
-4660.432109142013
 10
-3678.451793308626
 20
-4480.055899197526
 10
-3295.687361358627
 20
-4154.767276517974
 10
-3040.714888318451
 20
-3721.864372651198
 10
-2523.432604884425
 20
-2359.565403985703
 10
-2425.60144016877
 20
-1825.774111505911
 10
-2425.60144016877
 20
-494.6588265935315
 10
-2424.989995389296
 20
-494.6588265935315
 10
-2001.258763214616
 20
-494.6588265935315
 10
-1589.14498184992
 20
-436.571572543613
 10
-1208.214884238339
 20
-267.201368629634
 10
-888.4292645740424
 20
0.0
 10
-0.6114447794752778
 20
0.0
 10
-0.6114447794752778
 20
2544.221727386499
 10
-888.4292645740424
 20
2544.221727386499
  0
LINE
  5
1EF
102
{ACAD_REACTORS
330
1F3
102
}
330
1EB
100
AcDbEntity
  8
0
100
AcDbLine
 10
-2001.978089258515
 20
1023.848872551534
 30
0.0000000000062599
 11
-3860.995723655315
 21
1023.848872551534
 31
0.0000000000062599
  0
LINE
  5
1F0
330
1EB
100
AcDbEntity
  8
0
100
AcDbLine
 10
-3860.995723655315
 20
1004.511888549561
 30
0.0000000000062599
 11
-2001.978089258509
 21
1004.511888549546
 31
0.0000000000062599
  0
LINE
  5
1F1
102
{ACAD_REACTORS
330
1F3
102
}
330
1EB
100
AcDbEntity
  8
0
100
AcDbLine
 10
-2001.978089258505
 20
1521.942908740347
 30
0.0000000000062599
 11
-3860.995723655315
 21
1521.942908740347
 31
0.0000000000062599
  0
LINE
  5
1F2
330
1EB
100
AcDbEntity
  8
0
100
AcDbLine
 10
-3860.995723655315
 20
1541.279892742324
 30
0.0000000000062599
 11
-2001.978089258509
 21
1541.279892742324
 31
0.0000000000062599
  0
HATCH
  5
1F3
330
1EB
100
AcDbEntity
  8
0
 62
    50
100
AcDbHatch
 10
0.0
 20
0.0
 30
0.0000000000062599
210
0.0
220
0.0
230
1.0
  2
SOLID
 70
     1
 71
     1
 91
        3
 92
        7
 72
     1
 73
     1
 93
       22
 10
-2085.993950784333
 20
1023.848872551534
 42
0.0
 10
-2085.993950784333
 20
1036.517931035586
 42
0.0
 10
-2089.327913543294
 20
1055.188122485772
 42
0.0
 10
-2097.996216716592
 20
1069.190766073407
 42
0.0
 10
-2109.998482648856
 20
1079.192654350292
 42
0.0
 10
-2136.670184720542
 20
1095.195675593305
 42
0.0
 10
-2166.009056999402
 20
1121.200585113205
 42
0.0
 10
-2180.678493138835
 20
1149.205872288482
 42
0.0
 10
-2186.012833553173
 20
1181.211914774513
 42
0.0
 10
-2187.679814932653
 20
1272.562494370048
 42
0.0
 10
-2186.012833553172
 20
1364.579866517376
 42
0.0
 10
-2178.678115483456
 20
1402.587041969535
 42
0.0
 10
-2161.34150913686
 20
1429.925536593017
 42
0.0
 10
-2136.670184720546
 20
1450.596105698579
 42
0.0
 10
-2109.998482648854
 20
1465.9323343898
 42
0.0
 10
-2095.995839061221
 20
1479.268185425647
 42
0.0
 10
-2088.6611209915
 20
1493.27082901328
 42
0.0
 10
-2085.993950784333
 20
1509.273850256299
 42
0.0
 10
-2085.993950784333
 20
1521.942908740347
 42
0.0
 10
-3860.995723655315
 20
1521.942908740347
 42
0.0
 10
-3860.995723655315
 20
1521.27611618855
 42
-0.5047677450341417
 10
-3857.382507644226
 20
1023.848872551534
 42
0.0
 97
       22
330
29C
330
2AA
330
2A9
330
2AB
330
2A8
330
2AC
330
2A7
330
2AD
330
2AE
330
1F1
330
215
330
280
330
1EF
330
2A4
330
2A5
330
29D
330
2A0
330
2A1
330
29F
330
29E
330
2A2
330
2A3
 92
        7
 72
     1
 73
     1
 93
        2
 10
-3860.995723655315
 20
1067.537928778358
 42
0.4582969605586833
 10
-3860.995723655315
 20
1474.919889754564
 42
0.0
 97
        2
330
215
330
281
 92
       23
 72
     1
 73
     1
 93
        5
 10
-3860.995723655315
 20
1067.537928778359
 42
0.0
 10
-3860.995723655315
 20
1023.848872551534
 42
0.0
 10
-3857.382507644226
 20
1023.848872551534
 42
0.5047677450341415
 10
-3860.995723655315
 20
1521.27611618855
 42
0.0
 10
-3860.995723655315
 20
1474.919889754564
 42
-0.458296960558683
 97
        4
330
215
330
281
330
1EF
330
280
 75
     0
 76
     1
 47
4.472321723810398
 98
        3
 10
-2538.285505574329
 20
1247.933737373172
 10
-3822.382129764244
 20
1306.073881683656
 10
-3777.640054929363
 20
1368.686394283464
  0
HATCH
  5
1F4
330
1EB
100
AcDbEntity
  8
0
 62
    30
100
AcDbHatch
 10
0.0
 20
0.0
 30
0.0000000000062599
210
0.0
220
0.0
230
1.0
  2
SOLID
 70
     1
 71
     0
 91
        2
 92
        7
 72
     0
 73
     1
 93
        4
 10
-2931.486906456914
 20
1541.279892742324
 10
-3860.995723655312
 20
1541.279892742324
 10
-3860.995723655315
 20
1521.942908740347
 10
-2931.48690645691
 20
1521.942908740347
 97
        0
 92
        7
 72
     1
 73
     1
 93
        5
 10
-2931.486906456918
 20
1023.848872551534
 42
0.0
 10
-3857.382507644222
 20
1023.848872551534
 42
-0.003631856113254
 10
-3860.995723655315
 20
1021.181702344365
 42
0.0
 10
-3860.995723655315
 20
1004.511888549561
 42
0.0
 10
-2931.48690645691
 20
1004.511888549554
 42
0.0
 97
        0
 75
     0
 76
     1
 47
3.387716884985549
 98
        2
 10
-3646.389798865772
 20
1530.59190454394
 10
-3554.826022258263
 20
1012.27121309801
  0
HATCH
  5
1F5
330
1EB
100
AcDbEntity
  8
0
 62
   250
100
AcDbHatch
 10
0.0
 20
0.0
 30
0.0000000000062599
210
0.0
220
0.0
230
1.0
  2
SOLID
 70
     1
 71
     0
 91
       15
 92
        7
 72
     0
 73
     1
 93
        4
 10
-4076.034170359057
 20
-881.7858500598013
 10
-4076.034170359057
 20
692.3740800715458
 10
-4176.152318082244
 20
692.3740800715458
 10
-4176.152318082237
 20
-881.7858500598049
 97
        0
 92
        7
 72
     0
 73
     1
 93
        4
 10
-4706.724961898697
 20
-881.7858500598013
 10
-4706.724961898697
 20
692.3740800715458
 10
-4806.843109621884
 20
692.3740800715386
 10
-4806.843109621884
 20
-881.7858500598013
 97
        0
 92
        7
 72
     0
 73
     1
 93
        4
 10
-4176.152318082244
 20
-881.7858500598013
 10
-4176.152318082244
 20
-817.3501090014324
 10
-4706.724961898693
 20
-817.350109001436
 10
-4706.724961898693
 20
-881.7858500598013
 97
        0
 92
        7
 72
     0
 73
     1
 93
        4
 10
-4176.152318082244
 20
-801.8237652368734
 10
-4176.15231808224
 20
-689.3916207348993
 10
-4706.724961898693
 20
-689.3916207348993
 10
-4706.724961898697
 20
-801.8237652368698
 97
        0
 92
        7
 72
     0
 73
     1
 93
        4
 10
-4176.152318082244
 20
-672.7944946417482
 10
-4176.15231808224
 20
-558.7561766468861
 10
-4706.724961898693
 20
-558.7561766468861
 10
-4706.724961898693
 20
-672.7944946417555
 97
        0
 92
        7
 72
     0
 73
     1
 93
        4
 10
-4176.152318082244
 20
-543.2298328823344
 10
-4176.152318082244
 20
-428.1207325588875
 10
-4706.724961898697
 20
-428.1207325588838
 10
-4706.724961898697
 20
-543.2298328823344
 97
        0
 92
        7
 72
     0
 73
     1
 93
        4
 10
-4176.152318082244
 20
-413.6651711229169
 10
-4176.15231808224
 20
-297.485288470878
 10
-4706.724961898693
 20
-297.485288470878
 10
-4706.724961898693
 20
-413.6651711229169
 97
        0
 92
        7
 72
     0
 73
     1
 93
        4
 10
-4176.152318082244
 20
-283.0297270349037
 10
-4176.152318082244
 20
-167.9206267114605
 10
-4706.724961898693
 20
-167.9206267114641
 10
-4706.724961898697
 20
-283.0297270349074
 97
        0
 92
        7
 72
     0
 73
     1
 93
        4
 10
-4176.152318082244
 20
-152.3942829469015
 10
-4176.15231808224
 20
-35.67900913056655
 10
-4706.724961898693
 20
-35.67900913057019
 10
-4706.724961898693
 20
-152.3942829469015
 97
        0
 92
        7
 72
     0
 73
     1
 93
        4
 10
-4176.152318082244
 20
-21.75883885888834
 10
-4176.15231808224
 20
94.95643495744298
 10
-4706.724961898693
 20
94.95643495744298
 10
-4706.724961898697
 20
-21.75883885889197
 97
        0
 92
        7
 72
     0
 73
     1
 93
        4
 10
-4176.152318082244
 20
109.4119963934063
 10
-4176.152318082244
 20
226.1272702097449
 10
-4706.724961898693
 20
226.1272702097449
 10
-4706.724961898693
 20
109.4119963934099
 97
        0
 92
        7
 72
     0
 73
     1
 93
        4
 10
-4176.15231808224
 20
240.0474404814231
 10
-4176.152318082244
 20
355.1565408048663
 10
-4706.724961898693
 20
355.1565408048663
 10
-4706.7249618987
 20
240.0474404814194
 97
        0
 92
        7
 72
     0
 73
     1
 93
        4
 10
-4176.15231808224
 20
370.6828845694217
 10
-4176.152318082244
 20
484.7212025642802
 10
-4706.724961898693
 20
484.7212025642802
 10
-4706.724961898693
 20
370.6828845694253
 97
        0
 92
        7
 72
     0
 73
     1
 93
        4
 10
-4176.15231808224
 20
500.7829374931352
 10
-4176.15231808224
 20
614.8212554879973
 10
-4706.724961898693
 20
614.8212554879973
 10
-4706.724961898693
 20
500.7829374931352
 97
        0
 92
        7
 72
     0
 73
     1
 93
        4
 10
-4176.152318082244
 20
629.8122080882567
 10
-4176.15231808224
 20
692.3740800715422
 10
-4706.7249618987
 20
692.3740800715422
 10
-4706.7249618987
 20
629.8122080882603
 97
        0
 75
     0
 76
     1
 47
4.840544086279949
 98
       15
 10
-4149.858429520729
 20
-637.642323203825
 10
-4796.850407481896
 20
-496.8452056486603
 10
-4452.503483471377
 20
-865.4757332546033
 10
-4457.344058930215
 20
-739.4903144418531
 10
-4462.184591168854
 20
-623.1960373461661
 10
-4447.662951232739
 20
-502.0561893919403
 10
-4447.662951232739
 20
-351.8428339306737
 10
-4452.503483471377
 20
-211.3206201864704
 10
-4442.822418994099
 20
-114.4087088807609
 10
-4442.822418994099
 20
50.34144151194414
 10
-4442.822418994099
 20
166.6357186076311
 10
-4437.98188675546
 20
316.8491564247488
 10
-4428.30077905799
 20
437.9890043789746
 10
-4428.30077905799
 20
563.9744231917247
 10
-4433.141311296629
 20
660.8863344974488
  0
LINE
  5
1F6
330
1EB
100
AcDbEntity
  8
0
100
AcDbLine
 10
-4706.724961898697
 20
-881.7858500598013
 30
0.0000000000062599
 11
-4706.724961898697
 21
692.4529743107886
 31
0.0000000000062599
  0
LINE
  5
1F7
330
1EB
100
AcDbEntity
  8
0
100
AcDbLine
 10
-4806.843109621884
 20
692.3740800715422
 30
0.0000000000062599
 11
-4806.843109621884
 21
-881.7858500598013
 31
0.0000000000062599
  0
LINE
  5
1F8
330
1EB
100
AcDbEntity
  8
0
100
AcDbLine
 10
-4176.15231808224
 20
-881.7858500598013
 30
0.0000000000062599
 11
-4176.15231808224
 21
692.4529743107886
 31
0.0000000000062599
  0
LINE
  5
1F9
330
1EB
100
AcDbEntity
  8
0
100
AcDbLine
 10
-4076.034170359057
 20
692.4529743107886
 30
0.0000000000062599
 11
-4076.034170359057
 21
-881.7858500598013
 31
0.0000000000062599
  0
HATCH
  5
1FA
330
1EB
100
AcDbEntity
  8
0
 62
    84
100
AcDbHatch
 10
0.0
 20
0.0
 30
0.0000000000062599
210
0.0
220
0.0
230
1.0
  2
SOLID
 70
     1
 71
     1
 91
        2
 92
        1
 93
        4
 72
     1
 10
-5021.881556325623
 20
692.4529743107886
 11
-3860.995723655315
 21
692.4529743107886
 72
     1
 10
-3860.995723655315
 20
692.4529743107886
 11
-3860.995723655315
 21
1853.338806981093
 72
     1
 10
-3860.995723655315
 20
1853.338806981093
 11
-5021.881556325623
 21
1853.338806981093
 72
     1
 10
-5021.881556325623
 20
1853.338806981093
 11
-5021.881556325623
 21
692.4529743107886
 97
        1
330
215
 92
        1
 93
        4
 72
     1
 10
-5021.881556325623
 20
-2044.063658244616
 11
-3860.995723655315
 21
-2044.063658244616
 72
     1
 10
-3860.995723655315
 20
-2044.063658244616
 11
-3860.995723655315
 21
-883.1778255743083
 72
     1
 10
-3860.995723655315
 20
-883.1778255743083
 11
-5021.881556325623
 21
-883.1778255743083
 72
     1
 10
-5021.881556325623
 20
-883.1778255743083
 11
-5021.881556325623
 21
-2044.063658244616
 97
        1
330
1FB
 75
     0
 76
     1
 98
        1
 10
-13153.32790597601
 20
-9988.816496481636
  0
LWPOLYLINE
  5
1FB
102
{ACAD_REACTORS
330
1FF
330
1FA
102
}
330
1EB
100
AcDbEntity
  8
0
100
AcDbPolyline
 90
        4
 70
     1
 43
0.0
 10
-5021.881556325623
 20
-2044.063658244616
 10
-3860.995723655315
 20
-2044.063658244616
 10
-3860.995723655315
 20
-883.1778255743083
 10
-5021.881556325623
 20
-883.1778255743083
  0
LWPOLYLINE
  5
1FC
330
1EB
100
AcDbEntity
  8
0
100
AcDbPolyline
 90
        4
 70
     1
 43
0.0
 10
-4733.160381399577
 20
-1171.899000500354
 10
-4149.856013574177
 20
-1171.899000500354
 10
-4149.856013574177
 20
-1755.342483318574
 10
-4733.160381399577
 20
-1755.342483318574
  0
LINE
  5
1FD
102
{ACAD_REACTORS
330
1FF
102
}
330
1EB
100
AcDbEntity
  8
0
100
AcDbLine
 10
-4420.434674609012
 20
-3158.940804841262
 30
0.0000000000062599
 11
-4420.434674609012
 21
-2044.063658244616
 31
0.0000000000062599
  0
LINE
  5
1FE
102
{ACAD_REACTORS
330
1FF
102
}
330
1EB
100
AcDbEntity
  8
0
100
AcDbLine
 10
-4462.442605371923
 20
-2044.063658244616
 30
0.0000000000062599
 11
-4462.442605371923
 21
-3158.940804841262
 31
0.0000000000062599
  0
HATCH
  5
1FF
330
1EB
100
AcDbEntity
  8
0
 62
   150
100
AcDbHatch
 10
0.0
 20
0.0
 30
0.0000000000062599
210
0.0
220
0.0
230
1.0
  2
SOLID
 70
     1
 71
     1
 91
        1
 92
        7
 72
     1
 73
     1
 93
        4
 10
-4420.434674609012
 20
-2044.063658244616
 42
0.0
 10
-4462.442605371923
 20
-2044.063658244616
 42
0.0
 10
-4462.442605371923
 20
-3158.940804841262
 42
1.0
 10
-4420.434674609012
 20
-3158.940804841262
 42
0.0
 97
        4
330
1FB
330
1FE
330
200
330
1FD
 75
     0
 76
     1
 47
3.819930990568736
 98
        1
 10
-4439.834702876889
 20
-2644.138486383956
  0
ARC
  5
200
102
{ACAD_REACTORS
330
1FF
102
}
330
1EB
100
AcDbEntity
  8
0
100
AcDbCircle
 10
-4441.438639990467
 20
-3158.940804841262
 30
0.0000000000062599
 40
21.00396538145651
100
AcDbArc
 50
180.0
 51
0.0
  0
LINE
  5
201
330
1EB
100
AcDbEntity
  8
0
100
AcDbLine
 10
-5021.881556325623
 20
-883.1778255743083
 30
0.0000000000062599
 11
-3860.995723655315
 21
-2044.063658244616
 31
0.0000000000062599
  0
LINE
  5
202
330
1EB
100
AcDbEntity
  8
0
100
AcDbLine
 10
-3860.995723655315
 20
-883.1778255743083
 30
0.0000000000062599
 11
-5021.881556325621
 21
-2044.063658244616
 31
0.0000000000062599
  0
LINE
  5
203
330
1EB
100
AcDbEntity
  8
0
100
AcDbLine
 10
-5071.224205158251
 20
-1772.012297113375
 30
0.0000000000062599
 11
-5021.881556325621
 21
-1772.012297113375
 31
0.0000000000062599
  0
LINE
  5
204
330
1EB
100
AcDbEntity
  8
0
100
AcDbLine
 10
-5021.881556325621
 20
-1792.016073667145
 30
0.0000000000062599
 11
-5071.224205158251
 21
-1792.016073667153
 31
0.0000000000062599
  0
LINE
  5
205
330
1EB
100
AcDbEntity
  8
0
100
AcDbLine
 10
-5071.224205158251
 20
-1792.016073667153
 30
0.0000000000062599
 11
-5071.224205158251
 21
-1772.012297113375
 31
0.0000000000062599
  0
LINE
  5
206
330
1EB
100
AcDbEntity
  8
0
100
AcDbLine
 10
-5071.224205158287
 20
-1154.562394153752
 30
0.0000000000062599
 11
-5021.881556325621
 21
-1154.562394153752
 31
0.0000000000062599
  0
LINE
  5
207
330
1EB
100
AcDbEntity
  8
0
100
AcDbLine
 10
-5021.881556325621
 20
-1134.558617599985
 30
0.0000000000062599
 11
-5071.224205158251
 21
-1134.558617599985
 31
0.0000000000062599
  0
LINE
  5
208
330
1EB
100
AcDbEntity
  8
0
100
AcDbLine
 10
-5071.224205158251
 20
-1134.558617599985
 30
0.0000000000062599
 11
-5071.224205158287
 21
-1154.562394153752
 31
0.0000000000062599
  0
LINE
  5
209
330
1EB
100
AcDbEntity
  8
0
100
AcDbLine
 10
-4706.724961898697
 20
-817.3501090014324
 30
0.0000000000062599
 11
-4176.15231808224
 21
-817.3501090014324
 31
0.0000000000062599
  0
LINE
  5
20A
330
1EB
100
AcDbEntity
  8
0
100
AcDbLine
 10
-4176.15231808224
 20
-801.8237652368734
 30
0.0000000000062599
 11
-4706.724961898697
 21
-801.8237652368734
 31
0.0000000000062599
  0
LINE
  5
20B
330
1EB
100
AcDbEntity
  8
0
100
AcDbLine
 10
-4706.724961898697
 20
-689.3916207348993
 30
0.0000000000062599
 11
-4176.15231808224
 21
-689.3916207348993
 31
0.0000000000062599
  0
LINE
  5
20C
330
1EB
100
AcDbEntity
  8
0
100
AcDbLine
 10
-4176.15231808224
 20
-672.7944946417519
 30
0.0000000000062599
 11
-4706.724961898697
 21
-672.7944946417519
 31
0.0000000000062599
  0
POLYLINE
  5
20D
330
1EB
100
AcDbEntity
  8
0
 62
     7
100
AcDb2dPolyline
 66
     1
 10
0.0
 20
0.0
 30
0.0
  0
VERTEX
  5
20E
330
20D
100
AcDbEntity
  8
0
 62
     7
100
AcDbVertex
100
AcDb2dVertex
 10
-7128.223239094409
 20
14.67467470734845
 30
0.0
  0
VERTEX
  5
20F
330
20D
100
AcDbEntity
  8
0
 62
     7
100
AcDbVertex
100
AcDb2dVertex
 10
-7127.611794314936
 20
14.67467470734845
 30
0.0
  0
SEQEND
  5
210
330
20D
100
AcDbEntity
  8
0
 62
     7
  0
POLYLINE
  5
211
330
1EB
100
AcDbEntity
  8
0
 62
     7
100
AcDb2dPolyline
 66
     1
 10
0.0
 20
0.0
 30
0.0
  0
VERTEX
  5
212
330
211
100
AcDbEntity
  8
0
 62
     7
100
AcDbVertex
100
AcDb2dVertex
 10
-7330.61146109992
 20
1328.669505794485
 30
0.0
  0
VERTEX
  5
213
330
211
100
AcDbEntity
  8
0
 62
     7
100
AcDbVertex
100
AcDb2dVertex
 10
-7330.000016320447
 20
1328.669505794485
 30
0.0
  0
SEQEND
  5
214
330
211
100
AcDbEntity
  8
0
 62
     7
  0
LWPOLYLINE
  5
215
102
{ACAD_REACTORS
330
218
330
1F3
330
1FA
330
27C
102
}
330
1EB
100
AcDbEntity
  8
0
100
AcDbPolyline
 90
        4
 70
     1
 43
0.0
 10
-5021.881556325623
 20
692.4529743107886
 10
-3860.995723655315
 20
692.4529743107886
 10
-3860.995723655315
 20
1853.338806981093
 10
-5021.881556325623
 20
1853.338806981093
  0
LWPOLYLINE
  5
216
330
1EB
100
AcDbEntity
  8
0
100
AcDbPolyline
 90
        4
 70
     1
 43
0.0
 10
-4733.160381399577
 20
1564.617632055051
 10
-4149.856013574177
 20
1564.617632055051
 10
-4149.856013574177
 20
981.1741492368311
 10
-4733.160381399577
 20
981.1741492368311
  0
ARC
  5
217
102
{ACAD_REACTORS
330
218
102
}
330
1EB
100
AcDbEntity
  8
0
100
AcDbCircle
 10
-4441.534878090731
 20
1665.684493795015
 30
0.0000000000062599
 40
327.0140425069816
100
AcDbArc
 50
35.01856012001979
 51
144.9814398799802
  0
HATCH
  5
218
330
1EB
100
AcDbEntity
  8
0
 62
    50
100
AcDbHatch
 10
0.0
 20
0.0
 30
0.0000000000062599
210
0.0
220
0.0
230
1.0
  2
SOLID
 70
     1
 71
     1
 91
        1
 92
        7
 72
     1
 73
     1
 93
        4
 10
-4269.072765352163
 20
1853.338806981093
 42
0.0
 10
-4173.721430445885
 20
1853.338806981093
 42
0.5203612086937155
 10
-4709.348325735579
 20
1853.338806981093
 42
0.0
 10
-4613.80451462877
 20
1853.338806981093
 42
-0.3984526112186044
 97
        3
330
215
330
27B
330
217
 75
     0
 76
     1
 47
5.50999374987631
 98
        1
 10
-4435.78839769168
 20
1951.42988246943
  0
LINE
  5
219
330
1EB
100
AcDbEntity
  8
0
100
AcDbLine
 10
-3860.995723655315
 20
1853.338806981097
 30
0.0000000000062599
 11
-5021.881556325621
 21
692.4529743107886
 31
0.0000000000062599
  0
LINE
  5
21A
330
1EB
100
AcDbEntity
  8
0
100
AcDbLine
 10
-5021.881556325621
 20
1853.338806981097
 30
0.0000000000062599
 11
-3860.995723655315
 21
692.4529743107886
 31
0.0000000000062599
  0
HATCH
  5
21B
330
1EB
100
AcDbEntity
  8
0
 62
   250
100
AcDbHatch
 10
0.0
 20
0.0
 30
0.0000000000062599
210
0.0
220
0.0
230
1.0
  2
SOLID
 70
     1
 71
     1
 91
       13
 92
        7
 72
     1
 73
     1
 93
        2
 10
-5183.245353859344
 20
1653.301041443424
 42
1.0
 10
-5223.252906966884
 20
1653.301041443424
 42
1.0
 97
        1
330
265
 92
        7
 72
     1
 73
     1
 93
        2
 10
-5374.614816223719
 20
1689.307839240202
 42
1.0
 10
-5414.62236933126
 20
1689.307839240202
 42
1.0
 97
        1
330
221
 92
        7
 72
     1
 73
     1
 93
        2
 10
-5566.651071139888
 20
1725.981429588777
 42
1.0
 10
-5606.658624247429
 20
1725.981429588777
 42
1.0
 97
        1
330
247
 92
        7
 72
     1
 73
     1
 93
        2
 10
-5566.651071139888
 20
1411.543687867932
 42
1.0
 10
-5606.658624247429
 20
1411.543687867932
 42
1.0
 97
        1
330
244
 92
        7
 72
     1
 73
     1
 93
        2
 10
-5374.614816223719
 20
1391.918361140862
 42
1.0
 10
-5414.62236933126
 20
1391.918361140862
 42
1.0
 97
        1
330
220
 92
        7
 72
     1
 73
     1
 93
        2
 10
-5183.245353859344
 20
1372.581377138885
 42
1.0
 10
-5223.252906966884
 20
1372.581377138885
 42
1.0
 97
        1
330
262
 92
        7
 72
     1
 73
     1
 93
        2
 10
-5183.245353859344
 20
1271.895701818255
 42
1.0
 10
-5223.252906966884
 20
1271.895701818255
 42
1.0
 97
        1
330
259
 92
        7
 72
     1
 73
     1
 93
        2
 10
-5183.245353859344
 20
1167.876063738662
 42
1.0
 10
-5223.252906966884
 20
1167.876063738662
 42
1.0
 97
        1
330
258
 92
        7
 72
     1
 73
     1
 93
        2
 10
-5374.614816223719
 20
1148.539079736685
 42
1.0
 10
-5414.62236933126
 20
1148.539079736685
 42
1.0
 97
        1
330
21F
 92
        7
 72
     1
 73
     1
 93
        2
 10
-5566.651071139888
 20
1129.202095734712
 42
1.0
 10
-5606.658624247429
 20
1129.202095734712
 42
1.0
 97
        1
330
237
 92
        7
 72
     1
 73
     1
 93
        2
 10
-5183.245353859344
 20
890.4903621930863
 42
1.0
 10
-5223.252906966884
 20
890.4903621930861
 42
1.0
 97
        1
330
253
 92
        7
 72
     1
 73
     1
 93
        2
 10
-5374.614816223719
 20
853.1499792927206
 42
1.0
 10
-5414.62236933126
 20
853.1499792927206
 42
1.0
 97
        1
330
21E
 92
        7
 72
     1
 73
     1
 93
        2
 10
-5566.651071139888
 20
815.8095963923551
 42
1.0
 10
-5606.658624247429
 20
815.8095963923551
 42
1.0
 97
        1
330
234
 75
     0
 76
     1
 47
2.676158162350435
 98
       13
 10
-5206.867642156203
 20
1653.773528816294
 10
-5386.1357178382
 20
1686.066868211775
 10
-5588.914395320518
 20
1724.231722129999
 10
-5585.975542883882
 20
1407.169804616336
 10
-5386.1357178382
 20
1398.362523311825
 10
-5203.928789719573
 20
1366.069183916344
 10
-5206.867642156203
 20
1269.189146689106
 10
-5203.928789719573
 20
1163.501847198149
 10
-5394.952166301727
 20
1145.887284589127
 10
-5588.914395320518
 20
1131.208488761873
 10
-5209.806458310717
 20
884.6047645619146
 10
-5397.891018738365
 20
852.3114251664337
 10
-5580.097910574861
 20
820.0180857709529
  0
HATCH
  5
21C
330
1EB
100
AcDbEntity
  8
0
 62
   250
100
AcDbHatch
 10
0.0
 20
0.0
 30
0.0000000000062599
210
0.0
220
0.0
230
1.0
  2
SOLID
 70
     1
 71
     0
 91
       23
 92
        7
 72
     1
 73
     1
 93
        2
 10
-5606.65862424743
 20
1725.981429588777
 42
1.0
 10
-5566.651071139887
 20
1725.981429588777
 42
1.0
 97
        0
 92
        7
 72
     1
 73
     1
 93
        2
 10
-5374.614816223719
 20
1689.307839240202
 42
1.0
 10
-5414.622369331258
 20
1689.307839240202
 42
1.0
 97
        0
 92
        7
 72
     1
 73
     1
 93
        2
 10
-5223.252906966884
 20
1653.301041443424
 42
1.0
 10
-5183.245353859343
 20
1653.301041443424
 42
1.0
 97
        0
 92
        7
 72
     1
 73
     1
 93
        4
 10
-5193.247242136229
 20
1635.977262776228
 42
-0.2679491924310617
 10
-5213.251018689996
 20
1635.977262776228
 42
0.0
 10
-5213.251018689996
 20
1389.905155806081
 42
-0.2679491924310617
 10
-5193.247242136229
 20
1389.905155806081
 42
0.0
 97
        0
 92
        7
 72
     1
 73
     1
 93
        4
 10
-5384.616704500601
 20
1671.984060573013
 42
-0.2679491924311883
 10
-5404.620481054375
 20
1671.984060573013
 42
0.0
 10
-5404.620481054375
 20
1409.242139808055
 42
-0.2679491924311883
 10
-5384.616704500601
 20
1409.242139808055
 42
0.0
 97
        0
 92
        7
 72
     1
 73
     1
 93
        4
 10
-5576.652959416777
 20
1708.657650921584
 42
-0.2679491924310617
 10
-5596.656735970542
 20
1708.657650921584
 42
0.0
 10
-5596.656735970542
 20
1428.867466535128
 42
-0.2679491924310617
 10
-5576.652959416777
 20
1428.867466535128
 42
0.0
 97
        0
 92
        7
 72
     1
 73
     1
 93
        2
 10
-5566.65107113989
 20
1411.543687867932
 42
1.0
 10
-5606.65862424743
 20
1411.543687867932
 42
1.0
 97
        0
 92
        7
 72
     1
 73
     1
 93
        2
 10
-5374.614816223719
 20
1391.918361140862
 42
1.0
 10
-5414.622369331258
 20
1391.918361140862
 42
1.0
 97
        0
 92
        7
 72
     1
 73
     1
 93
        2
 10
-5223.252906966884
 20
1372.581377138885
 42
1.0
 10
-5183.245353859343
 20
1372.581377138885
 42
1.0
 97
        0
 92
        7
 72
     1
 73
     1
 93
        4
 10
-5193.247242136229
 20
1355.257598471689
 42
-0.2679491924310617
 10
-5213.251018689996
 20
1355.257598471689
 42
0.0
 10
-5213.251018689996
 20
1289.219480485451
 42
-0.2679491924310617
 10
-5193.247242136229
 20
1289.219480485451
 42
0.0
 97
        0
 92
        7
 72
     1
 73
     1
 93
        2
 10
-5223.252906966884
 20
1271.895701818255
 42
1.0
 10
-5183.245353859343
 20
1271.895701818255
 42
1.0
 97
        0
 92
        7
 72
     1
 73
     1
 93
        4
 10
-5193.247242136229
 20
1254.571923151063
 42
-0.2679491924310617
 10
-5213.251018689996
 20
1254.571923151063
 42
0.0
 10
-5213.251018689996
 20
1185.199842405854
 42
-0.2679491924310617
 10
-5193.247242136229
 20
1185.199842405854
 42
0.0
 97
        0
 92
        7
 72
     1
 73
     1
 93
        2
 10
-5183.245353859343
 20
1167.876063738662
 42
1.0
 10
-5223.252906966884
 20
1167.876063738662
 42
1.0
 97
        0
 92
        7
 72
     1
 73
     1
 93
        4
 10
-5193.247242136229
 20
1150.552285071469
 42
-0.2679491924310617
 10
-5213.251018689996
 20
1150.552285071469
 42
0.0
 10
-5213.251018689996
 20
907.8141408602823
 42
-0.2679491924310617
 10
-5193.247242136229
 20
907.8141408602823
 42
0.0
 97
        0
 92
        7
 72
     1
 73
     1
 93
        4
 10
-5384.616704500601
 20
1374.59458247367
 42
-0.2679491924311883
 10
-5404.620481054375
 20
1374.59458247367
 42
0.0
 10
-5404.620481054375
 20
1165.862858403877
 42
-0.2679491924311883
 10
-5384.616704500601
 20
1165.862858403877
 42
0.0
 97
        0
 92
        7
 72
     1
 73
     1
 93
        4
 10
-5384.616704500601
 20
1131.215301069496
 42
-0.2679491924311883
 10
-5404.620481054375
 20
1131.215301069496
 42
0.0
 10
-5404.620481054375
 20
870.4737579599095
 42
-0.2679491924311883
 10
-5384.616704500601
 20
870.4737579599095
 42
0.0
 97
        0
 92
        7
 72
     1
 73
     1
 93
        2
 10
-5374.614816223719
 20
1148.539079736685
 42
1.0
 10
-5414.622369331258
 20
1148.539079736685
 42
1.0
 97
        0
 92
        7
 72
     1
 73
     1
 93
        2
 10
-5183.245353859343
 20
890.4903621930861
 42
1.0
 10
-5223.252906966884
 20
890.4903621930861
 42
1.0
 97
        0
 92
        7
 72
     1
 73
     1
 93
        2
 10
-5414.622369331261
 20
853.1499792927206
 42
1.0
 10
-5374.614816223719
 20
853.1499792927206
 42
1.0
 97
        0
 92
        7
 72
     1
 73
     1
 93
        2
 10
-5566.65107113989
 20
815.8095963923551
 42
1.0
 10
-5606.65862424743
 20
815.8095963923551
 42
1.0
 97
        0
 92
        7
 72
     1
 73
     1
 93
        4
 10
-5576.652959416777
 20
1111.878317067515
 42
-0.2679491924310617
 10
-5596.656735970542
 20
1111.878317067515
 42
0.0
 10
-5596.656735970542
 20
833.1333750595513
 42
-0.2679491924310617
 10
-5576.652959416777
 20
833.1333750595513
 42
0.0
 97
        0
 92
        7
 72
     1
 73
     1
 93
        2
 10
-5566.65107113989
 20
1129.202095734712
 42
1.0
 10
-5606.65862424743
 20
1129.202095734712
 42
1.0
 97
        0
 92
        7
 72
     1
 73
     1
 93
        4
 10
-5576.652959416777
 20
1394.219909200735
 42
-0.2679491924310617
 10
-5596.656735970542
 20
1394.219909200735
 42
0.0
 10
-5596.656735970542
 20
1146.525874401904
 42
-0.2679491924310617
 10
-5576.652959416777
 20
1146.525874401904
 42
0.0
 97
        0
 75
     0
 76
     1
 47
2.764541729509131
 98
       23
 10
-5589.7351696393
 20
1729.01084724511
 10
-5393.247958427635
 20
1687.542739215852
 10
-5210.597844105132
 20
1654.368229943491
 10
-5202.295585971636
 20
1576.961060682115
 10
-5396.015377805465
 20
1543.786551409754
 10
-5578.665455845838
 20
1549.31563628848
 10
-5584.200330883634
 20
1408.324019482937
 10
-5390.480539049798
 20
1386.207679968032
 10
-5202.295585971636
 20
1375.14951021058
 10
-5205.063005349466
 20
1314.329595585379
 10
-5202.295585971636
 20
1272.861468515329
 10
-5199.528130311669
 20
1214.806086809094
 10
-5202.295585971636
 20
1162.279789981588
 10
-5199.528130311669
 20
1115.282578032809
 10
-5393.247958427635
 20
1308.800510706652
 10
-5393.247958427635
 20
1037.875408771433
 10
-5393.247958427635
 20
1142.928002426444
 10
-5199.528130311669
 20
883.0610702486774
 10
-5396.015377805465
 20
852.651112936077
 10
-5581.432911505804
 20
813.9475378257849
 10
-5586.967750261471
 20
860.9447497745641
 10
-5584.200330883634
 20
1126.340747790265
 10
-5589.7351696393
 20
1187.160662415462
  0
HATCH
  5
21D
330
1EB
100
AcDbEntity
  8
0
 62
    50
100
AcDbHatch
 10
0.0
 20
0.0
 30
0.0000000000062599
210
0.0
220
0.0
230
1.0
  2
SOLID
 70
     1
 71
     0
 91
       15
 92
        7
 72
     1
 73
     1
 93
        5
 10
-5817.365070613783
 20
1780.658418835744
 42
0.0
 10
-5822.699411028118
 20
1760.654642281973
 42
0.0
 10
-5605.516227227152
 20
1719.318139222399
 42
-0.0851023481420786
 10
-5606.65862424743
 20
1725.981429588777
 42
-0.1859621584946757
 10
-5601.488257308752
 20
1739.402347426396
 42
0.0
 97
        0
 92
        7
 72
     1
 73
     1
 93
        6
 10
-5567.917799279156
 20
1732.986719955755
 42
-0.0896850285161526
 10
-5566.65107113989
 20
1725.981429588777
 42
-0.1808726405839401
 10
-5571.560001186364
 20
1712.855246391278
 42
0.0
 10
-5413.526117067115
 20
1682.77663708054
 42
-0.0833413142280533
 10
-5414.622369331258
 20
1689.307839240202
 42
-0.1855709679467075
 10
-5409.472285423774
 20
1702.706305241314
 42
0.0
 97
        0
 92
        7
 72
     1
 73
     1
 93
        6
 10
-5375.870969845535
 20
1696.284780605477
 42
-0.0893038586945105
 10
-5374.614816223719
 20
1689.307839240202
 42
-0.1790673735504051
 10
-5379.432304917115
 20
1676.287557467716
 42
0.0
 10
-5221.996244138186
 20
1646.322731949549
 42
-0.0893222485011883
 10
-5223.252906966884
 20
1653.301041443424
 42
-0.1772621847634118
 10
-5218.526169348652
 20
1666.214722474608
 42
0.0
 97
        0
 92
        7
 72
     1
 73
     1
 93
        5
 10
-5184.286759999564
 20
1659.671252170905
 42
-0.0812013531982661
 10
-5183.245353859343
 20
1653.301041443424
 42
-0.1852009961545732
 10
-5188.376283571388
 20
1639.923840568961
 42
0.0
 10
-5030.008814297045
 20
1609.781739953123
 42
-0.2685811292006837
 10
-5026.509049595955
 20
1629.518460921306
 42
0.0
 97
        0
 92
        7
 72
     1
 73
     1
 93
        5
 10
-5602.867732495055
 20
1423.260916329898
 42
0.0
 10
-5818.698655717362
 20
1445.261765284238
 42
0.0
 10
-5821.365825924531
 20
1425.257988730474
 42
0.0
 10
-5604.893401587506
 20
1403.327470473384
 42
-0.10621125263883
 10
-5606.65862424743
 20
1411.543687867932
 42
-0.1577406454984231
 97
        0
 92
        7
 72
     1
 73
     1
 93
        6
 10
-5410.756759120701
 20
1403.738287684289
 42
0.0
 10
-5568.416293799819
 20
1419.759905262486
 42
-0.1062112526389573
 10
-5566.65107113989
 20
1411.543687867932
 42
-0.1577406454982801
 10
-5570.441962892259
 20
1399.826459405976
 42
0.0
 10
-5412.908754913665
 20
1383.81767935193
 42
-0.1046122499629626
 10
-5414.622369331258
 20
1391.918361140862
 42
-0.1593677876891822
 97
        0
 92
        7
 72
     1
 73
     1
 93
        6
 10
-5219.46201521451
 20
1384.298605600845
 42
0.0
 10
-5376.432570544555
 20
1400.25020798033
 42
-0.1078166695744589
 10
-5374.614816223719
 20
1391.918361140862
 42
-0.1561202689644205
 10
-5378.331912936481
 20
1380.303924599655
 42
0.0
 10
-5221.487684306958
 20
1364.365159744335
 42
-0.106211252638881
 10
-5223.252906966884
 20
1372.581377138885
 42
-0.1577406454983651
 97
        0
 92
        7
 72
     1
 73
     1
 93
        5
 10
-5028.92902843664
 20
1281.61740324553
 42
0.0
 10
-5185.575000181809
 20
1281.26459700286
 42
-0.1224641477092257
 10
-5183.245353859343
 20
1271.895701818255
 42
-0.1206628716633466
 10
-5185.508925412633
 20
1262.652531206713
 42
0.0
 10
-5029.092203052736
 20
1263.357111037163
 42
-0.2415336677682219
 97
        0
 92
        7
 72
     1
 73
     1
 93
        6
 10
-5219.46201521451
 20
1156.158835276703
 42
-0.1577406454983381
 10
-5223.252906966884
 20
1167.876063738662
 42
-0.1062112526390083
 10
-5221.487684306953
 20
1176.09228113322
 42
0.0
 10
-5378.331912936483
 20
1160.153516277896
 42
-0.1561202689644513
 10
-5374.614816223719
 20
1148.539079736685
 42
-0.1078166695745329
 10
-5376.432570544555
 20
1140.207232897213
 42
0.0
 97
        0
 92
        7
 72
     1
 73
     1
 93
        6
 10
-5414.622369331258
 20
1148.539079736685
 42
-0.104612249963011
 10
-5412.908754913664
 20
1156.639761525621
 42
0.0
 10
-5570.250958032513
 20
1140.650391695162
 42
-0.1535182735215436
 10
-5566.65107113989
 20
1129.202095734712
 42
-0.1104223275205014
 10
-5568.555606495568
 20
1120.683378433001
 42
0.0
 10
-5410.756759120697
 20
1136.719153193255
 42
-0.1593677876892712
 97
        0
 92
        7
 72
     1
 73
     1
 93
        5
 10
-5606.65862424743
 20
1129.202095734712
 42
-0.102044031375449
 10
-5605.026401748491
 20
1137.116454712133
 42
0.0
 10
-5820.699033372743
 20
1115.199452147076
 42
0.0
 10
-5818.698655717362
 20
1095.195675593306
 42
0.0
 10
-5602.670415100547
 20
1117.216576261253
 42
-0.1620092734141219
 97
        0
 92
        7
 72
     1
 73
     1
 93
        5
 10
-5606.65862424743
 20
815.8095963923551
 42
-0.079198403321382
 10
-5605.667327404655
 20
822.0286551356148
 42
0.0
 10
-5822.699411028116
 20
779.8027985955741
 42
0.0
 10
-5818.777515920189
 20
759.7835728207865
 42
0.0
 10
-5601.459968311035
 20
802.3574783465555
 42
-0.1865067590877368
 97
        0
 92
        7
 72
     1
 73
     1
 93
        6
 10
-5409.637319584465
 20
839.9367691789521
 42
-0.1823652781536637
 10
-5414.622369331258
 20
853.1499792927206
 42
-0.0827944421143663
 10
-5413.540261457484
 20
859.6400895211917
 42
0.0
 10
-5571.390881196479
 20
828.73872641669
 42
-0.1775230658767542
 10
-5566.65107113989
 20
815.8095963923551
 42
-0.0878853185701973
 10
-5567.868242115846
 20
808.9383135953175
 42
0.0
 97
        0
 92
        7
 72
     1
 73
     1
 93
        6
 10
-5218.379695636254
 20
877.405368022606
 42
-0.1801690726475175
 10
-5223.252906966884
 20
890.4903621930861
 42
-0.0845485779383144
 10
-5222.125118604584
 20
897.1121554704804
 42
0.0
 10
-5379.540940832685
 20
866.2959097749844
 42
-0.181210605973591
 10
-5374.614816223719
 20
853.1499792927206
 42
-0.0838505500870652
 10
-5375.724318525652
 20
846.5805442401833
 42
0.0
 97
        0
 92
        7
 72
     1
 73
     1
 93
        5
 10
-5026.052508337514
 20
915.0835012068638
 42
-0.2684352454930941
 10
-5030.238412355815
 20
934.6765362408769
 42
0.0
 10
-5188.263441432573
 20
903.7410301834825
 42
-0.1830103166745941
 10
-5183.245353859343
 20
890.4903621930861
 42
-0.0817096404766589
 10
-5184.299664888858
 20
884.0818652742891
 42
0.0
 97
        0
 75
     0
 76
     1
 47
3.667923569414485
 98
       15
 10
-5727.440946676639
 20
1749.694067384323
 10
-5492.595014203342
 20
1709.34694297433
 10
-5312.79112203415
 20
1672.667680469752
 10
-5118.30937898993
 20
1635.988482310222
 10
-5661.390498311697
 20
1415.913035972818
 10
-5485.256128574913
 20
1397.573404720522
 10
-5331.138495341585
 20
1382.901699718688
 10
-5143.995637925795
 20
1269.196114644601
 10
-5301.782713973329
 20
1155.490465225437
 10
-5496.264536635734
 20
1137.15083397314
 10
-5698.085244926567
 20
1118.811202720844
 10
-5683.407314433354
 20
803.3698025616503
 10
-5510.942387510777
 20
832.7131482202567
 10
-5309.121679219943
 20
869.3924107248495
 10
-5118.30937898993
 20
906.0716732294277
  0
CIRCLE
  5
21E
102
{ACAD_REACTORS
330
21B
102
}
330
1EB
100
AcDbEntity
  8
0
100
AcDbCircle
 10
-5394.61859277749
 20
853.1499792927206
 30
0.0000000000062599
 40
20.00377655377027
  0
CIRCLE
  5
21F
102
{ACAD_REACTORS
330
21B
102
}
330
1EB
100
AcDbEntity
  8
0
100
AcDbCircle
 10
-5394.61859277749
 20
1148.539079736685
 30
0.0000000000062599
 40
20.00377655377027
  0
CIRCLE
  5
220
102
{ACAD_REACTORS
330
21B
102
}
330
1EB
100
AcDbEntity
  8
0
100
AcDbCircle
 10
-5394.61859277749
 20
1391.918361140862
 30
0.0000000000062599
 40
20.00377655377027
  0
CIRCLE
  5
221
102
{ACAD_REACTORS
330
21B
102
}
330
1EB
100
AcDbEntity
  8
0
100
AcDbCircle
 10
-5394.61859277749
 20
1689.307839240202
 30
0.0000000000062599
 40
20.00377655377027
  0
HATCH
  5
222
330
1EB
100
AcDbEntity
  8
0
 62
   250
100
AcDbHatch
 10
0.0
 20
0.0
 30
0.0000000000062599
210
0.0
220
0.0
230
1.0
  2
SOLID
 70
     1
 71
     0
 91
        3
 92
        7
 72
     1
 73
     1
 93
        4
 10
-5576.652959416777
 20
1708.657650921584
 42
-0.2679491924310617
 10
-5596.656735970542
 20
1708.657650921584
 42
0.0
 10
-5596.656735970542
 20
1428.867466535128
 42
-0.2679491924310617
 10
-5576.652959416777
 20
1428.867466535128
 42
0.0
 97
        0
 92
        7
 72
     1
 73
     1
 93
        4
 10
-5576.652959416777
 20
1394.219909200735
 42
-0.2679491924310617
 10
-5596.656735970542
 20
1394.219909200735
 42
0.0
 10
-5596.656735970542
 20
1146.525874401904
 42
-0.2679491924310617
 10
-5576.652959416777
 20
1146.525874401904
 42
0.0
 97
        0
 92
        7
 72
     1
 73
     1
 93
        4
 10
-5576.652959416777
 20
1111.878317067515
 42
-0.2679491924310617
 10
-5596.656735970542
 20
1111.878317067515
 42
0.0
 10
-5596.656735970542
 20
833.1333750595513
 42
-0.2679491924310617
 10
-5576.652959416777
 20
833.1333750595513
 42
0.0
 97
        0
 75
     0
 76
     1
 47
3.005531458579665
 98
        3
 10
-5582.926392775544
 20
1542.364527771853
 10
-5585.935052028084
 20
1325.966262754114
 10
-5588.943711280625
 20
995.3577912032233
  0
HATCH
  5
223
330
1EB
100
AcDbEntity
  8
0
 62
   250
100
AcDbHatch
 10
0.0
 20
0.0
 30
0.0000000000062599
210
0.0
220
0.0
230
1.0
  2
SOLID
 70
     1
 71
     0
 91
        3
 92
        7
 72
     1
 73
     1
 93
        4
 10
-5384.616704500601
 20
1671.984060573013
 42
-0.2679491924311883
 10
-5404.620481054375
 20
1671.984060573013
 42
0.0
 10
-5404.620481054375
 20
1409.242139808055
 42
-0.2679491924311883
 10
-5384.616704500601
 20
1409.242139808055
 42
0.0
 97
        0
 92
        7
 72
     1
 73
     1
 93
        4
 10
-5384.616704500601
 20
1374.59458247367
 42
-0.2679491924311883
 10
-5404.620481054375
 20
1374.59458247367
 42
0.0
 10
-5404.620481054375
 20
1165.862858403877
 42
-0.2679491924311883
 10
-5384.616704500601
 20
1165.862858403877
 42
0.0
 97
        0
 92
        7
 72
     1
 73
     1
 93
        4
 10
-5384.616704500601
 20
1131.215301069496
 42
-0.2679491924311883
 10
-5404.620481054375
 20
1131.215301069496
 42
0.0
 10
-5404.620481054375
 20
870.4737579599095
 42
-0.2679491924311883
 10
-5384.616704500601
 20
870.4737579599095
 42
0.0
 97
        0
 75
     0
 76
     1
 47
3.005531458579665
 98
        3
 10
-5390.371728945391
 20
1521.325821049024
 10
-5399.397706703005
 20
1259.844572252095
 10
-5396.389047450464
 20
947.2692942128778
  0
LINE
  5
224
330
1EB
100
AcDbEntity
  8
0
100
AcDbLine
 10
-5384.616704500601
 20
1165.862858403877
 30
0.0000000000062599
 11
-5384.616704500601
 21
1374.59458247367
 31
0.0000000000062599
  0
LINE
  5
225
330
1EB
100
AcDbEntity
  8
0
100
AcDbLine
 10
-5404.620481054375
 20
1374.59458247367
 30
0.0000000000062599
 11
-5404.620481054375
 21
1165.862858403877
 31
0.0000000000062599
  0
LINE
  5
226
330
1EB
100
AcDbEntity
  8
0
100
AcDbLine
 10
-5576.652959416777
 20
1394.219909200735
 30
0.0000000000062599
 11
-5576.652959416777
 21
1146.525874401908
 31
0.0000000000062599
  0
LINE
  5
227
330
1EB
100
AcDbEntity
  8
0
100
AcDbLine
 10
-5596.656735970542
 20
1394.219909200735
 30
0.0000000000062599
 11
-5596.656735970542
 21
1143.204739322347
 31
0.0000000000062599
  0
LINE
  5
228
330
1EB
100
AcDbEntity
  8
0
100
AcDbLine
 10
-5818.77751592019
 20
759.7835728207829
 30
0.0000000000062599
 11
-5601.459968311032
 21
802.3574783465555
 31
0.0000000000062599
  0
LINE
  5
229
330
1EB
100
AcDbEntity
  8
0
100
AcDbLine
 10
-5605.667327404655
 20
822.0286551356148
 30
0.0000000000062599
 11
-5822.699411028118
 21
779.8027985955741
 31
0.0000000000062599
  0
LINE
  5
22A
330
1EB
100
AcDbEntity
  8
0
100
AcDbLine
 10
-5818.698655717362
 20
1095.195675593306
 30
0.0000000000062599
 11
-5602.670415100543
 21
1117.216576261253
 31
0.0000000000062599
  0
LINE
  5
22B
330
1EB
100
AcDbEntity
  8
0
100
AcDbLine
 10
-5605.026401748495
 20
1137.116454712133
 30
0.0000000000062599
 11
-5820.699033372741
 21
1115.199452147076
 31
0.0000000000062599
  0
LINE
  5
22C
330
1EB
100
AcDbEntity
  8
0
100
AcDbLine
 10
-5822.699411028118
 20
779.8027985955741
 30
0.0000000000062599
 11
-5818.77751592019
 21
759.7835728207829
 31
0.0000000000062599
  0
LINE
  5
22D
330
1EB
100
AcDbEntity
  8
0
100
AcDbLine
 10
-5820.699033372741
 20
1115.199452147076
 30
0.0000000000062599
 11
-5818.698655717362
 21
1095.195675593306
 31
0.0000000000062599
  0
LINE
  5
22E
330
1EB
100
AcDbEntity
  8
0
100
AcDbLine
 10
-5384.616704500601
 20
870.4737579599095
 30
0.0000000000062599
 11
-5384.616704500601
 21
1131.215301069496
 31
0.0000000000062599
  0
LINE
  5
22F
330
1EB
100
AcDbEntity
  8
0
100
AcDbLine
 10
-5404.620481054375
 20
1131.215301069496
 30
0.0000000000062599
 11
-5404.620481054375
 21
870.4737579599095
 31
0.0000000000062599
  0
LINE
  5
230
330
1EB
100
AcDbEntity
  8
0
100
AcDbLine
 10
-5576.652959416777
 20
833.1333750595513
 30
0.0000000000062599
 11
-5576.652959416777
 21
1111.878317067515
 31
0.0000000000062599
  0
LINE
  5
231
330
1EB
100
AcDbEntity
  8
0
100
AcDbLine
 10
-5596.656735970542
 20
1111.878317067515
 30
0.0000000000062599
 11
-5596.656735970542
 21
833.1333750595513
 31
0.0000000000062599
  0
LINE
  5
232
330
1EB
100
AcDbEntity
  8
0
100
AcDbLine
 10
-5567.868242115846
 20
808.9383135953175
 30
0.0000000000062599
 11
-5409.637319584465
 21
839.9367691789521
 31
0.0000000000062599
  0
LINE
  5
233
330
1EB
100
AcDbEntity
  8
0
100
AcDbLine
 10
-5413.540261457485
 20
859.6400895211917
 30
0.0000000000062599
 11
-5571.390881196482
 21
828.73872641669
 31
0.0000000000062599
  0
CIRCLE
  5
234
102
{ACAD_REACTORS
330
21B
102
}
330
1EB
100
AcDbEntity
  8
0
100
AcDbCircle
 10
-5586.654847693658
 20
815.8095963923551
 30
0.0000000000062599
 40
20.00377655377027
  0
LINE
  5
235
330
1EB
100
AcDbEntity
  8
0
100
AcDbLine
 10
-5410.756759120697
 20
1136.719153193255
 30
0.0000000000062599
 11
-5568.555606495568
 21
1120.683378433001
 31
0.0000000000062599
  0
LINE
  5
236
330
1EB
100
AcDbEntity
  8
0
100
AcDbLine
 10
-5570.250958032513
 20
1140.650391695162
 30
0.0000000000062599
 11
-5412.908754913664
 21
1156.639761525621
 31
0.0000000000062599
  0
CIRCLE
  5
237
102
{ACAD_REACTORS
330
21B
102
}
330
1EB
100
AcDbEntity
  8
0
100
AcDbCircle
 10
-5586.654847693658
 20
1129.202095734712
 30
0.0000000000062599
 40
20.00377655377027
  0
LINE
  5
238
330
1EB
100
AcDbEntity
  8
0
100
AcDbLine
 10
-5601.488257308752
 20
1739.402347426396
 30
0.0000000000062599
 11
-5817.365070613782
 21
1780.658418835744
 31
0.0000000000062599
  0
LINE
  5
239
330
1EB
100
AcDbEntity
  8
0
100
AcDbLine
 10
-5604.893401587506
 20
1403.327470473384
 30
0.0000000000062599
 11
-5821.365825924531
 21
1425.257988730474
 31
0.0000000000062599
  0
LINE
  5
23A
330
1EB
100
AcDbEntity
  8
0
100
AcDbLine
 10
-5818.698655717362
 20
1445.261765284238
 30
0.0000000000062599
 11
-5602.867732495055
 21
1423.260916329898
 31
0.0000000000062599
  0
LINE
  5
23B
330
1EB
100
AcDbEntity
  8
0
100
AcDbLine
 10
-5822.699411028118
 20
1760.654642281973
 30
0.0000000000062599
 11
-5605.516227227152
 21
1719.318139222399
 31
0.0000000000062599
  0
LINE
  5
23C
330
1EB
100
AcDbEntity
  8
0
100
AcDbLine
 10
-5821.365825924531
 20
1425.257988730474
 30
0.0000000000062599
 11
-5818.698655717362
 21
1445.261765284238
 31
0.0000000000062599
  0
LINE
  5
23D
330
1EB
100
AcDbEntity
  8
0
100
AcDbLine
 10
-5817.365070613782
 20
1780.658418835744
 30
0.0000000000062599
 11
-5822.699411028118
 21
1760.654642281973
 31
0.0000000000062599
  0
LINE
  5
23E
330
1EB
100
AcDbEntity
  8
0
100
AcDbLine
 10
-5384.616704500601
 20
1409.242139808055
 30
0.0000000000062599
 11
-5384.616704500601
 21
1671.984060573013
 31
0.0000000000062599
  0
LINE
  5
23F
330
1EB
100
AcDbEntity
  8
0
100
AcDbLine
 10
-5404.620481054375
 20
1671.984060573013
 30
0.0000000000062599
 11
-5404.620481054375
 21
1409.242139808055
 31
0.0000000000062599
  0
LINE
  5
240
330
1EB
100
AcDbEntity
  8
0
100
AcDbLine
 10
-5576.652959416777
 20
1708.657650921581
 30
0.0000000000062599
 11
-5576.652959416777
 21
1428.867466535128
 31
0.0000000000062599
  0
LINE
  5
241
330
1EB
100
AcDbEntity
  8
0
100
AcDbLine
 10
-5596.656735970542
 20
1708.657650921581
 30
0.0000000000062599
 11
-5596.656735970542
 21
1428.867466535128
 31
0.0000000000062599
  0
LINE
  5
242
330
1EB
100
AcDbEntity
  8
0
100
AcDbLine
 10
-5412.908754913668
 20
1383.81767935193
 30
0.0000000000062599
 11
-5570.441962892259
 21
1399.826459405976
 31
0.0000000000062599
  0
LINE
  5
243
330
1EB
100
AcDbEntity
  8
0
100
AcDbLine
 10
-5568.416293799819
 20
1419.759905262486
 30
0.0000000000062599
 11
-5410.756759120701
 21
1403.738287684289
 31
0.0000000000062599
  0
CIRCLE
  5
244
102
{ACAD_REACTORS
330
21B
102
}
330
1EB
100
AcDbEntity
  8
0
100
AcDbCircle
 10
-5586.654847693658
 20
1411.543687867932
 30
0.0000000000062599
 40
20.00377655377027
  0
LINE
  5
245
330
1EB
100
AcDbEntity
  8
0
100
AcDbLine
 10
-5409.472285423774
 20
1702.706305241314
 30
0.0000000000062599
 11
-5567.917799279156
 21
1732.986719955755
 31
0.0000000000062599
  0
LINE
  5
246
330
1EB
100
AcDbEntity
  8
0
100
AcDbLine
 10
-5571.560001186364
 20
1712.855246391278
 30
0.0000000000062599
 11
-5413.526117067113
 21
1682.77663708054
 31
0.0000000000062599
  0
CIRCLE
  5
247
102
{ACAD_REACTORS
330
21B
102
}
330
1EB
100
AcDbEntity
  8
0
100
AcDbCircle
 10
-5586.654847693658
 20
1725.981429588777
 30
0.0000000000062599
 40
20.00377655377027
  0
HATCH
  5
248
330
1EB
100
AcDbEntity
  8
0
 62
   250
100
AcDbHatch
 10
0.0
 20
0.0
 30
0.0000000000062599
210
0.0
220
0.0
230
1.0
  2
SOLID
 70
     1
 71
     0
 91
        4
 92
        7
 72
     1
 73
     1
 93
        4
 10
-5193.247242136229
 20
1635.977262776228
 42
-0.2679491924310617
 10
-5213.251018689996
 20
1635.977262776228
 42
0.0
 10
-5213.251018689996
 20
1389.905155806081
 42
-0.2679491924310617
 10
-5193.247242136229
 20
1389.905155806081
 42
0.0
 97
        0
 92
        7
 72
     1
 73
     1
 93
        4
 10
-5193.247242136229
 20
1355.257598471689
 42
-0.2679491924310617
 10
-5213.251018689996
 20
1355.257598471689
 42
0.0
 10
-5213.251018689996
 20
1289.219480485451
 42
-0.2679491924310617
 10
-5193.247242136229
 20
1289.219480485451
 42
0.0
 97
        0
 92
        7
 72
     1
 73
     1
 93
        4
 10
-5193.247242136229
 20
1254.571923151063
 42
-0.2679491924310617
 10
-5213.251018689996
 20
1254.571923151063
 42
0.0
 10
-5213.251018689996
 20
1185.199842405854
 42
-0.2679491924310617
 10
-5193.247242136229
 20
1185.199842405854
 42
0.0
 97
        0
 92
        7
 72
     1
 73
     1
 93
        4
 10
-5193.247242136229
 20
1150.552285071469
 42
-0.2679491924310617
 10
-5213.251018689996
 20
1150.552285071469
 42
0.0
 10
-5213.251018689996
 20
907.8141408602823
 42
-0.2679491924310617
 10
-5193.247242136229
 20
907.8141408602823
 42
0.0
 97
        0
 75
     0
 76
     1
 47
3.005531458579665
 98
        4
 10
-5203.834383620311
 20
1479.248369521777
 10
-5203.834383620311
 20
1319.955198250223
 10
-5206.843042872852
 20
1211.756075261753
 10
-5200.82568808564
 20
1070.496078461081
  0
LINE
  5
249
330
1EB
100
AcDbEntity
  8
0
100
AcDbLine
 10
-5193.247242136229
 20
1355.257598471689
 30
0.0000000000062599
 11
-5193.247242136229
 21
1289.219480485451
 31
0.0000000000062599
  0
LINE
  5
24A
330
1EB
100
AcDbEntity
  8
0
100
AcDbLine
 10
-5213.251018689996
 20
1355.257598471689
 30
0.0000000000062599
 11
-5213.251018689996
 21
1289.219480485451
 31
0.0000000000062599
  0
LINE
  5
24B
330
1EB
100
AcDbEntity
  8
0
100
AcDbLine
 10
-5184.299664888855
 20
884.0818652742891
 30
0.0000000000062599
 11
-5025.753088273624
 21
915.1421595234715
 31
0.0000000000062599
  0
LINE
  5
24C
330
1EB
100
AcDbEntity
  8
0
100
AcDbLine
 10
-5028.415576470628
 20
935.0333806654379
 30
0.0000000000062599
 11
-5188.263441432573
 21
903.7410301834825
 31
0.0000000000062599
  0
LINE
  5
24D
330
1EB
100
AcDbEntity
  8
0
100
AcDbLine
 10
-5029.092203052736
 20
1263.357111037163
 30
0.0000000000062599
 11
-5185.508925412633
 21
1262.652531206713
 31
0.0000000000062599
  0
LINE
  5
24E
330
1EB
100
AcDbEntity
  8
0
100
AcDbLine
 10
-5185.575000181809
 20
1281.26459700286
 30
0.0000000000062599
 11
-5028.929028436635
 21
1281.61740324553
 31
0.0000000000062599
  0
LINE
  5
24F
330
1EB
100
AcDbEntity
  8
0
100
AcDbLine
 10
-5193.247242136229
 20
907.8141408602823
 30
0.0000000000062599
 11
-5193.247242136229
 21
1150.552285071469
 31
0.0000000000062599
  0
LINE
  5
250
330
1EB
100
AcDbEntity
  8
0
100
AcDbLine
 10
-5213.251018689996
 20
1150.552285071469
 30
0.0000000000062599
 11
-5213.251018689996
 21
907.8141408602823
 31
0.0000000000062599
  0
LINE
  5
251
330
1EB
100
AcDbEntity
  8
0
100
AcDbLine
 10
-5375.724318525651
 20
846.5805442401833
 30
0.0000000000062599
 11
-5218.379695636257
 21
877.405368022606
 31
0.0000000000062599
  0
LINE
  5
252
330
1EB
100
AcDbEntity
  8
0
100
AcDbLine
 10
-5222.125118604587
 20
897.1121554704804
 30
0.0000000000062599
 11
-5379.540940832686
 21
866.2959097749844
 31
0.0000000000062599
  0
CIRCLE
  5
253
102
{ACAD_REACTORS
330
21B
102
}
330
1EB
100
AcDbEntity
  8
0
100
AcDbCircle
 10
-5203.249130413115
 20
890.4903621930861
 30
0.0000000000062599
 40
20.00377655377027
  0
LINE
  5
254
330
1EB
100
AcDbEntity
  8
0
100
AcDbLine
 10
-5219.46201521451
 20
1156.158835276703
 30
0.0000000000062599
 11
-5376.432570544559
 21
1140.207232897213
 31
0.0000000000062599
  0
LINE
  5
255
330
1EB
100
AcDbEntity
  8
0
100
AcDbLine
 10
-5378.331912936483
 20
1160.153516277896
 30
0.0000000000062599
 11
-5221.48768430695
 21
1176.09228113322
 31
0.0000000000062599
  0
LINE
  5
256
330
1EB
100
AcDbEntity
  8
0
100
AcDbLine
 10
-5193.247242136229
 20
1254.571923151059
 30
0.0000000000062599
 11
-5193.247242136229
 21
1185.199842405858
 31
0.0000000000062599
  0
LINE
  5
257
330
1EB
100
AcDbEntity
  8
0
100
AcDbLine
 10
-5213.251018689996
 20
1254.571923151059
 30
0.0000000000062599
 11
-5213.251018689996
 21
1185.199842405858
 31
0.0000000000062599
  0
CIRCLE
  5
258
102
{ACAD_REACTORS
330
21B
102
}
330
1EB
100
AcDbEntity
  8
0
100
AcDbCircle
 10
-5203.249130413115
 20
1167.876063738662
 30
0.0000000000062599
 40
20.00377655377027
  0
CIRCLE
  5
259
102
{ACAD_REACTORS
330
21B
102
}
330
1EB
100
AcDbEntity
  8
0
100
AcDbCircle
 10
-5203.249130413115
 20
1271.895701818255
 30
0.0000000000062599
 40
20.00377655377027
  0
ARC
  5
25A
330
1EB
100
AcDbEntity
  8
0
100
AcDbCircle
 10
-5011.212875496948
 20
928.497537645242
 30
0.0000000000062599
 40
20.00377655376609
100
AcDbArc
 50
122.2309526354723
 51
237.7690473645276
  0
ARC
  5
25B
330
1EB
100
AcDbEntity
  8
0
100
AcDbCircle
 10
-5011.212875496948
 20
1272.328215905901
 30
0.0000000000062599
 40
20.00377655377027
100
AcDbArc
 50
122.2309526354723
 51
237.7690473645276
  0
LINE
  5
25C
330
1EB
100
AcDbEntity
  8
0
100
AcDbLine
 10
-5188.376283571388
 20
1639.923840568961
 30
0.0000000000062599
 11
-5028.129478307794
 21
1609.424045694708
 31
0.0000000000062599
  0
LINE
  5
25D
330
1EB
100
AcDbEntity
  8
0
100
AcDbLine
 10
-5021.881556325621
 20
1628.634103820215
 30
0.0000000000062599
 11
-5184.286759999564
 21
1659.671252170905
 31
0.0000000000062599
  0
LINE
  5
25E
330
1EB
100
AcDbEntity
  8
0
100
AcDbLine
 10
-5193.247242136229
 20
1389.905155806081
 30
0.0000000000062599
 11
-5193.247242136229
 21
1635.977262776228
 31
0.0000000000062599
  0
LINE
  5
25F
330
1EB
100
AcDbEntity
  8
0
100
AcDbLine
 10
-5213.251018689996
 20
1635.977262776228
 30
0.0000000000062599
 11
-5213.251018689996
 21
1389.905155806081
 31
0.0000000000062599
  0
LINE
  5
260
330
1EB
100
AcDbEntity
  8
0
100
AcDbLine
 10
-5221.487684306953
 20
1364.365159744335
 30
0.0000000000062599
 11
-5378.331912936483
 21
1380.303924599655
 31
0.0000000000062599
  0
LINE
  5
261
330
1EB
100
AcDbEntity
  8
0
100
AcDbLine
 10
-5376.432570544555
 20
1400.25020798033
 30
0.0000000000062599
 11
-5219.46201521451
 21
1384.298605600845
 31
0.0000000000062599
  0
CIRCLE
  5
262
102
{ACAD_REACTORS
330
21B
102
}
330
1EB
100
AcDbEntity
  8
0
100
AcDbCircle
 10
-5203.249130413115
 20
1372.581377138885
 30
0.0000000000062599
 40
20.00377655377027
  0
LINE
  5
263
330
1EB
100
AcDbEntity
  8
0
100
AcDbLine
 10
-5218.52616934865
 20
1666.214722474608
 30
0.0000000000062599
 11
-5375.870969845535
 21
1696.284780605477
 31
0.0000000000062599
  0
LINE
  5
264
330
1EB
100
AcDbEntity
  8
0
100
AcDbLine
 10
-5379.432304917115
 20
1676.287557467716
 30
0.0000000000062599
 11
-5221.996244138186
 21
1646.322731949549
 31
0.0000000000062599
  0
CIRCLE
  5
265
102
{ACAD_REACTORS
330
21B
102
}
330
1EB
100
AcDbEntity
  8
0
100
AcDbCircle
 10
-5203.249130413115
 20
1653.301041443424
 30
0.0000000000062599
 40
20.00377655377027
  0
ARC
  5
266
330
1EB
100
AcDbEntity
  8
0
100
AcDbCircle
 10
-5011.212875496948
 20
1616.627451094849
 30
0.0000000000062599
 40
20.00377655376609
100
AcDbArc
 50
122.2309526354723
 51
237.7690473645276
  0
LINE
  5
267
330
1EB
100
AcDbEntity
  8
0
100
AcDbLine
 10
-4706.724961898697
 20
-558.7561766468898
 30
0.0000000000062599
 11
-4176.15231808224
 21
-558.7561766468898
 31
0.0000000000062599
  0
LINE
  5
268
330
1EB
100
AcDbEntity
  8
0
100
AcDbLine
 10
-4176.15231808224
 20
-543.2298328823344
 30
0.0000000000062599
 11
-4706.724961898697
 21
-543.2298328823344
 31
0.0000000000062599
  0
LINE
  5
269
330
1EB
100
AcDbEntity
  8
0
100
AcDbLine
 10
-4706.724961898697
 20
-428.1207325588838
 30
0.0000000000062599
 11
-4176.15231808224
 21
-428.1207325588838
 31
0.0000000000062599
  0
LINE
  5
26A
330
1EB
100
AcDbEntity
  8
0
100
AcDbLine
 10
-4176.15231808224
 20
-413.6651711229169
 30
0.0000000000062599
 11
-4706.724961898697
 21
-413.6651711229169
 31
0.0000000000062599
  0
LINE
  5
26B
330
1EB
100
AcDbEntity
  8
0
100
AcDbLine
 10
-4706.724961898697
 20
-297.485288470878
 30
0.0000000000062599
 11
-4176.15231808224
 21
-297.485288470878
 31
0.0000000000062599
  0
LINE
  5
26C
330
1EB
100
AcDbEntity
  8
0
100
AcDbLine
 10
-4176.15231808224
 20
-283.0297270349074
 30
0.0000000000062599
 11
-4706.724961898697
 21
-283.0297270349074
 31
0.0000000000062599
  0
LINE
  5
26D
330
1EB
100
AcDbEntity
  8
0
100
AcDbLine
 10
-4706.724961898697
 20
-167.9206267114605
 30
0.0000000000062599
 11
-4176.15231808224
 21
-167.9206267114605
 31
0.0000000000062599
  0
LINE
  5
26E
330
1EB
100
AcDbEntity
  8
0
100
AcDbLine
 10
-4176.15231808224
 20
-152.3942829469015
 30
0.0000000000062599
 11
-4706.724961898697
 21
-152.3942829469015
 31
0.0000000000062599
  0
LINE
  5
26F
330
1EB
100
AcDbEntity
  8
0
100
AcDbLine
 10
-4708.331135391581
 20
-35.67900913056655
 30
0.0000000000062599
 11
-4176.15231808224
 21
-35.67900913056655
 31
0.0000000000062599
  0
LINE
  5
270
330
1EB
100
AcDbEntity
  8
0
100
AcDbLine
 10
-4176.15231808224
 20
-21.75883885889197
 30
0.0000000000062599
 11
-4706.724961898697
 21
-21.75883885889197
 31
0.0000000000062599
  0
LINE
  5
271
330
1EB
100
AcDbEntity
  8
0
100
AcDbLine
 10
-4706.724961898697
 20
94.95643495744298
 30
0.0000000000062599
 11
-4176.15231808224
 21
94.95643495744298
 31
0.0000000000062599
  0
LINE
  5
272
330
1EB
100
AcDbEntity
  8
0
100
AcDbLine
 10
-4176.15231808224
 20
109.4119963934099
 30
0.0000000000062599
 11
-4706.724961898697
 21
109.4119963934099
 31
0.0000000000062599
  0
LINE
  5
273
330
1EB
100
AcDbEntity
  8
0
100
AcDbLine
 10
-4706.724961898697
 20
226.1272702097449
 30
0.0000000000062599
 11
-4176.15231808224
 21
226.1272702097449
 31
0.0000000000062599
  0
LINE
  5
274
330
1EB
100
AcDbEntity
  8
0
100
AcDbLine
 10
-4176.15231808224
 20
240.0474404814194
 30
0.0000000000062599
 11
-4706.724961898697
 21
240.0474404814194
 31
0.0000000000062599
  0
LINE
  5
275
330
1EB
100
AcDbEntity
  8
0
100
AcDbLine
 10
-4706.724961898697
 20
355.1565408048663
 30
0.0000000000062599
 11
-4176.15231808224
 21
355.1565408048663
 31
0.0000000000062599
  0
LINE
  5
276
330
1EB
100
AcDbEntity
  8
0
100
AcDbLine
 10
-4176.15231808224
 20
370.6828845694253
 30
0.0000000000062599
 11
-4706.724961898697
 21
370.6828845694253
 31
0.0000000000062599
  0
LINE
  5
277
330
1EB
100
AcDbEntity
  8
0
100
AcDbLine
 10
-4706.724961898697
 20
484.7212025642838
 30
0.0000000000062599
 11
-4176.15231808224
 21
484.7212025642838
 31
0.0000000000062599
  0
LINE
  5
278
330
1EB
100
AcDbEntity
  8
0
100
AcDbLine
 10
-4176.15231808224
 20
500.7829374931352
 30
0.0000000000062599
 11
-4706.724961898697
 21
500.7829374931352
 31
0.0000000000062599
  0
LINE
  5
279
330
1EB
100
AcDbEntity
  8
0
100
AcDbLine
 10
-4706.724961898697
 20
614.8212554879973
 30
0.0000000000062599
 11
-4176.15231808224
 21
614.8212554879973
 31
0.0000000000062599
  0
LINE
  5
27A
330
1EB
100
AcDbEntity
  8
0
100
AcDbLine
 10
-4176.15231808224
 20
629.8122080882603
 30
0.0000000000062599
 11
-4706.724961898697
 21
629.8122080882603
 31
0.0000000000062599
  0
ARC
  5
27B
102
{ACAD_REACTORS
330
218
330
27C
102
}
330
1EB
100
AcDbEntity
  8
0
100
AcDbCircle
 10
-4441.438639990467
 20
1671.38455255375
 30
0.0000000000062599
 40
250.6338872619529
100
AcDbArc
 50
46.55012262350335
 51
133.4498773764966
  0
HATCH
  5
27C
330
1EB
100
AcDbEntity
  8
0
 62
   250
100
AcDbHatch
 10
0.0
 20
0.0
 30
0.0000000000062599
210
0.0
220
0.0
230
1.0
  2
SOLID
 70
     1
 71
     1
 91
        1
 92
        7
 72
     1
 73
     1
 93
        2
 10
-4269.072765352163
 20
1853.338806981093
 42
0.3984526112186044
 10
-4613.80451462877
 20
1853.338806981093
 42
0.0
 97
        2
330
215
330
27B
 75
     0
 76
     1
 47
3.366206442624165
 98
        1
 10
-4415.239229141907
 20
1880.479813419926
  0
LINE
  5
27D
330
1EB
100
AcDbEntity
  8
0
100
AcDbLine
 10
-4716.490567604773
 20
1861.340317602607
 30
0.0000000000062599
 11
-4703.559652886801
 21
1861.340317602607
 31
0.0000000000062599
  0
LINE
  5
27E
330
1EB
100
AcDbEntity
  8
0
100
AcDbLine
 10
-4716.490567604773
 20
1886.678434570712
 30
0.0000000000062599
 11
-4716.490567604773
 21
1861.340317602607
 31
0.0000000000062599
  0
LINE
  5
27F
330
1EB
100
AcDbEntity
  8
0
100
AcDbLine
 10
-4682.574007978779
 20
1886.678434570712
 30
0.0000000000062599
 11
-4716.490567604773
 21
1886.678434570712
 31
0.0000000000062599
  0
ARC
  5
280
102
{ACAD_REACTORS
330
1F3
102
}
330
1EB
100
AcDbEntity
  8
0
100
AcDbCircle
 10
-4042.782225000474
 20
1271.228909266457
 30
0.0000000000062599
 40
309.1438787374797
100
AcDbArc
 50
306.0174788174202
 51
53.98252118257972
  0
ARC
  5
281
102
{ACAD_REACTORS
330
1F3
102
}
330
1EB
100
AcDbEntity
  8
0
100
AcDbCircle
 10
-4036.546222963241
 20
1271.228909266461
 30
0.0000000000062599
 40
268.9014565588423
100
AcDbArc
 50
310.7563149162229
 51
49.24368508377713
  0
LINE
  5
282
330
1EB
100
AcDbEntity
  8
0
100
AcDbLine
 10
-4166.386712376162
 20
1861.340317602607
 30
0.0000000000062599
 11
-4179.510103294663
 21
1861.340317602607
 31
0.0000000000062599
  0
LINE
  5
283
330
1EB
100
AcDbEntity
  8
0
100
AcDbLine
 10
-4200.49574820269
 20
1886.678434570712
 30
0.0000000000062599
 11
-4166.386712376162
 21
1886.678434570712
 31
0.0000000000062599
  0
LINE
  5
284
330
1EB
100
AcDbEntity
  8
0
100
AcDbLine
 10
-4166.386712376162
 20
1886.678434570712
 30
0.0000000000062599
 11
-4166.386712376162
 21
1861.340317602607
 31
0.0000000000062599
  0
POLYLINE
  5
285
330
1EB
100
AcDbEntity
  8
0
 62
     7
100
AcDb2dPolyline
 66
     1
 10
0.0
 20
0.0
 30
0.0
  0
VERTEX
  5
286
330
285
100
AcDbEntity
  8
0
 62
     7
100
AcDbVertex
100
AcDb2dVertex
 10
-0.6114447794752778
 20
0.0
 30
0.0
  0
VERTEX
  5
287
330
285
100
AcDbEntity
  8
0
 62
     7
100
AcDbVertex
100
AcDb2dVertex
 10
0.0
 20
0.0
 30
0.0
  0
SEQEND
  5
288
330
285
100
AcDbEntity
  8
0
 62
     7
  0
POLYLINE
  5
289
330
1EB
100
AcDbEntity
  8
0
 62
     7
100
AcDb2dPolyline
 66
     1
 10
0.0
 20
0.0
 30
0.0
  0
VERTEX
  5
28A
330
289
100
AcDbEntity
  8
0
 62
     7
100
AcDbVertex
100
AcDb2dVertex
 10
-0.6114447794752778
 20
0.0
 30
0.0
  0
VERTEX
  5
28B
330
289
100
AcDbEntity
  8
0
 62
     7
100
AcDbVertex
100
AcDb2dVertex
 10
0.0
 20
0.0
 30
0.0
  0
SEQEND
  5
28C
330
289
100
AcDbEntity
  8
0
 62
     7
  0
POLYLINE
  5
28D
330
1EB
100
AcDbEntity
  8
0
 62
     7
100
AcDb2dPolyline
 66
     1
 10
0.0
 20
0.0
 30
0.0
  0
VERTEX
  5
28E
330
28D
100
AcDbEntity
  8
0
 62
     7
100
AcDbVertex
100
AcDb2dVertex
 10
-832.1763448625405
 20
2544.221727386499
 30
0.0
  0
VERTEX
  5
28F
330
28D
100
AcDbEntity
  8
0
 62
     7
100
AcDbVertex
100
AcDb2dVertex
 10
-622.4507855033553
 20
2544.221727386499
 30
0.0
  0
SEQEND
  5
290
330
28D
100
AcDbEntity
  8
0
 62
     7
  0
POLYLINE
  5
291
330
1EB
100
AcDbEntity
  8
0
 62
     7
100
AcDb2dPolyline
 66
     1
 10
0.0
 20
0.0
 30
0.0
  0
VERTEX
  5
292
330
291
100
AcDbEntity
  8
0
 62
     7
100
AcDbVertex
100
AcDb2dVertex
 10
-734.9566249263589
 20
2544.221727386499
 30
0.0
  0
VERTEX
  5
293
330
291
100
AcDbEntity
  8
0
 62
     7
100
AcDbVertex
100
AcDb2dVertex
 10
-734.3451801468854
 20
2544.221727386499
 30
0.0
  0
SEQEND
  5
294
330
291
100
AcDbEntity
  8
0
 62
     7
  0
POLYLINE
  5
295
330
1EB
100
AcDbEntity
  8
0
 62
     7
100
AcDb2dPolyline
 66
     1
 10
0.0
 20
0.0
 30
0.0
  0
VERTEX
  5
296
330
295
100
AcDbEntity
  8
0
 62
     7
100
AcDbVertex
100
AcDb2dVertex
 10
-0.6114447794752778
 20
2544.221727386499
 30
0.0
  0
VERTEX
  5
297
330
295
100
AcDbEntity
  8
0
 62
     7
100
AcDbVertex
100
AcDb2dVertex
 10
0.0
 20
2544.221727386499
 30
0.0
  0
SEQEND
  5
298
330
295
100
AcDbEntity
  8
0
 62
     7
  0
HATCH
  5
299
330
1EB
100
AcDbEntity
  8
0
 62
   150
100
AcDbHatch
 10
0.0
 20
0.0
 30
0.0000000000062599
210
0.0
220
0.0
230
1.0
  2
SOLID
 70
     1
 71
     0
 91
        2
 92
        7
 72
     0
 73
     1
 93
        4
 10
-2001.978089258511
 20
1541.279892742328
 10
-2931.48690645691
 20
1541.279892742328
 10
-2931.486906456908
 20
1521.942908740347
 10
-2001.978089258505
 20
1521.942908740347
 97
        0
 92
        7
 72
     0
 73
     1
 93
        4
 10
-2001.978089258515
 20
1023.848872551534
 10
-2931.486906456918
 20
1023.848872551534
 10
-2931.486906456912
 20
1004.511888549554
 10
-2001.978089258509
 20
1004.51188854955
 97
        0
 75
     0
 76
     1
 47
2.231880503813954
 98
        2
 10
-2374.937656777418
 20
1532.473096949008
 10
-2477.711275448515
 20
1007.981134386052
  0
LINE
  5
29A
330
1EB
100
AcDbEntity
  8
0
100
AcDbLine
 10
-2931.486906456912
 20
1004.511888549554
 30
0.0000000000062599
 11
-2931.486906456916
 21
1023.848872551534
 31
0.0000000000062599
  0
LINE
  5
29B
330
1EB
100
AcDbEntity
  8
0
100
AcDbLine
 10
-2931.486906456912
 20
1541.279892742324
 30
0.0000000000062599
 11
-2931.48690645691
 21
1521.942908740347
 31
0.0000000000062599
  0
LINE
  5
29C
102
{ACAD_REACTORS
330
1F3
102
}
330
1EB
100
AcDbEntity
  8
0
100
AcDbLine
 10
-2186.012833553173
 20
1364.579866517378
 30
0.0000000000062599
 11
-2187.679814932653
 21
1272.562494370045
 31
0.0000000000062599
  0
LINE
  5
29D
102
{ACAD_REACTORS
330
1F3
102
}
330
1EB
100
AcDbEntity
  8
0
100
AcDbLine
 10
-2097.996216716592
 20
1069.190766073407
 30
0.0000000000062599
 11
-2089.327913543294
 21
1055.188122485771
 31
0.0000000000062599
  0
LINE
  5
29E
102
{ACAD_REACTORS
330
1F3
102
}
330
1EB
100
AcDbEntity
  8
0
100
AcDbLine
 10
-2180.678493138835
 20
1149.205872288483
 30
0.0000000000062599
 11
-2166.009056999402
 21
1121.200585113205
 31
0.0000000000062599
  0
LINE
  5
29F
102
{ACAD_REACTORS
330
1F3
102
}
330
1EB
100
AcDbEntity
  8
0
100
AcDbLine
 10
-2166.009056999402
 20
1121.200585113205
 30
0.0000000000062599
 11
-2136.670184720544
 21
1095.195675593306
 31
0.0000000000062599
  0
LINE
  5
2A0
102
{ACAD_REACTORS
330
1F3
102
}
330
1EB
100
AcDbEntity
  8
0
100
AcDbLine
 10
-2109.998482648856
 20
1079.192654350292
 30
0.0000000000062599
 11
-2097.996216716592
 21
1069.190766073407
 31
0.0000000000062599
  0
LINE
  5
2A1
102
{ACAD_REACTORS
330
1F3
102
}
330
1EB
100
AcDbEntity
  8
0
100
AcDbLine
 10
-2136.670184720544
 20
1095.195675593306
 30
0.0000000000062599
 11
-2109.998482648856
 21
1079.192654350292
 31
0.0000000000062599
  0
LINE
  5
2A2
102
{ACAD_REACTORS
330
1F3
102
}
330
1EB
100
AcDbEntity
  8
0
100
AcDbLine
 10
-2186.012833553173
 20
1181.21191477451
 30
0.0000000000062599
 11
-2180.678493138835
 21
1149.205872288483
 31
0.0000000000062599
  0
LINE
  5
2A3
102
{ACAD_REACTORS
330
1F3
102
}
330
1EB
100
AcDbEntity
  8
0
100
AcDbLine
 10
-2187.679814932653
 20
1272.562494370045
 30
0.0000000000062599
 11
-2186.012833553173
 21
1181.21191477451
 31
0.0000000000062599
  0
LINE
  5
2A4
102
{ACAD_REACTORS
330
1F3
102
}
330
1EB
100
AcDbEntity
  8
0
100
AcDbLine
 10
-2085.993950784333
 20
1036.517931035588
 30
0.0000000000062599
 11
-2085.993950784333
 21
1023.848872551534
 31
0.0000000000062599
  0
LINE
  5
2A5
102
{ACAD_REACTORS
330
1F3
102
}
330
1EB
100
AcDbEntity
  8
0
100
AcDbLine
 10
-2089.327913543294
 20
1055.188122485771
 30
0.0000000000062599
 11
-2085.993950784333
 21
1036.517931035588
 31
0.0000000000062599
  0
LINE
  5
2A6
330
1EB
100
AcDbEntity
  8
0
100
AcDbLine
 10
-2001.978089258509
 20
1004.511888549546
 30
0.0000000000062599
 11
-2001.978089258515
 21
1023.848872551534
 31
0.0000000000062599
  0
LINE
  5
2A7
102
{ACAD_REACTORS
330
1F3
102
}
330
1EB
100
AcDbEntity
  8
0
100
AcDbLine
 10
-2088.6611209915
 20
1493.270829013279
 30
0.0000000000062599
 11
-2095.995839061221
 21
1479.268185425648
 31
0.0000000000062599
  0
LINE
  5
2A8
102
{ACAD_REACTORS
330
1F3
102
}
330
1EB
100
AcDbEntity
  8
0
100
AcDbLine
 10
-2109.998482648856
 20
1465.932334389799
 30
0.0000000000062599
 11
-2136.670184720544
 21
1450.596105698579
 31
0.0000000000062599
  0
LINE
  5
2A9
102
{ACAD_REACTORS
330
1F3
102
}
330
1EB
100
AcDbEntity
  8
0
100
AcDbLine
 10
-2161.34150913686
 20
1429.925536593018
 30
0.0000000000062599
 11
-2178.678115483457
 21
1402.587041969534
 31
0.0000000000062599
  0
LINE
  5
2AA
102
{ACAD_REACTORS
330
1F3
102
}
330
1EB
100
AcDbEntity
  8
0
100
AcDbLine
 10
-2178.678115483457
 20
1402.587041969534
 30
0.0000000000062599
 11
-2186.012833553173
 21
1364.579866517378
 31
0.0000000000062599
  0
LINE
  5
2AB
102
{ACAD_REACTORS
330
1F3
102
}
330
1EB
100
AcDbEntity
  8
0
100
AcDbLine
 10
-2136.670184720544
 20
1450.596105698579
 30
0.0000000000062599
 11
-2161.34150913686
 21
1429.925536593018
 31
0.0000000000062599
  0
LINE
  5
2AC
102
{ACAD_REACTORS
330
1F3
102
}
330
1EB
100
AcDbEntity
  8
0
100
AcDbLine
 10
-2095.995839061221
 20
1479.268185425648
 30
0.0000000000062599
 11
-2109.998482648856
 21
1465.932334389799
 31
0.0000000000062599
  0
LINE
  5
2AD
102
{ACAD_REACTORS
330
1F3
102
}
330
1EB
100
AcDbEntity
  8
0
100
AcDbLine
 10
-2085.993950784333
 20
1509.273850256296
 30
0.0000000000062599
 11
-2088.6611209915
 21
1493.270829013279
 31
0.0000000000062599
  0
LINE
  5
2AE
102
{ACAD_REACTORS
330
1F3
102
}
330
1EB
100
AcDbEntity
  8
0
100
AcDbLine
 10
-2085.993950784333
 20
1521.942908740347
 30
0.0000000000062599
 11
-2085.993950784333
 21
1509.273850256296
 31
0.0000000000062599
  0
LINE
  5
2AF
330
1EB
100
AcDbEntity
  8
0
100
AcDbLine
 10
-2001.978089258509
 20
1541.279892742324
 30
0.0000000000062599
 11
-2001.978089258505
 21
1521.942908740347
 31
0.0000000000062599
  0
ENDBLK
  5
1ED
330
1EB
100
AcDbEntity
  8
0
100
AcDbBlockEnd
  0
ENDSEC
  0
SECTION
  2
ENTITIES
  0
INSERT
  5
2B0
330
1F
100
AcDbEntity
  8
0
100
AcDbBlockReference
  2
ADKL
 10
7330.611444340236
 20
4675.718219267852
 30
-0.000000000001819
  0
MTEXT
  5
2B1
330
1F
100
AcDbEntity
  8
0
100
AcDbMText
 10
2713.945150199637
 20
7684.527488861698
 30
0.0
 40
250.0
 41
166291.82
 71
     1
 72
     5
  1
{\Fisocp.shx;Hoogte: 315 cm\PVrije Valhoogte: 172cm}
1001
ACAD
1000
MTEXTBEGIN
1070
    73
1070
     1
1070
    44
1040
1.0
1070
    74
1070
     0
1000
MTEXTEND
  0
ENDSEC
  0
SECTION
  2
OBJECTS
  0
DICTIONARY
  5
C
330
0
100
AcDbDictionary
  3
ACAD_GROUP
350
D
  3
ACAD_LAYOUT
350
1A
  3
ACAD_MLINESTYLE
350
17
  3
ACAD_PLOTSETTINGS
350
19
  3
ACAD_PLOTSTYLENAME
350
E
  3
ACDBHEADERROUNDTRIPXREC
350
2B4
  0
DICTIONARY
  5
2D5
330
1F
100
AcDbDictionary
280
     1
  3
ACAD_LAYOUTSELFREF
360
2D6
  0
DICTIONARY
  5
2D7
330
50
100
AcDbDictionary
280
     1
  3
ACAD_LAYOUTSELFREF
360
2D8
  0
DICTIONARY
  5
D
102
{ACAD_REACTORS
330
C
102
}
330
C
100
AcDbDictionary
  0
DICTIONARY
  5
1A
102
{ACAD_REACTORS
330
C
102
}
330
C
100
AcDbDictionary
  0
DICTIONARY
  5
17
102
{ACAD_REACTORS
330
C
102
}
330
C
100
AcDbDictionary
  3
STANDARD
350
18
  0
DICTIONARY
  5
19
102
{ACAD_REACTORS
330
C
102
}
330
C
100
AcDbDictionary
  0
ACDBDICTIONARYWDFLT
  5
E
102
{ACAD_REACTORS
330
C
102
}
330
C
100
AcDbDictionary
281
     1
  3
Normal
350
F
100
AcDbDictionaryWithDefault
340
F
  0
DICTIONARY
  5
2B4
102
{ACAD_REACTORS
330
C
102
}
330
C
100
AcDbDictionary
  3
CEPSNTYPE
350
2BE
  3
DIMSTYLEDATA
350
2C2
  3
FINGERPRINTGUID
350
2BF
  3
HYPERLINKBASE
350
2B7
  3
INSUNITS
350
2BD
  3
LAYOUTDICT
350
2B9
  3
LWETCUNION
350
2BC
  3
PLOTSETDICT
350
2BA
  3
PLOTSTYLNAMDICT
350
2BB
  3
PSVPSCALE
350
2C1
  3
PUCSBASE
350
2C5
  3
PUCSORGBACK
350
2CB
  3
PUCSORGBOTTOM
350
2C7
  3
PUCSORGFRONT
350
2CA
  3
PUCSORGLEFT
350
2C8
  3
PUCSORGRIGHT
350
2C9
  3
PUCSORGTOP
350
2C6
  3
PUCSORTHOREF
350
2C3
  3
PUCSORTHOVIEW
350
2C4
  3
STYLESHEET
350
2B8
  3
TSTACKALIGN
350
2B5
  3
TSTACKSIZE
350
2B6
  3
UCSBASE
350
2CE
  3
UCSORGBACK
350
2D4
  3
UCSORGBOTTOM
350
2D0
  3
UCSORGFRONT
350
2D3
  3
UCSORGLEFT
350
2D1
  3
UCSORGRIGHT
350
2D2
  3
UCSORGTOP
350
2CF
  3
UCSORTHOREF
350
2CC
  3
UCSORTHOVIEW
350
2CD
  3
VERSIONGUID
350
2C0
  0
XRECORD
  5
2D6
102
{ACAD_REACTORS
330
2D5
102
}
330
2D5
100
AcDbXrecord
340
1F
  0
XRECORD
  5
2D8
102
{ACAD_REACTORS
330
2D7
102
}
330
2D7
100
AcDbXrecord
340
50
  0
MLINESTYLE
  5
18
102
{ACAD_REACTORS
330
17
102
}
330
17
100
AcDbMlineStyle
  2
STANDARD
 70
     0
  3

 62
   256
 51
90.0
 52
90.0
 71
     2
 49
0.5
 62
   256
  6
BYLAYER
 49
-0.5
 62
   256
  6
BYLAYER
  0
ACDBPLACEHOLDER
  5
F
102
{ACAD_REACTORS
330
E
102
}
330
E
100
AcDbPlaceHolder
280
     0
  0
XRECORD
  5
2BE
102
{ACAD_REACTORS
330
2B4
102
}
330
2B4
100
AcDbXrecord
 90
        0
  0
XRECORD
  5
2C2
102
{ACAD_REACTORS
330
2B4
102
}
330
2B4
100
AcDbXrecord
1000
DSTYLE
1002
{
1070
   278
 70
    44
1002
}
  0
XRECORD
  5
2BF
102
{ACAD_REACTORS
330
2B4
102
}
330
2B4
100
AcDbXrecord
  1
{FDEAD578-A652-11D2-9A35-0060089B3A3F}
  0
XRECORD
  5
2B7
102
{ACAD_REACTORS
330
2B4
102
}
330
2B4
100
AcDbXrecord
  1

  0
XRECORD
  5
2BD
102
{ACAD_REACTORS
330
2B4
102
}
330
2B4
100
AcDbXrecord
 90
        4
  0
XRECORD
  5
2B9
102
{ACAD_REACTORS
330
2B4
102
}
330
2B4
100
AcDbXrecord
340
1A
  0
XRECORD
  5
2BC
102
{ACAD_REACTORS
330
2B4
102
}
330
2B4
100
AcDbXrecord
 90
    10781
  0
XRECORD
  5
2BA
102
{ACAD_REACTORS
330
2B4
102
}
330
2B4
100
AcDbXrecord
340
19
  0
XRECORD
  5
2BB
102
{ACAD_REACTORS
330
2B4
102
}
330
2B4
100
AcDbXrecord
340
E
  0
XRECORD
  5
2C1
102
{ACAD_REACTORS
330
2B4
102
}
330
2B4
100
AcDbXrecord
 40
0.0
  0
XRECORD
  5
2C5
102
{ACAD_REACTORS
330
2B4
102
}
330
2B4
100
AcDbXrecord
340
0
  0
XRECORD
  5
2CB
102
{ACAD_REACTORS
330
2B4
102
}
330
2B4
100
AcDbXrecord
 10
0.0
 20
0.0
 30
0.0
  0
XRECORD
  5
2C7
102
{ACAD_REACTORS
330
2B4
102
}
330
2B4
100
AcDbXrecord
 10
0.0
 20
0.0
 30
0.0
  0
XRECORD
  5
2CA
102
{ACAD_REACTORS
330
2B4
102
}
330
2B4
100
AcDbXrecord
 10
0.0
 20
0.0
 30
0.0
  0
XRECORD
  5
2C8
102
{ACAD_REACTORS
330
2B4
102
}
330
2B4
100
AcDbXrecord
 10
0.0
 20
0.0
 30
0.0
  0
XRECORD
  5
2C9
102
{ACAD_REACTORS
330
2B4
102
}
330
2B4
100
AcDbXrecord
 10
0.0
 20
0.0
 30
0.0
  0
XRECORD
  5
2C6
102
{ACAD_REACTORS
330
2B4
102
}
330
2B4
100
AcDbXrecord
 10
0.0
 20
0.0
 30
0.0
  0
XRECORD
  5
2C3
102
{ACAD_REACTORS
330
2B4
102
}
330
2B4
100
AcDbXrecord
340
0
  0
XRECORD
  5
2C4
102
{ACAD_REACTORS
330
2B4
102
}
330
2B4
100
AcDbXrecord
 70
     0
  0
XRECORD
  5
2B8
102
{ACAD_REACTORS
330
2B4
102
}
330
2B4
100
AcDbXrecord
  1

  0
XRECORD
  5
2B5
102
{ACAD_REACTORS
330
2B4
102
}
330
2B4
100
AcDbXrecord
 90
        1
  0
XRECORD
  5
2B6
102
{ACAD_REACTORS
330
2B4
102
}
330
2B4
100
AcDbXrecord
 90
       70
  0
XRECORD
  5
2CE
102
{ACAD_REACTORS
330
2B4
102
}
330
2B4
100
AcDbXrecord
340
0
  0
XRECORD
  5
2D4
102
{ACAD_REACTORS
330
2B4
102
}
330
2B4
100
AcDbXrecord
 10
0.0
 20
0.0
 30
0.0
  0
XRECORD
  5
2D0
102
{ACAD_REACTORS
330
2B4
102
}
330
2B4
100
AcDbXrecord
 10
0.0
 20
0.0
 30
0.0
  0
XRECORD
  5
2D3
102
{ACAD_REACTORS
330
2B4
102
}
330
2B4
100
AcDbXrecord
 10
0.0
 20
0.0
 30
0.0
  0
XRECORD
  5
2D1
102
{ACAD_REACTORS
330
2B4
102
}
330
2B4
100
AcDbXrecord
 10
0.0
 20
0.0
 30
0.0
  0
XRECORD
  5
2D2
102
{ACAD_REACTORS
330
2B4
102
}
330
2B4
100
AcDbXrecord
 10
0.0
 20
0.0
 30
0.0
  0
XRECORD
  5
2CF
102
{ACAD_REACTORS
330
2B4
102
}
330
2B4
100
AcDbXrecord
 10
0.0
 20
0.0
 30
0.0
  0
XRECORD
  5
2CC
102
{ACAD_REACTORS
330
2B4
102
}
330
2B4
100
AcDbXrecord
340
0
  0
XRECORD
  5
2CD
102
{ACAD_REACTORS
330
2B4
102
}
330
2B4
100
AcDbXrecord
 70
     0
  0
XRECORD
  5
2C0
102
{ACAD_REACTORS
330
2B4
102
}
330
2B4
100
AcDbXrecord
  1
{E4B8C0B6-50BF-40E5-B374-6CFA6C83970C}
  0
ENDSEC
  0
EOF
