  0
SECTION
  2
HEADER
  9
$ACADVER
  1
AC1012
  9
$DWGCODEPAGE
  3
ANSI_1252
  9
$INSBASE
 10
0.0
 20
0.0
 30
0.0
  9
$EXTMIN
 10
-323.6374671138191
 20
0.0000067281455927
 30
-104.923315599824
  9
$EXTMAX
 10
6670.603791435826
 20
7100.000006728144
 30
0.0
  9
$LIMMIN
 10
0.0
 20
0.0
  9
$LIMMAX
 10
420.0
 20
297.0
  9
$ORTHOMODE
 70
     0
  9
$REGENMODE
 70
     1
  9
$FILLMODE
 70
     1
  9
$QTEXTMODE
 70
     0
  9
$MIRRTEXT
 70
     1
  9
$DRAGMODE
 70
     2
  9
$LTSCALE
 40
1.0
  9
$OSMODE
 70
  3071
  9
$ATTMODE
 70
     1
  9
$TEXTSIZE
 40
2.5
  9
$TRACEWID
 40
1.0
  9
$TEXTSTYLE
  7
STANDARD
  9
$CLAYER
  8
HATCH
  9
$CELTYPE
  6
BYLAYER
  9
$CECOLOR
 62
   256
  9
$CELTSCALE
 40
1.0
  9
$DELOBJ
 70
     1
  9
$DISPSILH
 70
     0
  9
$DIMSCALE
 40
1.0
  9
$DIMASZ
 40
2.5
  9
$DIMEXO
 40
0.625
  9
$DIMDLI
 40
3.75
  9
$DIMRND
 40
0.0
  9
$DIMDLE
 40
0.0
  9
$DIMEXE
 40
1.25
  9
$DIMTP
 40
0.0
  9
$DIMTM
 40
0.0
  9
$DIMTXT
 40
2.5
  9
$DIMCEN
 40
2.5
  9
$DIMTSZ
 40
0.0
  9
$DIMTOL
 70
     0
  9
$DIMLIM
 70
     0
  9
$DIMTIH
 70
     0
  9
$DIMTOH
 70
     0
  9
$DIMSE1
 70
     0
  9
$DIMSE2
 70
     0
  9
$DIMTAD
 70
     1
  9
$DIMZIN
 70
     8
  9
$DIMBLK
  1

  9
$DIMASO
 70
     1
  9
$DIMSHO
 70
     1
  9
$DIMPOST
  1

  9
$DIMAPOST
  1

  9
$DIMALT
 70
     0
  9
$DIMALTD
 70
     3
  9
$DIMALTF
 40
0.03937007874016
  9
$DIMLFAC
 40
1.0
  9
$DIMTOFL
 70
     1
  9
$DIMTVP
 40
0.0
  9
$DIMTIX
 70
     0
  9
$DIMSOXD
 70
     0
  9
$DIMSAH
 70
     0
  9
$DIMBLK1
  1

  9
$DIMBLK2
  1

  9
$DIMSTYLE
  2
ISO-25
  9
$DIMCLRD
 70
     0
  9
$DIMCLRE
 70
     0
  9
$DIMCLRT
 70
     0
  9
$DIMTFAC
 40
1.0
  9
$DIMGAP
 40
0.625
  9
$DIMJUST
 70
     0
  9
$DIMSD1
 70
     0
  9
$DIMSD2
 70
     0
  9
$DIMTOLJ
 70
     0
  9
$DIMTZIN
 70
     8
  9
$DIMALTZ
 70
     0
  9
$DIMALTTZ
 70
     0
  9
$DIMFIT
 70
     3
  9
$DIMUPT
 70
     0
  9
$DIMUNIT
 70
     2
  9
$DIMDEC
 70
     2
  9
$DIMTDEC
 70
     2
  9
$DIMALTU
 70
     2
  9
$DIMALTTD
 70
     3
  9
$DIMTXSTY
  7
STANDARD
  9
$DIMAUNIT
 70
     0
  9
$LUNITS
 70
     2
  9
$LUPREC
 70
     4
  9
$SKETCHINC
 40
1.0
  9
$FILLETRAD
 40
10.0
  9
$AUNITS
 70
     0
  9
$AUPREC
 70
     0
  9
$MENU
  1
.
  9
$ELEVATION
 40
0.0
  9
$PELEVATION
 40
0.0
  9
$THICKNESS
 40
0.0
  9
$LIMCHECK
 70
     0
  9
$BLIPMODE
 70
     0
  9
$CHAMFERA
 40
10.0
  9
$CHAMFERB
 40
10.0
  9
$CHAMFERC
 40
20.0
  9
$CHAMFERD
 40
0.0
  9
$SKPOLY
 70
     0
  9
$TDCREATE
 40
2452626.579959722
  9
$TDUPDATE
 40
2452773.343415278
  9
$TDINDWG
 40
0.0052675926
  9
$TDUSRTIMER
 40
0.0052675926
  9
$USRTIMER
 70
     1
  9
$ANGBASE
 50
0.0
  9
$ANGDIR
 70
     0
  9
$PDMODE
 70
     0
  9
$PDSIZE
 40
0.0
  9
$PLINEWID
 40
0.0
  9
$COORDS
 70
     2
  9
$SPLFRAME
 70
     0
  9
$SPLINETYPE
 70
     6
  9
$SPLINESEGS
 70
     8
  9
$ATTDIA
 70
     0
  9
$ATTREQ
 70
     1
  9
$HANDLING
 70
-16383
  9
$HANDSEED
  5
2DE
  9
$SURFTAB1
 70
     6
  9
$SURFTAB2
 70
     6
  9
$SURFTYPE
 70
     6
  9
$SURFU
 70
     6
  9
$SURFV
 70
     6
  9
$UCSNAME
  2

  9
$UCSORG
 10
0.0
 20
0.0
 30
0.0
  9
$UCSXDIR
 10
1.0
 20
0.0
 30
0.0
  9
$UCSYDIR
 10
0.0
 20
1.0
 30
0.0
  9
$PUCSNAME
  2

  9
$PUCSORG
 10
0.0
 20
0.0
 30
0.0
  9
$PUCSXDIR
 10
1.0
 20
0.0
 30
0.0
  9
$PUCSYDIR
 10
0.0
 20
1.0
 30
0.0
  9
$USERI1
 70
     0
  9
$USERI2
 70
     0
  9
$USERI3
 70
     0
  9
$USERI4
 70
     0
  9
$USERI5
 70
     0
  9
$USERR1
 40
0.0
  9
$USERR2
 40
0.0
  9
$USERR3
 40
0.0
  9
$USERR4
 40
0.0
  9
$USERR5
 40
0.0
  9
$WORLDVIEW
 70
     1
  9
$SHADEDGE
 70
     3
  9
$SHADEDIF
 70
    70
  9
$TILEMODE
 70
     1
  9
$MAXACTVP
 70
    64
  9
$PINSBASE
 10
0.0
 20
0.0
 30
0.0
  9
$PLIMCHECK
 70
     0
  9
$PEXTMIN
 10
0.0
 20
0.0
 30
0.0
  9
$PEXTMAX
 10
0.0
 20
0.0
 30
0.0
  9
$PLIMMIN
 10
0.0
 20
0.0
  9
$PLIMMAX
 10
12.0
 20
9.0
  9
$UNITMODE
 70
     0
  9
$VISRETAIN
 70
     1
  9
$PLINEGEN
 70
     0
  9
$PSLTSCALE
 70
     1
  9
$TREEDEPTH
 70
  3020
  9
$PICKSTYLE
 70
     1
  9
$CMLSTYLE
  2
STANDARD
  9
$CMLJUST
 70
     0
  9
$CMLSCALE
 40
20.0
  9
$SAVEIMAGES
 70
     1
  0
ENDSEC
  0
SECTION
  2
CLASSES
  0
CLASS
  1
ACDBDICTIONARYWDFLT
  2
AcDbDictionaryWithDefault
  3
AutoCAD 2000
 90
    32768
280
     0
281
     0
  0
CLASS
  1
ACDBPLACEHOLDER
  2
AcDbPlaceHolder
  3
AutoCAD 2000
 90
    32768
280
     0
281
     0
  0
CLASS
  1
LAYOUT
  2
AcDbLayout
  3
AutoCAD 2000
 90
    32768
280
     0
281
     0
  0
CLASS
  1
LONG_TRANSACTION
  2
AcDbLongTransaction
  3
AutoCAD 2000
 90
    32768
280
     0
281
     0
  0
CLASS
  1
LWPOLYLINE
  2
AcDbPolyline
  3
AutoCAD 2000
 90
    32768
280
     0
281
     1
  0
CLASS
  1
HATCH
  2
AcDbHatch
  3
AutoCAD 2000
 90
    32768
280
     0
281
     1
  0
CLASS
  1
XRECORD
  2
AcDbXrecord
  3
AutoCAD 2000
 90
    32768
280
     0
281
     0
  0
CLASS
  1
LONG_TRANSACTION
  2
AcDbLongTransaction
  3
AutoCAD 2000
 90
    32768
280
     0
281
     0
  0
CLASS
  1
LWPOLYLINE
  2
AcDbPolyline
  3
AutoCAD 2000
 90
    32768
280
     0
281
     1
  0
CLASS
  1
HATCH
  2
AcDbHatch
  3
AutoCAD 2000
 90
    32768
280
     0
281
     1
  0
CLASS
  1
XRECORD
  2
AcDbXrecord
  3
AutoCAD 2000
 90
    32768
280
     0
281
     0
  0
CLASS
  1
LONG_TRANSACTION
  2
AcDbLongTransaction
  3
AutoCAD 2000
 90
    32768
280
     0
281
     0
  0
CLASS
  1
LWPOLYLINE
  2
AcDbPolyline
  3
AutoCAD 2000
 90
    32768
280
     0
281
     1
  0
CLASS
  1
HATCH
  2
AcDbHatch
  3
AutoCAD 2000
 90
    32768
280
     0
281
     1
  0
CLASS
  1
XRECORD
  2
AcDbXrecord
  3
AutoCAD 2000
 90
    32768
280
     0
281
     0
  0
CLASS
  1
DICTIONARYVAR
  2
AcDbDictionaryVar
  3
AutoCAD 2000
 90
    32768
280
     0
281
     0
  0
CLASS
  1
SORTENTSTABLE
  2
AcDbSortentsTable
  3
AutoCAD 2000
 90
    32768
280
     0
281
     0
  0
CLASS
  1
LONG_TRANSACTION
  2
AcDbLongTransaction
  3
AutoCAD 2000
 90
    32768
280
     0
281
     0
  0
CLASS
  1
LWPOLYLINE
  2
AcDbPolyline
  3
AutoCAD 2000
 90
    32768
280
     0
281
     1
  0
CLASS
  1
HATCH
  2
AcDbHatch
  3
AutoCAD 2000
 90
    32768
280
     0
281
     1
  0
CLASS
  1
XRECORD
  2
AcDbXrecord
  3
AutoCAD 2000
 90
    32768
280
     0
281
     0
  0
ENDSEC
  0
SECTION
  2
TABLES
  0
TABLE
  2
VPORT
  5
8
330
0
100
AcDbSymbolTable
 70
     2
  0
VPORT
  5
296
330
8
100
AcDbSymbolTableRecord
100
AcDbViewportTableRecord
  2
*ACTIVE
 70
     0
 10
0.0
 20
0.0
 11
1.0
 21
1.0
 12
-851.7084104671885
 22
76.99622229322812
 13
0.0
 23
0.0
 14
10.0
 24
10.0
 15
10.0
 25
10.0
 16
0.0
 26
0.0
 36
1.0
 17
0.0
 27
0.0
 37
0.0
 40
19682.97566928015
 41
1.558704453441295
 42
50.0
 43
0.0
 44
0.0
 50
0.0
 51
0.0
 71
     0
 72
   100
 73
     1
 74
     3
 75
     0
 76
     0
 77
     0
 78
     0
  0
ENDTAB
  0
TABLE
  2
LTYPE
  5
5
330
0
100
AcDbSymbolTable
 70
     1
  0
LTYPE
  5
14
330
5
100
AcDbSymbolTableRecord
100
AcDbLinetypeTableRecord
  2
BYBLOCK
 70
     0
  3

 72
    65
 73
     0
 40
0.0
  0
LTYPE
  5
15
330
5
100
AcDbSymbolTableRecord
100
AcDbLinetypeTableRecord
  2
BYLAYER
 70
     0
  3

 72
    65
 73
     0
 40
0.0
  0
LTYPE
  5
16
330
5
100
AcDbSymbolTableRecord
100
AcDbLinetypeTableRecord
  2
CONTINUOUS
 70
     0
  3
Solid line
 72
    65
 73
     0
 40
0.0
  0
ENDTAB
  0
TABLE
  2
LAYER
  5
2
330
0
100
AcDbSymbolTable
 70
     5
  0
LAYER
  5
10
330
2
100
AcDbSymbolTableRecord
100
AcDbLayerTableRecord
  2
0
 70
     0
 62
     7
  6
CONTINUOUS
  0
LAYER
  5
5D
330
2
100
AcDbSymbolTableRecord
100
AcDbLayerTableRecord
  2
SAFETY
 70
     0
 62
     7
  6
CONTINUOUS
  0
LAYER
  5
5E
330
2
100
AcDbSymbolTableRecord
100
AcDbLayerTableRecord
  2
OBJECT
 70
     0
 62
     7
  6
CONTINUOUS
  0
LAYER
  5
199
330
2
100
AcDbSymbolTableRecord
100
AcDbLayerTableRecord
  2
TEKST
 70
     0
 62
     7
  6
CONTINUOUS
  0
LAYER
  5
20A
330
2
100
AcDbSymbolTableRecord
100
AcDbLayerTableRecord
  2
HATCH
 70
     0
 62
     7
  6
CONTINUOUS
  0
ENDTAB
  0
TABLE
  2
STYLE
  5
3
330
0
100
AcDbSymbolTable
 70
     3
  0
STYLE
  5
11
330
3
100
AcDbSymbolTableRecord
100
AcDbTextStyleTableRecord
  2
STANDARD
 70
     0
 40
0.0
 41
1.0
 50
0.0
 71
     0
 42
2.5
  3
txt
  4

  0
STYLE
  5
5F
330
3
100
AcDbSymbolTableRecord
100
AcDbTextStyleTableRecord
  2
STYLE1
 70
     0
 40
100.0
 41
1.0
 50
0.0
 71
     0
 42
75.0
  3
romans.shx
  4

  0
STYLE
  5
60
330
3
100
AcDbSymbolTableRecord
100
AcDbTextStyleTableRecord
  2
STYLE4
 70
     0
 40
3.0
 41
1.0
 50
0.0
 71
     0
 42
3.0
  3
romant.shx
  4

  0
ENDTAB
  0
TABLE
  2
VIEW
  5
6
330
0
100
AcDbSymbolTable
 70
     0
  0
ENDTAB
  0
TABLE
  2
UCS
  5
7
330
0
100
AcDbSymbolTable
 70
     0
  0
ENDTAB
  0
TABLE
  2
APPID
  5
9
330
0
100
AcDbSymbolTable
 70
     3
  0
APPID
  5
12
330
9
100
AcDbSymbolTableRecord
100
AcDbRegAppTableRecord
  2
ACAD
 70
     0
  0
APPID
  5
62
330
9
100
AcDbSymbolTableRecord
100
AcDbRegAppTableRecord
  2
AVE_FINISH
 70
     0
  0
APPID
  5
190
330
9
100
AcDbSymbolTableRecord
100
AcDbRegAppTableRecord
  2
CONTENTBLOCKICON
 70
     0
  0
ENDTAB
  0
TABLE
  2
DIMSTYLE
  5
A
330
0
100
AcDbSymbolTable
 70
     2
  0
DIMSTYLE
105
27
330
A
100
AcDbSymbolTableRecord
100
AcDbDimStyleTableRecord
  2
ISO-25
 70
     0
  3

  4

  5

  6

  7

 40
1.0
 41
2.5
 42
0.625
 43
3.75
 44
1.25
 45
0.0
 46
0.0
 47
0.0
 48
0.0
140
2.5
141
2.5
142
0.0
143
0.03937007874016
144
1.0
145
0.0
146
1.0
147
0.625
 71
     0
 72
     0
 73
     0
 74
     0
 75
     0
 76
     0
 77
     1
 78
     8
170
     0
171
     3
172
     1
173
     0
174
     0
175
     0
176
     0
177
     0
178
     0
270
     2
271
     2
272
     2
273
     2
274
     3
340
11
275
     0
280
     0
281
     0
282
     0
283
     0
284
     8
285
     0
286
     0
287
     3
288
     0
  0
DIMSTYLE
105
61
330
A
100
AcDbSymbolTableRecord
100
AcDbDimStyleTableRecord
  2
STAND-1
 70
     0
  3

  4

  5

  6

  7

 40
10.0
 41
10.0
 42
2.0
 43
7.0
 44
2.0
 45
0.0
 46
0.0
 47
0.0
 48
0.0
140
100.0
141
0.09
142
0.0
143
25.4
144
1.0
145
0.0
146
1.0
147
3.0
 71
     0
 72
     0
 73
     0
 74
     0
 75
     0
 76
     0
 77
     1
 78
     8
170
     0
171
     2
172
     1
173
     0
174
     0
175
     0
176
     1
177
     1
178
     1
270
     2
271
     1
272
     0
273
     2
274
     2
340
5F
275
     0
280
     0
281
     0
282
     0
283
     1
284
     0
285
     0
286
     0
287
     3
288
     0
  0
ENDTAB
  0
TABLE
  2
BLOCK_RECORD
  5
1
330
0
100
AcDbSymbolTable
 70
     4
  0
BLOCK_RECORD
  5
1F
102
{ACAD_XDICTIONARY
360
115
102
}
330
1
100
AcDbSymbolTableRecord
100
AcDbBlockTableRecord
  2
*MODEL_SPACE
  0
BLOCK_RECORD
  5
50
102
{ACAD_XDICTIONARY
360
117
102
}
330
1
100
AcDbSymbolTableRecord
100
AcDbBlockTableRecord
  2
*PAPER_SPACE
  0
BLOCK_RECORD
  5
123
330
1
100
AcDbSymbolTableRecord
100
AcDbBlockTableRecord
  2
AEKB
1001
ACAD
1000
DesignCenter Data
1002
{
1070
     1
1070
     4
1002
}
1001
CONTENTBLOCKICON
1071
        0
1004
28000000200000002000000001000800000000000004000000000000000000000000000000000000000000004000000080000000FF000000002000004020000080200000FF200000004000004040000080400000FF400000006000004060000080600000FF600000008000004080000080800000FF80000000A0000040A000
1004
0080A00000FFA0000000C0000040C0000080C00000FFC0000000FF000040FF000080FF0000FFFF0000000020004000200080002000FF002000002020004020200080202000FF202000004020004040200080402000FF402000006020004060200080602000FF602000008020004080200080802000FF80200000A0200040A0
1004
200080A02000FFA0200000C0200040C0200080C02000FFC0200000FF200040FF200080FF2000FFFF2000000040004000400080004000FF004000002040004020400080204000FF204000004040004040400080404000FF404000006040004060400080604000FF604000008040004080400080804000FF80400000A0400040
1004
A0400080A04000FFA0400000C0400040C0400080C04000FFC0400000FF400040FF400080FF4000FFFF4000000060004000600080006000FF006000002060004020600080206000FF206000004060004040600080406000FF406000006060004060600080606000FF606000008060004080600080806000FF80600000A06000
1004
40A0600080A06000FFA0600000C0600040C0600080C06000FFC0600000FF600040FF600080FF6000FFFF6000000080004000800080008000FF008000002080004020800080208000FF208000004080004040800080408000FF408000006080004060800080608000FF608000008080004080800080808000FF80800000A080
1004
0040A0800080A08000FFA0800000C0800040C0800080C08000FFC0800000FF800040FF800080FF8000FFFF80000000A0004000A0008000A000FF00A0000020A0004020A0008020A000FF20A0000040A0004040A0008040A000FF40A0000060A0004060A0008060A000FF60A0000080A0004080A0008080A000FF80A00000A0
1004
A00040A0A00080A0A000FFA0A00000C0A00040C0A00080C0A000FFC0A00000FFA00040FFA00080FFA000FFFFA0000000C0004000C0008000C000FF00C0000020C0004020C0008020C000FF20C0000040C0004040C0008040C000FF40C0000060C0004060C0008060C000FF60C0000080C0004080C0008080C000FF80C00000
1004
A0C00040A0C00080A0C000FFA0C00000C0C00040C0C00080C0C000FFC0C00000FFC00040FFC00080FFC000FFFFC0000000FF004000FF008000FF00FF00FF000020FF004020FF008020FF00FF20FF000040FF004040FF008040FF00FF40FF000060FF004060FF008060FF00FF60FF000080FF004080FF008080FF00FF80FF00
1004
00A0FF0040A0FF0080A0FF00FFA0FF0000C0FF0040C0FF0080C0FF00FFC0FF0000FFFF0040FFFF0080FFFF00FFFFFF000000000000000000000000000000000000000000000000000000000000000000000000000000000000FFFFFFFFFFFFFFFFFFFFFFFFFFFF000000000000000000000000000000000000FF0000000000
1004
00000000000000FF000000000000000000000000000000000000FF000000000000000000000000FF000000000000000000000000000000000000FF000000000000000000000000FF000000000000000000000000000000000000FF000000000000000000000000FF0000000000000000000000000000000000FFFF00000000
1004
0000000000000000FFFF0000000000000000000000000000FFFF00000000000000000000000000000000FFFF0000000000000000000000FF0000000000000000000000000000000000000000FF000000000000000000FF00000000000000000000000000000000000000000000FF0000000000000000FF0000000000000000
1004
000000000000000000000000000000FF000000000000FF000000000000000000000000000000000000000000000000FF000000000000FF000000000049000000000000000000000000490000000000FF000000000000FF000000000049490000000000000000000049490000000000FF000000000000FF0000000000FF4949
1004
00000000000000004949FF0000000000FF000000000000FF0000000000FFFF4949E0E0E0E0E0E04949FFFF0000000000FF000000000000FF0000000000FFFF4949E0E0E0E0E0E04949FFFF0000000000FF000000000000FF0000000000FF494900000000000000004949FF0000000000FF000000000000FF00000000004949
1004
0000000000000000000049490000000000FF000000000000FF000000000049000000000000000000000000490000000000FF000000000000FF000000000000000000000000000000000000000000000000FF00000000000000FF00000000000000FFFFFFFFFF0000000000000000000000FF00000000000000FF0000000000
1004
0000FFFFFFFF0000000000000000000000FF000000000000000000FF0000000000000000000000000000000000000000FF0000000000000000000000FFFF0000000000000000000000000000000000FF0000000000000000000000000000FFFF000000000000000000000000FFFFFF00000000000000000000000000000000
1004
FF000000000000000000000000FF000000000000000000000000000000000000FF000000000000000000000000FF000000000000000000000000000000000000FF000000000000000000000000FF000000000000000000000000000000000000FF000000000000000000000000FF0000000000000000000000000000000000
1004
00FFFFFFFFFFFFFFFFFFFFFFFFFFFF0000000000000000000000000000000000000000000000000000000000000000000000000000000000
  0
BLOCK_RECORD
  5
29A
330
1
100
AcDbSymbolTableRecord
100
AcDbBlockTableRecord
  2
*U1
  0
BLOCK_RECORD
  5
2AD
330
1
100
AcDbSymbolTableRecord
100
AcDbBlockTableRecord
  2
*U2
  0
BLOCK_RECORD
  5
2D3
330
1
100
AcDbSymbolTableRecord
100
AcDbBlockTableRecord
  2
*U3
  0
ENDTAB
  0
ENDSEC
  0
SECTION
  2
BLOCKS
  0
BLOCK
  5
20
330
1F
100
AcDbEntity
  8
0
100
AcDbBlockBegin
  2
*MODEL_SPACE
 70
     0
 10
0.0
 20
0.0
 30
0.0
  3
*MODEL_SPACE
  1

  0
ENDBLK
  5
21
330
1F
100
AcDbEntity
  8
0
100
AcDbBlockEnd
  0
BLOCK
  5
52
330
50
100
AcDbEntity
 67
     1
  8
0
100
AcDbBlockBegin
  2
*PAPER_SPACE
 70
     0
 10
0.0
 20
0.0
 30
0.0
  3
*PAPER_SPACE
  1

  0
ENDBLK
  5
53
330
50
100
AcDbEntity
 67
     1
  8
0
100
AcDbBlockEnd
  0
BLOCK
  5
124
330
123
100
AcDbEntity
  8
0
100
AcDbBlockBegin
  2
AEKB
 70
     0
 10
0.0
 20
0.0
 30
0.0
  3
AEKB
  1

  0
INSERT
  5
248
330
123
100
AcDbEntity
  8
HATCH
  6
CONTINUOUS
 62
   251
100
AcDbBlockReference
  2
*U1
 10
0.0
 20
0.0
 30
0.0
1001
ACAD
1002
{
1000
R14_HATCH_DATA
1000
248
1011
1.0
1021
0.0
1031
0.0
1011
0.0
1021
1.0
1031
0.0
1011
0.0
1021
0.0
1031
1.0
1040
0.0
1010
0.0
1020
0.0
1030
1.0
1000
SOLID
1070
     1
1070
     1
1071
        8
1071
        7
1070
     0
1070
     1
1071
        4
1040
1589.242956700179
1040
4382.446739122035
1040
1487.488789642322
1040
4382.446739122035
1040
2104.007552747134
1040
3755.351342566538
1040
2204.007552747134
1040
3755.351342566544
1071
        4
1005
268
1005
290
1005
261
1005
263
1071
        7
1070
     0
1070
     1
1071
        4
1040
2104.00755274714
1040
3656.144477207253
1040
2104.007552747134
1040
3755.351342566538
1040
1487.488789642323
1040
4382.446739122036
1040
1487.488789642322
1040
4272.281326833033
1071
        4
1005
267
1005
262
1005
269
1005
290
1071
        7
1070
     0
1070
     1
1071
        4
1040
4141.576050321252
1040
3755.351342566544
1040
4241.576050321252
1040
3755.351342566538
1040
4858.094813426061
1040
4382.446739122035
1040
4756.340646368204
1040
4382.446739122036
1071
        4
1005
28F
1005
284
1005
282
1005
291
1071
        7
1070
     0
1070
     1
1071
        4
1040
4858.094813426061
1040
4272.281326833032
1040
4858.09481342606
1040
4382.446739122034
1040
4241.576050321252
1040
3755.351342566539
1040
4241.576050321247
1040
3656.144477207254
1071
        4
1005
28E
1005
291
1005
28D
1005
283
1071
        7
1070
     0
1070
     1
1071
        4
1040
4241.576050321252
1040
3344.648670889749
1040
4141.576050321251
1040
3344.648670889749
1040
4756.340646368204
1040
2717.553274334259
1040
4858.094813426061
1040
2717.553274334259
1071
        4
1005
273
1005
274
1005
281
1005
292
1071
        7
1070
     0
1070
     1
1071
        4
1040
4241.576050321252
1040
3443.855536249035
1040
4241.576050321252
1040
3344.648670889749
1040
4858.094813426061
1040
2717.553274334259
1040
4858.094813426061
1040
2827.718686623263
1071
        4
1005
27F
1005
292
1005
280
1005
275
1071
        7
1070
     0
1070
     1
1071
        4
1040
1487.488789642322
1040
2827.718686623262
1040
1487.488789642323
1040
2717.553274334259
1040
2104.007552747134
1040
3344.648670889749
1040
2104.007552747134
1040
3443.855536249034
1071
        4
1005
25B
1005
254
1005
259
1005
293
1071
        7
1070
     0
1070
     1
1071
        4
1040
2204.007552747134
1040
3344.648670889749
1040
2104.007552747134
1040
3344.648670889748
1040
1487.488789642323
1040
2717.553274334259
1040
1589.24295670018
1040
2717.553274334259
1071
        4
1005
252
1005
293
1005
25A
1005
253
1070
     0
1070
     1
1040
11.83003133055595
1071
        8
1040
1781.690594070249
1040
4152.202395422631
1040
0.0
1040
1710.658915664236
1040
4081.222193002395
1040
0.0
1040
4469.053705035949
1040
4057.562139708076
1040
0.0
1040
4504.569477935882
1040
3962.921883993527
1040
0.0
1040
4658.471381512507
1040
2839.06890587203
1040
0.0
1040
4729.502993615454
1040
2933.709161586586
1040
0.0
1040
1982.946817311407
1040
3276.780083234662
1040
0.0
1040
2042.139882649768
1040
3217.629928730232
1040
0.0
1002
}
  0
INSERT
  5
249
330
123
100
AcDbEntity
  8
HATCH
  6
CONTINUOUS
 62
     1
100
AcDbBlockReference
  2
*U2
 10
0.0
 20
0.0
 30
0.0
1001
ACAD
1002
{
1000
R14_HATCH_DATA
1000
249
1011
1.0
1021
0.0
1031
0.0
1011
0.0
1021
1.0
1031
0.0
1011
0.0
1021
0.0
1031
1.0
1040
0.0
1010
0.0
1020
0.0
1030
1.0
1000
SOLID
1070
     1
1070
     1
1071
        3
1071
        7
1070
     0
1070
     1
1071
        8
1040
4141.576050321251
1040
3471.762611351396
1040
4141.576050321243
1040
3628.237402104896
1040
3573.448741434666
1040
3628.237402104896
1040
2772.13486163372
1040
3628.237402104896
1040
2204.007552747142
1040
3628.237402104895
1040
2204.007552747134
1040
3471.762611351397
1040
2772.13486163372
1040
3471.762611351397
1040
3573.448741434666
1040
3471.762611351397
1071
        8
1005
286
1005
24B
1005
26B
1005
24E
1005
25C
1005
24C
1005
277
1005
26F
1071
        7
1070
     0
1070
     1
1071
        8
1040
4241.576050321244
1040
3628.2374021049
1040
4241.57605032125
1040
3755.351342566538
1040
4141.576050321252
1040
3755.351342566545
1040
4141.576050321243
1040
3628.237402104896
1040
4141.576050321251
1040
3471.762611351397
1040
4141.576050321251
1040
3344.648670889749
1040
4241.57605032125
1040
3344.648670889749
1040
4241.576050321252
1040
3471.762611351397
1071
        8
1005
28D
1005
282
1005
289
1005
26F
1005
27A
1005
273
1005
27F
1005
270
1071
        7
1070
     0
1070
     1
1071
        8
1040
2104.007552747134
1040
3471.762611351403
1040
2104.007552747134
1040
3344.648670889749
1040
2204.007552747134
1040
3344.648670889749
1040
2204.007552747134
1040
3471.762611351397
1040
2204.007552747142
1040
3628.237402104895
1040
2204.007552747134
1040
3755.351342566543
1040
2104.007552747134
1040
3755.351342566538
1040
2104.007552747142
1040
3628.23740210489
1071
        8
1005
26D
1005
261
1005
269
1005
24F
1005
25B
1005
252
1005
25F
1005
24E
1070
     0
1070
     1
1040
11.83003133055595
1071
        3
1040
3829.769063503314
1040
3537.040754546702
1040
0.0
1040
4196.765803388763
1040
3537.040754546702
1040
0.0
1040
2148.687267652632
1040
3584.360903672626
1040
0.0
1002
}
  0
MTEXT
  5
24A
330
123
100
AcDbEntity
  8
TEKST
100
AcDbMText
 10
2179.176177324167
 20
5190.619249363251
 30
0.0
 40
100.0
 41
1991.156099999999
 71
     1
 72
     1
  1
{\FIMPACT.TTF;Hoogte: 214 cm\PMax. valhoogte: 115 cm}
1001
ACAD
1000
MTEXTBEGIN
1070
    73
1070
     1
1070
    44
1040
1.0
1070
    74
1070
     0
1000
MTEXTEND
1000
MTEXTBEGIN
1070
    73
1070
     1
1070
    44
1040
1.0
1070
    74
1070
     0
1000
MTEXTEND
  0
LINE
  5
24B
330
123
100
AcDbEntity
  8
OBJECT
 62
     7
100
AcDbLine
 10
3573.448741434666
 20
3628.237402104896
 30
0.0
 11
2772.13486163372
 21
3628.237402104896
 31
0.0
  0
LINE
  5
24C
330
123
100
AcDbEntity
  8
OBJECT
 62
     7
100
AcDbLine
 10
3573.448741434666
 20
3471.762611351397
 30
0.0
 11
2772.13486163372
 21
3471.762611351397
 31
0.0
  0
POLYLINE
  5
24D
330
123
100
AcDbEntity
  8
SAFETY
 62
     0
 48
5.0
100
AcDb2dPolyline
 66
     1
 10
0.0
 20
0.0
 30
-104.923315599824
1001
AVE_FINISH
1002
{
1070
     0
1005
0
1002
}
  0
VERTEX
  5
2C2
330
24D
100
AcDbEntity
  8
SAFETY
 62
     0
 48
5.0
100
AcDbVertex
100
AcDb2dVertex
 10
-0.0000078016309999
 20
4368.359768959968
 30
-104.923315599824
 42
-0.4142135623730951
  0
VERTEX
  5
2C3
330
24D
100
AcDbEntity
  8
SAFETY
 62
     0
 48
5.0
100
AcDbVertex
100
AcDb2dVertex
 10
1499.999992198369
 20
5868.359768959969
 30
-104.923315599824
 42
0.4142135623730951
  0
VERTEX
  5
2C4
330
24D
100
AcDbEntity
  8
SAFETY
 62
     0
 48
5.0
100
AcDbVertex
100
AcDb2dVertex
 10
-0.0000078016309999
 20
4368.359768959968
 30
-104.923315599824
  0
VERTEX
  5
2C5
330
24D
100
AcDbEntity
  8
SAFETY
 62
     0
 48
5.0
100
AcDbVertex
100
AcDb2dVertex
 10
-0.0000078016309999
 20
2731.64024449632
 30
-104.923315599824
 42
0.4323330229580675
  0
VERTEX
  5
2C6
330
24D
100
AcDbEntity
  8
SAFETY
 62
     0
 48
5.0
100
AcDbVertex
100
AcDb2dVertex
 10
1592.139572254869
 20
1234.47281972813
 30
-104.923315599824
  0
VERTEX
  5
2C7
330
24D
100
AcDbEntity
  8
SAFETY
 62
     0
 48
5.0
100
AcDbVertex
100
AcDb2dVertex
 10
1592.139572254869
 20
0.0000067281455927
 30
-104.923315599824
  0
VERTEX
  5
2C8
330
24D
100
AcDbEntity
  8
SAFETY
 62
     0
 48
5.0
100
AcDbVertex
100
AcDb2dVertex
 10
4754.826752067129
 20
0.0000067281455927
 30
-104.923315599824
  0
VERTEX
  5
2C9
330
24D
100
AcDbEntity
  8
SAFETY
 62
     0
 48
5.0
100
AcDbVertex
100
AcDb2dVertex
 10
4754.826752067145
 20
1234.472819728132
 30
-104.923315599824
 42
0.4323330229580665
  0
VERTEX
  5
2CA
330
24D
100
AcDbEntity
  8
SAFETY
 62
     0
 48
5.0
100
AcDbVertex
100
AcDb2dVertex
 10
6346.966332123637
 20
2731.640244496322
 30
-104.923315599824
  0
VERTEX
  5
2CB
330
24D
100
AcDbEntity
  8
SAFETY
 62
     0
 48
5.0
100
AcDbVertex
100
AcDb2dVertex
 10
6346.966332123637
 20
4368.359768959968
 30
-104.923315599824
 42
0.432333022958069
  0
VERTEX
  5
2CC
330
24D
100
AcDbEntity
  8
SAFETY
 62
     0
 48
5.0
100
AcDbVertex
100
AcDb2dVertex
 10
4754.826752067129
 20
5865.527193728157
 30
-104.923315599824
  0
VERTEX
  5
2CD
330
24D
100
AcDbEntity
  8
SAFETY
 62
     0
 48
5.0
100
AcDbVertex
100
AcDb2dVertex
 10
4754.826752067129
 20
5868.359768959969
 30
-104.923315599824
  0
VERTEX
  5
2CE
330
24D
100
AcDbEntity
  8
SAFETY
 62
     0
 48
5.0
100
AcDbVertex
100
AcDb2dVertex
 10
4754.826752067129
 20
7100.000006728144
 30
-104.923315599824
  0
VERTEX
  5
2CF
330
24D
100
AcDbEntity
  8
SAFETY
 62
     0
 48
5.0
100
AcDbVertex
100
AcDb2dVertex
 10
1592.139572254869
 20
7100.000006728144
 30
-104.923315599824
  0
VERTEX
  5
2D0
330
24D
100
AcDbEntity
  8
SAFETY
 62
     0
 48
5.0
100
AcDbVertex
100
AcDb2dVertex
 10
1592.139572254862
 20
5868.359768959969
 30
-104.923315599824
  0
VERTEX
  5
2D1
330
24D
100
AcDbEntity
  8
SAFETY
 62
     0
 48
5.0
100
AcDbVertex
100
AcDb2dVertex
 10
1499.999992198369
 20
5868.359768959969
 30
-104.923315599824
  0
SEQEND
  5
2D2
330
24D
100
AcDbEntity
  8
SAFETY
 62
     0
 48
5.0
  0
LINE
  5
24E
330
123
100
AcDbEntity
  8
OBJECT
 62
     0
100
AcDbLine
 10
2204.007552747142
 20
3628.237402104895
 30
0.0
 11
2204.007552747134
 21
3471.762611351397
 31
0.0
  0
LINE
  5
24F
330
123
100
AcDbEntity
  8
OBJECT
 62
     0
100
AcDbLine
 10
2104.007552747142
 20
3628.2374021049
 30
0.0
 11
2104.007552747134
 21
3471.762611351403
 31
0.0
  0
LINE
  5
250
330
123
100
AcDbEntity
  8
OBJECT
 62
     0
100
AcDbLine
 10
1593.482719290608
 20
4166.353057003802
 30
0.0
 11
1593.482719290608
 21
2933.646956452491
 31
0.0
  0
LINE
  5
251
330
123
100
AcDbEntity
  8
OBJECT
 62
     0
100
AcDbLine
 10
1893.482719290616
 20
3866.53889732297
 30
0.0
 11
1893.482719290608
 21
3233.461116133319
 31
0.0
  0
LINE
  5
252
330
123
100
AcDbEntity
  8
OBJECT
 62
     0
100
AcDbLine
 10
2104.007552747134
 20
3344.648670889749
 30
0.0
 11
2204.007552747134
 21
3344.648670889749
 31
0.0
  0
LINE
  5
253
330
123
100
AcDbEntity
  8
OBJECT
 62
     7
100
AcDbLine
 10
2204.007552747134
 20
3344.648670889749
 30
0.0
 11
1589.24295670018
 21
2717.553274334259
 31
0.0
  0
LINE
  5
254
330
123
100
AcDbEntity
  8
OBJECT
 62
     7
100
AcDbLine
 10
1487.488789642323
 20
2827.718686623262
 30
0.0
 11
2104.007552747134
 21
3443.855536249034
 31
0.0
  0
LINE
  5
255
330
123
100
AcDbEntity
  8
OBJECT
 62
     0
100
AcDbLine
 10
1893.482719290616
 20
3550.000006728144
 30
0.0
 11
1593.482719290608
 21
3550.000006728144
 31
0.0
  0
LINE
  5
256
330
123
100
AcDbEntity
  8
OBJECT
 62
     0
100
AcDbLine
 10
1893.482719290608
 20
3333.461116133319
 30
0.0
 11
1593.482719290601
 21
3333.461116133319
 31
0.0
  0
LINE
  5
257
330
123
100
AcDbEntity
  8
OBJECT
 62
     0
100
AcDbLine
 10
1893.482719290608
 20
3433.461116133319
 30
0.0
 11
1593.482719290601
 21
3433.461116133319
 31
0.0
  0
LINE
  5
258
330
123
100
AcDbEntity
  8
OBJECT
 62
     0
100
AcDbLine
 10
1893.482719290608
 20
3233.461116133319
 30
0.0
 11
1593.482719290601
 21
3233.461116133319
 31
0.0
  0
LINE
  5
259
330
123
100
AcDbEntity
  8
OBJECT
 62
     7
100
AcDbLine
 10
1487.488789642323
 20
2717.553274334259
 30
0.0
 11
1487.488789642323
 21
2827.718686623262
 31
0.0
  0
LINE
  5
25A
330
123
100
AcDbEntity
  8
OBJECT
 62
     7
100
AcDbLine
 10
1589.24295670018
 20
2717.553274334259
 30
0.0
 11
1487.488789642323
 21
2717.553274334259
 31
0.0
  0
LINE
  5
25B
330
123
100
AcDbEntity
  8
OBJECT
 62
     7
100
AcDbLine
 10
2104.007552747134
 20
3471.762611351397
 30
0.0
 11
2104.007552747134
 21
3344.648670889749
 31
0.0
  0
LINE
  5
25C
330
123
100
AcDbEntity
  8
OBJECT
 62
     0
100
AcDbLine
 10
2772.13486163372
 20
3471.762611351397
 30
0.0
 11
2204.007552747134
 21
3471.762611351397
 31
0.0
  0
LINE
  5
25D
330
123
100
AcDbEntity
  8
OBJECT
 62
     7
100
AcDbLine
 10
2729.737303285656
 20
3437.865555006101
 30
0.0
 11
2339.679752972195
 21
3437.865555006101
 31
0.0
  0
LINE
  5
25E
330
123
100
AcDbEntity
  8
OBJECT
 62
     7
100
AcDbLine
 10
2339.679752972195
 20
3437.865555006101
 30
0.0
 11
2296.070828219395
 21
3471.762611351397
 31
0.0
  0
LINE
  5
25F
330
123
100
AcDbEntity
  8
OBJECT
 62
     7
100
AcDbLine
 10
2204.007552747134
 20
3471.762611351397
 30
0.0
 11
2204.007552747134
 21
3344.648670889749
 31
0.0
  0
LINE
  5
260
330
123
100
AcDbEntity
  8
OBJECT
 62
     7
100
AcDbLine
 10
2772.13486163372
 20
3471.762611351397
 30
0.0
 11
2729.737303285656
 21
3437.865555006101
 31
0.0
  0
LINE
  5
261
330
123
100
AcDbEntity
  8
OBJECT
 62
     0
100
AcDbLine
 10
2104.007552747134
 20
3755.351342566538
 30
0.0
 11
2204.007552747134
 21
3755.351342566544
 31
0.0
  0
LINE
  5
262
330
123
100
AcDbEntity
  8
OBJECT
 62
     7
100
AcDbLine
 10
1487.488789642323
 20
4272.281326833032
 30
0.0
 11
2104.007552747141
 21
3656.144477207252
 31
0.0
  0
LINE
  5
263
330
123
100
AcDbEntity
  8
OBJECT
 62
     7
100
AcDbLine
 10
2204.007552747134
 20
3755.351342566544
 30
0.0
 11
1589.24295670018
 21
4382.446739122035
 31
0.0
  0
LINE
  5
264
330
123
100
AcDbEntity
  8
OBJECT
 62
     0
100
AcDbLine
 10
1893.482719290616
 20
3866.53889732297
 30
0.0
 11
1593.482719290608
 21
3866.53889732297
 31
0.0
  0
LINE
  5
265
330
123
100
AcDbEntity
  8
OBJECT
 62
     0
100
AcDbLine
 10
1893.482719290616
 20
3766.53889732297
 30
0.0
 11
1593.482719290608
 21
3766.53889732297
 31
0.0
  0
LINE
  5
266
330
123
100
AcDbEntity
  8
OBJECT
 62
     0
100
AcDbLine
 10
1893.482719290616
 20
3666.53889732297
 30
0.0
 11
1593.482719290608
 21
3666.53889732297
 31
0.0
  0
LINE
  5
267
330
123
100
AcDbEntity
  8
OBJECT
 62
     7
100
AcDbLine
 10
1487.488789642323
 20
4382.446739122035
 30
0.0
 11
1487.488789642323
 21
4272.281326833032
 31
0.0
  0
LINE
  5
268
330
123
100
AcDbEntity
  8
OBJECT
 62
     7
100
AcDbLine
 10
1589.24295670018
 20
4382.446739122035
 30
0.0
 11
1487.488789642323
 21
4382.446739122035
 31
0.0
  0
LINE
  5
269
330
123
100
AcDbEntity
  8
OBJECT
 62
     7
100
AcDbLine
 10
2104.007552747142
 20
3628.23740210489
 30
0.0
 11
2104.007552747134
 21
3755.351342566538
 31
0.0
  0
LINE
  5
26A
330
123
100
AcDbEntity
  8
OBJECT
 62
     7
100
AcDbLine
 10
2729.737303285656
 20
3662.134458450193
 30
0.0
 11
2339.679752972195
 21
3662.134458450193
 31
0.0
  0
LINE
  5
26B
330
123
100
AcDbEntity
  8
OBJECT
 62
     7
100
AcDbLine
 10
2772.13486163372
 20
3628.237402104896
 30
0.0
 11
2204.007552747142
 21
3628.237402104895
 31
0.0
  0
LINE
  5
26C
330
123
100
AcDbEntity
  8
OBJECT
 62
     7
100
AcDbLine
 10
2339.679752972195
 20
3662.134458450193
 30
0.0
 11
2296.070828219388
 21
3628.237402104895
 31
0.0
  0
LINE
  5
26D
330
123
100
AcDbEntity
  8
OBJECT
 62
     7
100
AcDbLine
 10
2204.007552747142
 20
3628.237402104896
 30
0.0
 11
2204.007552747134
 21
3755.351342566544
 31
0.0
  0
LINE
  5
26E
330
123
100
AcDbEntity
  8
OBJECT
 62
     7
100
AcDbLine
 10
2772.13486163372
 20
3628.237402104896
 30
0.0
 11
2729.737303285656
 21
3662.134458450193
 31
0.0
  0
LINE
  5
26F
330
123
100
AcDbEntity
  8
OBJECT
 62
     0
100
AcDbLine
 10
4141.576050321243
 20
3628.237402104895
 30
0.0
 11
4141.576050321251
 21
3471.762611351397
 31
0.0
  0
LINE
  5
270
330
123
100
AcDbEntity
  8
OBJECT
 62
     0
100
AcDbLine
 10
4241.576050321244
 20
3628.2374021049
 30
0.0
 11
4241.576050321252
 21
3471.762611351403
 31
0.0
  0
LINE
  5
271
330
123
100
AcDbEntity
  8
OBJECT
 62
     0
100
AcDbLine
 10
4752.100883777777
 20
4166.353057003802
 30
0.0
 11
4752.100883777777
 21
2933.646956452491
 31
0.0
  0
LINE
  5
272
330
123
100
AcDbEntity
  8
OBJECT
 62
     0
100
AcDbLine
 10
4452.100883777784
 20
3866.538897322971
 30
0.0
 11
4452.100883777776
 21
3233.461116133314
 31
0.0
  0
LINE
  5
273
330
123
100
AcDbEntity
  8
OBJECT
 62
     0
100
AcDbLine
 10
4241.576050321252
 20
3344.648670889749
 30
0.0
 11
4141.576050321251
 21
3344.648670889749
 31
0.0
  0
LINE
  5
274
330
123
100
AcDbEntity
  8
OBJECT
 62
     7
100
AcDbLine
 10
4141.576050321251
 20
3344.648670889749
 30
0.0
 11
4756.340646368204
 21
2717.553274334259
 31
0.0
  0
LINE
  5
275
330
123
100
AcDbEntity
  8
OBJECT
 62
     7
100
AcDbLine
 10
4858.094813426061
 20
2827.718686623262
 30
0.0
 11
4241.576050321252
 21
3443.855536249034
 31
0.0
  0
LINE
  5
276
330
123
100
AcDbEntity
  8
OBJECT
 62
     7
100
AcDbLine
 10
4018.62310408936
 20
3437.865555006101
 30
0.0
 11
3603.127012011442
 21
3437.865555006101
 31
0.0
  0
LINE
  5
277
330
123
100
AcDbEntity
  8
OBJECT
 62
     0
100
AcDbLine
 10
3573.448741434666
 20
3471.762611351397
 30
0.0
 11
4141.576050321251
 21
3471.762611351397
 31
0.0
  0
LINE
  5
278
330
123
100
AcDbEntity
  8
OBJECT
 62
     7
100
AcDbLine
 10
3603.127012011442
 20
3437.865555006101
 30
0.0
 11
3573.448741434666
 21
3471.762611351397
 31
0.0
  0
LINE
  5
279
330
123
100
AcDbEntity
  8
OBJECT
 62
     7
100
AcDbLine
 10
4052.541159775318
 20
3471.762611351397
 30
0.0
 11
4018.62310408936
 21
3437.865555006101
 31
0.0
  0
LINE
  5
27A
330
123
100
AcDbEntity
  8
OBJECT
 62
     7
100
AcDbLine
 10
4141.576050321251
 20
3471.762611351397
 30
0.0
 11
4141.576050321251
 21
3344.648670889749
 31
0.0
  0
LINE
  5
27B
330
123
100
AcDbEntity
  8
OBJECT
 62
     0
100
AcDbLine
 10
4452.100883777776
 20
3333.461116133314
 30
0.0
 11
4752.10088377777
 21
3333.461116133314
 31
0.0
  0
LINE
  5
27C
330
123
100
AcDbEntity
  8
OBJECT
 62
     0
100
AcDbLine
 10
4452.100883777776
 20
3433.461116133315
 30
0.0
 11
4752.10088377777
 21
3433.461116133315
 31
0.0
  0
LINE
  5
27D
330
123
100
AcDbEntity
  8
OBJECT
 62
     0
100
AcDbLine
 10
4452.100883777784
 20
3550.000006728142
 30
0.0
 11
4752.100883777777
 21
3550.000006728142
 31
0.0
  0
LINE
  5
27E
330
123
100
AcDbEntity
  8
OBJECT
 62
     0
100
AcDbLine
 10
4452.100883777776
 20
3233.461116133314
 30
0.0
 11
4752.10088377777
 21
3233.461116133314
 31
0.0
  0
LINE
  5
27F
330
123
100
AcDbEntity
  8
OBJECT
 62
     7
100
AcDbLine
 10
4241.576050321252
 20
3471.762611351397
 30
0.0
 11
4241.576050321252
 21
3344.648670889749
 31
0.0
  0
LINE
  5
280
330
123
100
AcDbEntity
  8
OBJECT
 62
     7
100
AcDbLine
 10
4858.094813426061
 20
2717.553274334259
 30
0.0
 11
4858.094813426061
 21
2827.718686623262
 31
0.0
  0
LINE
  5
281
330
123
100
AcDbEntity
  8
OBJECT
 62
     7
100
AcDbLine
 10
4756.340646368204
 20
2717.553274334259
 30
0.0
 11
4858.094813426061
 21
2717.553274334259
 31
0.0
  0
LINE
  5
282
330
123
100
AcDbEntity
  8
OBJECT
 62
     0
100
AcDbLine
 10
4241.576050321252
 20
3755.351342566538
 30
0.0
 11
4141.576050321251
 21
3755.351342566544
 31
0.0
  0
LINE
  5
283
330
123
100
AcDbEntity
  8
OBJECT
 62
     7
100
AcDbLine
 10
4858.094813426061
 20
4272.281326833032
 30
0.0
 11
4241.576050321246
 21
3656.144477207254
 31
0.0
  0
LINE
  5
284
330
123
100
AcDbEntity
  8
OBJECT
 62
     7
100
AcDbLine
 10
4141.576050321251
 20
3755.351342566544
 30
0.0
 11
4756.340646368204
 21
4382.446739122035
 31
0.0
  0
LINE
  5
285
330
123
100
AcDbEntity
  8
OBJECT
 62
     7
100
AcDbLine
 10
4018.62310408936
 20
3662.134458450193
 30
0.0
 11
3603.127012011442
 21
3662.134458450193
 31
0.0
  0
LINE
  5
286
330
123
100
AcDbEntity
  8
OBJECT
 62
     0
100
AcDbLine
 10
3573.448741434666
 20
3628.237402104896
 30
0.0
 11
4141.576050321236
 21
3628.237402104896
 31
0.0
  0
LINE
  5
287
330
123
100
AcDbEntity
  8
OBJECT
 62
     7
100
AcDbLine
 10
3603.127012011442
 20
3662.134458450193
 30
0.0
 11
3573.448741434666
 21
3628.237402104896
 31
0.0
  0
LINE
  5
288
330
123
100
AcDbEntity
  8
OBJECT
 62
     7
100
AcDbLine
 10
4052.541159775311
 20
3628.237402104896
 30
0.0
 11
4018.62310408936
 21
3662.134458450193
 31
0.0
  0
LINE
  5
289
330
123
100
AcDbEntity
  8
OBJECT
 62
     7
100
AcDbLine
 10
4141.576050321243
 20
3628.237402104896
 30
0.0
 11
4141.576050321251
 21
3755.351342566544
 31
0.0
  0
LINE
  5
28A
330
123
100
AcDbEntity
  8
OBJECT
 62
     0
100
AcDbLine
 10
4452.100883777784
 20
3866.538897322971
 30
0.0
 11
4752.100883777777
 21
3866.538897322971
 31
0.0
  0
LINE
  5
28B
330
123
100
AcDbEntity
  8
OBJECT
 62
     0
100
AcDbLine
 10
4452.100883777784
 20
3766.538897322972
 30
0.0
 11
4752.100883777777
 21
3766.538897322972
 31
0.0
  0
LINE
  5
28C
330
123
100
AcDbEntity
  8
OBJECT
 62
     0
100
AcDbLine
 10
4452.100883777784
 20
3666.538897322972
 30
0.0
 11
4752.100883777777
 21
3666.538897322972
 31
0.0
  0
LINE
  5
28D
330
123
100
AcDbEntity
  8
OBJECT
 62
     7
100
AcDbLine
 10
4241.576050321244
 20
3628.23740210489
 30
0.0
 11
4241.576050321252
 21
3755.351342566538
 31
0.0
  0
LINE
  5
28E
330
123
100
AcDbEntity
  8
OBJECT
 62
     7
100
AcDbLine
 10
4858.094813426061
 20
4382.446739122035
 30
0.0
 11
4858.094813426061
 21
4272.281326833032
 31
0.0
  0
LINE
  5
28F
330
123
100
AcDbEntity
  8
OBJECT
 62
     7
100
AcDbLine
 10
4756.340646368204
 20
4382.446739122035
 30
0.0
 11
4858.094813426061
 21
4382.446739122035
 31
0.0
  0
LINE
  5
290
330
123
100
AcDbEntity
  8
OBJECT
100
AcDbLine
 10
1487.488789642323
 20
4382.446739122035
 30
0.0
 11
2104.007552747134
 21
3755.351342566538
 31
0.0
  0
LINE
  5
291
330
123
100
AcDbEntity
  8
OBJECT
100
AcDbLine
 10
4858.094813426061
 20
4382.446739122035
 30
0.0
 11
4241.576050321252
 21
3755.351342566538
 31
0.0
  0
LINE
  5
292
330
123
100
AcDbEntity
  8
OBJECT
100
AcDbLine
 10
4241.576050321252
 20
3344.648670889749
 30
0.0
 11
4858.094813426061
 21
2717.553274334259
 31
0.0
  0
LINE
  5
293
330
123
100
AcDbEntity
  8
OBJECT
100
AcDbLine
 10
2104.007552747134
 20
3344.648670889749
 30
0.0
 11
1487.488789642323
 21
2717.553274334259
 31
0.0
  0
INSERT
  5
294
330
123
100
AcDbEntity
  8
HATCH
  6
CONTINUOUS
100
AcDbBlockReference
  2
*U3
 10
0.0
 20
0.0
 30
0.0
1001
ACAD
1002
{
1000
R14_HATCH_DATA
1000
294
1011
1.0
1021
0.0
1031
0.0
1011
0.0
1021
1.0
1031
0.0
1011
0.0
1021
0.0
1031
1.0
1040
0.0
1010
0.0
1020
0.0
1030
1.0
1000
SOLID
1070
     1
1070
     0
1071
        4
1071
        7
1070
     0
1070
     1
1071
        4
1040
2729.737303285656
1040
3662.134458450193
1040
2339.679752972195
1040
3662.134458450192
1040
2296.070828219388
1040
3628.237402104895
1040
2772.13486163372
1040
3628.237402104896
1071
        0
1071
        7
1070
     0
1070
     1
1071
        4
1040
2772.134861633719
1040
3471.762611351397
1040
2296.070828219394
1040
3471.762611351397
1040
2339.679752972194
1040
3437.865555006101
1040
2729.737303285657
1040
3437.865555006101
1071
        0
1071
        7
1070
     0
1070
     1
1071
        4
1040
4018.62310408936
1040
3662.134458450193
1040
3603.127012011443
1040
3662.134458450193
1040
3573.448741434666
1040
3628.237402104896
1040
4052.541159775311
1040
3628.237402104896
1071
        0
1071
        7
1070
     0
1070
     1
1071
        4
1040
4052.541159775318
1040
3471.762611351397
1040
3573.448741434666
1040
3471.762611351397
1040
3603.127012011442
1040
3437.865555006101
1040
4018.62310408936
1040
3437.865555006101
1071
        0
1070
     0
1070
     1
1040
2.593093787831386
1071
        4
1040
2515.875888639049
1040
3635.66271403012
1040
0.0
1040
2521.06582818913
1040
3451.553036532358
1040
0.0
1040
3652.47404247053
1040
3651.221283717758
1040
0.0
1040
3688.803685624145
1040
3456.739226428239
1040
0.0
1002
}
  0
ENDBLK
  5
125
330
123
100
AcDbEntity
  8
0
100
AcDbBlockEnd
  0
BLOCK
  5
2AB
330
29A
100
AcDbEntity
  8
0
100
AcDbBlockBegin
  2
*U1
 70
     1
 10
0.0
 20
0.0
 30
0.0
  3
*U1
  1

  0
SOLID
  5
29B
330
29A
100
AcDbEntity
  8
HATCH
  6
CONTINUOUS
 62
   251
100
AcDbTrace
 10
1589.242956700179
 20
4382.446739122035
 30
0.0
 11
1487.488789642322
 21
4382.446739122035
 31
0.0
 12
2204.007552747134
 22
3755.351342566544
 32
0.0
 13
2204.007552747134
 23
3755.351342566544
 33
0.0
210
0.0
220
0.0
230
1.0
  0
SOLID
  5
29C
330
29A
100
AcDbEntity
  8
HATCH
  6
CONTINUOUS
 62
   251
100
AcDbTrace
 10
2104.007552747134
 20
3755.351342566538
 30
0.0
 11
2204.007552747134
 21
3755.351342566544
 31
0.0
 12
1487.488789642322
 22
4382.446739122035
 32
0.0
 13
1487.488789642322
 23
4382.446739122035
 33
0.0
210
0.0
220
0.0
230
1.0
  0
SOLID
  5
29D
330
29A
100
AcDbEntity
  8
HATCH
  6
CONTINUOUS
 62
   251
100
AcDbTrace
 10
1487.488789642322
 20
4272.281326833033
 30
0.0
 11
2104.00755274714
 21
3656.144477207253
 31
0.0
 12
2104.007552747134
 22
3755.351342566538
 32
0.0
 13
2104.007552747134
 23
3755.351342566538
 33
0.0
  0
SOLID
  5
29E
330
29A
100
AcDbEntity
  8
HATCH
  6
CONTINUOUS
 62
   251
100
AcDbTrace
 10
4858.094813426061
 20
4382.446739122035
 30
0.0
 11
4141.576050321252
 21
3755.351342566544
 31
0.0
 12
4241.576050321252
 22
3755.351342566538
 32
0.0
 13
4241.576050321252
 23
3755.351342566538
 33
0.0
  0
SOLID
  5
29F
330
29A
100
AcDbEntity
  8
HATCH
  6
CONTINUOUS
 62
   251
100
AcDbTrace
 10
4756.340646368204
 20
4382.446739122036
 30
0.0
 11
4141.576050321252
 21
3755.351342566544
 31
0.0
 12
4858.094813426061
 22
4382.446739122035
 32
0.0
 13
4858.094813426061
 23
4382.446739122035
 33
0.0
210
0.0
220
0.0
230
1.0
  0
SOLID
  5
2A0
330
29A
100
AcDbEntity
  8
HATCH
  6
CONTINUOUS
 62
   251
100
AcDbTrace
 10
1487.488789642323
 20
4382.446739122036
 30
0.0
 11
1487.488789642322
 21
4272.281326833033
 31
0.0
 12
2104.007552747134
 22
3755.351342566538
 32
0.0
 13
2104.007552747134
 23
3755.351342566538
 33
0.0
210
0.0
220
0.0
230
1.0
  0
SOLID
  5
2A1
330
29A
100
AcDbEntity
  8
HATCH
  6
CONTINUOUS
 62
   251
100
AcDbTrace
 10
4858.094813426061
 20
2717.553274334259
 30
0.0
 11
4241.576050321252
 21
3344.648670889749
 31
0.0
 12
4141.576050321251
 22
3344.648670889749
 32
0.0
 13
4141.576050321251
 23
3344.648670889749
 33
0.0
210
0.0
220
0.0
230
1.0
  0
SOLID
  5
2A2
330
29A
100
AcDbEntity
  8
HATCH
  6
CONTINUOUS
 62
   251
100
AcDbTrace
 10
4141.576050321251
 20
3344.648670889749
 30
0.0
 11
4756.340646368204
 21
2717.553274334259
 31
0.0
 12
4858.094813426061
 22
2717.553274334259
 32
0.0
 13
4858.094813426061
 23
2717.553274334259
 33
0.0
210
0.0
220
0.0
230
1.0
  0
SOLID
  5
2A3
330
29A
100
AcDbEntity
  8
HATCH
  6
CONTINUOUS
 62
   251
100
AcDbTrace
 10
4858.094813426061
 20
4272.281326833032
 30
0.0
 11
4241.576050321252
 21
3755.351342566539
 31
0.0
 12
4241.576050321247
 22
3656.144477207254
 32
0.0
 13
4241.576050321247
 23
3656.144477207254
 33
0.0
210
0.0
220
0.0
230
1.0
  0
SOLID
  5
2A4
330
29A
100
AcDbEntity
  8
HATCH
  6
CONTINUOUS
 62
   251
100
AcDbTrace
 10
4858.09481342606
 20
4382.446739122034
 30
0.0
 11
4241.576050321252
 21
3755.351342566539
 31
0.0
 12
4858.094813426061
 22
4272.281326833032
 32
0.0
 13
4858.094813426061
 23
4272.281326833032
 33
0.0
210
0.0
220
0.0
230
1.0
  0
SOLID
  5
2A5
330
29A
100
AcDbEntity
  8
HATCH
  6
CONTINUOUS
 62
   251
100
AcDbTrace
 10
2104.007552747134
 20
3344.648670889749
 30
0.0
 11
1487.488789642322
 21
2827.718686623262
 31
0.0
 12
1487.488789642323
 22
2717.553274334259
 32
0.0
 13
1487.488789642323
 23
2717.553274334259
 33
0.0
210
0.0
220
0.0
230
1.0
  0
SOLID
  5
2A6
330
29A
100
AcDbEntity
  8
HATCH
  6
CONTINUOUS
 62
   251
100
AcDbTrace
 10
4241.576050321252
 20
3344.648670889749
 30
0.0
 11
4858.094813426061
 21
2717.553274334259
 31
0.0
 12
4858.094813426061
 22
2827.718686623263
 32
0.0
 13
4858.094813426061
 23
2827.718686623263
 33
0.0
210
0.0
220
0.0
230
1.0
  0
SOLID
  5
2A7
330
29A
100
AcDbEntity
  8
HATCH
  6
CONTINUOUS
 62
   251
100
AcDbTrace
 10
2104.007552747134
 20
3443.855536249034
 30
0.0
 11
1487.488789642322
 21
2827.718686623262
 31
0.0
 12
2104.007552747134
 22
3344.648670889749
 32
0.0
 13
2104.007552747134
 23
3344.648670889749
 33
0.0
210
0.0
220
0.0
230
1.0
  0
SOLID
  5
2A8
330
29A
100
AcDbEntity
  8
HATCH
  6
CONTINUOUS
 62
   251
100
AcDbTrace
 10
4241.576050321252
 20
3443.855536249035
 30
0.0
 11
4241.576050321252
 21
3344.648670889749
 31
0.0
 12
4858.094813426061
 22
2827.718686623263
 32
0.0
 13
4858.094813426061
 23
2827.718686623263
 33
0.0
210
0.0
220
0.0
230
1.0
  0
SOLID
  5
2A9
330
29A
100
AcDbEntity
  8
HATCH
  6
CONTINUOUS
 62
   251
100
AcDbTrace
 10
2204.007552747134
 20
3344.648670889749
 30
0.0
 11
2104.007552747134
 21
3344.648670889748
 31
0.0
 12
1589.24295670018
 22
2717.553274334259
 32
0.0
 13
1589.24295670018
 23
2717.553274334259
 33
0.0
210
0.0
220
0.0
230
1.0
  0
SOLID
  5
2AA
330
29A
100
AcDbEntity
  8
HATCH
  6
CONTINUOUS
 62
   251
100
AcDbTrace
 10
1487.488789642323
 20
2717.553274334259
 30
0.0
 11
1589.24295670018
 21
2717.553274334259
 31
0.0
 12
2104.007552747134
 22
3344.648670889748
 32
0.0
 13
2104.007552747134
 23
3344.648670889748
 33
0.0
210
0.0
220
0.0
230
1.0
  0
ENDBLK
  5
2AC
330
29A
100
AcDbEntity
  8
0
100
AcDbBlockEnd
  0
BLOCK
  5
2C0
330
2AD
100
AcDbEntity
  8
0
100
AcDbBlockBegin
  2
*U2
 70
     1
 10
0.0
 20
0.0
 30
0.0
  3
*U2
  1

  0
SOLID
  5
2AE
330
2AD
100
AcDbEntity
  8
HATCH
  6
CONTINUOUS
 62
     1
100
AcDbTrace
 10
2204.007552747142
 20
3628.237402104895
 30
0.0
 11
2204.007552747134
 21
3471.762611351397
 31
0.0
 12
2772.13486163372
 22
3471.762611351397
 32
0.0
 13
2772.13486163372
 23
3471.762611351397
 33
0.0
210
0.0
220
0.0
230
1.0
  0
SOLID
  5
2AF
330
2AD
100
AcDbEntity
  8
HATCH
  6
CONTINUOUS
 62
     1
100
AcDbTrace
 10
2204.007552747142
 20
3628.237402104895
 30
0.0
 11
2772.13486163372
 21
3471.762611351397
 31
0.0
 12
3573.448741434666
 22
3471.762611351397
 32
0.0
 13
3573.448741434666
 23
3471.762611351397
 33
0.0
210
0.0
220
0.0
230
1.0
  0
SOLID
  5
2B0
330
2AD
100
AcDbEntity
  8
HATCH
  6
CONTINUOUS
 62
     1
100
AcDbTrace
 10
2204.007552747142
 20
3628.237402104895
 30
0.0
 11
3573.448741434666
 21
3471.762611351397
 31
0.0
 12
4141.576050321251
 22
3471.762611351396
 32
0.0
 13
4141.576050321251
 23
3471.762611351396
 33
0.0
  0
SOLID
  5
2B1
330
2AD
100
AcDbEntity
  8
HATCH
  6
CONTINUOUS
 62
     1
100
AcDbTrace
 10
2772.13486163372
 20
3628.237402104896
 30
0.0
 11
2204.007552747142
 21
3628.237402104895
 31
0.0
 12
4141.576050321251
 22
3471.762611351396
 32
0.0
 13
4141.576050321251
 23
3471.762611351396
 33
0.0
  0
SOLID
  5
2B2
330
2AD
100
AcDbEntity
  8
HATCH
  6
CONTINUOUS
 62
     1
100
AcDbTrace
 10
4141.576050321251
 20
3471.762611351396
 30
0.0
 11
3573.448741434666
 21
3628.237402104896
 31
0.0
 12
2772.13486163372
 22
3628.237402104896
 32
0.0
 13
2772.13486163372
 23
3628.237402104896
 33
0.0
210
0.0
220
0.0
230
1.0
  0
SOLID
  5
2B3
330
2AD
100
AcDbEntity
  8
HATCH
  6
CONTINUOUS
 62
     1
100
AcDbTrace
 10
4141.576050321243
 20
3628.237402104896
 30
0.0
 11
3573.448741434666
 21
3628.237402104896
 31
0.0
 12
4141.576050321251
 22
3471.762611351396
 32
0.0
 13
4141.576050321251
 23
3471.762611351396
 33
0.0
210
0.0
220
0.0
230
1.0
  0
SOLID
  5
2B4
330
2AD
100
AcDbEntity
  8
HATCH
  6
CONTINUOUS
 62
     1
100
AcDbTrace
 10
2204.007552747134
 20
3471.762611351397
 30
0.0
 11
2104.007552747134
 21
3344.648670889749
 31
0.0
 12
2204.007552747134
 22
3344.648670889749
 32
0.0
 13
2204.007552747134
 23
3344.648670889749
 33
0.0
210
0.0
220
0.0
230
1.0
  0
SOLID
  5
2B5
330
2AD
100
AcDbEntity
  8
HATCH
  6
CONTINUOUS
 62
     1
100
AcDbTrace
 10
4241.576050321252
 20
3471.762611351397
 30
0.0
 11
4141.576050321251
 21
3344.648670889749
 31
0.0
 12
4241.57605032125
 22
3344.648670889749
 32
0.0
 13
4241.57605032125
 23
3344.648670889749
 33
0.0
210
0.0
220
0.0
230
1.0
  0
SOLID
  5
2B6
330
2AD
100
AcDbEntity
  8
HATCH
  6
CONTINUOUS
 62
     1
100
AcDbTrace
 10
4141.576050321251
 20
3471.762611351397
 30
0.0
 11
4141.576050321251
 21
3344.648670889749
 31
0.0
 12
4241.576050321252
 22
3471.762611351397
 32
0.0
 13
4241.576050321252
 23
3471.762611351397
 33
0.0
210
0.0
220
0.0
230
1.0
  0
SOLID
  5
2B7
330
2AD
100
AcDbEntity
  8
HATCH
  6
CONTINUOUS
 62
     1
100
AcDbTrace
 10
2104.007552747134
 20
3471.762611351403
 30
0.0
 11
2104.007552747134
 21
3344.648670889749
 31
0.0
 12
2204.007552747134
 22
3471.762611351397
 32
0.0
 13
2204.007552747134
 23
3471.762611351397
 33
0.0
210
0.0
220
0.0
230
1.0
  0
SOLID
  5
2B8
330
2AD
100
AcDbEntity
  8
HATCH
  6
CONTINUOUS
 62
     1
100
AcDbTrace
 10
2104.007552747142
 20
3628.23740210489
 30
0.0
 11
2104.007552747134
 21
3471.762611351403
 31
0.0
 12
2204.007552747134
 22
3471.762611351397
 32
0.0
 13
2204.007552747134
 23
3471.762611351397
 33
0.0
210
0.0
220
0.0
230
1.0
  0
SOLID
  5
2B9
330
2AD
100
AcDbEntity
  8
HATCH
  6
CONTINUOUS
 62
     1
100
AcDbTrace
 10
2204.007552747142
 20
3628.237402104895
 30
0.0
 11
2104.007552747142
 21
3628.23740210489
 31
0.0
 12
2204.007552747134
 22
3471.762611351397
 32
0.0
 13
2204.007552747134
 23
3471.762611351397
 33
0.0
210
0.0
220
0.0
230
1.0
  0
SOLID
  5
2BA
330
2AD
100
AcDbEntity
  8
HATCH
  6
CONTINUOUS
 62
     1
100
AcDbTrace
 10
4141.576050321243
 20
3628.237402104896
 30
0.0
 11
4141.576050321251
 21
3471.762611351397
 31
0.0
 12
4241.576050321252
 22
3471.762611351397
 32
0.0
 13
4241.576050321252
 23
3471.762611351397
 33
0.0
210
0.0
220
0.0
230
1.0
  0
SOLID
  5
2BB
330
2AD
100
AcDbEntity
  8
HATCH
  6
CONTINUOUS
 62
     1
100
AcDbTrace
 10
4241.576050321244
 20
3628.2374021049
 30
0.0
 11
4141.576050321243
 21
3628.237402104896
 31
0.0
 12
4241.576050321252
 22
3471.762611351397
 32
0.0
 13
4241.576050321252
 23
3471.762611351397
 33
0.0
  0
SOLID
  5
2BC
330
2AD
100
AcDbEntity
  8
HATCH
  6
CONTINUOUS
 62
     1
100
AcDbTrace
 10
4241.57605032125
 20
3755.351342566538
 30
0.0
 11
4141.576050321243
 21
3628.237402104896
 31
0.0
 12
4241.576050321244
 22
3628.2374021049
 32
0.0
 13
4241.576050321244
 23
3628.2374021049
 33
0.0
  0
SOLID
  5
2BD
330
2AD
100
AcDbEntity
  8
HATCH
  6
CONTINUOUS
 62
     1
100
AcDbTrace
 10
2104.007552747134
 20
3755.351342566538
 30
0.0
 11
2104.007552747142
 21
3628.23740210489
 31
0.0
 12
2204.007552747142
 22
3628.237402104895
 32
0.0
 13
2204.007552747142
 23
3628.237402104895
 33
0.0
210
0.0
220
0.0
230
1.0
  0
SOLID
  5
2BE
330
2AD
100
AcDbEntity
  8
HATCH
  6
CONTINUOUS
 62
     1
100
AcDbTrace
 10
2204.007552747134
 20
3755.351342566543
 30
0.0
 11
2104.007552747134
 21
3755.351342566538
 31
0.0
 12
2204.007552747142
 22
3628.237402104895
 32
0.0
 13
2204.007552747142
 23
3628.237402104895
 33
0.0
210
0.0
220
0.0
230
1.0
  0
SOLID
  5
2BF
330
2AD
100
AcDbEntity
  8
HATCH
  6
CONTINUOUS
 62
     1
100
AcDbTrace
 10
4141.576050321252
 20
3755.351342566545
 30
0.0
 11
4141.576050321243
 21
3628.237402104896
 31
0.0
 12
4241.57605032125
 22
3755.351342566538
 32
0.0
 13
4241.57605032125
 23
3755.351342566538
 33
0.0
210
0.0
220
0.0
230
1.0
  0
ENDBLK
  5
2C1
330
2AD
100
AcDbEntity
  8
0
100
AcDbBlockEnd
  0
BLOCK
  5
2DC
330
2D3
100
AcDbEntity
  8
0
100
AcDbBlockBegin
  2
*U3
 70
     1
 10
0.0
 20
0.0
 30
0.0
  3
*U3
  1

  0
SOLID
  5
2D4
330
2D3
100
AcDbEntity
  8
HATCH
  6
CONTINUOUS
100
AcDbTrace
 10
4018.62310408936
 20
3437.865555006101
 30
0.0
 11
4052.541159775318
 21
3471.762611351397
 31
0.0
 12
3573.448741434666
 22
3471.762611351397
 32
0.0
 13
3573.448741434666
 23
3471.762611351397
 33
0.0
  0
SOLID
  5
2D5
330
2D3
100
AcDbEntity
  8
HATCH
  6
CONTINUOUS
100
AcDbTrace
 10
3573.448741434666
 20
3471.762611351397
 30
0.0
 11
3603.127012011442
 21
3437.865555006101
 31
0.0
 12
4018.62310408936
 22
3437.865555006101
 32
0.0
 13
4018.62310408936
 23
3437.865555006101
 33
0.0
210
0.0
220
0.0
230
1.0
  0
SOLID
  5
2D6
330
2D3
100
AcDbEntity
  8
HATCH
  6
CONTINUOUS
100
AcDbTrace
 10
2772.134861633719
 20
3471.762611351397
 30
0.0
 11
2339.679752972194
 21
3437.865555006101
 31
0.0
 12
2729.737303285657
 22
3437.865555006101
 32
0.0
 13
2729.737303285657
 23
3437.865555006101
 33
0.0
210
0.0
220
0.0
230
1.0
  0
SOLID
  5
2D7
330
2D3
100
AcDbEntity
  8
HATCH
  6
CONTINUOUS
100
AcDbTrace
 10
2296.070828219394
 20
3471.762611351397
 30
0.0
 11
2339.679752972194
 21
3437.865555006101
 31
0.0
 12
2772.134861633719
 22
3471.762611351397
 32
0.0
 13
2772.134861633719
 23
3471.762611351397
 33
0.0
210
0.0
220
0.0
230
1.0
  0
SOLID
  5
2D8
330
2D3
100
AcDbEntity
  8
HATCH
  6
CONTINUOUS
100
AcDbTrace
 10
2339.679752972195
 20
3662.134458450192
 30
0.0
 11
2296.070828219388
 21
3628.237402104895
 31
0.0
 12
2772.13486163372
 22
3628.237402104896
 32
0.0
 13
2772.13486163372
 23
3628.237402104896
 33
0.0
  0
SOLID
  5
2D9
330
2D3
100
AcDbEntity
  8
HATCH
  6
CONTINUOUS
100
AcDbTrace
 10
2729.737303285656
 20
3662.134458450193
 30
0.0
 11
2339.679752972195
 21
3662.134458450192
 31
0.0
 12
2772.13486163372
 22
3628.237402104896
 32
0.0
 13
2772.13486163372
 23
3628.237402104896
 33
0.0
210
0.0
220
0.0
230
1.0
  0
SOLID
  5
2DA
330
2D3
100
AcDbEntity
  8
HATCH
  6
CONTINUOUS
100
AcDbTrace
 10
4052.541159775311
 20
3628.237402104896
 30
0.0
 11
4018.62310408936
 21
3662.134458450193
 31
0.0
 12
3603.127012011443
 22
3662.134458450193
 32
0.0
 13
3603.127012011443
 23
3662.134458450193
 33
0.0
210
0.0
220
0.0
230
1.0
  0
SOLID
  5
2DB
330
2D3
100
AcDbEntity
  8
HATCH
  6
CONTINUOUS
100
AcDbTrace
 10
3603.127012011443
 20
3662.134458450193
 30
0.0
 11
3573.448741434666
 21
3628.237402104896
 31
0.0
 12
4052.541159775311
 22
3628.237402104896
 32
0.0
 13
4052.541159775311
 23
3628.237402104896
 33
0.0
210
0.0
220
0.0
230
1.0
  0
ENDBLK
  5
2DD
330
2D3
100
AcDbEntity
  8
0
100
AcDbBlockEnd
  0
ENDSEC
  0
SECTION
  2
ENTITIES
  0
INSERT
  5
295
330
1F
100
AcDbEntity
  8
HATCH
100
AcDbBlockReference
  2
AEKB
 10
0.0
 20
0.0
 30
0.0
  0
ENDSEC
  0
SECTION
  2
OBJECTS
  0
DICTIONARY
  5
C
330
0
100
AcDbDictionary
  3
ACAD_GROUP
350
D
  3
ACAD_LAYOUT
350
1A
  3
ACAD_MLINESTYLE
350
17
  3
ACAD_PLOTSETTINGS
350
19
1001
ACAD
1000
TREAT_AS_HARD
1070
     0
1000
TREAT_AS_HARD
1070
     0
  0
DICTIONARY
  5
115
330
1F
100
AcDbDictionary
  3
ACAD_LAYOUTSELFREF
350
297
  3
ACAD_SORTENTS
350
247
1001
ACAD
1000
TREAT_AS_HARD
1070
     1
1000
TREAT_AS_HARD
1070
     0
  0
DICTIONARY
  5
117
330
50
100
AcDbDictionary
  3
ACAD_LAYOUTSELFREF
350
298
1001
ACAD
1000
TREAT_AS_HARD
1070
     1
1000
TREAT_AS_HARD
1070
     0
  0
DICTIONARY
  5
D
102
{ACAD_REACTORS
330
C
102
}
330
C
100
AcDbDictionary
1001
ACAD
1000
TREAT_AS_HARD
1070
     0
1000
TREAT_AS_HARD
1070
     0
  0
DICTIONARY
  5
1A
102
{ACAD_REACTORS
330
C
102
}
330
C
100
AcDbDictionary
1001
ACAD
1000
TREAT_AS_HARD
1070
     0
1000
TREAT_AS_HARD
1070
     0
  0
DICTIONARY
  5
17
102
{ACAD_REACTORS
330
C
102
}
330
C
100
AcDbDictionary
  3
STANDARD
350
18
1001
ACAD
1000
TREAT_AS_HARD
1070
     0
1000
TREAT_AS_HARD
1070
     0
  0
DICTIONARY
  5
19
102
{ACAD_REACTORS
330
C
102
}
330
C
100
AcDbDictionary
1001
ACAD
1000
TREAT_AS_HARD
1070
     0
1000
TREAT_AS_HARD
1070
     0
  0
XRECORD
  5
297
102
{ACAD_REACTORS
330
115
102
}
330
115
100
AcDbXrecord
340
1F
  0
SORTENTSTABLE
  5
247
102
{ACAD_REACTORS
330
115
102
}
330
115
100
AcDbSortentsTable
330
1F
331
209
  5
237
331
1F8
  5
1FA
331
1DB
  5
1DD
331
1EC
  5
1EE
331
1CA
  5
1CC
331
1F6
  5
1F8
331
1D9
  5
1DB
331
207
  5
209
331
1EA
  5
1EC
331
1C8
  5
1CA
331
1F4
  5
1F6
331
205
  5
207
331
1E8
  5
1EA
331
1C6
  5
1C8
331
1D7
  5
1D9
331
1F2
  5
1F4
331
203
  5
205
331
1E6
  5
1E8
331
1C4
  5
1C6
331
1D5
  5
1D7
331
1F0
  5
1F2
331
201
  5
203
331
1E4
  5
1E6
331
1C2
  5
1C4
331
1D3
  5
1D5
331
1FF
  5
201
331
1E2
  5
1E4
331
1D1
  5
1D3
331
1FD
  5
1FF
331
1E0
  5
1E2
331
1CF
  5
1D1
331
1FB
  5
1FD
331
1DE
  5
1E0
331
1EF
  5
1F1
331
1CD
  5
1CF
331
1F9
  5
1FB
331
1DC
  5
1DE
331
1ED
  5
1EF
331
1CB
  5
1CD
331
208
  5
219
331
1F7
  5
1F9
331
1DA
  5
1DC
331
1C9
  5
1CB
331
1EB
  5
1ED
331
219
  5
1C1
331
1F5
  5
1F7
331
1D8
  5
1DA
331
206
  5
208
331
1E9
  5
1EB
331
1C7
  5
1C9
331
1F3
  5
1F5
331
1E7
  5
1E9
331
1C5
  5
1C7
331
204
  5
206
331
237
  5
1A0
331
1D6
  5
1D8
331
1F1
  5
1F3
331
1A0
  5
1C2
331
202
  5
204
331
1E5
  5
1E7
331
1C3
  5
1C5
331
1D4
  5
1D6
331
246
  5
246
331
200
  5
202
331
1E3
  5
1E5
331
1C1
  5
1C3
331
1D2
  5
1D4
331
1FE
  5
200
331
1E1
  5
1E3
331
1D0
  5
1D2
331
1FC
  5
1FE
331
1DF
  5
1E1
331
1CE
  5
1D0
331
1FA
  5
1FC
331
1DD
  5
1DF
331
1EE
  5
1F0
331
1CC
  5
1CE
  0
XRECORD
  5
298
102
{ACAD_REACTORS
330
117
102
}
330
117
100
AcDbXrecord
340
50
  0
MLINESTYLE
  5
18
102
{ACAD_REACTORS
330
17
102
}
330
17
100
AcDbMlineStyle
  2
STANDARD
 70
     0
  3

 62
   256
 51
90.0
 52
90.0
 71
     2
 49
0.5
 62
   256
  6
BYLAYER
 49
-0.5
 62
   256
  6
BYLAYER
  0
ENDSEC
  0
EOF
