  0
SECTION
  2
HEADER
  9
$ACADVER
  1
AC1012
  9
$DWGCODEPAGE
  3
ANSI_1252
  9
$INSBASE
 10
0.0
 20
0.0
 30
0.0
  9
$EXTMIN
 10
16.7378334829973
 20
-151.1704025643593
 30
-0.0193259150846643
  9
$EXTMAX
 10
7411.912169714028
 20
4162.163665059406
 30
633.3392320989114
  9
$LIMMIN
 10
0.0
 20
0.0
  9
$LIMMAX
 10
420.0
 20
297.0
  9
$ORTHOMODE
 70
     0
  9
$REGENMODE
 70
     1
  9
$FILLMODE
 70
     1
  9
$QTEXTMODE
 70
     0
  9
$MIRRTEXT
 70
     1
  9
$DRAGMODE
 70
     2
  9
$LTSCALE
 40
1.0
  9
$OSMODE
 70
  2559
  9
$ATTMODE
 70
     1
  9
$TEXTSIZE
 40
2.5
  9
$TRACEWID
 40
1.0
  9
$TEXTSTYLE
  7
STANDARD
  9
$CLAYER
  8
OBJECT
  9
$CELTYPE
  6
BYLAYER
  9
$CECOLOR
 62
   256
  9
$CELTSCALE
 40
1.0
  9
$DELOBJ
 70
     1
  9
$DISPSILH
 70
     0
  9
$DIMSCALE
 40
1.0
  9
$DIMASZ
 40
2.5
  9
$DIMEXO
 40
0.625
  9
$DIMDLI
 40
3.75
  9
$DIMRND
 40
0.0
  9
$DIMDLE
 40
0.0
  9
$DIMEXE
 40
1.25
  9
$DIMTP
 40
0.0
  9
$DIMTM
 40
0.0
  9
$DIMTXT
 40
2.5
  9
$DIMCEN
 40
2.5
  9
$DIMTSZ
 40
0.0
  9
$DIMTOL
 70
     0
  9
$DIMLIM
 70
     0
  9
$DIMTIH
 70
     0
  9
$DIMTOH
 70
     0
  9
$DIMSE1
 70
     0
  9
$DIMSE2
 70
     0
  9
$DIMTAD
 70
     1
  9
$DIMZIN
 70
     8
  9
$DIMBLK
  1

  9
$DIMASO
 70
     1
  9
$DIMSHO
 70
     1
  9
$DIMPOST
  1

  9
$DIMAPOST
  1

  9
$DIMALT
 70
     0
  9
$DIMALTD
 70
     3
  9
$DIMALTF
 40
0.03937007874016
  9
$DIMLFAC
 40
1.0
  9
$DIMTOFL
 70
     1
  9
$DIMTVP
 40
0.0
  9
$DIMTIX
 70
     0
  9
$DIMSOXD
 70
     0
  9
$DIMSAH
 70
     0
  9
$DIMBLK1
  1

  9
$DIMBLK2
  1

  9
$DIMSTYLE
  2
ISO-25
  9
$DIMCLRD
 70
     0
  9
$DIMCLRE
 70
     0
  9
$DIMCLRT
 70
     0
  9
$DIMTFAC
 40
1.0
  9
$DIMGAP
 40
0.625
  9
$DIMJUST
 70
     0
  9
$DIMSD1
 70
     0
  9
$DIMSD2
 70
     0
  9
$DIMTOLJ
 70
     0
  9
$DIMTZIN
 70
     8
  9
$DIMALTZ
 70
     0
  9
$DIMALTTZ
 70
     0
  9
$DIMFIT
 70
     3
  9
$DIMUPT
 70
     0
  9
$DIMUNIT
 70
     2
  9
$DIMDEC
 70
     2
  9
$DIMTDEC
 70
     2
  9
$DIMALTU
 70
     2
  9
$DIMALTTD
 70
     3
  9
$DIMTXSTY
  7
STANDARD
  9
$DIMAUNIT
 70
     0
  9
$LUNITS
 70
     2
  9
$LUPREC
 70
     4
  9
$SKETCHINC
 40
1.0
  9
$FILLETRAD
 40
10.0
  9
$AUNITS
 70
     0
  9
$AUPREC
 70
     0
  9
$MENU
  1
.
  9
$ELEVATION
 40
0.0
  9
$PELEVATION
 40
0.0
  9
$THICKNESS
 40
0.0
  9
$LIMCHECK
 70
     0
  9
$BLIPMODE
 70
     0
  9
$CHAMFERA
 40
10.0
  9
$CHAMFERB
 40
10.0
  9
$CHAMFERC
 40
20.0
  9
$CHAMFERD
 40
0.0
  9
$SKPOLY
 70
     0
  9
$TDCREATE
 40
2452626.562708449
  9
$TDUPDATE
 40
2452776.502879745
  9
$TDINDWG
 40
0.0064252315
  9
$TDUSRTIMER
 40
0.0064246528
  9
$USRTIMER
 70
     1
  9
$ANGBASE
 50
0.0
  9
$ANGDIR
 70
     0
  9
$PDMODE
 70
     0
  9
$PDSIZE
 40
0.0
  9
$PLINEWID
 40
0.0
  9
$COORDS
 70
     2
  9
$SPLFRAME
 70
     0
  9
$SPLINETYPE
 70
     6
  9
$SPLINESEGS
 70
     8
  9
$ATTDIA
 70
     0
  9
$ATTREQ
 70
     1
  9
$HANDLING
 70
-16383
  9
$HANDSEED
  5
3C6
  9
$SURFTAB1
 70
     6
  9
$SURFTAB2
 70
     6
  9
$SURFTYPE
 70
     6
  9
$SURFU
 70
     6
  9
$SURFV
 70
     6
  9
$UCSNAME
  2

  9
$UCSORG
 10
0.0
 20
0.0
 30
0.0
  9
$UCSXDIR
 10
1.0
 20
0.0
 30
0.0
  9
$UCSYDIR
 10
0.0
 20
1.0
 30
0.0
  9
$PUCSNAME
  2

  9
$PUCSORG
 10
0.0
 20
0.0
 30
0.0
  9
$PUCSXDIR
 10
1.0
 20
0.0
 30
0.0
  9
$PUCSYDIR
 10
0.0
 20
1.0
 30
0.0
  9
$USERI1
 70
     0
  9
$USERI2
 70
     0
  9
$USERI3
 70
     0
  9
$USERI4
 70
     0
  9
$USERI5
 70
     0
  9
$USERR1
 40
0.0
  9
$USERR2
 40
0.0
  9
$USERR3
 40
0.0
  9
$USERR4
 40
0.0
  9
$USERR5
 40
0.0
  9
$WORLDVIEW
 70
     1
  9
$SHADEDGE
 70
     3
  9
$SHADEDIF
 70
    70
  9
$TILEMODE
 70
     1
  9
$MAXACTVP
 70
    64
  9
$PINSBASE
 10
0.0
 20
0.0
 30
0.0
  9
$PLIMCHECK
 70
     0
  9
$PEXTMIN
 10
0.0
 20
0.0
 30
0.0
  9
$PEXTMAX
 10
0.0
 20
0.0
 30
0.0
  9
$PLIMMIN
 10
0.0
 20
0.0
  9
$PLIMMAX
 10
12.0
 20
9.0
  9
$UNITMODE
 70
     0
  9
$VISRETAIN
 70
     1
  9
$PLINEGEN
 70
     0
  9
$PSLTSCALE
 70
     1
  9
$TREEDEPTH
 70
  3020
  9
$PICKSTYLE
 70
     1
  9
$CMLSTYLE
  2
STANDARD
  9
$CMLJUST
 70
     0
  9
$CMLSCALE
 40
20.0
  9
$SAVEIMAGES
 70
     1
  0
ENDSEC
  0
SECTION
  2
CLASSES
  0
CLASS
  1
ACDBDICTIONARYWDFLT
  2
AcDbDictionaryWithDefault
  3
AutoCAD 2000
 90
    32768
280
     0
281
     0
  0
CLASS
  1
ACDBPLACEHOLDER
  2
AcDbPlaceHolder
  3
AutoCAD 2000
 90
    32768
280
     0
281
     0
  0
CLASS
  1
LAYOUT
  2
AcDbLayout
  3
AutoCAD 2000
 90
    32768
280
     0
281
     0
  0
CLASS
  1
LONG_TRANSACTION
  2
AcDbLongTransaction
  3
AutoCAD 2000
 90
    32768
280
     0
281
     0
  0
CLASS
  1
LWPOLYLINE
  2
AcDbPolyline
  3
AutoCAD 2000
 90
    32768
280
     0
281
     1
  0
CLASS
  1
HATCH
  2
AcDbHatch
  3
AutoCAD 2000
 90
    32768
280
     0
281
     1
  0
CLASS
  1
XRECORD
  2
AcDbXrecord
  3
AutoCAD 2000
 90
    32768
280
     0
281
     0
  0
CLASS
  1
LONG_TRANSACTION
  2
AcDbLongTransaction
  3
AutoCAD 2000
 90
    32768
280
     0
281
     0
  0
CLASS
  1
LWPOLYLINE
  2
AcDbPolyline
  3
AutoCAD 2000
 90
    32768
280
     0
281
     1
  0
CLASS
  1
HATCH
  2
AcDbHatch
  3
AutoCAD 2000
 90
    32768
280
     0
281
     1
  0
CLASS
  1
XRECORD
  2
AcDbXrecord
  3
AutoCAD 2000
 90
    32768
280
     0
281
     0
  0
CLASS
  1
LONG_TRANSACTION
  2
AcDbLongTransaction
  3
AutoCAD 2000
 90
    32768
280
     0
281
     0
  0
CLASS
  1
LWPOLYLINE
  2
AcDbPolyline
  3
AutoCAD 2000
 90
    32768
280
     0
281
     1
  0
CLASS
  1
HATCH
  2
AcDbHatch
  3
AutoCAD 2000
 90
    32768
280
     0
281
     1
  0
CLASS
  1
XRECORD
  2
AcDbXrecord
  3
AutoCAD 2000
 90
    32768
280
     0
281
     0
  0
CLASS
  1
DICTIONARYVAR
  2
AcDbDictionaryVar
  3
AutoCAD 2000
 90
    32768
280
     0
281
     0
  0
CLASS
  1
SORTENTSTABLE
  2
AcDbSortentsTable
  3
AutoCAD 2000
 90
    32768
280
     0
281
     0
  0
CLASS
  1
LONG_TRANSACTION
  2
AcDbLongTransaction
  3
AutoCAD 2000
 90
    32768
280
     0
281
     0
  0
CLASS
  1
LWPOLYLINE
  2
AcDbPolyline
  3
AutoCAD 2000
 90
    32768
280
     0
281
     1
  0
CLASS
  1
HATCH
  2
AcDbHatch
  3
AutoCAD 2000
 90
    32768
280
     0
281
     1
  0
CLASS
  1
XRECORD
  2
AcDbXrecord
  3
AutoCAD 2000
 90
    32768
280
     0
281
     0
  0
ENDSEC
  0
SECTION
  2
TABLES
  0
TABLE
  2
VPORT
  5
8
330
0
100
AcDbSymbolTable
 70
     2
  0
VPORT
  5
358
330
8
100
AcDbSymbolTableRecord
100
AcDbViewportTableRecord
  2
*ACTIVE
 70
     0
 10
0.0
 20
0.0
 11
1.0
 21
1.0
 12
5804.949480946623
 22
2135.579944243193
 13
0.0
 23
0.0
 14
10.0
 24
10.0
 15
10.0
 25
10.0
 16
0.0
 26
0.0
 36
1.0
 17
0.0
 27
0.0
 37
0.0
 40
9921.561690895602
 41
1.47227533460803
 42
50.0
 43
0.0
 44
0.0
 50
0.0
 51
0.0
 71
     0
 72
   100
 73
     1
 74
     3
 75
     0
 76
     0
 77
     0
 78
     0
  0
ENDTAB
  0
TABLE
  2
LTYPE
  5
5
330
0
100
AcDbSymbolTable
 70
     1
  0
LTYPE
  5
14
330
5
100
AcDbSymbolTableRecord
100
AcDbLinetypeTableRecord
  2
BYBLOCK
 70
     0
  3

 72
    65
 73
     0
 40
0.0
  0
LTYPE
  5
15
330
5
100
AcDbSymbolTableRecord
100
AcDbLinetypeTableRecord
  2
BYLAYER
 70
     0
  3

 72
    65
 73
     0
 40
0.0
  0
LTYPE
  5
16
330
5
100
AcDbSymbolTableRecord
100
AcDbLinetypeTableRecord
  2
CONTINUOUS
 70
     0
  3
Solid line
 72
    65
 73
     0
 40
0.0
  0
ENDTAB
  0
TABLE
  2
LAYER
  5
2
330
0
100
AcDbSymbolTable
 70
     5
  0
LAYER
  5
10
330
2
100
AcDbSymbolTableRecord
100
AcDbLayerTableRecord
  2
0
 70
     0
 62
     7
  6
CONTINUOUS
  0
LAYER
  5
5D
330
2
100
AcDbSymbolTableRecord
100
AcDbLayerTableRecord
  2
SAFETY
 70
     0
 62
     7
  6
CONTINUOUS
  0
LAYER
  5
5E
330
2
100
AcDbSymbolTableRecord
100
AcDbLayerTableRecord
  2
OBJECT
 70
     0
 62
     7
  6
CONTINUOUS
  0
LAYER
  5
16C
330
2
100
AcDbSymbolTableRecord
100
AcDbLayerTableRecord
  2
TEKST
 70
     0
 62
     7
  6
CONTINUOUS
  0
LAYER
  5
1CB
330
2
100
AcDbSymbolTableRecord
100
AcDbLayerTableRecord
  2
HATCH
 70
     0
 62
     7
  6
CONTINUOUS
  0
ENDTAB
  0
TABLE
  2
STYLE
  5
3
330
0
100
AcDbSymbolTable
 70
     1
  0
STYLE
  5
11
330
3
100
AcDbSymbolTableRecord
100
AcDbTextStyleTableRecord
  2
STANDARD
 70
     0
 40
0.0
 41
1.0
 50
0.0
 71
     0
 42
2.5
  3
txt
  4

  0
ENDTAB
  0
TABLE
  2
VIEW
  5
6
330
0
100
AcDbSymbolTable
 70
     0
  0
ENDTAB
  0
TABLE
  2
UCS
  5
7
330
0
100
AcDbSymbolTable
 70
     0
  0
ENDTAB
  0
TABLE
  2
APPID
  5
9
330
0
100
AcDbSymbolTable
 70
     3
  0
APPID
  5
12
330
9
100
AcDbSymbolTableRecord
100
AcDbRegAppTableRecord
  2
ACAD
 70
     0
  0
APPID
  5
5F
330
9
100
AcDbSymbolTableRecord
100
AcDbRegAppTableRecord
  2
AVE_FINISH
 70
     0
  0
APPID
  5
165
330
9
100
AcDbSymbolTableRecord
100
AcDbRegAppTableRecord
  2
CONTENTBLOCKICON
 70
     0
  0
ENDTAB
  0
TABLE
  2
DIMSTYLE
  5
A
330
0
100
AcDbSymbolTable
 70
     1
  0
DIMSTYLE
105
27
330
A
100
AcDbSymbolTableRecord
100
AcDbDimStyleTableRecord
  2
ISO-25
 70
     0
  3

  4

  5

  6

  7

 40
1.0
 41
2.5
 42
0.625
 43
3.75
 44
1.25
 45
0.0
 46
0.0
 47
0.0
 48
0.0
140
2.5
141
2.5
142
0.0
143
0.03937007874016
144
1.0
145
0.0
146
1.0
147
0.625
 71
     0
 72
     0
 73
     0
 74
     0
 75
     0
 76
     0
 77
     1
 78
     8
170
     0
171
     3
172
     1
173
     0
174
     0
175
     0
176
     0
177
     0
178
     0
270
     2
271
     2
272
     2
273
     2
274
     3
340
11
275
     0
280
     0
281
     0
282
     0
283
     0
284
     8
285
     0
286
     0
287
     3
288
     0
  0
ENDTAB
  0
TABLE
  2
BLOCK_RECORD
  5
1
330
0
100
AcDbSymbolTable
 70
     9
  0
BLOCK_RECORD
  5
1F
102
{ACAD_XDICTIONARY
360
F8
102
}
330
1
100
AcDbSymbolTableRecord
100
AcDbBlockTableRecord
  2
*MODEL_SPACE
  0
BLOCK_RECORD
  5
50
102
{ACAD_XDICTIONARY
360
FA
102
}
330
1
100
AcDbSymbolTableRecord
100
AcDbBlockTableRecord
  2
*PAPER_SPACE
  0
BLOCK_RECORD
  5
104
330
1
100
AcDbSymbolTableRecord
100
AcDbBlockTableRecord
  2
AKKB
1001
ACAD
1000
DesignCenter Data
1002
{
1070
     1
1070
     4
1002
}
1001
CONTENTBLOCKICON
1071
        0
1004
28000000200000002000000001000800000000000004000000000000000000000000000000000000000000004000000080000000FF000000002000004020000080200000FF200000004000004040000080400000FF400000006000004060000080600000FF600000008000004080000080800000FF80000000A0000040A000
1004
0080A00000FFA0000000C0000040C0000080C00000FFC0000000FF000040FF000080FF0000FFFF0000000020004000200080002000FF002000002020004020200080202000FF202000004020004040200080402000FF402000006020004060200080602000FF602000008020004080200080802000FF80200000A0200040A0
1004
200080A02000FFA0200000C0200040C0200080C02000FFC0200000FF200040FF200080FF2000FFFF2000000040004000400080004000FF004000002040004020400080204000FF204000004040004040400080404000FF404000006040004060400080604000FF604000008040004080400080804000FF80400000A0400040
1004
A0400080A04000FFA0400000C0400040C0400080C04000FFC0400000FF400040FF400080FF4000FFFF4000000060004000600080006000FF006000002060004020600080206000FF206000004060004040600080406000FF406000006060004060600080606000FF606000008060004080600080806000FF80600000A06000
1004
40A0600080A06000FFA0600000C0600040C0600080C06000FFC0600000FF600040FF600080FF6000FFFF6000000080004000800080008000FF008000002080004020800080208000FF208000004080004040800080408000FF408000006080004060800080608000FF608000008080004080800080808000FF80800000A080
1004
0040A0800080A08000FFA0800000C0800040C0800080C08000FFC0800000FF800040FF800080FF8000FFFF80000000A0004000A0008000A000FF00A0000020A0004020A0008020A000FF20A0000040A0004040A0008040A000FF40A0000060A0004060A0008060A000FF60A0000080A0004080A0008080A000FF80A00000A0
1004
A00040A0A00080A0A000FFA0A00000C0A00040C0A00080C0A000FFC0A00000FFA00040FFA00080FFA000FFFFA0000000C0004000C0008000C000FF00C0000020C0004020C0008020C000FF20C0000040C0004040C0008040C000FF40C0000060C0004060C0008060C000FF60C0000080C0004080C0008080C000FF80C00000
1004
A0C00040A0C00080A0C000FFA0C00000C0C00040C0C00080C0C000FFC0C00000FFC00040FFC00080FFC000FFFFC0000000FF004000FF008000FF00FF00FF000020FF004020FF008020FF00FF20FF000040FF004040FF008040FF00FF40FF000060FF004060FF008060FF00FF60FF000080FF004080FF008080FF00FF80FF00
1004
00A0FF0040A0FF0080A0FF00FFA0FF0000C0FF0040C0FF0080C0FF00FFC0FF0000FFFF0040FFFF0080FFFF00FFFFFF0000000000000000000000000000000000000000000000000000000000000000000000000000000000000000000000000000000000000000000000000000000000000000000000000000000000000000
1004
00000000000000000000000000000000000000000000000000000000000000000000000000000000000000000000000000000000000000000000000000000000000000000000000000000000000000000000000000000000000000000000000000000000000000000000000000000000000000000000000000000000000000
1004
00000000000000000000000000000000000000000000000000000000000000000000000000000000000000000000000000000000000000000000000000000000FFFFFFFFFFFFFFFFFFFFFFFF000000000000000000000000000000000000FFFF000000000000000000000000FF000000000000FFFFFFFFFFFFFFFFFFFFFF00
1004
0000000000000000000000000000FF0000000000FF00000000000000000000000000000000000000000000000000FF0000000000FF0000000000000000000000000000000000000000000000000000FF00000000FF00000000000000000000000000FFFFFFFFFFFFFFFFFFFF00000000FF000000FF0000000000000000FFFF
1004
FFFFFFFFFFFFFF000000FFFFFFFF00000000FF0000FF0000000000000000FFFFFFFFFFFFFFFFFFFFFFFFFFFFFFFF00000000FF0000FF0000000000000000FFFFFFFFFFFFFFFFFFFFFFFFFFFFFFFF00000000FF0000FF0000000000000000FFFFFFFFFFFFFFFFFF000000FFFFFFFF00000000FF0000FF000000000000000000
1004
00000000FFFFFFFFFFFFFFFFFFFF00000000FF000000FF0000000000000000000000000000000000000000000000000000FF00000000FF0000000000000000000000000000000000000000000000000000FF00000000FFFFFFFFFFFFFFFFFFFFFF000000000000000000000000000000FF0000000000000000000000000000
1004
0000FFFF000000000000000000000000FF00000000000000000000000000000000000000FFFFFFFFFFFFFFFFFFFFFFFF00000000000000000000000000000000000000000000000000000000000000000000000000000000000000000000000000000000000000000000000000000000000000000000000000000000000000
1004
00000000000000000000000000000000000000000000000000000000000000000000000000000000000000000000000000000000000000000000000000000000000000000000000000000000000000000000000000000000000000000000000000000000000000000000000000000000000000000000000000000000000000
1004
0000000000000000000000000000000000000000000000000000000000000000000000000000000000000000000000000000000000000000
  0
BLOCK_RECORD
  5
254
330
1
100
AcDbSymbolTableRecord
100
AcDbBlockTableRecord
  2
1
1001
CONTENTBLOCKICON
1071
        0
1004
28000000200000002000000001000800000000000004000000000000000000000000000000000000000000004000000080000000FF000000002000004020000080200000FF200000004000004040000080400000FF400000006000004060000080600000FF600000008000004080000080800000FF80000000A0000040A000
1004
0080A00000FFA0000000C0000040C0000080C00000FFC0000000FF000040FF000080FF0000FFFF0000000020004000200080002000FF002000002020004020200080202000FF202000004020004040200080402000FF402000006020004060200080602000FF602000008020004080200080802000FF80200000A0200040A0
1004
200080A02000FFA0200000C0200040C0200080C02000FFC0200000FF200040FF200080FF2000FFFF2000000040004000400080004000FF004000002040004020400080204000FF204000004040004040400080404000FF404000006040004060400080604000FF604000008040004080400080804000FF80400000A0400040
1004
A0400080A04000FFA0400000C0400040C0400080C04000FFC0400000FF400040FF400080FF4000FFFF4000000060004000600080006000FF006000002060004020600080206000FF206000004060004040600080406000FF406000006060004060600080606000FF606000008060004080600080806000FF80600000A06000
1004
40A0600080A06000FFA0600000C0600040C0600080C06000FFC0600000FF600040FF600080FF6000FFFF6000000080004000800080008000FF008000002080004020800080208000FF208000004080004040800080408000FF408000006080004060800080608000FF608000008080004080800080808000FF80800000A080
1004
0040A0800080A08000FFA0800000C0800040C0800080C08000FFC0800000FF800040FF800080FF8000FFFF80000000A0004000A0008000A000FF00A0000020A0004020A0008020A000FF20A0000040A0004040A0008040A000FF40A0000060A0004060A0008060A000FF60A0000080A0004080A0008080A000FF80A00000A0
1004
A00040A0A00080A0A000FFA0A00000C0A00040C0A00080C0A000FFC0A00000FFA00040FFA00080FFA000FFFFA0000000C0004000C0008000C000FF00C0000020C0004020C0008020C000FF20C0000040C0004040C0008040C000FF40C0000060C0004060C0008060C000FF60C0000080C0004080C0008080C000FF80C00000
1004
A0C00040A0C00080A0C000FFA0C00000C0C00040C0C00080C0C000FFC0C00000FFC00040FFC00080FFC000FFFFC0000000FF004000FF008000FF00FF00FF000020FF004020FF008020FF00FF20FF000040FF004040FF008040FF00FF40FF000060FF004060FF008060FF00FF60FF000080FF004080FF008080FF00FF80FF00
1004
00A0FF0040A0FF0080A0FF00FFA0FF0000C0FF0040C0FF0080C0FF00FFC0FF0000FFFF0040FFFF0080FFFF00FFFFFF0000000000000000000000000000000000000000000000000000000000000000000000000000000000000000000000000000000000000000000000000000000000000000000000000000000000000000
1004
00000000000000000000000000000000000000000000000000000000000000000000000000000000000000000000000000000000000000000000000000000000000000000000000000000000000000000000000000000000000000000000000000000000000000000000000000000000000000000000000000000000000000
1004
00000000000000000000000000000000000000000000000000000000000000000000000000000000000000000000000000000000000000000000000000000000000000000000000000000000000000000000000000000000000000000000000000000000000000000000000000000000000000000000000000000000000000
1004
0000000000000000000000000000000000000000000000000000000000000000000000FFFFFFFFFFFFFFFFFF000000000000000000000000000000000000FFFFFFFFFFFF00000000000000FFFFFFFFFFFFFF0000FFFFFFFFFFFFFFFFFFFFFFFFFFFFFFFF00000000000000FF00FF00FFFFFF0000FFFFFFFFFFFFFFFFFFFFFF
1004
FFFFFFFFFF00000000000000FF00FF00FFFF0000000000FF000000000000000000000000FFFFFFFFFFFFFFFFFF00FF00FFFF0000000000FF000000000000000000000000FFFFFFFFFFFFFFFFFF00FF00FFFF000000FFFFFFFFFFFFFFFFFFFFFFFFFFFFFFFF00000000000000FF00FF00FFFF000000FFFFFFFFFFFFFFFFFFFF
1004
FFFFFFFFFFFF00000000000000FF00FF00FFFFFF000000000000000000000000FFFFFFFFFFFF00000000000000FFFFFFFFFFFFFF0000000000000000000000000000000000FFFFFFFFFFFFFFFFFF00000000000000000000000000000000000000000000000000000000000000000000000000000000000000000000000000
1004
00000000000000000000000000000000000000000000000000000000000000000000000000000000000000000000000000000000000000000000000000000000000000000000000000000000000000000000000000000000000000000000000000000000000000000000000000000000000000000000000000000000000000
1004
00000000000000000000000000000000000000000000000000000000000000000000000000000000000000000000000000000000000000000000000000000000000000000000000000000000000000000000000000000000000000000000000000000000000000000000000000000000000000000000000000000000000000
1004
0000000000000000000000000000000000000000000000000000000000000000000000000000000000000000000000000000000000000000
  0
BLOCK_RECORD
  5
315
330
1
100
AcDbSymbolTableRecord
100
AcDbBlockTableRecord
  2
ADKB
1001
CONTENTBLOCKICON
1071
        0
1004
28000000200000002000000001000800000000000004000000000000000000000000000000000000000000004000000080000000FF000000002000004020000080200000FF200000004000004040000080400000FF400000006000004060000080600000FF600000008000004080000080800000FF80000000A0000040A000
1004
0080A00000FFA0000000C0000040C0000080C00000FFC0000000FF000040FF000080FF0000FFFF0000000020004000200080002000FF002000002020004020200080202000FF202000004020004040200080402000FF402000006020004060200080602000FF602000008020004080200080802000FF80200000A0200040A0
1004
200080A02000FFA0200000C0200040C0200080C02000FFC0200000FF200040FF200080FF2000FFFF2000000040004000400080004000FF004000002040004020400080204000FF204000004040004040400080404000FF404000006040004060400080604000FF604000008040004080400080804000FF80400000A0400040
1004
A0400080A04000FFA0400000C0400040C0400080C04000FFC0400000FF400040FF400080FF4000FFFF4000000060004000600080006000FF006000002060004020600080206000FF206000004060004040600080406000FF406000006060004060600080606000FF606000008060004080600080806000FF80600000A06000
1004
40A0600080A06000FFA0600000C0600040C0600080C06000FFC0600000FF600040FF600080FF6000FFFF6000000080004000800080008000FF008000002080004020800080208000FF208000004080004040800080408000FF408000006080004060800080608000FF608000008080004080800080808000FF80800000A080
1004
0040A0800080A08000FFA0800000C0800040C0800080C08000FFC0800000FF800040FF800080FF8000FFFF80000000A0004000A0008000A000FF00A0000020A0004020A0008020A000FF20A0000040A0004040A0008040A000FF40A0000060A0004060A0008060A000FF60A0000080A0004080A0008080A000FF80A00000A0
1004
A00040A0A00080A0A000FFA0A00000C0A00040C0A00080C0A000FFC0A00000FFA00040FFA00080FFA000FFFFA0000000C0004000C0008000C000FF00C0000020C0004020C0008020C000FF20C0000040C0004040C0008040C000FF40C0000060C0004060C0008060C000FF60C0000080C0004080C0008080C000FF80C00000
1004
A0C00040A0C00080A0C000FFA0C00000C0C00040C0C00080C0C000FFC0C00000FFC00040FFC00080FFC000FFFFC0000000FF004000FF008000FF00FF00FF000020FF004020FF008020FF00FF20FF000040FF004040FF008040FF00FF40FF000060FF004060FF008060FF00FF60FF000080FF004080FF008080FF00FF80FF00
1004
00A0FF0040A0FF0080A0FF00FFA0FF0000C0FF0040C0FF0080C0FF00FFC0FF0000FFFF0040FFFF0080FFFF00FFFFFF0000000000000000000000000000000000000000000000000000000000000000000000000000000000000000000000000000000000000000000000000000000000000000000000000000000000000000
1004
00000000000000000000000000000000000000000000000000000000000000000000000000000000000000000000000000000000000000000000000000000000000000000000000000000000000000000000000000000000000000000000000000000000000000000000000000000000000000000000000000000000000000
1004
00000000000000000000000000000000000000000000000000000000000000000000000000000000000000000000000000000000000000000000000000000000FFFFFFFFFFFFFFFFFFFFFFFF000000000000000000000000000000000000FFFF000000000000000000000000FF000000000000FFFFFFFFFFFFFFFFFFFFFF00
1004
0000000000000000000000000000FF0000000000FF00000000000000000000000000000000000000000000000000FF0000000000FF0000000000000000000000000000000000000000000000000000FF00000000FF0000000000000000000000000049494949E0E0E049494900000000FF000000FF0000000000000000FCFC
1004
FCFCFC494949490000004949494900000000FF0000FF0000000000000000FCFCFCFCFCFCFCFC494949494949494900000000FF0000FF0000000000000000FCFCFCFCFCFCFCFC494949494949494900000000FF0000FF0000000000000000FCFCFCFCFC494949490000004949494900000000FF0000FF000000000000000000
1004
0000000049494949E0E0E049494900000000FF000000FF0000000000000000000000000000000000000000000000000000FF00000000FF0000000000000000000000000000000000000000000000000000FF00000000FFFFFFFFFFFFFFFFFFFFFF000000000000000000000000000000FF0000000000000000000000000000
1004
0000FFFF000000000000000000000000FF00000000000000000000000000000000000000FFFFFFFFFFFFFFFFFFFFFFFF00000000000000000000000000000000000000000000000000000000000000000000000000000000000000000000000000000000000000000000000000000000000000000000000000000000000000
1004
00000000000000000000000000000000000000000000000000000000000000000000000000000000000000000000000000000000000000000000000000000000000000000000000000000000000000000000000000000000000000000000000000000000000000000000000000000000000000000000000000000000000000
1004
0000000000000000000000000000000000000000000000000000000000000000000000000000000000000000000000000000000000000000
  0
BLOCK_RECORD
  5
36F
330
1
100
AcDbSymbolTableRecord
100
AcDbBlockTableRecord
  2
*U3
  0
BLOCK_RECORD
  5
379
330
1
100
AcDbSymbolTableRecord
100
AcDbBlockTableRecord
  2
*U4
  0
BLOCK_RECORD
  5
380
330
1
100
AcDbSymbolTableRecord
100
AcDbBlockTableRecord
  2
*U5
  0
BLOCK_RECORD
  5
391
330
1
100
AcDbSymbolTableRecord
100
AcDbBlockTableRecord
  2
*U6
  0
BLOCK_RECORD
  5
3A0
330
1
100
AcDbSymbolTableRecord
100
AcDbBlockTableRecord
  2
*U7
  0
BLOCK_RECORD
  5
3A7
330
1
100
AcDbSymbolTableRecord
100
AcDbBlockTableRecord
  2
*U8
  0
ENDTAB
  0
ENDSEC
  0
SECTION
  2
BLOCKS
  0
BLOCK
  5
20
330
1F
100
AcDbEntity
  8
0
100
AcDbBlockBegin
  2
*MODEL_SPACE
 70
     0
 10
0.0
 20
0.0
 30
0.0
  3
*MODEL_SPACE
  1

  0
ENDBLK
  5
21
330
1F
100
AcDbEntity
  8
0
100
AcDbBlockEnd
  0
BLOCK
  5
52
330
50
100
AcDbEntity
 67
     1
  8
0
100
AcDbBlockBegin
  2
*PAPER_SPACE
 70
     0
 10
0.0
 20
0.0
 30
0.0
  3
*PAPER_SPACE
  1

  0
ENDBLK
  5
53
330
50
100
AcDbEntity
 67
     1
  8
0
100
AcDbBlockEnd
  0
BLOCK
  5
105
330
104
100
AcDbEntity
  8
0
100
AcDbBlockBegin
  2
AKKB
 70
     0
 10
0.0
 20
0.0
 30
0.0
  3
AKKB
  1

  0
LINE
  5
107
330
104
100
AcDbEntity
  8
OBJECT
  6
CONTINUOUS
100
AcDbLine
 10
2255.306280429338
 20
2238.133338446281
 30
0.0
 11
4098.698528914311
 21
2238.133338446281
 31
0.0
  0
LINE
  5
108
330
104
100
AcDbEntity
  8
OBJECT
  6
CONTINUOUS
100
AcDbLine
 10
2255.306280429338
 20
1772.894959680383
 30
0.0
 11
4098.698528914311
 21
1772.894959680383
 31
0.0
  0
LINE
  5
109
330
104
100
AcDbEntity
  8
OBJECT
  6
CONTINUOUS
100
AcDbLine
 10
4098.698528914311
 20
2291.353915659132
 30
0.0
 11
2255.306280429338
 21
2291.353915659132
 31
0.0
  0
LINE
  5
10A
330
104
100
AcDbEntity
  8
OBJECT
  6
CONTINUOUS
100
AcDbLine
 10
4098.698528914311
 20
1719.67438246753
 30
0.0
 11
2255.306280429338
 21
1719.67438246753
 31
0.0
  0
LINE
  5
10B
330
104
100
AcDbEntity
  8
OBJECT
  6
CONTINUOUS
100
AcDbLine
 10
3529.295153145659
 20
2393.701199356812
 30
0.0
 11
4098.698528914311
 21
2393.701199356812
 31
0.0
  0
LINE
  5
10C
330
104
100
AcDbEntity
  8
OBJECT
  6
CONTINUOUS
100
AcDbLine
 10
3529.295153145659
 20
1617.327098769853
 30
0.0
 11
4098.698528914311
 21
1617.327098769854
 31
0.0
  0
LINE
  5
10D
330
104
100
AcDbEntity
  8
OBJECT
  6
CONTINUOUS
100
AcDbLine
 10
4098.698528914307
 20
1498.604259990487
 30
0.0
 11
3529.295153145659
 21
1498.604259990487
 31
0.0
  0
LINE
  5
10E
330
104
100
AcDbEntity
  8
OBJECT
  6
CONTINUOUS
100
AcDbLine
 10
4098.698528914307
 20
2512.424038136177
 30
0.0
 11
3529.295153145659
 21
2512.424038136177
 31
0.0
  0
POLYLINE
  5
10F
330
104
100
AcDbEntity
  8
SAFETY
100
AcDb2dPolyline
 66
     1
 10
0.0
 20
0.0
 30
633.3199032347009
1001
AVE_FINISH
1002
{
1070
     0
1005
0
1002
}
  0
VERTEX
  5
35C
330
10F
100
AcDbEntity
  8
SAFETY
100
AcDbVertex
100
AcDb2dVertex
 10
7153.678233127341
 20
2428.035999040671
 30
633.3199032347009
  0
VERTEX
  5
35D
330
10F
100
AcDbEntity
  8
SAFETY
100
AcDbVertex
100
AcDb2dVertex
 10
7153.678233127341
 20
1583.652171144997
 30
633.3199032347009
  0
VERTEX
  5
35E
330
10F
100
AcDbEntity
  8
SAFETY
100
AcDbVertex
100
AcDb2dVertex
 10
7153.678233127341
 20
2428.035999040671
 30
633.3199032347009
 42
0.3532893649163041
  0
VERTEX
  5
35F
330
10F
100
AcDbEntity
  8
SAFETY
100
AcDbVertex
100
AcDb2dVertex
 10
5962.853090234099
 20
3888.638882942142
 30
633.3199032347009
  0
VERTEX
  5
360
330
10F
100
AcDbEntity
  8
SAFETY
100
AcDbVertex
100
AcDb2dVertex
 10
5607.541998895116
 20
3962.638882942145
 30
633.3199032347009
 42
0.0513783771482594
  0
VERTEX
  5
361
330
10F
100
AcDbEntity
  8
SAFETY
100
AcDbVertex
100
AcDb2dVertex
 10
5301.702292944303
 20
3994.149157317918
 30
633.3199032347009
  0
VERTEX
  5
362
330
10F
100
AcDbEntity
  8
SAFETY
100
AcDbVertex
100
AcDb2dVertex
 10
3472.993366143664
 20
3994.149157317917
 30
633.3199032347009
 42
0.261936851194836
  0
VERTEX
  5
363
330
10F
100
AcDbEntity
  8
SAFETY
100
AcDbVertex
100
AcDb2dVertex
 10
2191.135754603192
 20
3273.149198226614
 30
633.3199032347009
  0
VERTEX
  5
364
330
10F
100
AcDbEntity
  8
SAFETY
100
AcDbVertex
100
AcDb2dVertex
 10
16.85425152815763
 20
3273.149198226612
 30
633.3199032347009
  0
VERTEX
  5
365
330
10F
100
AcDbEntity
  8
SAFETY
100
AcDbVertex
100
AcDb2dVertex
 10
16.85425152815763
 20
737.8440441841471
 30
633.3199032347009
  0
VERTEX
  5
366
330
10F
100
AcDbEntity
  8
SAFETY
100
AcDbVertex
100
AcDb2dVertex
 10
16.85425152815763
 20
737.8440441841489
 30
633.3199032347009
  0
VERTEX
  5
367
330
10F
100
AcDbEntity
  8
SAFETY
100
AcDbVertex
100
AcDb2dVertex
 10
2191.797416214829
 20
737.8440441841471
 30
633.3199032347009
 42
0.2619368511948394
  0
VERTEX
  5
368
330
10F
100
AcDbEntity
  8
SAFETY
100
AcDbVertex
100
AcDb2dVertex
 10
3473.655027755305
 20
16.84408509283684
 30
633.3199032347009
  0
VERTEX
  5
369
330
10F
100
AcDbEntity
  8
SAFETY
100
AcDbVertex
100
AcDb2dVertex
 10
5458.620183603311
 20
16.84408509284048
 30
633.3199032347009
  0
VERTEX
  5
36A
330
10F
100
AcDbEntity
  8
SAFETY
100
AcDbVertex
100
AcDb2dVertex
 10
5962.85309023403
 20
123.049287243512
 30
633.3199032347009
 42
0.3532893649163176
  0
VERTEX
  5
36B
330
10F
100
AcDbEntity
  8
SAFETY
100
AcDbVertex
100
AcDb2dVertex
 10
7153.678233127341
 20
1583.652171144997
 30
633.3199032347009
  0
SEQEND
  5
36C
330
10F
100
AcDbEntity
  8
SAFETY
  0
LINE
  5
110
330
104
100
AcDbEntity
  8
OBJECT
  6
CONTINUOUS
100
AcDbLine
 10
2451.934785374232
 20
1891.617808769688
 30
0.0
 11
2451.934785374232
 21
2002.152864853239
 31
0.0
  0
LINE
  5
111
330
104
100
AcDbEntity
  8
OBJECT
  6
CONTINUOUS
100
AcDbLine
 10
2382.295515892947
 20
1826.115547203175
 30
0.0
 11
2451.934785374232
 21
1891.617808769688
 31
0.0
  0
LINE
  5
112
330
104
100
AcDbEntity
  8
OBJECT
  6
CONTINUOUS
100
AcDbLine
 10
2255.306280429338
 20
1719.67438246753
 30
0.0
 11
2255.306280429338
 21
1772.894959680383
 31
0.0
  0
LINE
  5
113
330
104
100
AcDbEntity
  8
OBJECT
  6
CONTINUOUS
100
AcDbLine
 10
2353.620524543727
 20
1772.894959680383
 30
0.0
 11
2382.295515892947
 21
1826.115547203175
 31
0.0
  0
LINE
  5
114
330
104
100
AcDbEntity
  8
OBJECT
  6
CONTINUOUS
100
AcDbLine
 10
3529.295153145659
 20
1498.604259990487
 30
0.0
 11
3529.295153145659
 21
1617.327098769853
 31
0.0
  0
LINE
  5
115
330
104
100
AcDbEntity
  8
OBJECT
  6
CONTINUOUS
100
AcDbLine
 10
2382.295515892947
 20
2184.912750923487
 30
0.0
 11
2451.934785374232
 21
2119.410489356976
 31
0.0
  0
LINE
  5
116
330
104
100
AcDbEntity
  8
OBJECT
  6
CONTINUOUS
100
AcDbLine
 10
2451.934785374232
 20
2119.410489356976
 30
0.0
 11
2451.934785374232
 21
2008.875433273423
 31
0.0
  0
LINE
  5
117
330
104
100
AcDbEntity
  8
OBJECT
  6
CONTINUOUS
100
AcDbLine
 10
2255.306280429338
 20
2291.353915659132
 30
0.0
 11
2255.306280429338
 21
2238.133338446281
 31
0.0
  0
LINE
  5
118
330
104
100
AcDbEntity
  8
OBJECT
  6
CONTINUOUS
100
AcDbLine
 10
2353.620524543727
 20
2238.133338446281
 30
0.0
 11
2382.295515892947
 21
2184.912750923487
 31
0.0
  0
LINE
  5
119
330
104
100
AcDbEntity
  8
OBJECT
  6
CONTINUOUS
100
AcDbLine
 10
3529.295153145659
 20
2512.424038136177
 30
0.0
 11
3529.295153145659
 21
2393.701199356812
 31
0.0
  0
LINE
  5
11A
330
104
100
AcDbEntity
  8
SAFETY
100
AcDbLine
 10
2191.135754603192
 20
3273.149198226614
 30
633.3199032347009
 11
16.85425152815763
 21
3273.149198226612
 31
633.3199032347009
210
-0.0000000000000008
220
1.0
230
0.0
1001
AVE_FINISH
1002
{
1070
     0
1005
0
1002
}
  0
LINE
  5
11B
330
104
100
AcDbEntity
  8
OBJECT
  6
CONTINUOUS
100
AcDbLine
 10
5901.126532699443
 20
2002.152864853239
 30
0.0
 11
5901.126532699443
 21
1621.42099011776
 31
0.0
  0
LINE
  5
11C
330
104
100
AcDbEntity
  8
OBJECT
  6
CONTINUOUS
100
AcDbLine
 10
4139.662807046367
 20
2565.64462565897
 30
0.0
 11
4139.662807046367
 21
1445.383672467695
 31
0.0
  0
LINE
  5
11D
330
104
100
AcDbEntity
  8
OBJECT
  6
CONTINUOUS
100
AcDbLine
 10
4098.698528914307
 20
2512.424038136177
 30
0.0
 11
4098.698528914307
 21
1498.604259990487
 31
0.0
  0
LINE
  5
11E
330
104
100
AcDbEntity
  8
OBJECT
  6
CONTINUOUS
100
AcDbLine
 10
5143.287487552976
 20
2565.64462565897
 30
0.0
 11
5143.287487552976
 21
1445.383672467695
 31
0.0
  0
LINE
  5
11F
330
104
100
AcDbEntity
  8
OBJECT
  6
CONTINUOUS
100
AcDbLine
 10
5477.146305852553
 20
2516.517929484085
 30
0.0
 11
5477.146305852553
 21
1494.510368642579
 31
0.0
  0
LINE
  5
120
330
104
100
AcDbEntity
  8
OBJECT
  6
CONTINUOUS
100
AcDbLine
 10
5196.541035751767
 20
2516.517929484085
 30
0.0
 11
5196.541035751767
 21
1494.510368642579
 31
0.0
  0
LINE
  5
121
330
104
100
AcDbEntity
  8
OBJECT
  6
CONTINUOUS
100
AcDbLine
 10
5757.751575953339
 20
2442.827885221757
 30
0.0
 11
5757.751575953339
 21
1568.200412904906
 31
0.0
  0
LINE
  5
122
330
104
100
AcDbEntity
  8
OBJECT
  6
CONTINUOUS
100
AcDbLine
 10
5933.897941832199
 20
1568.200412904906
 30
0.0
 11
5757.751575953339
 21
1568.200412904906
 31
0.0
  0
LINE
  5
123
330
104
100
AcDbEntity
  8
OBJECT
  6
CONTINUOUS
100
AcDbLine
 10
4139.662807046365
 20
1905.514149063331
 30
0.0
 11
5143.287487552976
 21
1905.514149063331
 31
0.0
  0
LINE
  5
124
330
104
100
AcDbEntity
  8
OBJECT
  6
CONTINUOUS
100
AcDbLine
 10
5143.287487552976
 20
1445.383672467695
 30
0.0
 11
4139.662807046367
 21
1445.383672467695
 31
0.0
  0
LINE
  5
125
330
104
100
AcDbEntity
  8
OBJECT
  6
CONTINUOUS
100
AcDbLine
 10
4139.662807046367
 20
1396.25698660275
 30
0.0
 11
4098.698528914307
 21
1396.25698660275
 31
0.0
  0
LINE
  5
126
330
104
100
AcDbEntity
  8
OBJECT
  6
CONTINUOUS
100
AcDbLine
 10
3971.709293450697
 20
1617.327098769853
 30
0.0
 11
3971.709293450697
 21
1719.67438246753
 31
0.0
  0
LINE
  5
127
330
104
100
AcDbEntity
  8
OBJECT
  6
CONTINUOUS
100
AcDbLine
 10
4098.698528914307
 20
1396.25698660275
 30
0.0
 11
4098.698528914307
 21
1498.604259990487
 31
0.0
  0
LINE
  5
128
330
104
100
AcDbEntity
  8
OBJECT
  6
CONTINUOUS
100
AcDbLine
 10
4139.662807046367
 20
1445.383672467695
 30
0.0
 11
4139.662807046367
 21
1396.25698660275
 31
0.0
  0
LINE
  5
129
330
104
100
AcDbEntity
  8
OBJECT
  6
CONTINUOUS
100
AcDbLine
 10
5757.751575953339
 20
1494.510368642579
 30
0.0
 11
5196.541035751767
 21
1494.510368642579
 31
0.0
  0
LINE
  5
12A
330
104
100
AcDbEntity
  8
OBJECT
  6
CONTINUOUS
100
AcDbLine
 10
5196.541035751767
 20
1494.510368642579
 30
0.0
 11
5196.541035751767
 21
1392.163095254842
 31
0.0
  0
LINE
  5
12B
330
104
100
AcDbEntity
  8
OBJECT
  6
CONTINUOUS
100
AcDbLine
 10
5196.541035751767
 20
1392.163095254842
 30
0.0
 11
5143.287487552976
 21
1392.163095254842
 31
0.0
  0
LINE
  5
12C
330
104
100
AcDbEntity
  8
OBJECT
  6
CONTINUOUS
100
AcDbLine
 10
5143.287487552976
 20
1392.163095254842
 30
0.0
 11
5143.287487552976
 21
1445.383672467695
 31
0.0
  0
LINE
  5
12D
330
104
100
AcDbEntity
  8
OBJECT
  6
CONTINUOUS
100
AcDbLine
 10
5757.751575953339
 20
1568.200412904906
 30
0.0
 11
5757.751575953339
 21
1494.510368642579
 31
0.0
  0
LINE
  5
12E
330
104
100
AcDbEntity
  8
OBJECT
  6
CONTINUOUS
100
AcDbLine
 10
5933.897941832199
 20
1621.42099011776
 30
0.0
 11
5933.897941832199
 21
1568.200412904906
 31
0.0
  0
LINE
  5
12F
330
104
100
AcDbEntity
  8
OBJECT
  6
CONTINUOUS
100
AcDbLine
 10
5901.126532699443
 20
1621.42099011776
 30
0.0
 11
5933.897941832199
 21
1621.42099011776
 31
0.0
  0
LINE
  5
130
330
104
100
AcDbEntity
  8
OBJECT
  6
CONTINUOUS
100
AcDbLine
 10
5933.897941832199
 20
2442.827885221757
 30
0.0
 11
5757.751575953339
 21
2442.827885221757
 31
0.0
  0
LINE
  5
131
330
104
100
AcDbEntity
  8
OBJECT
  6
CONTINUOUS
100
AcDbLine
 10
4139.662807046365
 20
2105.51414906333
 30
0.0
 11
5143.287487552976
 21
2105.51414906333
 31
0.0
  0
LINE
  5
132
330
104
100
AcDbEntity
  8
OBJECT
  6
CONTINUOUS
100
AcDbLine
 10
4139.662807046365
 20
2005.514149063331
 30
0.0
 11
5143.287487552976
 21
2005.514149063331
 31
0.0
  0
LINE
  5
133
330
104
100
AcDbEntity
  8
OBJECT
  6
CONTINUOUS
100
AcDbLine
 10
5143.287487552976
 20
2565.64462565897
 30
0.0
 11
4139.662807046367
 21
2565.64462565897
 31
0.0
  0
LINE
  5
134
330
104
100
AcDbEntity
  8
OBJECT
  6
CONTINUOUS
100
AcDbLine
 10
4139.662807046367
 20
2614.771311523915
 30
0.0
 11
4098.698528914307
 21
2614.771311523915
 31
0.0
  0
LINE
  5
135
330
104
100
AcDbEntity
  8
OBJECT
  6
CONTINUOUS
100
AcDbLine
 10
3971.709293450697
 20
2393.701199356812
 30
0.0
 11
3971.709293450697
 21
2291.353915659132
 31
0.0
  0
LINE
  5
136
330
104
100
AcDbEntity
  8
OBJECT
  6
CONTINUOUS
100
AcDbLine
 10
4098.698528914307
 20
2614.771311523915
 30
0.0
 11
4098.698528914307
 21
2512.424038136177
 31
0.0
  0
LINE
  5
137
330
104
100
AcDbEntity
  8
OBJECT
  6
CONTINUOUS
100
AcDbLine
 10
4139.662807046367
 20
2565.64462565897
 30
0.0
 11
4139.662807046367
 21
2614.771311523915
 31
0.0
  0
LINE
  5
138
330
104
100
AcDbEntity
  8
OBJECT
  6
CONTINUOUS
100
AcDbLine
 10
5757.751575953339
 20
2516.517929484085
 30
0.0
 11
5196.541035751767
 21
2516.517929484085
 31
0.0
  0
LINE
  5
139
330
104
100
AcDbEntity
  8
OBJECT
  6
CONTINUOUS
100
AcDbLine
 10
5196.541035751767
 20
2516.517929484085
 30
0.0
 11
5196.541035751767
 21
2618.865202871822
 31
0.0
  0
LINE
  5
13A
330
104
100
AcDbEntity
  8
OBJECT
  6
CONTINUOUS
100
AcDbLine
 10
5196.541035751767
 20
2618.865202871822
 30
0.0
 11
5143.287487552976
 21
2618.865202871822
 31
0.0
  0
LINE
  5
13B
330
104
100
AcDbEntity
  8
OBJECT
  6
CONTINUOUS
100
AcDbLine
 10
5143.287487552976
 20
2618.865202871822
 30
0.0
 11
5143.287487552976
 21
2565.64462565897
 31
0.0
  0
LINE
  5
13C
330
104
100
AcDbEntity
  8
OBJECT
  6
CONTINUOUS
100
AcDbLine
 10
5757.751575953339
 20
2442.827885221757
 30
0.0
 11
5757.751575953339
 21
2516.517929484085
 31
0.0
  0
LINE
  5
13D
330
104
100
AcDbEntity
  8
OBJECT
  6
CONTINUOUS
100
AcDbLine
 10
5901.126532699443
 20
2008.875433273423
 30
0.0
 11
5901.126532699443
 21
2389.607308008904
 31
0.0
  0
LINE
  5
13E
330
104
100
AcDbEntity
  8
OBJECT
  6
CONTINUOUS
100
AcDbLine
 10
5901.126532699443
 20
2389.607308008904
 30
0.0
 11
5933.897941832199
 21
2389.607308008904
 31
0.0
  0
LINE
  5
13F
330
104
100
AcDbEntity
  8
OBJECT
  6
CONTINUOUS
100
AcDbLine
 10
5933.897941832199
 20
2389.607308008904
 30
0.0
 11
5933.897941832199
 21
2442.827885221757
 31
0.0
  0
ENDBLK
  5
106
330
104
100
AcDbEntity
  8
0
100
AcDbBlockEnd
  0
BLOCK
  5
255
330
254
100
AcDbEntity
  8
0
100
AcDbBlockBegin
  2
1
 70
     0
 10
0.0
 20
0.0
 30
0.0
  3
1
  1

  0
LINE
  5
257
330
254
100
AcDbEntity
  8
OBJECT
  6
CONTINUOUS
100
AcDbLine
 10
4139.662807046365
 20
2005.514149063331
 30
0.0
 11
5143.287487552976
 21
2005.514149063331
 31
0.0
  0
LINE
  5
258
330
254
100
AcDbEntity
  8
OBJECT
  6
CONTINUOUS
100
AcDbLine
 10
2255.306280429338
 20
2238.133338446281
 30
0.0
 11
4098.698528914311
 21
2238.133338446281
 31
0.0
  0
LINE
  5
259
330
254
100
AcDbEntity
  8
OBJECT
  6
CONTINUOUS
100
AcDbLine
 10
2255.306280429338
 20
1772.894959680383
 30
0.0
 11
4098.698528914311
 21
1772.894959680383
 31
0.0
  0
LINE
  5
25A
330
254
100
AcDbEntity
  8
OBJECT
  6
CONTINUOUS
100
AcDbLine
 10
4098.698528914311
 20
2291.353915659132
 30
0.0
 11
2255.306280429338
 21
2291.353915659132
 31
0.0
  0
LINE
  5
25B
330
254
100
AcDbEntity
  8
OBJECT
  6
CONTINUOUS
100
AcDbLine
 10
4098.698528914311
 20
1719.67438246753
 30
0.0
 11
2255.306280429338
 21
1719.67438246753
 31
0.0
  0
LINE
  5
25C
330
254
100
AcDbEntity
  8
OBJECT
  6
CONTINUOUS
100
AcDbLine
 10
3529.295153145659
 20
2393.701199356812
 30
0.0
 11
4098.698528914311
 21
2393.701199356812
 31
0.0
  0
LINE
  5
25D
330
254
100
AcDbEntity
  8
OBJECT
  6
CONTINUOUS
100
AcDbLine
 10
3529.295153145659
 20
1617.327098769853
 30
0.0
 11
4098.698528914311
 21
1617.327098769854
 31
0.0
  0
LINE
  5
25E
330
254
100
AcDbEntity
  8
OBJECT
  6
CONTINUOUS
100
AcDbLine
 10
4098.698528914307
 20
1498.604259990487
 30
0.0
 11
3529.295153145659
 21
1498.604259990487
 31
0.0
  0
LINE
  5
25F
330
254
100
AcDbEntity
  8
OBJECT
  6
CONTINUOUS
100
AcDbLine
 10
4098.698528914307
 20
2512.424038136177
 30
0.0
 11
3529.295153145659
 21
2512.424038136177
 31
0.0
  0
LINE
  5
260
330
254
100
AcDbEntity
  8
OBJECT
  6
CONTINUOUS
100
AcDbLine
 10
2451.934785374232
 20
1891.617808769688
 30
0.0
 11
2451.934785374232
 21
2002.152864853239
 31
0.0
  0
LINE
  5
261
330
254
100
AcDbEntity
  8
OBJECT
  6
CONTINUOUS
100
AcDbLine
 10
2382.295515892947
 20
1826.115547203175
 30
0.0
 11
2451.934785374232
 21
1891.617808769688
 31
0.0
  0
LINE
  5
262
330
254
100
AcDbEntity
  8
OBJECT
  6
CONTINUOUS
100
AcDbLine
 10
2255.306280429338
 20
1719.67438246753
 30
0.0
 11
2255.306280429338
 21
1772.894959680383
 31
0.0
  0
LINE
  5
263
330
254
100
AcDbEntity
  8
OBJECT
  6
CONTINUOUS
100
AcDbLine
 10
2353.620524543727
 20
1772.894959680383
 30
0.0
 11
2382.295515892947
 21
1826.115547203175
 31
0.0
  0
LINE
  5
264
330
254
100
AcDbEntity
  8
OBJECT
  6
CONTINUOUS
100
AcDbLine
 10
3529.295153145659
 20
1498.604259990487
 30
0.0
 11
3529.295153145659
 21
1617.327098769853
 31
0.0
  0
LINE
  5
265
330
254
100
AcDbEntity
  8
OBJECT
  6
CONTINUOUS
100
AcDbLine
 10
2382.295515892947
 20
2184.912750923487
 30
0.0
 11
2451.934785374232
 21
2119.410489356976
 31
0.0
  0
LINE
  5
266
330
254
100
AcDbEntity
  8
OBJECT
  6
CONTINUOUS
100
AcDbLine
 10
2451.934785374232
 20
2119.410489356976
 30
0.0
 11
2451.934785374232
 21
2002.152864853239
 31
0.0
  0
LINE
  5
267
330
254
100
AcDbEntity
  8
OBJECT
  6
CONTINUOUS
100
AcDbLine
 10
2255.306280429338
 20
2291.353915659132
 30
0.0
 11
2255.306280429338
 21
2238.133338446281
 31
0.0
  0
LINE
  5
268
330
254
100
AcDbEntity
  8
OBJECT
  6
CONTINUOUS
100
AcDbLine
 10
2353.620524543727
 20
2238.133338446281
 30
0.0
 11
2382.295515892947
 21
2184.912750923487
 31
0.0
  0
LINE
  5
269
330
254
100
AcDbEntity
  8
OBJECT
  6
CONTINUOUS
100
AcDbLine
 10
3529.295153145659
 20
2512.424038136177
 30
0.0
 11
3529.295153145659
 21
2393.701199356812
 31
0.0
  0
LINE
  5
26A
330
254
100
AcDbEntity
  8
OBJECT
  6
CONTINUOUS
100
AcDbLine
 10
5901.126532699443
 20
2002.152864853239
 30
0.0
 11
5901.126532699443
 21
1621.42099011776
 31
0.0
  0
LINE
  5
26B
330
254
100
AcDbEntity
  8
OBJECT
  6
CONTINUOUS
100
AcDbLine
 10
4139.662807046367
 20
2565.64462565897
 30
0.0
 11
4139.662807046367
 21
1445.383672467695
 31
0.0
  0
LINE
  5
26C
330
254
100
AcDbEntity
  8
OBJECT
  6
CONTINUOUS
100
AcDbLine
 10
4098.698528914307
 20
2512.424038136177
 30
0.0
 11
4098.698528914307
 21
1498.604259990487
 31
0.0
  0
LINE
  5
26D
330
254
100
AcDbEntity
  8
OBJECT
  6
CONTINUOUS
100
AcDbLine
 10
5143.287487552976
 20
2565.64462565897
 30
0.0
 11
5143.287487552976
 21
1445.383672467695
 31
0.0
  0
LINE
  5
26E
330
254
100
AcDbEntity
  8
OBJECT
  6
CONTINUOUS
100
AcDbLine
 10
5477.146305852553
 20
2516.517929484085
 30
0.0
 11
5477.146305852553
 21
1494.510368642579
 31
0.0
  0
LINE
  5
26F
330
254
100
AcDbEntity
  8
OBJECT
  6
CONTINUOUS
100
AcDbLine
 10
5196.541035751767
 20
2516.517929484085
 30
0.0
 11
5196.541035751767
 21
1494.510368642579
 31
0.0
  0
LINE
  5
270
330
254
100
AcDbEntity
  8
OBJECT
  6
CONTINUOUS
100
AcDbLine
 10
5757.751575953339
 20
2442.827885221757
 30
0.0
 11
5757.751575953339
 21
1568.200412904906
 31
0.0
  0
LINE
  5
271
330
254
100
AcDbEntity
  8
OBJECT
  6
CONTINUOUS
100
AcDbLine
 10
5933.897941832199
 20
1568.200412904906
 30
0.0
 11
5757.751575953339
 21
1568.200412904906
 31
0.0
  0
LINE
  5
272
330
254
100
AcDbEntity
  8
OBJECT
  6
CONTINUOUS
100
AcDbLine
 10
4139.662807046365
 20
1905.514149063331
 30
0.0
 11
5143.287487552976
 21
1905.514149063331
 31
0.0
  0
LINE
  5
273
330
254
100
AcDbEntity
  8
OBJECT
  6
CONTINUOUS
100
AcDbLine
 10
5143.287487552976
 20
1445.383672467695
 30
0.0
 11
4139.662807046367
 21
1445.383672467695
 31
0.0
  0
LINE
  5
274
330
254
100
AcDbEntity
  8
OBJECT
  6
CONTINUOUS
100
AcDbLine
 10
4139.662807046367
 20
1396.25698660275
 30
0.0
 11
4098.698528914307
 21
1396.25698660275
 31
0.0
  0
LINE
  5
275
330
254
100
AcDbEntity
  8
OBJECT
  6
CONTINUOUS
100
AcDbLine
 10
3971.709293450697
 20
1617.327098769853
 30
0.0
 11
3971.709293450697
 21
1719.67438246753
 31
0.0
  0
LINE
  5
276
330
254
100
AcDbEntity
  8
OBJECT
  6
CONTINUOUS
100
AcDbLine
 10
4098.698528914307
 20
1396.25698660275
 30
0.0
 11
4098.698528914307
 21
1498.604259990487
 31
0.0
  0
LINE
  5
277
330
254
100
AcDbEntity
  8
OBJECT
  6
CONTINUOUS
100
AcDbLine
 10
4139.662807046367
 20
1445.383672467695
 30
0.0
 11
4139.662807046367
 21
1396.25698660275
 31
0.0
  0
LINE
  5
278
330
254
100
AcDbEntity
  8
OBJECT
  6
CONTINUOUS
100
AcDbLine
 10
5757.751575953339
 20
1494.510368642579
 30
0.0
 11
5196.541035751767
 21
1494.510368642579
 31
0.0
  0
LINE
  5
279
330
254
100
AcDbEntity
  8
OBJECT
  6
CONTINUOUS
100
AcDbLine
 10
5196.541035751767
 20
1494.510368642579
 30
0.0
 11
5196.541035751767
 21
1392.163095254842
 31
0.0
  0
LINE
  5
27A
330
254
100
AcDbEntity
  8
OBJECT
  6
CONTINUOUS
100
AcDbLine
 10
5196.541035751767
 20
1392.163095254842
 30
0.0
 11
5143.287487552976
 21
1392.163095254842
 31
0.0
  0
LINE
  5
27B
330
254
100
AcDbEntity
  8
OBJECT
  6
CONTINUOUS
100
AcDbLine
 10
5143.287487552976
 20
1392.163095254842
 30
0.0
 11
5143.287487552976
 21
1445.383672467695
 31
0.0
  0
LINE
  5
27C
330
254
100
AcDbEntity
  8
OBJECT
  6
CONTINUOUS
100
AcDbLine
 10
5757.751575953339
 20
1568.200412904906
 30
0.0
 11
5757.751575953339
 21
1494.510368642579
 31
0.0
  0
LINE
  5
27D
330
254
100
AcDbEntity
  8
OBJECT
  6
CONTINUOUS
100
AcDbLine
 10
5933.897941832199
 20
1621.42099011776
 30
0.0
 11
5933.897941832199
 21
1568.200412904906
 31
0.0
  0
LINE
  5
27E
330
254
100
AcDbEntity
  8
OBJECT
  6
CONTINUOUS
100
AcDbLine
 10
5901.126532699443
 20
1621.42099011776
 30
0.0
 11
5933.897941832199
 21
1621.42099011776
 31
0.0
  0
LINE
  5
27F
330
254
100
AcDbEntity
  8
OBJECT
  6
CONTINUOUS
100
AcDbLine
 10
5933.897941832199
 20
2442.827885221757
 30
0.0
 11
5757.751575953339
 21
2442.827885221757
 31
0.0
  0
LINE
  5
280
330
254
100
AcDbEntity
  8
OBJECT
  6
CONTINUOUS
100
AcDbLine
 10
4139.662807046365
 20
2105.51414906333
 30
0.0
 11
5143.287487552976
 21
2105.51414906333
 31
0.0
  0
LINE
  5
281
330
254
100
AcDbEntity
  8
OBJECT
  6
CONTINUOUS
100
AcDbLine
 10
5143.287487552976
 20
2565.64462565897
 30
0.0
 11
4139.662807046367
 21
2565.64462565897
 31
0.0
  0
LINE
  5
282
330
254
100
AcDbEntity
  8
OBJECT
  6
CONTINUOUS
100
AcDbLine
 10
4139.662807046367
 20
2614.771311523915
 30
0.0
 11
4098.698528914307
 21
2614.771311523915
 31
0.0
  0
LINE
  5
283
330
254
100
AcDbEntity
  8
OBJECT
  6
CONTINUOUS
100
AcDbLine
 10
3971.709293450697
 20
2393.701199356812
 30
0.0
 11
3971.709293450697
 21
2291.353915659132
 31
0.0
  0
LINE
  5
284
330
254
100
AcDbEntity
  8
OBJECT
  6
CONTINUOUS
100
AcDbLine
 10
4098.698528914307
 20
2614.771311523915
 30
0.0
 11
4098.698528914307
 21
2512.424038136177
 31
0.0
  0
LINE
  5
285
330
254
100
AcDbEntity
  8
OBJECT
  6
CONTINUOUS
100
AcDbLine
 10
4139.662807046367
 20
2565.64462565897
 30
0.0
 11
4139.662807046367
 21
2614.771311523915
 31
0.0
  0
LINE
  5
286
330
254
100
AcDbEntity
  8
OBJECT
  6
CONTINUOUS
100
AcDbLine
 10
5757.751575953339
 20
2516.517929484085
 30
0.0
 11
5196.541035751767
 21
2516.517929484085
 31
0.0
  0
LINE
  5
287
330
254
100
AcDbEntity
  8
OBJECT
  6
CONTINUOUS
100
AcDbLine
 10
5196.541035751767
 20
2516.517929484085
 30
0.0
 11
5196.541035751767
 21
2618.865202871822
 31
0.0
  0
LINE
  5
288
330
254
100
AcDbEntity
  8
OBJECT
  6
CONTINUOUS
100
AcDbLine
 10
5196.541035751767
 20
2618.865202871822
 30
0.0
 11
5143.287487552976
 21
2618.865202871822
 31
0.0
  0
LINE
  5
289
330
254
100
AcDbEntity
  8
OBJECT
  6
CONTINUOUS
100
AcDbLine
 10
5143.287487552976
 20
2618.865202871822
 30
0.0
 11
5143.287487552976
 21
2565.64462565897
 31
0.0
  0
LINE
  5
28A
330
254
100
AcDbEntity
  8
OBJECT
  6
CONTINUOUS
100
AcDbLine
 10
5757.751575953339
 20
2442.827885221757
 30
0.0
 11
5757.751575953339
 21
2516.517929484085
 31
0.0
  0
LINE
  5
28B
330
254
100
AcDbEntity
  8
OBJECT
  6
CONTINUOUS
100
AcDbLine
 10
5901.126532699443
 20
2008.875433273423
 30
0.0
 11
5901.126532699443
 21
2389.607308008904
 31
0.0
  0
LINE
  5
28C
330
254
100
AcDbEntity
  8
OBJECT
  6
CONTINUOUS
100
AcDbLine
 10
5901.126532699443
 20
2389.607308008904
 30
0.0
 11
5933.897941832199
 21
2389.607308008904
 31
0.0
  0
LINE
  5
28D
330
254
100
AcDbEntity
  8
OBJECT
  6
CONTINUOUS
100
AcDbLine
 10
5933.897941832199
 20
2389.607308008904
 30
0.0
 11
5933.897941832199
 21
2442.827885221757
 31
0.0
  0
ENDBLK
  5
256
330
254
100
AcDbEntity
  8
0
100
AcDbBlockEnd
  0
BLOCK
  5
316
330
315
100
AcDbEntity
  8
0
100
AcDbBlockBegin
  2
ADKB
 70
     0
 10
0.0
 20
0.0
 30
0.0
  3
ADKB
  1

  0
INSERT
  5
318
330
315
100
AcDbEntity
  8
OBJECT
  6
CONTINUOUS
 62
   251
100
AcDbBlockReference
  2
*U3
 10
0.0
 20
0.0
 30
0.0
1001
ACAD
1002
{
1000
R14_HATCH_DATA
1000
318
1011
1.0
1021
0.0
1031
0.0
1011
0.0
1021
1.0
1031
0.0
1011
0.0
1021
0.0
1031
1.0
1040
0.0
1010
0.0
1020
0.0
1030
1.0
1000
SOLID
1070
     1
1070
     1
1071
        1
1071
        7
1070
     0
1070
     1
1071
        9
1040
5901.126532699445
1040
2389.607308008904
1040
5933.897941832199
1040
2389.607308008904
1040
5933.897941832199
1040
2442.827885221757
1040
5757.751575953339
1040
2442.827885221756
1040
5757.751575953339
1040
1568.200412904905
1040
5933.897941832197
1040
1568.200412904906
1040
5933.897941832197
1040
1621.42099011776
1040
5901.126532699445
1040
1621.42099011776
1040
5901.126532699443
1040
2008.875433273423
1071
        9
1005
355
1005
356
1005
348
1005
339
1005
33A
1005
346
1005
347
1005
333
1005
354
1070
     0
1070
     1
1040
8.848037042274707
1071
        1
1040
5871.043774969694
1040
2033.779611379614
1040
0.0
1002
}
  0
INSERT
  5
319
330
315
100
AcDbEntity
  8
HATCH
  6
CONTINUOUS
 62
   251
100
AcDbBlockReference
  2
*U4
 10
0.0
 20
0.0
 30
0.0
1001
ACAD
1002
{
1000
R14_HATCH_DATA
1000
319
1011
1.0
1021
0.0
1031
0.0
1011
0.0
1021
1.0
1031
0.0
1011
0.0
1021
0.0
1031
1.0
1040
0.0
1010
0.0
1020
0.0
1030
1.0
1000
SOLID
1070
     1
1070
     0
1071
        2
1071
        7
1070
     0
1070
     1
1071
        4
1040
5143.287487552975
1040
2105.514149063329
1040
4139.662807046368
1040
2105.51414906333
1040
4139.662807046368
1040
2005.514149063331
1040
5143.287487552977
1040
2005.514149063331
1071
        0
1071
        7
1070
     0
1070
     1
1071
        4
1040
5143.287487552975
1040
2005.514149063331
1040
4139.662807046368
1040
2005.514149063331
1040
4139.662807046369
1040
1905.514149063331
1040
5143.287487552976
1040
1905.514149063331
1071
        0
1070
     0
1070
     1
1040
1.486267204083195
1071
        2
1040
4683.703695741904
1040
2057.388543425535
1040
0.0
1040
4703.037025095938
1040
1978.616380202795
1040
0.0
1002
}
  0
INSERT
  5
31A
330
315
100
AcDbEntity
  8
HATCH
  6
CONTINUOUS
 62
   251
100
AcDbBlockReference
  2
*U5
 10
0.0
 20
0.0
 30
0.0
1001
ACAD
1002
{
1000
R14_HATCH_DATA
1000
31A
1011
1.0
1021
0.0
1031
0.0
1011
0.0
1021
1.0
1031
0.0
1011
0.0
1021
0.0
1031
1.0
1040
0.0
1010
0.0
1020
0.0
1030
1.0
1000
SOLID
1070
     1
1070
     0
1071
        6
1071
        7
1070
     0
1070
     1
1071
        4
1040
4098.698528914307
1040
2393.701199356812
1040
4098.698528914307
1040
2512.424038136176
1040
3529.295153145659
1040
2512.424038136177
1040
3529.295153145659
1040
2393.701199356812
1071
        0
1071
        7
1070
     0
1070
     1
1071
        4
1040
4098.698528914307
1040
2291.353915659132
1040
4098.698528914307
1040
2393.701199356812
1040
3971.709293450697
1040
2393.701199356812
1040
3971.709293450697
1040
2291.353915659132
1071
        0
1071
        7
1070
     0
1070
     1
1071
        4
1040
4098.698528914307
1040
1617.327098769854
1040
4098.698528914307
1040
1719.67438246753
1040
3971.709293450697
1040
1719.67438246753
1040
3971.709293450697
1040
1617.327098769853
1071
        0
1071
        7
1070
     0
1070
     1
1071
        4
1040
3529.295153145659
1040
1617.327098769853
1040
3529.295153145659
1040
1498.604259990487
1040
4098.698528914308
1040
1498.604259990487
1040
4098.698528914308
1040
1617.327098769854
1071
        0
1071
        7
1070
     0
1070
     1
1071
        4
1040
5196.541035751767
1040
2516.517929484085
1040
5196.541035751767
1040
1494.510368642578
1040
5477.146305852553
1040
1494.510368642578
1040
5477.146305852554
1040
2516.517929484085
1071
        0
1071
        7
1070
     0
1070
     1
1071
        6
1040
5477.146305852553
1040
1494.510368642578
1040
5757.751575953339
1040
1494.510368642579
1040
5757.751575953339
1040
1568.200412904906
1040
5757.751575953339
1040
2442.827885221757
1040
5757.751575953339
1040
2516.517929484085
1040
5477.146305852553
1040
2516.517929484085
1071
        0
1070
     0
1070
     1
1040
5.999539209602938
1071
       14
1040
4654.734288856437
1040
2060.875527011714
1040
0.0
1040
4617.979890084447
1040
1953.740884159117
1040
0.0
1040
3836.949437788477
1040
2458.804159974206
1040
0.0
1040
3797.132193316509
1040
1558.873239372816
1040
0.0
1040
4026.847039590975
1040
2336.36457624067
1040
0.0
1040
4032.972772719644
1040
1659.885905873037
1040
0.0
1040
5333.56528451619
1040
1980.818546894079
1040
0.0
1040
5633.725999177244
1040
1998.817150567742
1040
0.0
1040
3982.842068541438
1040
2454.782145426325
1040
0.0
1040
4006.854939067511
1040
2370.78857658687
1040
0.0
1040
4036.870985496388
1040
1698.840195929286
1040
0.0
1040
3994.848503804474
1040
1542.852155709159
1040
0.0
1040
5315.555631621632
1040
2028.81485170019
1040
0.0
1040
5609.713128651172
1040
2028.81485170019
1040
0.0
1002
}
  0
INSERT
  5
31B
330
315
100
AcDbEntity
  8
HATCH
  6
CONTINUOUS
 62
     5
100
AcDbBlockReference
  2
*U6
 10
0.0
 20
0.0
 30
0.0
1001
ACAD
1002
{
1000
R14_HATCH_DATA
1000
31B
1011
1.0
1021
0.0
1031
0.0
1011
0.0
1021
1.0
1031
0.0
1011
0.0
1021
0.0
1031
1.0
1040
0.0
1010
0.0
1020
0.0
1030
1.0
1000
SOLID
1070
     1
1070
     0
1071
        2
1071
        7
1070
     0
1070
     1
1071
        8
1040
5196.541035751767
1040
2516.517929484085
1040
5196.541035751766
1040
2618.865202871822
1040
5143.287487552976
1040
2618.865202871822
1040
5143.287487552976
1040
2565.64462565897
1040
5143.287487552976
1040
1445.383672467695
1040
5143.287487552976
1040
1392.163095254842
1040
5196.541035751767
1040
1392.163095254841
1040
5196.541035751767
1040
1494.510368642579
1071
        0
1071
        7
1070
     0
1070
     1
1071
        8
1040
4139.662807046367
1040
2565.64462565897
1040
4139.662807046367
1040
2614.771311523915
1040
4098.698528914307
1040
2614.771311523915
1040
4098.698528914307
1040
2512.424038136177
1040
4098.698528914307
1040
1498.604259990487
1040
4098.698528914307
1040
1396.25698660275
1040
4139.662807046367
1040
1396.25698660275
1040
4139.662807046367
1040
1445.383672467695
1071
        0
1070
     0
1070
     1
1040
3.060989420251352
1071
        2
1040
5178.48407493459
1040
2241.473914435831
1040
0.0
1040
4121.795840492224
1040
2204.742027978569
1040
0.0
1002
}
  0
INSERT
  5
31C
330
315
100
AcDbEntity
  8
HATCH
  6
CONTINUOUS
 62
     1
100
AcDbBlockReference
  2
*U7
 10
0.0
 20
0.0
 30
0.0
1001
ACAD
1002
{
1000
R14_HATCH_DATA
1000
31C
1011
1.0
1021
0.0
1031
0.0
1011
0.0
1021
1.0
1031
0.0
1011
0.0
1021
0.0
1031
1.0
1040
0.0
1010
0.0
1020
0.0
1030
1.0
1000
SOLID
1070
     1
1070
     0
1071
        2
1071
        7
1070
     0
1070
     1
1071
        4
1040
5143.287487552977
1040
2105.51414906333
1040
5143.287487552976
1040
2565.64462565897
1040
4139.662807046367
1040
2565.64462565897
1040
4139.662807046367
1040
2105.51414906333
1071
        0
1071
        7
1070
     0
1070
     1
1071
        4
1040
4139.662807046367
1040
1905.514149063331
1040
4139.662807046367
1040
1445.383672467695
1040
5143.287487552975
1040
1445.383672467695
1040
5143.287487552976
1040
1905.51414906333
1071
        0
1070
     0
1070
     1
1040
2.43321845964668
1071
        2
1040
4783.235310661796
1040
2292.376539623564
1040
0.0
1040
4654.195738105015
1040
1705.97087159278
1040
0.0
1002
}
  0
INSERT
  5
31D
330
315
100
AcDbEntity
  8
HATCH
  6
CONTINUOUS
 62
     2
100
AcDbBlockReference
  2
*U8
 10
0.0
 20
0.0
 30
0.0
1001
ACAD
1002
{
1000
R14_HATCH_DATA
1000
31D
1011
1.0
1021
0.0
1031
0.0
1011
0.0
1021
1.0
1031
0.0
1011
0.0
1021
0.0
1031
1.0
1040
0.0
1010
0.0
1020
0.0
1030
1.0
1000
SOLID
1070
     1
1070
     0
1071
        3
1071
        7
1070
     0
1070
     1
1071
        4
1040
4098.698528914307
1040
2238.133338446281
1040
4098.698528914307
1040
2291.353915659132
1040
2255.306280429338
1040
2291.353915659132
1040
2255.306280429338
1040
2238.133338446281
1071
        0
1071
        7
1070
     0
1070
     1
1071
        9
1040
2353.620524543727
1040
2238.133338446281
1040
2382.295515892946
1040
2184.912750923487
1040
2451.934785374232
1040
2119.410489356976
1040
2451.934785374232
1040
2002.152864853239
1040
2451.934785374232
1040
1891.617808769688
1040
2382.295515892948
1040
1826.115547203175
1040
2353.620524543727
1040
1772.894959680383
1040
4098.698528914307
1040
1772.894959680383
1040
4098.698528914307
1040
2238.133338446281
1071
        0
1071
        7
1070
     0
1070
     1
1071
        4
1040
2255.306280429338
1040
1772.894959680383
1040
2255.306280429338
1040
1719.67438246753
1040
4098.698528914307
1040
1719.67438246753
1040
4098.698528914307
1040
1772.894959680383
1071
        0
1070
     0
1070
     1
1040
2.476825746030678
1071
        3
1040
3135.862725917846
1040
2251.9246900545
1040
0.0
1040
3130.906022643605
1040
2036.440849771202
1040
0.0
1040
3118.514306186713
1040
1763.990029283028
1040
0.0
1002
}
  0
POLYLINE
  5
31E
330
315
100
AcDbEntity
  8
SAFETY
100
AcDb2dPolyline
 66
     1
 10
0.0
 20
0.0
 30
633.3199032347009
1001
AVE_FINISH
1002
{
1070
     0
1005
0
1002
}
  0
VERTEX
  5
3B5
330
31E
100
AcDbEntity
  8
SAFETY
100
AcDbVertex
100
AcDb2dVertex
 10
7153.678233127341
 20
2428.035999040671
 30
633.3199032347009
  0
VERTEX
  5
3B6
330
31E
100
AcDbEntity
  8
SAFETY
100
AcDbVertex
100
AcDb2dVertex
 10
7153.678233127341
 20
1583.652171144997
 30
633.3199032347009
  0
VERTEX
  5
3B7
330
31E
100
AcDbEntity
  8
SAFETY
100
AcDbVertex
100
AcDb2dVertex
 10
7153.678233127341
 20
2428.035999040671
 30
633.3199032347009
 42
0.3532893649163041
  0
VERTEX
  5
3B8
330
31E
100
AcDbEntity
  8
SAFETY
100
AcDbVertex
100
AcDb2dVertex
 10
5962.853090234099
 20
3888.638882942142
 30
633.3199032347009
  0
VERTEX
  5
3B9
330
31E
100
AcDbEntity
  8
SAFETY
100
AcDbVertex
100
AcDb2dVertex
 10
5607.541998895116
 20
3962.638882942145
 30
633.3199032347009
 42
0.0513783771482594
  0
VERTEX
  5
3BA
330
31E
100
AcDbEntity
  8
SAFETY
100
AcDbVertex
100
AcDb2dVertex
 10
5301.702292944303
 20
3994.149157317918
 30
633.3199032347009
  0
VERTEX
  5
3BB
330
31E
100
AcDbEntity
  8
SAFETY
100
AcDbVertex
100
AcDb2dVertex
 10
3472.993366143664
 20
3994.149157317917
 30
633.3199032347009
 42
0.261936851194836
  0
VERTEX
  5
3BC
330
31E
100
AcDbEntity
  8
SAFETY
100
AcDbVertex
100
AcDb2dVertex
 10
2191.135754603192
 20
3273.149198226614
 30
633.3199032347009
  0
VERTEX
  5
3BD
330
31E
100
AcDbEntity
  8
SAFETY
100
AcDbVertex
100
AcDb2dVertex
 10
16.85425152815763
 20
3273.149198226612
 30
633.3199032347009
  0
VERTEX
  5
3BE
330
31E
100
AcDbEntity
  8
SAFETY
100
AcDbVertex
100
AcDb2dVertex
 10
16.85425152815763
 20
737.8440441841471
 30
633.3199032347009
  0
VERTEX
  5
3BF
330
31E
100
AcDbEntity
  8
SAFETY
100
AcDbVertex
100
AcDb2dVertex
 10
16.85425152815763
 20
737.8440441841489
 30
633.3199032347009
  0
VERTEX
  5
3C0
330
31E
100
AcDbEntity
  8
SAFETY
100
AcDbVertex
100
AcDb2dVertex
 10
2191.797416214829
 20
737.8440441841471
 30
633.3199032347009
 42
0.2619368511948394
  0
VERTEX
  5
3C1
330
31E
100
AcDbEntity
  8
SAFETY
100
AcDbVertex
100
AcDb2dVertex
 10
3473.655027755305
 20
16.84408509283684
 30
633.3199032347009
  0
VERTEX
  5
3C2
330
31E
100
AcDbEntity
  8
SAFETY
100
AcDbVertex
100
AcDb2dVertex
 10
5458.620183603311
 20
16.84408509284048
 30
633.3199032347009
  0
VERTEX
  5
3C3
330
31E
100
AcDbEntity
  8
SAFETY
100
AcDbVertex
100
AcDb2dVertex
 10
5962.85309023403
 20
123.049287243512
 30
633.3199032347009
 42
0.3532893649163176
  0
VERTEX
  5
3C4
330
31E
100
AcDbEntity
  8
SAFETY
100
AcDbVertex
100
AcDb2dVertex
 10
7153.678233127341
 20
1583.652171144997
 30
633.3199032347009
  0
SEQEND
  5
3C5
330
31E
100
AcDbEntity
  8
SAFETY
  0
LINE
  5
31F
330
315
100
AcDbEntity
  8
SAFETY
100
AcDbLine
 10
2191.135754603192
 20
3273.149198226614
 30
633.3199032347009
 11
16.85425152815763
 21
3273.149198226612
 31
633.3199032347009
210
-0.0000000000000008
220
1.0
230
0.0
1001
AVE_FINISH
1002
{
1070
     0
1005
0
1002
}
  0
LINE
  5
320
330
315
100
AcDbEntity
  8
OBJECT
  6
CONTINUOUS
100
AcDbLine
 10
4139.662807046365
 20
2005.514149063331
 30
0.0
 11
5143.287487552976
 21
2005.514149063331
 31
0.0
  0
LINE
  5
321
330
315
100
AcDbEntity
  8
OBJECT
  6
CONTINUOUS
100
AcDbLine
 10
2255.306280429338
 20
2238.133338446281
 30
0.0
 11
4098.698528914311
 21
2238.133338446281
 31
0.0
  0
LINE
  5
322
330
315
100
AcDbEntity
  8
OBJECT
  6
CONTINUOUS
100
AcDbLine
 10
2255.306280429338
 20
1772.894959680383
 30
0.0
 11
4098.698528914311
 21
1772.894959680383
 31
0.0
  0
LINE
  5
323
330
315
100
AcDbEntity
  8
OBJECT
  6
CONTINUOUS
100
AcDbLine
 10
4098.698528914311
 20
2291.353915659132
 30
0.0
 11
2255.306280429338
 21
2291.353915659132
 31
0.0
  0
LINE
  5
324
330
315
100
AcDbEntity
  8
OBJECT
  6
CONTINUOUS
100
AcDbLine
 10
4098.698528914311
 20
1719.67438246753
 30
0.0
 11
2255.306280429338
 21
1719.67438246753
 31
0.0
  0
LINE
  5
325
330
315
100
AcDbEntity
  8
OBJECT
  6
CONTINUOUS
100
AcDbLine
 10
3529.295153145659
 20
2393.701199356812
 30
0.0
 11
4098.698528914311
 21
2393.701199356812
 31
0.0
  0
LINE
  5
326
330
315
100
AcDbEntity
  8
OBJECT
  6
CONTINUOUS
100
AcDbLine
 10
3529.295153145659
 20
1617.327098769853
 30
0.0
 11
4098.698528914311
 21
1617.327098769854
 31
0.0
  0
LINE
  5
327
330
315
100
AcDbEntity
  8
OBJECT
  6
CONTINUOUS
100
AcDbLine
 10
4098.698528914307
 20
1498.604259990487
 30
0.0
 11
3529.295153145659
 21
1498.604259990487
 31
0.0
  0
LINE
  5
328
330
315
100
AcDbEntity
  8
OBJECT
  6
CONTINUOUS
100
AcDbLine
 10
4098.698528914307
 20
2512.424038136177
 30
0.0
 11
3529.295153145659
 21
2512.424038136177
 31
0.0
  0
LINE
  5
329
330
315
100
AcDbEntity
  8
OBJECT
  6
CONTINUOUS
100
AcDbLine
 10
2451.934785374232
 20
1891.617808769688
 30
0.0
 11
2451.934785374232
 21
2002.152864853239
 31
0.0
  0
LINE
  5
32A
330
315
100
AcDbEntity
  8
OBJECT
  6
CONTINUOUS
100
AcDbLine
 10
2382.295515892947
 20
1826.115547203175
 30
0.0
 11
2451.934785374232
 21
1891.617808769688
 31
0.0
  0
LINE
  5
32B
330
315
100
AcDbEntity
  8
OBJECT
  6
CONTINUOUS
100
AcDbLine
 10
2255.306280429338
 20
1719.67438246753
 30
0.0
 11
2255.306280429338
 21
1772.894959680383
 31
0.0
  0
LINE
  5
32C
330
315
100
AcDbEntity
  8
OBJECT
  6
CONTINUOUS
100
AcDbLine
 10
2353.620524543727
 20
1772.894959680383
 30
0.0
 11
2382.295515892947
 21
1826.115547203175
 31
0.0
  0
LINE
  5
32D
330
315
100
AcDbEntity
  8
OBJECT
  6
CONTINUOUS
100
AcDbLine
 10
3529.295153145659
 20
1498.604259990487
 30
0.0
 11
3529.295153145659
 21
1617.327098769853
 31
0.0
  0
LINE
  5
32E
330
315
100
AcDbEntity
  8
OBJECT
  6
CONTINUOUS
100
AcDbLine
 10
2382.295515892947
 20
2184.912750923487
 30
0.0
 11
2451.934785374232
 21
2119.410489356976
 31
0.0
  0
LINE
  5
32F
330
315
100
AcDbEntity
  8
OBJECT
  6
CONTINUOUS
100
AcDbLine
 10
2451.934785374232
 20
2119.410489356976
 30
0.0
 11
2451.934785374232
 21
2002.152864853239
 31
0.0
  0
LINE
  5
330
330
315
100
AcDbEntity
  8
OBJECT
  6
CONTINUOUS
100
AcDbLine
 10
2255.306280429338
 20
2291.353915659132
 30
0.0
 11
2255.306280429338
 21
2238.133338446281
 31
0.0
  0
LINE
  5
331
330
315
100
AcDbEntity
  8
OBJECT
  6
CONTINUOUS
100
AcDbLine
 10
2353.620524543727
 20
2238.133338446281
 30
0.0
 11
2382.295515892947
 21
2184.912750923487
 31
0.0
  0
LINE
  5
332
330
315
100
AcDbEntity
  8
OBJECT
  6
CONTINUOUS
100
AcDbLine
 10
3529.295153145659
 20
2512.424038136177
 30
0.0
 11
3529.295153145659
 21
2393.701199356812
 31
0.0
  0
LINE
  5
333
330
315
100
AcDbEntity
  8
OBJECT
  6
CONTINUOUS
100
AcDbLine
 10
5901.126532699443
 20
2008.875433273423
 30
0.0
 11
5901.126532699443
 21
1621.42099011776
 31
0.0
  0
LINE
  5
334
330
315
100
AcDbEntity
  8
OBJECT
  6
CONTINUOUS
100
AcDbLine
 10
4139.662807046367
 20
2565.64462565897
 30
0.0
 11
4139.662807046367
 21
1445.383672467695
 31
0.0
  0
LINE
  5
335
330
315
100
AcDbEntity
  8
OBJECT
  6
CONTINUOUS
100
AcDbLine
 10
4098.698528914307
 20
2512.424038136177
 30
0.0
 11
4098.698528914307
 21
1498.604259990487
 31
0.0
  0
LINE
  5
336
330
315
100
AcDbEntity
  8
OBJECT
  6
CONTINUOUS
100
AcDbLine
 10
5143.287487552976
 20
2565.64462565897
 30
0.0
 11
5143.287487552976
 21
1445.383672467695
 31
0.0
  0
LINE
  5
337
330
315
100
AcDbEntity
  8
OBJECT
  6
CONTINUOUS
100
AcDbLine
 10
5477.146305852553
 20
2516.517929484085
 30
0.0
 11
5477.146305852553
 21
1494.510368642579
 31
0.0
  0
LINE
  5
338
330
315
100
AcDbEntity
  8
OBJECT
  6
CONTINUOUS
100
AcDbLine
 10
5196.541035751767
 20
2516.517929484085
 30
0.0
 11
5196.541035751767
 21
1494.510368642579
 31
0.0
  0
LINE
  5
339
330
315
100
AcDbEntity
  8
OBJECT
  6
CONTINUOUS
100
AcDbLine
 10
5757.751575953339
 20
2442.827885221757
 30
0.0
 11
5757.751575953339
 21
1568.200412904906
 31
0.0
  0
LINE
  5
33A
330
315
100
AcDbEntity
  8
OBJECT
  6
CONTINUOUS
100
AcDbLine
 10
5933.897941832199
 20
1568.200412904906
 30
0.0
 11
5757.751575953339
 21
1568.200412904906
 31
0.0
  0
LINE
  5
33B
330
315
100
AcDbEntity
  8
OBJECT
  6
CONTINUOUS
100
AcDbLine
 10
4139.662807046365
 20
1905.514149063331
 30
0.0
 11
5143.287487552976
 21
1905.514149063331
 31
0.0
  0
LINE
  5
33C
330
315
100
AcDbEntity
  8
OBJECT
  6
CONTINUOUS
100
AcDbLine
 10
5143.287487552976
 20
1445.383672467695
 30
0.0
 11
4139.662807046367
 21
1445.383672467695
 31
0.0
  0
LINE
  5
33D
330
315
100
AcDbEntity
  8
OBJECT
  6
CONTINUOUS
100
AcDbLine
 10
4139.662807046367
 20
1396.25698660275
 30
0.0
 11
4098.698528914307
 21
1396.25698660275
 31
0.0
  0
LINE
  5
33E
330
315
100
AcDbEntity
  8
OBJECT
  6
CONTINUOUS
100
AcDbLine
 10
3971.709293450697
 20
1617.327098769853
 30
0.0
 11
3971.709293450697
 21
1719.67438246753
 31
0.0
  0
LINE
  5
33F
330
315
100
AcDbEntity
  8
OBJECT
  6
CONTINUOUS
100
AcDbLine
 10
4098.698528914307
 20
1396.25698660275
 30
0.0
 11
4098.698528914307
 21
1498.604259990487
 31
0.0
  0
LINE
  5
340
330
315
100
AcDbEntity
  8
OBJECT
  6
CONTINUOUS
100
AcDbLine
 10
4139.662807046367
 20
1445.383672467695
 30
0.0
 11
4139.662807046367
 21
1396.25698660275
 31
0.0
  0
LINE
  5
341
330
315
100
AcDbEntity
  8
OBJECT
  6
CONTINUOUS
100
AcDbLine
 10
5757.751575953339
 20
1494.510368642579
 30
0.0
 11
5196.541035751767
 21
1494.510368642579
 31
0.0
  0
LINE
  5
342
330
315
100
AcDbEntity
  8
OBJECT
  6
CONTINUOUS
100
AcDbLine
 10
5196.541035751767
 20
1494.510368642579
 30
0.0
 11
5196.541035751767
 21
1392.163095254842
 31
0.0
  0
LINE
  5
343
330
315
100
AcDbEntity
  8
OBJECT
  6
CONTINUOUS
100
AcDbLine
 10
5196.541035751767
 20
1392.163095254842
 30
0.0
 11
5143.287487552976
 21
1392.163095254842
 31
0.0
  0
LINE
  5
344
330
315
100
AcDbEntity
  8
OBJECT
  6
CONTINUOUS
100
AcDbLine
 10
5143.287487552976
 20
1392.163095254842
 30
0.0
 11
5143.287487552976
 21
1445.383672467695
 31
0.0
  0
LINE
  5
345
330
315
100
AcDbEntity
  8
OBJECT
  6
CONTINUOUS
100
AcDbLine
 10
5757.751575953339
 20
1568.200412904906
 30
0.0
 11
5757.751575953339
 21
1494.510368642579
 31
0.0
  0
LINE
  5
346
330
315
100
AcDbEntity
  8
OBJECT
  6
CONTINUOUS
100
AcDbLine
 10
5933.897941832199
 20
1621.42099011776
 30
0.0
 11
5933.897941832199
 21
1568.200412904906
 31
0.0
  0
LINE
  5
347
330
315
100
AcDbEntity
  8
OBJECT
  6
CONTINUOUS
100
AcDbLine
 10
5901.126532699443
 20
1621.42099011776
 30
0.0
 11
5933.897941832199
 21
1621.42099011776
 31
0.0
  0
LINE
  5
348
330
315
100
AcDbEntity
  8
OBJECT
  6
CONTINUOUS
100
AcDbLine
 10
5933.897941832199
 20
2442.827885221757
 30
0.0
 11
5757.751575953339
 21
2442.827885221757
 31
0.0
  0
LINE
  5
349
330
315
100
AcDbEntity
  8
OBJECT
  6
CONTINUOUS
100
AcDbLine
 10
4139.662807046365
 20
2105.51414906333
 30
0.0
 11
5143.287487552976
 21
2105.51414906333
 31
0.0
  0
LINE
  5
34A
330
315
100
AcDbEntity
  8
OBJECT
  6
CONTINUOUS
100
AcDbLine
 10
5143.287487552976
 20
2565.64462565897
 30
0.0
 11
4139.662807046367
 21
2565.64462565897
 31
0.0
  0
LINE
  5
34B
330
315
100
AcDbEntity
  8
OBJECT
  6
CONTINUOUS
100
AcDbLine
 10
4139.662807046367
 20
2614.771311523915
 30
0.0
 11
4098.698528914307
 21
2614.771311523915
 31
0.0
  0
LINE
  5
34C
330
315
100
AcDbEntity
  8
OBJECT
  6
CONTINUOUS
100
AcDbLine
 10
3971.709293450697
 20
2393.701199356812
 30
0.0
 11
3971.709293450697
 21
2291.353915659132
 31
0.0
  0
LINE
  5
34D
330
315
100
AcDbEntity
  8
OBJECT
  6
CONTINUOUS
100
AcDbLine
 10
4098.698528914307
 20
2614.771311523915
 30
0.0
 11
4098.698528914307
 21
2512.424038136177
 31
0.0
  0
LINE
  5
34E
330
315
100
AcDbEntity
  8
OBJECT
  6
CONTINUOUS
100
AcDbLine
 10
4139.662807046367
 20
2565.64462565897
 30
0.0
 11
4139.662807046367
 21
2614.771311523915
 31
0.0
  0
LINE
  5
34F
330
315
100
AcDbEntity
  8
OBJECT
  6
CONTINUOUS
100
AcDbLine
 10
5757.751575953339
 20
2516.517929484085
 30
0.0
 11
5196.541035751767
 21
2516.517929484085
 31
0.0
  0
LINE
  5
350
330
315
100
AcDbEntity
  8
OBJECT
  6
CONTINUOUS
100
AcDbLine
 10
5196.541035751767
 20
2516.517929484085
 30
0.0
 11
5196.541035751767
 21
2618.865202871822
 31
0.0
  0
LINE
  5
351
330
315
100
AcDbEntity
  8
OBJECT
  6
CONTINUOUS
100
AcDbLine
 10
5196.541035751767
 20
2618.865202871822
 30
0.0
 11
5143.287487552976
 21
2618.865202871822
 31
0.0
  0
LINE
  5
352
330
315
100
AcDbEntity
  8
OBJECT
  6
CONTINUOUS
100
AcDbLine
 10
5143.287487552976
 20
2618.865202871822
 30
0.0
 11
5143.287487552976
 21
2565.64462565897
 31
0.0
  0
LINE
  5
353
330
315
100
AcDbEntity
  8
OBJECT
  6
CONTINUOUS
100
AcDbLine
 10
5757.751575953339
 20
2442.827885221757
 30
0.0
 11
5757.751575953339
 21
2516.517929484085
 31
0.0
  0
LINE
  5
354
330
315
100
AcDbEntity
  8
OBJECT
  6
CONTINUOUS
100
AcDbLine
 10
5901.126532699443
 20
2008.875433273423
 30
0.0
 11
5901.126532699443
 21
2389.607308008904
 31
0.0
  0
LINE
  5
355
330
315
100
AcDbEntity
  8
OBJECT
  6
CONTINUOUS
100
AcDbLine
 10
5901.126532699443
 20
2389.607308008904
 30
0.0
 11
5933.897941832199
 21
2389.607308008904
 31
0.0
  0
LINE
  5
356
330
315
100
AcDbEntity
  8
OBJECT
  6
CONTINUOUS
100
AcDbLine
 10
5933.897941832199
 20
2389.607308008904
 30
0.0
 11
5933.897941832199
 21
2442.827885221757
 31
0.0
  0
ENDBLK
  5
317
330
315
100
AcDbEntity
  8
0
100
AcDbBlockEnd
  0
BLOCK
  5
377
330
36F
100
AcDbEntity
  8
0
100
AcDbBlockBegin
  2
*U3
 70
     1
 10
0.0
 20
0.0
 30
0.0
  3
*U3
  1

  0
SOLID
  5
370
330
36F
100
AcDbEntity
  8
OBJECT
  6
CONTINUOUS
 62
   251
100
AcDbTrace
 10
5933.897941832197
 20
1621.42099011776
 30
0.0
 11
5757.751575953339
 21
1568.200412904905
 31
0.0
 12
5933.897941832197
 22
1568.200412904906
 32
0.0
 13
5933.897941832197
 23
1568.200412904906
 33
0.0
210
0.0
220
0.0
230
1.0
  0
SOLID
  5
371
330
36F
100
AcDbEntity
  8
OBJECT
  6
CONTINUOUS
 62
   251
100
AcDbTrace
 10
5757.751575953339
 20
1568.200412904905
 30
0.0
 11
5933.897941832197
 21
1621.42099011776
 31
0.0
 12
5901.126532699445
 22
1621.42099011776
 32
0.0
 13
5901.126532699445
 23
1621.42099011776
 33
0.0
210
0.0
220
0.0
230
1.0
  0
SOLID
  5
372
330
36F
100
AcDbEntity
  8
OBJECT
  6
CONTINUOUS
 62
   251
100
AcDbTrace
 10
5901.126532699443
 20
2008.875433273423
 30
0.0
 11
5757.751575953339
 21
1568.200412904905
 31
0.0
 12
5901.126532699445
 22
1621.42099011776
 32
0.0
 13
5901.126532699445
 23
1621.42099011776
 33
0.0
210
0.0
220
0.0
230
1.0
  0
SOLID
  5
373
330
36F
100
AcDbEntity
  8
OBJECT
  6
CONTINUOUS
 62
   251
100
AcDbTrace
 10
5901.126532699445
 20
2389.607308008904
 30
0.0
 11
5757.751575953339
 21
1568.200412904905
 31
0.0
 12
5901.126532699443
 22
2008.875433273423
 32
0.0
 13
5901.126532699443
 23
2008.875433273423
 33
0.0
210
0.0
220
0.0
230
1.0
  0
SOLID
  5
374
330
36F
100
AcDbEntity
  8
OBJECT
  6
CONTINUOUS
 62
   251
100
AcDbTrace
 10
5757.751575953339
 20
2442.827885221756
 30
0.0
 11
5901.126532699445
 21
2389.607308008904
 31
0.0
 12
5933.897941832199
 22
2389.607308008904
 32
0.0
 13
5933.897941832199
 23
2389.607308008904
 33
0.0
210
0.0
220
0.0
230
1.0
  0
SOLID
  5
375
330
36F
100
AcDbEntity
  8
OBJECT
  6
CONTINUOUS
 62
   251
100
AcDbTrace
 10
5757.751575953339
 20
2442.827885221756
 30
0.0
 11
5757.751575953339
 21
1568.200412904905
 31
0.0
 12
5901.126532699445
 22
2389.607308008904
 32
0.0
 13
5901.126532699445
 23
2389.607308008904
 33
0.0
210
0.0
220
0.0
230
1.0
  0
SOLID
  5
376
330
36F
100
AcDbEntity
  8
OBJECT
  6
CONTINUOUS
 62
   251
100
AcDbTrace
 10
5933.897941832199
 20
2442.827885221757
 30
0.0
 11
5757.751575953339
 21
2442.827885221756
 31
0.0
 12
5933.897941832199
 22
2389.607308008904
 32
0.0
 13
5933.897941832199
 23
2389.607308008904
 33
0.0
210
0.0
220
0.0
230
1.0
  0
ENDBLK
  5
378
330
36F
100
AcDbEntity
  8
0
100
AcDbBlockEnd
  0
BLOCK
  5
37E
330
379
100
AcDbEntity
  8
0
100
AcDbBlockBegin
  2
*U4
 70
     1
 10
0.0
 20
0.0
 30
0.0
  3
*U4
  1

  0
SOLID
  5
37A
330
379
100
AcDbEntity
  8
HATCH
  6
CONTINUOUS
 62
   251
100
AcDbTrace
 10
5143.287487552975
 20
2105.514149063329
 30
0.0
 11
4139.662807046368
 21
2105.51414906333
 31
0.0
 12
5143.287487552977
 22
2005.514149063331
 32
0.0
 13
5143.287487552977
 23
2005.514149063331
 33
0.0
210
0.0
220
0.0
230
1.0
  0
SOLID
  5
37B
330
379
100
AcDbEntity
  8
HATCH
  6
CONTINUOUS
 62
   251
100
AcDbTrace
 10
4139.662807046368
 20
2005.514149063331
 30
0.0
 11
5143.287487552977
 21
2005.514149063331
 31
0.0
 12
4139.662807046368
 22
2105.51414906333
 32
0.0
 13
4139.662807046368
 23
2105.51414906333
 33
0.0
210
0.0
220
0.0
230
1.0
  0
SOLID
  5
37C
330
379
100
AcDbEntity
  8
HATCH
  6
CONTINUOUS
 62
   251
100
AcDbTrace
 10
5143.287487552975
 20
2005.514149063331
 30
0.0
 11
4139.662807046368
 21
2005.514149063331
 31
0.0
 12
5143.287487552976
 22
1905.514149063331
 32
0.0
 13
5143.287487552976
 23
1905.514149063331
 33
0.0
  0
SOLID
  5
37D
330
379
100
AcDbEntity
  8
HATCH
  6
CONTINUOUS
 62
   251
100
AcDbTrace
 10
4139.662807046369
 20
1905.514149063331
 30
0.0
 11
5143.287487552976
 21
1905.514149063331
 31
0.0
 12
4139.662807046368
 22
2005.514149063331
 32
0.0
 13
4139.662807046368
 23
2005.514149063331
 33
0.0
  0
ENDBLK
  5
37F
330
379
100
AcDbEntity
  8
0
100
AcDbBlockEnd
  0
BLOCK
  5
38F
330
380
100
AcDbEntity
  8
0
100
AcDbBlockBegin
  2
*U5
 70
     1
 10
0.0
 20
0.0
 30
0.0
  3
*U5
  1

  0
SOLID
  5
381
330
380
100
AcDbEntity
  8
HATCH
  6
CONTINUOUS
 62
   251
100
AcDbTrace
 10
4098.698528914307
 20
2393.701199356812
 30
0.0
 11
4098.698528914307
 21
2512.424038136176
 31
0.0
 12
3529.295153145659
 22
2393.701199356812
 32
0.0
 13
3529.295153145659
 23
2393.701199356812
 33
0.0
210
0.0
220
0.0
230
1.0
  0
SOLID
  5
382
330
380
100
AcDbEntity
  8
HATCH
  6
CONTINUOUS
 62
   251
100
AcDbTrace
 10
3529.295153145659
 20
2512.424038136177
 30
0.0
 11
3529.295153145659
 21
2393.701199356812
 31
0.0
 12
4098.698528914307
 22
2512.424038136176
 32
0.0
 13
4098.698528914307
 23
2512.424038136176
 33
0.0
  0
SOLID
  5
383
330
380
100
AcDbEntity
  8
HATCH
  6
CONTINUOUS
 62
   251
100
AcDbTrace
 10
4098.698528914307
 20
1617.327098769854
 30
0.0
 11
4098.698528914307
 21
1719.67438246753
 31
0.0
 12
3971.709293450697
 22
1719.67438246753
 32
0.0
 13
3971.709293450697
 23
1719.67438246753
 33
0.0
210
0.0
220
0.0
230
1.0
  0
SOLID
  5
384
330
380
100
AcDbEntity
  8
HATCH
  6
CONTINUOUS
 62
   251
100
AcDbTrace
 10
3971.709293450697
 20
1719.67438246753
 30
0.0
 11
3971.709293450697
 21
1617.327098769853
 31
0.0
 12
4098.698528914307
 22
1617.327098769854
 32
0.0
 13
4098.698528914307
 23
1617.327098769854
 33
0.0
210
0.0
220
0.0
230
1.0
  0
SOLID
  5
385
330
380
100
AcDbEntity
  8
HATCH
  6
CONTINUOUS
 62
   251
100
AcDbTrace
 10
4098.698528914307
 20
2291.353915659132
 30
0.0
 11
4098.698528914307
 21
2393.701199356812
 31
0.0
 12
3971.709293450697
 22
2393.701199356812
 32
0.0
 13
3971.709293450697
 23
2393.701199356812
 33
0.0
210
0.0
220
0.0
230
1.0
  0
SOLID
  5
386
330
380
100
AcDbEntity
  8
HATCH
  6
CONTINUOUS
 62
   251
100
AcDbTrace
 10
3971.709293450697
 20
2393.701199356812
 30
0.0
 11
3971.709293450697
 21
2291.353915659132
 31
0.0
 12
4098.698528914307
 22
2291.353915659132
 32
0.0
 13
4098.698528914307
 23
2291.353915659132
 33
0.0
210
0.0
220
0.0
230
1.0
  0
SOLID
  5
387
330
380
100
AcDbEntity
  8
HATCH
  6
CONTINUOUS
 62
   251
100
AcDbTrace
 10
3529.295153145659
 20
1617.327098769853
 30
0.0
 11
3529.295153145659
 21
1498.604259990487
 31
0.0
 12
4098.698528914308
 22
1498.604259990487
 32
0.0
 13
4098.698528914308
 23
1498.604259990487
 33
0.0
210
0.0
220
0.0
230
1.0
  0
SOLID
  5
388
330
380
100
AcDbEntity
  8
HATCH
  6
CONTINUOUS
 62
   251
100
AcDbTrace
 10
4098.698528914308
 20
1617.327098769854
 30
0.0
 11
3529.295153145659
 21
1617.327098769853
 31
0.0
 12
4098.698528914308
 22
1498.604259990487
 32
0.0
 13
4098.698528914308
 23
1498.604259990487
 33
0.0
210
0.0
220
0.0
230
1.0
  0
SOLID
  5
389
330
380
100
AcDbEntity
  8
HATCH
  6
CONTINUOUS
 62
   251
100
AcDbTrace
 10
5477.146305852553
 20
1494.510368642578
 30
0.0
 11
5477.146305852554
 21
2516.517929484085
 31
0.0
 12
5196.541035751767
 22
2516.517929484085
 32
0.0
 13
5196.541035751767
 23
2516.517929484085
 33
0.0
210
0.0
220
0.0
230
1.0
  0
SOLID
  5
38A
330
380
100
AcDbEntity
  8
HATCH
  6
CONTINUOUS
 62
   251
100
AcDbTrace
 10
5196.541035751767
 20
2516.517929484085
 30
0.0
 11
5196.541035751767
 21
1494.510368642578
 31
0.0
 12
5477.146305852553
 22
1494.510368642578
 32
0.0
 13
5477.146305852553
 23
1494.510368642578
 33
0.0
210
0.0
220
0.0
230
1.0
  0
SOLID
  5
38B
330
380
100
AcDbEntity
  8
HATCH
  6
CONTINUOUS
 62
   251
100
AcDbTrace
 10
5477.146305852553
 20
1494.510368642578
 30
0.0
 11
5757.751575953339
 21
1494.510368642579
 31
0.0
 12
5477.146305852553
 22
2516.517929484085
 32
0.0
 13
5477.146305852553
 23
2516.517929484085
 33
0.0
210
0.0
220
0.0
230
1.0
  0
SOLID
  5
38C
330
380
100
AcDbEntity
  8
HATCH
  6
CONTINUOUS
 62
   251
100
AcDbTrace
 10
5757.751575953339
 20
1568.200412904906
 30
0.0
 11
5477.146305852553
 21
2516.517929484085
 31
0.0
 12
5757.751575953339
 22
1494.510368642579
 32
0.0
 13
5757.751575953339
 23
1494.510368642579
 33
0.0
210
0.0
220
0.0
230
1.0
  0
SOLID
  5
38D
330
380
100
AcDbEntity
  8
HATCH
  6
CONTINUOUS
 62
   251
100
AcDbTrace
 10
5477.146305852553
 20
2516.517929484085
 30
0.0
 11
5757.751575953339
 21
1568.200412904906
 31
0.0
 12
5757.751575953339
 22
2516.517929484085
 32
0.0
 13
5757.751575953339
 23
2516.517929484085
 33
0.0
210
0.0
220
0.0
230
1.0
  0
SOLID
  5
38E
330
380
100
AcDbEntity
  8
HATCH
  6
CONTINUOUS
 62
   251
100
AcDbTrace
 10
5757.751575953339
 20
2442.827885221757
 30
0.0
 11
5757.751575953339
 21
2516.517929484085
 31
0.0
 12
5757.751575953339
 22
1568.200412904906
 32
0.0
 13
5757.751575953339
 23
1568.200412904906
 33
0.0
210
0.0
220
0.0
230
1.0
  0
ENDBLK
  5
390
330
380
100
AcDbEntity
  8
0
100
AcDbBlockEnd
  0
BLOCK
  5
39E
330
391
100
AcDbEntity
  8
0
100
AcDbBlockBegin
  2
*U6
 70
     1
 10
0.0
 20
0.0
 30
0.0
  3
*U6
  1

  0
SOLID
  5
392
330
391
100
AcDbEntity
  8
HATCH
  6
CONTINUOUS
 62
     5
100
AcDbTrace
 10
4139.662807046367
 20
1445.383672467695
 30
0.0
 11
4098.698528914307
 21
1396.25698660275
 31
0.0
 12
4139.662807046367
 22
1396.25698660275
 32
0.0
 13
4139.662807046367
 23
1396.25698660275
 33
0.0
210
0.0
220
0.0
230
1.0
  0
SOLID
  5
393
330
391
100
AcDbEntity
  8
HATCH
  6
CONTINUOUS
 62
     5
100
AcDbTrace
 10
5143.287487552976
 20
1445.383672467695
 30
0.0
 11
5143.287487552976
 21
1392.163095254842
 31
0.0
 12
5196.541035751767
 22
1392.163095254841
 32
0.0
 13
5196.541035751767
 23
1392.163095254841
 33
0.0
210
0.0
220
0.0
230
1.0
  0
SOLID
  5
394
330
391
100
AcDbEntity
  8
HATCH
  6
CONTINUOUS
 62
     5
100
AcDbTrace
 10
5196.541035751767
 20
1494.510368642579
 30
0.0
 11
5143.287487552976
 21
1445.383672467695
 31
0.0
 12
5196.541035751767
 22
1392.163095254841
 32
0.0
 13
5196.541035751767
 23
1392.163095254841
 33
0.0
210
0.0
220
0.0
230
1.0
  0
SOLID
  5
395
330
391
100
AcDbEntity
  8
HATCH
  6
CONTINUOUS
 62
     5
100
AcDbTrace
 10
4098.698528914307
 20
1498.604259990487
 30
0.0
 11
4098.698528914307
 21
1396.25698660275
 31
0.0
 12
4139.662807046367
 22
1445.383672467695
 32
0.0
 13
4139.662807046367
 23
1445.383672467695
 33
0.0
210
0.0
220
0.0
230
1.0
  0
SOLID
  5
396
330
391
100
AcDbEntity
  8
HATCH
  6
CONTINUOUS
 62
     5
100
AcDbTrace
 10
4098.698528914307
 20
2512.424038136177
 30
0.0
 11
4098.698528914307
 21
1498.604259990487
 31
0.0
 12
4139.662807046367
 22
1445.383672467695
 32
0.0
 13
4139.662807046367
 23
1445.383672467695
 33
0.0
210
0.0
220
0.0
230
1.0
  0
SOLID
  5
397
330
391
100
AcDbEntity
  8
HATCH
  6
CONTINUOUS
 62
     5
100
AcDbTrace
 10
5196.541035751767
 20
2516.517929484085
 30
0.0
 11
5143.287487552976
 21
1445.383672467695
 31
0.0
 12
5196.541035751767
 22
1494.510368642579
 32
0.0
 13
5196.541035751767
 23
1494.510368642579
 33
0.0
210
0.0
220
0.0
230
1.0
  0
SOLID
  5
398
330
391
100
AcDbEntity
  8
HATCH
  6
CONTINUOUS
 62
     5
100
AcDbTrace
 10
4139.662807046367
 20
2565.64462565897
 30
0.0
 11
4098.698528914307
 21
2512.424038136177
 31
0.0
 12
4139.662807046367
 22
1445.383672467695
 32
0.0
 13
4139.662807046367
 23
1445.383672467695
 33
0.0
210
0.0
220
0.0
230
1.0
  0
SOLID
  5
399
330
391
100
AcDbEntity
  8
HATCH
  6
CONTINUOUS
 62
     5
100
AcDbTrace
 10
5143.287487552976
 20
2565.64462565897
 30
0.0
 11
5143.287487552976
 21
1445.383672467695
 31
0.0
 12
5196.541035751767
 22
2516.517929484085
 32
0.0
 13
5196.541035751767
 23
2516.517929484085
 33
0.0
210
0.0
220
0.0
230
1.0
  0
SOLID
  5
39A
330
391
100
AcDbEntity
  8
HATCH
  6
CONTINUOUS
 62
     5
100
AcDbTrace
 10
4139.662807046367
 20
2565.64462565897
 30
0.0
 11
4139.662807046367
 21
2614.771311523915
 31
0.0
 12
4098.698528914307
 22
2614.771311523915
 32
0.0
 13
4098.698528914307
 23
2614.771311523915
 33
0.0
210
0.0
220
0.0
230
1.0
  0
SOLID
  5
39B
330
391
100
AcDbEntity
  8
HATCH
  6
CONTINUOUS
 62
     5
100
AcDbTrace
 10
4098.698528914307
 20
2614.771311523915
 30
0.0
 11
4098.698528914307
 21
2512.424038136177
 31
0.0
 12
4139.662807046367
 22
2565.64462565897
 32
0.0
 13
4139.662807046367
 23
2565.64462565897
 33
0.0
210
0.0
220
0.0
230
1.0
  0
SOLID
  5
39C
330
391
100
AcDbEntity
  8
HATCH
  6
CONTINUOUS
 62
     5
100
AcDbTrace
 10
5143.287487552976
 20
2565.64462565897
 30
0.0
 11
5196.541035751766
 21
2618.865202871822
 31
0.0
 12
5143.287487552976
 22
2618.865202871822
 32
0.0
 13
5143.287487552976
 23
2618.865202871822
 33
0.0
210
0.0
220
0.0
230
1.0
  0
SOLID
  5
39D
330
391
100
AcDbEntity
  8
HATCH
  6
CONTINUOUS
 62
     5
100
AcDbTrace
 10
5196.541035751766
 20
2618.865202871822
 30
0.0
 11
5143.287487552976
 21
2565.64462565897
 31
0.0
 12
5196.541035751767
 22
2516.517929484085
 32
0.0
 13
5196.541035751767
 23
2516.517929484085
 33
0.0
210
0.0
220
0.0
230
1.0
  0
ENDBLK
  5
39F
330
391
100
AcDbEntity
  8
0
100
AcDbBlockEnd
  0
BLOCK
  5
3A5
330
3A0
100
AcDbEntity
  8
0
100
AcDbBlockBegin
  2
*U7
 70
     1
 10
0.0
 20
0.0
 30
0.0
  3
*U7
  1

  0
SOLID
  5
3A1
330
3A0
100
AcDbEntity
  8
HATCH
  6
CONTINUOUS
 62
     1
100
AcDbTrace
 10
5143.287487552976
 20
1905.51414906333
 30
0.0
 11
4139.662807046367
 21
1445.383672467695
 31
0.0
 12
5143.287487552975
 22
1445.383672467695
 32
0.0
 13
5143.287487552975
 23
1445.383672467695
 33
0.0
210
0.0
220
0.0
230
1.0
  0
SOLID
  5
3A2
330
3A0
100
AcDbEntity
  8
HATCH
  6
CONTINUOUS
 62
     1
100
AcDbTrace
 10
4139.662807046367
 20
1905.514149063331
 30
0.0
 11
4139.662807046367
 21
1445.383672467695
 31
0.0
 12
5143.287487552976
 22
1905.51414906333
 32
0.0
 13
5143.287487552976
 23
1905.51414906333
 33
0.0
210
0.0
220
0.0
230
1.0
  0
SOLID
  5
3A3
330
3A0
100
AcDbEntity
  8
HATCH
  6
CONTINUOUS
 62
     1
100
AcDbTrace
 10
5143.287487552976
 20
2565.64462565897
 30
0.0
 11
4139.662807046367
 21
2105.51414906333
 31
0.0
 12
5143.287487552977
 22
2105.51414906333
 32
0.0
 13
5143.287487552977
 23
2105.51414906333
 33
0.0
210
0.0
220
0.0
230
1.0
  0
SOLID
  5
3A4
330
3A0
100
AcDbEntity
  8
HATCH
  6
CONTINUOUS
 62
     1
100
AcDbTrace
 10
4139.662807046367
 20
2565.64462565897
 30
0.0
 11
4139.662807046367
 21
2105.51414906333
 31
0.0
 12
5143.287487552976
 22
2565.64462565897
 32
0.0
 13
5143.287487552976
 23
2565.64462565897
 33
0.0
210
0.0
220
0.0
230
1.0
  0
ENDBLK
  5
3A6
330
3A0
100
AcDbEntity
  8
0
100
AcDbBlockEnd
  0
BLOCK
  5
3B3
330
3A7
100
AcDbEntity
  8
0
100
AcDbBlockBegin
  2
*U8
 70
     1
 10
0.0
 20
0.0
 30
0.0
  3
*U8
  1

  0
SOLID
  5
3A8
330
3A7
100
AcDbEntity
  8
HATCH
  6
CONTINUOUS
 62
     2
100
AcDbTrace
 10
4098.698528914307
 20
2238.133338446281
 30
0.0
 11
4098.698528914307
 21
2291.353915659132
 31
0.0
 12
2255.306280429338
 22
2238.133338446281
 32
0.0
 13
2255.306280429338
 23
2238.133338446281
 33
0.0
210
0.0
220
0.0
230
1.0
  0
SOLID
  5
3A9
330
3A7
100
AcDbEntity
  8
HATCH
  6
CONTINUOUS
 62
     2
100
AcDbTrace
 10
2255.306280429338
 20
2291.353915659132
 30
0.0
 11
2255.306280429338
 21
2238.133338446281
 31
0.0
 12
4098.698528914307
 22
2291.353915659132
 32
0.0
 13
4098.698528914307
 23
2291.353915659132
 33
0.0
210
0.0
220
0.0
230
1.0
  0
SOLID
  5
3AA
330
3A7
100
AcDbEntity
  8
HATCH
  6
CONTINUOUS
 62
     2
100
AcDbTrace
 10
2382.295515892948
 20
1826.115547203175
 30
0.0
 11
2353.620524543727
 21
1772.894959680383
 31
0.0
 12
4098.698528914307
 22
1772.894959680383
 32
0.0
 13
4098.698528914307
 23
1772.894959680383
 33
0.0
  0
SOLID
  5
3AB
330
3A7
100
AcDbEntity
  8
HATCH
  6
CONTINUOUS
 62
     2
100
AcDbTrace
 10
2451.934785374232
 20
1891.617808769688
 30
0.0
 11
2382.295515892948
 21
1826.115547203175
 31
0.0
 12
4098.698528914307
 22
1772.894959680383
 32
0.0
 13
4098.698528914307
 23
1772.894959680383
 33
0.0
210
0.0
220
0.0
230
1.0
  0
SOLID
  5
3AC
330
3A7
100
AcDbEntity
  8
HATCH
  6
CONTINUOUS
 62
     2
100
AcDbTrace
 10
2451.934785374232
 20
2002.152864853239
 30
0.0
 11
2451.934785374232
 21
1891.617808769688
 31
0.0
 12
4098.698528914307
 22
1772.894959680383
 32
0.0
 13
4098.698528914307
 23
1772.894959680383
 33
0.0
210
0.0
220
0.0
230
1.0
  0
SOLID
  5
3AD
330
3A7
100
AcDbEntity
  8
HATCH
  6
CONTINUOUS
 62
     2
100
AcDbTrace
 10
2451.934785374232
 20
2119.410489356976
 30
0.0
 11
2451.934785374232
 21
2002.152864853239
 31
0.0
 12
4098.698528914307
 22
1772.894959680383
 32
0.0
 13
4098.698528914307
 23
1772.894959680383
 33
0.0
210
0.0
220
0.0
230
1.0
  0
SOLID
  5
3AE
330
3A7
100
AcDbEntity
  8
HATCH
  6
CONTINUOUS
 62
     2
100
AcDbTrace
 10
2382.295515892946
 20
2184.912750923487
 30
0.0
 11
2451.934785374232
 21
2119.410489356976
 31
0.0
 12
4098.698528914307
 22
1772.894959680383
 32
0.0
 13
4098.698528914307
 23
1772.894959680383
 33
0.0
210
0.0
220
0.0
230
1.0
  0
SOLID
  5
3AF
330
3A7
100
AcDbEntity
  8
HATCH
  6
CONTINUOUS
 62
     2
100
AcDbTrace
 10
2382.295515892946
 20
2184.912750923487
 30
0.0
 11
4098.698528914307
 21
2238.133338446281
 31
0.0
 12
2353.620524543727
 22
2238.133338446281
 32
0.0
 13
2353.620524543727
 23
2238.133338446281
 33
0.0
  0
SOLID
  5
3B0
330
3A7
100
AcDbEntity
  8
HATCH
  6
CONTINUOUS
 62
     2
100
AcDbTrace
 10
4098.698528914307
 20
2238.133338446281
 30
0.0
 11
2382.295515892946
 21
2184.912750923487
 31
0.0
 12
4098.698528914307
 22
1772.894959680383
 32
0.0
 13
4098.698528914307
 23
1772.894959680383
 33
0.0
210
0.0
220
0.0
230
1.0
  0
SOLID
  5
3B1
330
3A7
100
AcDbEntity
  8
HATCH
  6
CONTINUOUS
 62
     2
100
AcDbTrace
 10
2255.306280429338
 20
1772.894959680383
 30
0.0
 11
2255.306280429338
 21
1719.67438246753
 31
0.0
 12
4098.698528914307
 22
1772.894959680383
 32
0.0
 13
4098.698528914307
 23
1772.894959680383
 33
0.0
210
0.0
220
0.0
230
1.0
  0
SOLID
  5
3B2
330
3A7
100
AcDbEntity
  8
HATCH
  6
CONTINUOUS
 62
     2
100
AcDbTrace
 10
4098.698528914307
 20
1719.67438246753
 30
0.0
 11
4098.698528914307
 21
1772.894959680383
 31
0.0
 12
2255.306280429338
 22
1719.67438246753
 32
0.0
 13
2255.306280429338
 23
1719.67438246753
 33
0.0
210
0.0
220
0.0
230
1.0
  0
ENDBLK
  5
3B4
330
3A7
100
AcDbEntity
  8
0
100
AcDbBlockEnd
  0
ENDSEC
  0
SECTION
  2
ENTITIES
  0
MTEXT
  5
173
330
1F
100
AcDbEntity
  8
TEKST
100
AcDbMText
 10
4188.39945332431
 20
3471.578075357133
 30
0.0
 40
100.0
 41
1409.092439085732
 71
     1
 72
     1
  1
{\FIMPACT.TTF;Hoogte: 270 cm\PMax. valhoogte: 90 cm}
1001
ACAD
1000
MTEXTBEGIN
1070
    73
1070
     1
1070
    44
1040
1.0
1070
    74
1070
     0
1000
MTEXTEND
1000
MTEXTBEGIN
1070
    73
1070
     1
1070
    44
1040
1.0
1070
    74
1070
     0
1000
MTEXTEND
  0
INSERT
  5
357
330
1F
100
AcDbEntity
  8
OBJECT
100
AcDbBlockReference
  2
ADKB
 10
0.0
 20
0.0
 30
0.0
  0
ENDSEC
  0
SECTION
  2
OBJECTS
  0
DICTIONARY
  5
C
330
0
100
AcDbDictionary
  3
ACAD_GROUP
350
D
  3
ACAD_LAYOUT
350
1A
  3
ACAD_MLINESTYLE
350
17
  3
ACAD_PLOTSETTINGS
350
19
1001
ACAD
1000
TREAT_AS_HARD
1070
     0
1000
TREAT_AS_HARD
1070
     0
  0
DICTIONARY
  5
F8
330
1F
100
AcDbDictionary
  3
ACAD_LAYOUTSELFREF
350
359
  3
ACAD_SORTENTS
350
1EE
1001
ACAD
1000
TREAT_AS_HARD
1070
     1
1000
TREAT_AS_HARD
1070
     0
  0
DICTIONARY
  5
FA
330
50
100
AcDbDictionary
  3
ACAD_LAYOUTSELFREF
350
35A
1001
ACAD
1000
TREAT_AS_HARD
1070
     1
1000
TREAT_AS_HARD
1070
     0
  0
DICTIONARY
  5
D
102
{ACAD_REACTORS
330
C
102
}
330
C
100
AcDbDictionary
1001
ACAD
1000
TREAT_AS_HARD
1070
     0
1000
TREAT_AS_HARD
1070
     0
  0
DICTIONARY
  5
1A
102
{ACAD_REACTORS
330
C
102
}
330
C
100
AcDbDictionary
1001
ACAD
1000
TREAT_AS_HARD
1070
     0
1000
TREAT_AS_HARD
1070
     0
  0
DICTIONARY
  5
17
102
{ACAD_REACTORS
330
C
102
}
330
C
100
AcDbDictionary
  3
STANDARD
350
18
1001
ACAD
1000
TREAT_AS_HARD
1070
     0
1000
TREAT_AS_HARD
1070
     0
  0
DICTIONARY
  5
19
102
{ACAD_REACTORS
330
C
102
}
330
C
100
AcDbDictionary
1001
ACAD
1000
TREAT_AS_HARD
1070
     0
1000
TREAT_AS_HARD
1070
     0
  0
XRECORD
  5
359
102
{ACAD_REACTORS
330
F8
102
}
330
F8
100
AcDbXrecord
340
1F
  0
SORTENTSTABLE
  5
1EE
102
{ACAD_REACTORS
330
F8
102
}
330
F8
100
AcDbSortentsTable
330
1F
331
2FA
  5
2FB
331
2D8
  5
2D9
331
2E9
  5
2EA
331
1C6
  5
1F8
331
1A4
  5
1AB
331
1B5
  5
1BC
331
193
  5
19A
331
2F8
  5
2F9
331
309
  5
314
331
2E7
  5
2E8
331
1C4
  5
1CA
331
1A2
  5
1A9
331
2D6
  5
2D7
331
1B3
  5
1BA
331
307
  5
308
331
2E5
  5
2E6
331
1C2
  5
1C8
331
1A0
  5
1A7
331
20A
  5
195
331
2F6
  5
2F7
331
2D4
  5
2D5
331
1B1
  5
1B8
331
305
  5
306
331
2E3
  5
2E4
331
1C0
  5
1C6
331
19E
  5
1A5
331
2F4
  5
2F5
331
1AF
  5
1B6
331
303
  5
304
331
2E1
  5
2E2
331
1BE
  5
1C4
331
19C
  5
1A3
331
2F2
  5
2F3
331
314
  5
173
331
1AD
  5
1B4
331
301
  5
302
331
2DF
  5
2E0
331
1BC
  5
1C3
331
19A
  5
1A1
331
2F0
  5
2F1
331
1AB
  5
1B2
331
2FF
  5
300
331
2DD
  5
2DE
331
1BA
  5
1C1
331
198
  5
19F
331
2EE
  5
2EF
331
1A9
  5
1B0
331
2FD
  5
2FE
331
2DB
  5
2DC
331
1B8
  5
1BF
331
2EC
  5
2ED
331
1C9
  5
253
331
1A7
  5
1AE
331
196
  5
19D
331
2FB
  5
2FC
331
2D9
  5
2DA
331
1ED
  5
197
331
2EA
  5
2EB
331
1C7
  5
20A
331
1A5
  5
1AC
331
248
  5
194
331
1B6
  5
1BD
331
194
  5
19B
331
2F9
  5
2FA
331
2E8
  5
2E9
331
1C5
  5
1ED
331
1A3
  5
1AA
331
2D7
  5
2D8
331
1B4
  5
1BB
331
192
  5
199
331
308
  5
309
331
2E6
  5
2E7
331
1C3
  5
1C9
331
1A1
  5
1A8
331
2F7
  5
2F8
331
2D5
  5
2D6
331
1B2
  5
1B9
331
306
  5
307
331
2E4
  5
2E5
331
1C1
  5
1C7
331
19F
  5
1A6
331
2F5
  5
2F6
331
2D3
  5
2D4
331
1B0
  5
1B7
331
253
  5
192
331
1F8
  5
196
331
304
  5
305
331
2E2
  5
2E3
331
1BF
  5
1C5
331
19D
  5
1A4
331
2F3
  5
2F4
331
1AE
  5
1B5
331
19B
  5
1A2
331
302
  5
303
331
2E0
  5
2E1
331
1BD
  5
193
331
2F1
  5
2F2
331
1AC
  5
1B3
331
300
  5
301
331
2DE
  5
2DF
331
1BB
  5
1C2
331
199
  5
1A0
331
2EF
  5
2F0
331
1AA
  5
1B1
331
2FE
  5
2FF
331
2DC
  5
2DD
331
1B9
  5
1C0
331
2ED
  5
2EE
331
1CA
  5
2D3
331
1A8
  5
1AF
331
197
  5
19E
331
2DA
  5
2DB
331
2FC
  5
2FD
331
173
  5
198
331
2EB
  5
2EC
331
1C8
  5
248
331
1A6
  5
1AD
331
1B7
  5
1BE
331
195
  5
19C
  0
XRECORD
  5
35A
102
{ACAD_REACTORS
330
FA
102
}
330
FA
100
AcDbXrecord
340
50
  0
MLINESTYLE
  5
18
102
{ACAD_REACTORS
330
17
102
}
330
17
100
AcDbMlineStyle
  2
STANDARD
 70
     0
  3

 62
   256
 51
90.0
 52
90.0
 71
     2
 49
0.5
 62
   256
  6
BYLAYER
 49
-0.5
 62
   256
  6
BYLAYER
  0
ENDSEC
  0
EOF
